  0
SECTION
  2
HEADER
  9
$EXTMIN
 10
-210.0
 20
-148.5
  9
$EXTMAX
 10
210.0
 20
148.5
  9
$PDMODE
 70
    32
  9
$PDSIZE
 40
1.5
  9
$LTSCALE
 40
10.0
  0
ENDSEC
  0
SECTION
  2
TABLES
  0
TABLE
  2
LTYPE
 70
    15
  0
LTYPE
  2
CONTINUOUS
 70
    64
  3
実線
 72
    65
 73
     0
 40
0.0
  0
LTYPE
  2
DASHED
 70
    64
  3
破線A
 72
    65
 73
     2
 40
0.6
 49
0.4
 49
-0.2
  0
LTYPE
  2
DASHEDX2
 70
    64
  3
破線B
 72
    65
 73
     2
 40
1.3
 49
0.9
 49
-0.4
  0
LTYPE
  2
DASHDOT
 70
    64
  3
１点鎖線A
 72
    65
 73
     4
 40
0.5375
 49
0.375
 49
-0.05
 49
0.0625
 49
-0.05
  0
LTYPE
  2
DASHDOTX2
 70
    64
  3
１点鎖線B
 72
    65
 73
     4
 40
1.075
 49
0.75
 49
-0.1
 49
0.125
 49
-0.1
  0
LTYPE
  2
DIVIDE2
 70
    64
  3
２点鎖線A
 72
    65
 73
     6
 40
0.5125
 49
0.3
 49
-0.0375
 49
0.05
 49
-0.0375
 49
0.05
 49
-0.0375
  0
LTYPE
  2
DIVIDE
 70
    64
  3
２点鎖線B
 72
    65
 73
     6
 40
1.05
 49
0.55
 49
-0.1
 49
0.1
 49
-0.1
 49
0.1
 49
-0.1
  0
LTYPE
  2
DOT
 70
    64
  3
点線A
 72
    65
 73
     2
 40
0.1125
 49
0.0625
 49
-0.05
  0
LTYPE
  2
DOTX2
 70
    64
  3
点線B
 72
    65
 73
     2
 40
0.275
 49
0.15
 49
-0.125
  0
LTYPE
  2
CONTINUOUS
 70
    64
  3
実線
 72
    65
 73
     0
 40
0.0
  0
LTYPE
  2
CONTINUOUS
 70
    64
  3
実線
 72
    65
 73
     0
 40
0.0
  0
LTYPE
  2
CONTINUOUS
 70
    64
  3
実線
 72
    65
 73
     0
 40
0.0
  0
LTYPE
  2
CONTINUOUS
 70
    64
  3
実線
 72
    65
 73
     0
 40
0.0
  0
LTYPE
  2
CONTINUOUS
 70
    64
  3
実線
 72
    65
 73
     0
 40
0.0
  0
LTYPE
  2
CONTINUOUS
 70
    64
  3
実線
 72
    65
 73
     0
 40
0.0
  0
ENDTAB
  0
TABLE
  2
LAYER
 70
    34
  0
LAYER
  2
通り芯
 70
     0
 62
    15
  6
CONTINUOUS
  0
LAYER
  2
補助線
 70
     0
 62
    16
  6
DOT
  0
LAYER
  2
躯体
 70
     0
 62
    31
  6
CONTINUOUS
  0
LAYER
  2
型材
 70
     0
 62
    32
  6
CONTINUOUS
  0
LAYER
  2
型材断面
 70
     0
 62
    47
  6
CONTINUOUS
  0
LAYER
  2
ガラス
 70
     0
 62
    48
  6
CONTINUOUS
  0
LAYER
  2
ゴム等
 70
     0
 62
    63
  6
CONTINUOUS
  0
LAYER
  2
ボルト／ビス
 70
     0
 62
    64
  6
CONTINUOUS
  0
LAYER
  2
文字
 70
     0
 62
    79
  6
CONTINUOUS
  0
LAYER
  2
寸法
 70
     0
 62
    80
  6
CONTINUOUS
  0
LAYER
  2
ﾊｯﾁﾝｸﾞ
 70
     0
 62
    95
  6
CONTINUOUS
  0
LAYER
  2
別途部材
 70
     0
 62
    96
  6
CONTINUOUS
  0
LAYER
  2
曲げ物
 70
     0
 62
   111
  6
CONTINUOUS
  0
LAYER
  2
鉄骨等
 70
     0
 62
   112
  6
CONTINUOUS
  0
LAYER
  2
St
 70
     0
 62
   127
  6
CONTINUOUS
  0
LAYER
  2
その他部品等
 70
     0
 62
   128
  6
CONTINUOUS
  0
LAYER
  2
ｶﾞｽｹｯﾄ
 70
     0
 62
   143
  6
CONTINUOUS
  0
LAYER
  2
ｽｹｯﾁ
 70
     0
 62
    14
  6
CONTINUOUS
  0
LAYER
  2
0
 70
     0
 62
    17
  6
CONTINUOUS
  0
LAYER
  2
1
 70
     0
 62
    30
  6
CONTINUOUS
  0
LAYER
  2
4
 70
     0
 62
    33
  6
CONTINUOUS
  0
LAYER
  2
ﾚｲﾔ3
 70
     0
 62
    46
  6
CONTINUOUS
  0
LAYER
  2
外形線
 70
     0
 62
    49
  6
CONTINUOUS
  0
LAYER
  2
部品
 70
     0
 62
    14
  6
CONTINUOUS
  0
LAYER
  2
サッシ芯
 70
     0
 62
    17
  6
DASHDOTX2
  0
LAYER
  2
寸法線
 70
     0
 62
    62
  6
CONTINUOUS
  0
LAYER
  2
姿図外形線
 70
     0
 62
    65
  6
CONTINUOUS
  0
LAYER
  2
姿補助線
 70
     0
 62
    30
  6
CONTINUOUS
  0
LAYER
  2
透視線
 70
     0
 62
    78
  6
DOT
  0
LAYER
  2
用紙
 70
     0
 62
    81
  6
CONTINUOUS
  0
LAYER
  2
実線図枠
 70
     0
 62
    94
  6
CONTINUOUS
  0
LAYER
  2
補助図枠
 70
     0
 62
    97
  6
CONTINUOUS
  0
LAYER
  2
建具記号
 70
     0
 62
   110
  6
CONTINUOUS
  0
LAYER
  2
補助文字
 70
     0
 62
   113
  6
CONTINUOUS
  0
ENDTAB
  0
TABLE
  2
STYLE
 70
    10
  0
STYLE
  2
STANDARD
 70
     0
 40
1.0
 41
1.0
 42
1.0
 50
0.0
 71
     0
  3
TXT
  4
BIGFONT
  0
STYLE
  2
TATE
 70
     4
 40
1.0
 41
1.0
 42
1.0
 50
0.0
 71
     0
  3
TXT
  4
BIGFONT
  0
STYLE
  2
TextStyle03
 70
     0
 40
1.0
 41
1.0
 42
1.0
 50
0.0
 71
     0
  3
MONOTXT
  4
BIGFONT
  0
STYLE
  2
TextStyle04
 70
     0
 40
1.0
 41
1.0
 42
1.0
 50
0.0
 71
     0
  3
MONOTXT
  4
BIGFONT
  0
STYLE
  2
TextStyle05
 70
     0
 40
1.0
 41
1.0
 42
1.0
 50
0.0
 71
     0
  3
MONOTXT
  4
BIGFONT
  0
STYLE
  2
TextStyle06
 70
     0
 40
1.0
 41
1.0
 42
1.0
 50
0.0
 71
     0
  3
MONOTXT
  4
BIGFONT
  0
STYLE
  2
TextStyle07
 70
     0
 40
1.0
 41
1.0
 42
1.0
 50
0.0
 71
     0
  3
MONOTXT
  4
BIGFONT
  0
STYLE
  2
TextStyle08
 70
     0
 40
1.0
 41
1.0
 42
1.0
 50
0.0
 71
     0
  3
MONOTXT
  4
BIGFONT
  0
STYLE
  2
TextStyle09
 70
     0
 40
1.0
 41
1.0
 42
1.0
 50
0.0
 71
     0
  3
MONOTXT
  4
BIGFONT
  0
STYLE
  2
TextStyle10
 70
     0
 40
1.0
 41
1.0
 42
1.0
 50
0.0
 71
     0
  3
MONOTXT
  4
BIGFONT
  0
ENDTAB
  0
ENDSEC
  0
SECTION
  2
BLOCKS
  0
BLOCK
  2
*GRP_0001
 70
    65
 10
0.0
 20
0.0
  0
LINE
  8
型材断面
  6
CONTINUOUS
 10
195.0
 20
133.5
 11
195.0
 21
-133.5
  0
LINE
  8
型材断面
  6
CONTINUOUS
 10
195.0
 20
-133.5
 11
-185.0
 21
-133.5
  0
LINE
  8
型材断面
  6
CONTINUOUS
 10
-185.0
 20
-133.5
 11
-185.0
 21
133.5
  0
LINE
  8
型材断面
  6
CONTINUOUS
 10
195.0
 20
133.5
 11
-185.0
 21
133.5
  0
LINE
  8
型材断面
  6
CONTINUOUS
 10
145.0
 20
-133.5
 11
145.0
 21
-118.5
  0
LINE
  8
型材断面
  6
CONTINUOUS
 10
195.0
 20
-118.5
 11
145.0
 21
-118.5
  0
ENDBLK
  0
BLOCK
  2
*DIM_0002
 70
    65
 10
0.0
 20
0.0
  0
LINE
  8
寸法
  6
CONTINUOUS
 10
153.804085
 20
28.262
 11
153.804085
 21
19.319045
  0
LINE
  8
寸法
  6
CONTINUOUS
 10
147.30385
 20
30.328695
 11
147.30385
 21
19.319045
  0
LINE
  8
寸法
  6
CONTINUOUS
 10
153.804085
 20
19.319045
 11
147.30385
 21
19.319045
  0
POINT
  8
寸法
 10
153.804085
 20
19.319045
  0
POINT
  8
寸法
 10
147.30385
 20
19.319045
  0
TEXT
  7
TextStyle03
  8
寸法
  6
CONTINUOUS
 10
148.0875
 20
19.675
  1
195
 40
3.0
 72
     5
 11
152.9625
 21
19.675
  0
ENDBLK
  0
BLOCK
  2
*DIM_0003
 70
    65
 10
0.0
 20
0.0
  0
LINE
  8
寸法
  6
CONTINUOUS
 10
138.970515
 20
46.995365
 11
138.970515
 21
19.319045
  0
LINE
  8
寸法
  6
CONTINUOUS
 10
147.30385
 20
19.319045
 11
138.970515
 21
19.319045
  0
POINT
  8
寸法
 10
138.970515
 20
19.319045
  0
TEXT
  7
TextStyle03
  8
寸法
  6
CONTINUOUS
 10
140.6875
 20
19.675
  1
250
 40
3.0
 72
     5
 11
145.5625
 21
19.675
  0
ENDBLK
  0
BLOCK
  2
*GRP_0004
 70
    65
 10
0.0
 20
0.0
  0
LINE
  8
別途部材
  6
CONTINUOUS
 62
    96
 10
152.587292
 20
68.628908
 11
152.587292
 21
68.528908
  0
LINE
  8
別途部材
  6
CONTINUOUS
 62
    96
 10
150.486212
 20
68.728908
 11
150.555885
 21
70.059713
  0
LINE
  8
別途部材
  6
CONTINUOUS
 62
    96
 10
151.10396
 20
70.068908
 11
150.987292
 21
70.335575
  0
LINE
  8
別途部材
  6
CONTINUOUS
 62
    96
 10
151.00396
 20
70.04799
 11
150.93644
 21
70.202325
  0
LINE
  8
別途部材
  6
CONTINUOUS
 62
    96
 10
150.457115
 20
70.08583
 11
150.587565
 21
70.34603
  0
LINE
  8
別途部材
  6
CONTINUOUS
 62
    96
 10
150.555885
 20
70.059713
 11
150.688045
 21
70.323325
  0
LINE
  8
別途部材
  6
CONTINUOUS
 62
    96
 10
150.723647
 20
70.258442
 11
150.66
 21
70.181313
  0
LINE
  8
別途部材
  6
DASHDOTX2
 62
    96
 10
150.787292
 20
70.335575
 11
150.473807
 21
70.335575
  0
LINE
  8
別途部材
  6
DASHDOTX2
 62
    96
 10
150.787292
 20
70.335575
 11
151.117752
 21
70.335575
  0
LINE
  8
別途部材
  6
DASHDOTX2
 62
    96
 10
150.787292
 20
70.335575
 11
150.787292
 21
70.072103
  0
LINE
  8
別途部材
  6
DASHDOTX2
 62
    96
 10
150.787292
 20
70.335575
 11
150.787292
 21
70.613885
  0
LINE
  8
別途部材
  6
CONTINUOUS
 62
    96
 10
151.00396
 20
68.528908
 11
151.00396
 21
70.04799
  0
LINE
  8
別途部材
  6
CONTINUOUS
 62
    96
 10
151.10396
 20
68.628908
 11
151.10396
 21
70.068908
  0
LINE
  8
別途部材
  6
CONTINUOUS
 62
    96
 10
149.25288
 20
68.82891
 11
150.39131
 21
68.82891
  0
LINE
  8
別途部材
  6
CONTINUOUS
 62
    96
 10
149.25288
 20
68.728908
 11
149.25288
 21
68.82891
  0
LINE
  8
別途部材
  6
CONTINUOUS
 62
    96
 10
149.25288
 20
68.728908
 11
150.486212
 21
68.728908
  0
CIRCLE
  8
別途部材
  6
CONTINUOUS
 62
    96
 10
150.787292
 20
70.335575
 40
0.1
  0
ARC
  8
別途部材
  6
CONTINUOUS
 62
    96
 10
150.787288
 20
70.335576
 40
0.2
 50
218.780606
 51
537.001556
  0
LINE
  8
別途部材
  6
CONTINUOUS
 62
    96
 10
151.00396
 20
68.528908
 11
152.587292
 21
68.528908
  0
LINE
  8
別途部材
  6
CONTINUOUS
 62
    96
 10
151.10396
 20
68.628908
 11
152.587292
 21
68.628908
  0
LINE
  8
別途部材
  6
CONTINUOUS
 62
    96
 10
150.457115
 20
70.08583
 11
150.39131
 21
68.82891
  0
ENDBLK
  0
BLOCK
  2
*DIM_0005
 70
    65
 10
0.0
 20
0.0
  0
LINE
  8
寸法
  6
CONTINUOUS
 10
103.775028
 20
36.995363
 11
103.775028
 21
66.995363
  0
POINT
  8
寸法
 10
103.775028
 20
36.995363
  0
POINT
  8
寸法
 10
103.775028
 20
66.995363
  0
TEXT
  7
TextStyle03
  8
寸法
  6
CONTINUOUS
 10
103.4
 20
41.1
  1
呼称寸法　900
 40
3.0
 50
90.0
 72
     5
 11
103.4
 21
62.85
  0
ENDBLK
  0
BLOCK
  2
*DIM_0006
 70
    65
 10
0.0
 20
0.0
  0
LINE
  8
寸法
  6
CONTINUOUS
 10
98.775028
 20
36.995363
 11
103.4
 21
36.995363
  0
LINE
  8
寸法
  6
CONTINUOUS
 10
148.304085
 20
33.262
 11
103.4
 21
33.262
  0
LINE
  8
寸法
  6
CONTINUOUS
 10
103.4
 20
36.995363
 11
103.4
 21
33.262
  0
POINT
  8
寸法
 10
103.4
 20
36.995363
  0
POINT
  8
寸法
 10
103.4
 20
33.262
  0
TEXT
  7
TextStyle03
  8
寸法
  6
CONTINUOUS
 10
103.025
 20
27.6375
  1
112
 40
3.0
 50
90.0
 72
     5
 11
103.025
 21
32.5125
  0
ENDBLK
  0
BLOCK
  2
*DIM_0007
 70
    65
 10
0.0
 20
0.0
  0
LINE
  8
寸法
  6
CONTINUOUS
 10
148.304085
 20
70.728725
 11
103.775028
 21
70.728725
  0
LINE
  8
寸法
  6
CONTINUOUS
 10
103.775028
 20
66.995363
 11
103.775028
 21
70.728725
  0
POINT
  8
寸法
 10
103.775028
 20
66.995363
  0
POINT
  8
寸法
 10
103.775028
 20
70.728725
  0
TEXT
  7
TextStyle03
  8
寸法
  6
CONTINUOUS
 10
103.4
 20
71.4625
  1
112
 40
3.0
 50
90.0
 72
     5
 11
103.4
 21
76.3375
  0
ENDBLK
  0
BLOCK
  2
*DIM_0008
 70
    65
 10
0.0
 20
0.0
  0
LINE
  8
寸法
  6
CONTINUOUS
 10
27.349842
 20
-56.327663
 11
27.349842
 21
-31.074888
  0
LINE
  8
寸法
  6
CONTINUOUS
 10
23.61648
 20
-31.074888
 11
27.349842
 21
-31.074888
  0
POINT
  8
寸法
 10
23.61648
 20
-31.074888
  0
POINT
  8
寸法
 10
27.349842
 20
-31.074888
  0
TEXT
  7
TextStyle03
  8
寸法
  6
CONTINUOUS
 10
23.0375
 20
-30.7
  1
112
 40
3.0
 72
     5
 11
27.9125
 21
-30.7
  0
ENDBLK
  0
BLOCK
  2
*DIM_0009
 70
    65
 10
0.0
 20
0.0
  0
LINE
  8
寸法
  6
CONTINUOUS
 10
-113.450208
 20
-56.327663
 11
-113.450208
 21
-31.074888
  0
LINE
  8
寸法
  6
CONTINUOUS
 10
-109.716848
 20
-31.074888
 11
-113.450208
 21
-31.074888
  0
POINT
  8
寸法
 10
-109.716848
 20
-31.074888
  0
POINT
  8
寸法
 10
-113.450208
 20
-31.074888
  0
TEXT
  7
TextStyle03
  8
寸法
  6
CONTINUOUS
 10
-114.0375
 20
-30.7
  1
112
 40
3.0
 72
     5
 11
-109.1625
 21
-30.7
  0
ENDBLK
  0
BLOCK
  2
*DIM_0010
 70
    65
 10
0.0
 20
0.0
  0
LINE
  8
寸法
  6
CONTINUOUS
 10
-109.716848
 20
-31.074888
 11
23.61648
 21
-31.074888
  0
POINT
  8
寸法
 10
-109.716848
 20
-31.074888
  0
POINT
  8
寸法
 10
23.61648
 20
-31.074888
  0
TEXT
  7
TextStyle03
  8
寸法
  6
CONTINUOUS
 10
-54.79375
 20
-30.7
  1
呼称寸法　4000
 40
3.0
 72
     5
 11
-31.35625
 21
-30.7
  0
ENDBLK
  0
BLOCK
  2
*DIM_0011
 70
    65
 10
0.0
 20
0.0
  0
LINE
  8
寸法
  6
BYBLOCK
 62
     0
 10
-93.05018
 20
33.365232
 11
-93.05018
 21
28.314225
  0
LINE
  8
寸法
  6
BYBLOCK
 62
     0
 10
6.949815
 20
33.365232
 11
6.949815
 21
28.314225
  0
LINE
  8
寸法
  6
BYBLOCK
 62
     0
 10
-93.05018
 20
28.314225
 11
6.949815
 21
28.314225
  0
POINT
  8
寸法
 62
     0
 10
-93.05018
 20
28.314225
  0
POINT
  8
寸法
 62
     0
 10
6.949815
 20
28.314225
  0
TEXT
  7
TextStyle03
  8
寸法
  6
CONTINUOUS
 62
     0
 10
-46.33125
 20
28.675
  1
3000
 40
3.0
 72
     5
 11
-39.76875
 21
28.675
  0
ENDBLK
  0
BLOCK
  2
*DIM_0012
 70
    65
 10
0.0
 20
0.0
  0
LINE
  8
寸法
  6
BYBLOCK
 62
     0
 10
21.616485
 20
31.38855
 11
21.616485
 21
28.363508
  0
LINE
  8
寸法
  6
BYBLOCK
 62
     0
 10
23.616485
 20
28.363508
 11
21.616485
 21
28.363508
  0
POINT
  8
寸法
 62
     0
 10
23.616485
 20
28.363508
  0
POINT
  8
寸法
 62
     0
 10
21.616485
 20
28.363508
  0
TEXT
  7
TextStyle03
  8
寸法
  6
CONTINUOUS
 62
     0
 10
19.73125
 20
24.575
  1
60
 40
3.0
 72
     5
 11
22.91875
 21
24.575
  0
ENDBLK
  0
BLOCK
  2
*DIM_0013
 70
    65
 10
0.0
 20
0.0
  0
LINE
  8
寸法
  6
BYBLOCK
 62
     0
 10
-107.71685
 20
31.38855
 11
-107.71685
 21
28.363508
  0
LINE
  8
寸法
  6
BYBLOCK
 62
     0
 10
-109.71685
 20
28.363508
 11
-107.71685
 21
28.363508
  0
POINT
  8
寸法
 62
     0
 10
-109.71685
 20
28.363508
  0
POINT
  8
寸法
 62
     0
 10
-107.71685
 20
28.363508
  0
TEXT
  7
TextStyle03
  8
寸法
  6
CONTINUOUS
 62
     0
 10
-108.96875
 20
24.575
  1
60
 40
3.0
 72
     5
 11
-105.78125
 21
24.575
  0
ENDBLK
  0
BLOCK
  2
*DIM_0014
 70
    65
 10
0.0
 20
0.0
  0
LINE
  8
寸法
  6
BYBLOCK
 62
     0
 10
-112.716848
 20
61.995363
 11
-126.009685
 21
61.995363
  0
LINE
  8
寸法
  6
BYBLOCK
 62
     0
 10
-112.716848
 20
41.995363
 11
-126.009685
 21
41.995363
  0
LINE
  8
寸法
  6
BYBLOCK
 62
     0
 10
-126.009685
 20
61.995363
 11
-126.009685
 21
41.995363
  0
POINT
  8
寸法
 62
     0
 10
-126.009685
 20
61.995363
  0
POINT
  8
寸法
 62
     0
 10
-126.009685
 20
41.995363
  0
TEXT
  7
TextStyle03
  8
寸法
  6
CONTINUOUS
 62
     0
 10
-126.325
 20
49.5375
  1
600
 40
3.0
 50
90.0
 72
     5
 11
-126.325
 21
54.4125
  0
ENDBLK
  0
BLOCK
  2
*DIM_0015
 70
    65
 10
0.0
 20
0.0
  0
LINE
  8
寸法
  6
BYBLOCK
 62
     0
 10
-101.383515
 20
69.995363
 11
-101.383515
 21
99.103435
  0
LINE
  8
寸法
  6
BYBLOCK
 62
     0
 10
-78.050183
 20
69.995363
 11
-78.050183
 21
99.103435
  0
LINE
  8
寸法
  6
BYBLOCK
 62
     0
 10
-101.383515
 20
99.103435
 11
-78.050183
 21
99.103435
  0
POINT
  8
寸法
 62
     0
 10
-101.383515
 20
99.103435
  0
POINT
  8
寸法
 62
     0
 10
-78.050183
 20
99.103435
  0
TEXT
  7
TextStyle03
  8
寸法
  6
CONTINUOUS
 62
     0
 10
-92.1375
 20
99.45
  1
700
 40
3.0
 72
     5
 11
-87.2625
 21
99.45
  0
ENDBLK
  0
BLOCK
  2
*DIM_0016
 70
    65
 10
0.0
 20
0.0
  0
LINE
  8
寸法
  6
BYBLOCK
 62
     0
 10
-54.71685
 20
69.995363
 11
-54.71685
 21
99.103435
  0
LINE
  8
寸法
  6
BYBLOCK
 62
     0
 10
-78.050183
 20
99.103435
 11
-54.71685
 21
99.103435
  0
POINT
  8
寸法
 62
     0
 10
-54.71685
 20
99.103435
  0
TEXT
  7
TextStyle03
  8
寸法
  6
CONTINUOUS
 62
     0
 10
-68.8125
 20
99.45
  1
700
 40
3.0
 72
     5
 11
-63.9375
 21
99.45
  0
ENDBLK
  0
BLOCK
  2
*DIM_0017
 70
    65
 10
0.0
 20
0.0
  0
LINE
  8
寸法
  6
BYBLOCK
 62
     0
 10
-31.383515
 20
69.995363
 11
-31.383515
 21
99.103435
  0
LINE
  8
寸法
  6
BYBLOCK
 62
     0
 10
-54.71685
 20
99.103435
 11
-31.383515
 21
99.103435
  0
POINT
  8
寸法
 62
     0
 10
-31.383515
 20
99.103435
  0
TEXT
  7
TextStyle03
  8
寸法
  6
CONTINUOUS
 62
     0
 10
-45.4875
 20
99.45
  1
700
 40
3.0
 72
     5
 11
-40.6125
 21
99.45
  0
ENDBLK
  0
BLOCK
  2
*DIM_0018
 70
    65
 10
0.0
 20
0.0
  0
LINE
  8
寸法
  6
BYBLOCK
 62
     0
 10
-8.050183
 20
69.995363
 11
-8.050183
 21
99.103435
  0
LINE
  8
寸法
  6
BYBLOCK
 62
     0
 10
-31.383515
 20
99.103435
 11
-8.050183
 21
99.103435
  0
POINT
  8
寸法
 62
     0
 10
-8.050183
 20
99.103435
  0
TEXT
  7
TextStyle03
  8
寸法
  6
CONTINUOUS
 62
     0
 10
-22.1375
 20
99.45
  1
700
 40
3.0
 72
     5
 11
-17.2625
 21
99.45
  0
ENDBLK
  0
BLOCK
  2
*DIM_0019
 70
    65
 10
0.0
 20
0.0
  0
LINE
  8
寸法
  6
BYBLOCK
 62
     0
 10
15.28315
 20
69.995363
 11
15.28315
 21
99.103435
  0
LINE
  8
寸法
  6
BYBLOCK
 62
     0
 10
-8.050183
 20
99.103435
 11
15.28315
 21
99.103435
  0
POINT
  8
寸法
 62
     0
 10
15.28315
 20
99.103435
  0
TEXT
  7
TextStyle03
  8
寸法
  6
CONTINUOUS
 62
     0
 10
1.1875
 20
99.45
  1
700
 40
3.0
 72
     5
 11
6.0625
 21
99.45
  0
ENDBLK
  0
BLOCK
  2
*GRP_0020
 70
    65
 10
0.0
 20
0.0
  0
LINE
  8
別途部材
  6
CONTINUOUS
 62
    96
 10
-111.383522
 20
-55.177423
 11
-111.783522
 21
-56.177423
  0
ARC
  8
別途部材
  6
CONTINUOUS
 10
-94.716857
 20
-64.510757
 40
17.666667
 50
90.0
 51
148.109204
  0
LINE
  8
別途部材
  6
CONTINUOUS
 62
    96
 10
-111.383522
 20
-55.177423
 11
-43.050187
 21
-55.177423
  0
LINE
  8
別途部材
  6
CONTINUOUS
 10
-111.783522
 20
-56.177423
 11
-43.050187
 21
-56.177423
  0
LINE
  8
別途部材
  6
CONTINUOUS
 10
-43.550187
 20
-45.84409
 11
-44.550187
 21
-46.84409
  0
LINE
  8
別途部材
  6
CONTINUOUS
 10
-45.550187
 20
-46.84409
 11
-46.550187
 21
-45.84409
  0
LINE
  8
別途部材
  6
CONTINUOUS
 10
-47.550187
 20
-45.84409
 11
-48.550187
 21
-46.84409
  0
LINE
  8
別途部材
  6
CONTINUOUS
 10
-46.550187
 20
-45.84409
 11
-47.550187
 21
-45.84409
  0
LINE
  8
別途部材
  6
CONTINUOUS
 10
-43.550187
 20
-45.84409
 11
-43.050187
 21
-45.84409
  0
LINE
  8
別途部材
  6
CONTINUOUS
 10
-49.550187
 20
-46.84409
 11
-50.550187
 21
-45.84409
  0
LINE
  8
別途部材
  6
CONTINUOUS
 10
-51.550187
 20
-45.84409
 11
-52.550187
 21
-46.84409
  0
LINE
  8
別途部材
  6
CONTINUOUS
 10
-50.550187
 20
-45.84409
 11
-51.550187
 21
-45.84409
  0
LINE
  8
別途部材
  6
CONTINUOUS
 10
-53.550187
 20
-46.84409
 11
-54.550187
 21
-45.84409
  0
LINE
  8
別途部材
  6
CONTINUOUS
 10
-55.550187
 20
-45.84409
 11
-56.550187
 21
-46.84409
  0
LINE
  8
別途部材
  6
CONTINUOUS
 10
-54.550187
 20
-45.84409
 11
-55.550187
 21
-45.84409
  0
LINE
  8
別途部材
  6
CONTINUOUS
 10
-57.550187
 20
-46.84409
 11
-58.550187
 21
-45.84409
  0
LINE
  8
別途部材
  6
CONTINUOUS
 10
-59.550187
 20
-45.84409
 11
-60.550187
 21
-46.84409
  0
LINE
  8
別途部材
  6
CONTINUOUS
 10
-58.550187
 20
-45.84409
 11
-59.550187
 21
-45.84409
  0
LINE
  8
別途部材
  6
CONTINUOUS
 10
-61.550187
 20
-46.84409
 11
-62.550187
 21
-45.84409
  0
LINE
  8
別途部材
  6
CONTINUOUS
 10
-63.550187
 20
-45.84409
 11
-64.550187
 21
-46.84409
  0
LINE
  8
別途部材
  6
CONTINUOUS
 10
-62.550187
 20
-45.84409
 11
-63.550187
 21
-45.84409
  0
LINE
  8
別途部材
  6
CONTINUOUS
 10
-65.550187
 20
-46.84409
 11
-66.550187
 21
-45.84409
  0
LINE
  8
別途部材
  6
CONTINUOUS
 10
-67.550187
 20
-45.84409
 11
-68.550187
 21
-46.84409
  0
LINE
  8
別途部材
  6
CONTINUOUS
 10
-66.550187
 20
-45.84409
 11
-67.550187
 21
-45.84409
  0
LINE
  8
別途部材
  6
CONTINUOUS
 10
-69.550187
 20
-46.84409
 11
-70.550187
 21
-45.84409
  0
LINE
  8
別途部材
  6
CONTINUOUS
 10
-71.550187
 20
-45.84409
 11
-72.550187
 21
-46.84409
  0
LINE
  8
別途部材
  6
CONTINUOUS
 10
-70.550187
 20
-45.84409
 11
-71.550187
 21
-45.84409
  0
LINE
  8
別途部材
  6
CONTINUOUS
 10
-73.550187
 20
-46.84409
 11
-74.550187
 21
-45.84409
  0
LINE
  8
別途部材
  6
CONTINUOUS
 10
-75.550187
 20
-45.84409
 11
-76.550187
 21
-46.84409
  0
LINE
  8
別途部材
  6
CONTINUOUS
 10
-74.550187
 20
-45.84409
 11
-75.550187
 21
-45.84409
  0
LINE
  8
別途部材
  6
CONTINUOUS
 10
-77.550187
 20
-46.84409
 11
-78.550187
 21
-45.84409
  0
LINE
  8
別途部材
  6
CONTINUOUS
 10
-79.550187
 20
-45.84409
 11
-80.550187
 21
-46.84409
  0
LINE
  8
別途部材
  6
CONTINUOUS
 10
-78.550187
 20
-45.84409
 11
-79.550187
 21
-45.84409
  0
LINE
  8
別途部材
  6
CONTINUOUS
 10
-81.550187
 20
-46.84409
 11
-82.550187
 21
-45.84409
  0
LINE
  8
別途部材
  6
CONTINUOUS
 10
-83.550187
 20
-45.84409
 11
-84.550187
 21
-46.84409
  0
LINE
  8
別途部材
  6
CONTINUOUS
 10
-82.550187
 20
-45.84409
 11
-83.550187
 21
-45.84409
  0
LINE
  8
別途部材
  6
CONTINUOUS
 10
-85.550187
 20
-46.84409
 11
-86.550187
 21
-45.84409
  0
LINE
  8
別途部材
  6
CONTINUOUS
 10
-87.550187
 20
-45.84409
 11
-88.550187
 21
-46.84409
  0
LINE
  8
別途部材
  6
CONTINUOUS
 10
-86.550187
 20
-45.84409
 11
-87.550187
 21
-45.84409
  0
LINE
  8
別途部材
  6
CONTINUOUS
 10
-84.550187
 20
-46.84409
 11
-85.550187
 21
-46.84409
  0
LINE
  8
別途部材
  6
CONTINUOUS
 10
-80.550187
 20
-46.84409
 11
-81.550187
 21
-46.84409
  0
LINE
  8
別途部材
  6
CONTINUOUS
 10
-76.550187
 20
-46.84409
 11
-77.550187
 21
-46.84409
  0
LINE
  8
別途部材
  6
CONTINUOUS
 10
-72.550187
 20
-46.84409
 11
-73.550187
 21
-46.84409
  0
LINE
  8
別途部材
  6
CONTINUOUS
 10
-68.550187
 20
-46.84409
 11
-69.550187
 21
-46.84409
  0
LINE
  8
別途部材
  6
CONTINUOUS
 10
-64.550187
 20
-46.84409
 11
-65.550187
 21
-46.84409
  0
LINE
  8
別途部材
  6
CONTINUOUS
 10
-60.550187
 20
-46.84409
 11
-61.550187
 21
-46.84409
  0
LINE
  8
別途部材
  6
CONTINUOUS
 10
-56.550187
 20
-46.84409
 11
-57.550187
 21
-46.84409
  0
LINE
  8
別途部材
  6
CONTINUOUS
 10
-52.550187
 20
-46.84409
 11
-53.550187
 21
-46.84409
  0
LINE
  8
別途部材
  6
CONTINUOUS
 10
-48.550187
 20
-46.84409
 11
-49.550187
 21
-46.84409
  0
LINE
  8
別途部材
  6
CONTINUOUS
 10
-45.550187
 20
-46.84409
 11
-44.550187
 21
-46.84409
  0
LINE
  8
別途部材
  6
CONTINUOUS
 10
-89.550187
 20
-46.84409
 11
-90.550187
 21
-45.84409
  0
LINE
  8
別途部材
  6
CONTINUOUS
 10
-91.550187
 20
-45.84409
 11
-92.550187
 21
-46.84409
  0
LINE
  8
別途部材
  6
CONTINUOUS
 10
-90.550187
 20
-45.84409
 11
-91.550187
 21
-45.84409
  0
LINE
  8
別途部材
  6
CONTINUOUS
 10
-88.550187
 20
-46.84409
 11
-89.550187
 21
-46.84409
  0
LINE
  8
別途部材
  6
CONTINUOUS
 10
-87.550187
 20
-45.84409
 11
-87.550187
 21
-55.177423
  0
LINE
  8
別途部材
  6
CONTINUOUS
 10
-83.550187
 20
-45.84409
 11
-83.550187
 21
-55.177423
  0
LINE
  8
別途部材
  6
CONTINUOUS
 10
-81.550187
 20
-46.84409
 11
-81.550187
 21
-55.177423
  0
LINE
  8
別途部材
  6
CONTINUOUS
 10
-86.550187
 20
-45.84409
 11
-86.550187
 21
-55.177423
  0
LINE
  8
別途部材
  6
CONTINUOUS
 10
-90.550187
 20
-45.84409
 11
-90.550187
 21
-55.177423
  0
LINE
  8
別途部材
  6
CONTINUOUS
 10
-92.550187
 20
-46.84409
 11
-92.550187
 21
-55.177423
  0
LINE
  8
別途部材
  6
CONTINUOUS
 10
-91.550187
 20
-45.84409
 11
-91.550187
 21
-55.177423
  0
LINE
  8
別途部材
  6
CONTINUOUS
 10
-89.550187
 20
-46.84409
 11
-89.550187
 21
-55.177423
  0
LINE
  8
別途部材
  6
CONTINUOUS
 10
-88.550187
 20
-46.84409
 11
-88.550187
 21
-55.177423
  0
LINE
  8
別途部材
  6
CONTINUOUS
 10
-85.550187
 20
-46.84409
 11
-85.550187
 21
-55.177423
  0
LINE
  8
別途部材
  6
CONTINUOUS
 10
-84.550187
 20
-46.84409
 11
-84.550187
 21
-55.177423
  0
LINE
  8
別途部材
  6
CONTINUOUS
 10
-82.550187
 20
-45.84409
 11
-82.550187
 21
-55.177423
  0
LINE
  8
別途部材
  6
CONTINUOUS
 10
-79.550187
 20
-45.84409
 11
-79.550187
 21
-55.177423
  0
LINE
  8
別途部材
  6
CONTINUOUS
 10
-80.550187
 20
-46.84409
 11
-80.550187
 21
-55.177423
  0
LINE
  8
別途部材
  6
CONTINUOUS
 10
-78.550187
 20
-45.84409
 11
-78.550187
 21
-55.177423
  0
LINE
  8
別途部材
  6
CONTINUOUS
 10
-77.550187
 20
-46.84409
 11
-77.550187
 21
-55.177423
  0
LINE
  8
別途部材
  6
CONTINUOUS
 10
-76.550187
 20
-46.84409
 11
-76.550187
 21
-55.177423
  0
LINE
  8
別途部材
  6
CONTINUOUS
 10
-75.550187
 20
-45.84409
 11
-75.550187
 21
-55.177423
  0
LINE
  8
別途部材
  6
CONTINUOUS
 10
-73.550187
 20
-46.84409
 11
-73.550187
 21
-55.177423
  0
LINE
  8
別途部材
  6
CONTINUOUS
 10
-74.550187
 20
-45.84409
 11
-74.550187
 21
-55.177423
  0
LINE
  8
別途部材
  6
CONTINUOUS
 10
-71.550187
 20
-45.84409
 11
-71.550187
 21
-55.177423
  0
LINE
  8
別途部材
  6
CONTINUOUS
 10
-72.550187
 20
-46.84409
 11
-72.550187
 21
-55.177423
  0
LINE
  8
別途部材
  6
CONTINUOUS
 10
-68.550187
 20
-46.84409
 11
-68.550187
 21
-55.177423
  0
LINE
  8
別途部材
  6
CONTINUOUS
 10
-67.550187
 20
-45.84409
 11
-67.550187
 21
-55.177423
  0
LINE
  8
別途部材
  6
CONTINUOUS
 10
-66.550187
 20
-45.84409
 11
-66.550187
 21
-55.177423
  0
LINE
  8
別途部材
  6
CONTINUOUS
 10
-69.550187
 20
-46.84409
 11
-69.550187
 21
-55.177423
  0
LINE
  8
別途部材
  6
CONTINUOUS
 10
-70.550187
 20
-45.84409
 11
-70.550187
 21
-55.177423
  0
LINE
  8
別途部材
  6
CONTINUOUS
 10
-62.550187
 20
-45.84409
 11
-62.550187
 21
-55.177423
  0
LINE
  8
別途部材
  6
CONTINUOUS
 10
-64.550187
 20
-46.84409
 11
-64.550187
 21
-55.177423
  0
LINE
  8
別途部材
  6
CONTINUOUS
 10
-65.550187
 20
-46.84409
 11
-65.550187
 21
-55.177423
  0
LINE
  8
別途部材
  6
CONTINUOUS
 10
-63.550187
 20
-45.84409
 11
-63.550187
 21
-55.177423
  0
LINE
  8
別途部材
  6
CONTINUOUS
 10
-61.550187
 20
-46.84409
 11
-61.550187
 21
-55.177423
  0
LINE
  8
別途部材
  6
CONTINUOUS
 10
-59.550187
 20
-45.84409
 11
-59.550187
 21
-55.177423
  0
LINE
  8
別途部材
  6
CONTINUOUS
 10
-58.550187
 20
-45.84409
 11
-58.550187
 21
-55.177423
  0
LINE
  8
別途部材
  6
CONTINUOUS
 10
-56.550187
 20
-46.84409
 11
-56.550187
 21
-55.177423
  0
LINE
  8
別途部材
  6
CONTINUOUS
 10
-57.550187
 20
-46.84409
 11
-57.550187
 21
-55.177423
  0
LINE
  8
別途部材
  6
CONTINUOUS
 10
-60.550187
 20
-46.84409
 11
-60.550187
 21
-55.177423
  0
LINE
  8
別途部材
  6
CONTINUOUS
 10
-55.550187
 20
-45.84409
 11
-55.550187
 21
-55.177423
  0
LINE
  8
別途部材
  6
CONTINUOUS
 10
-53.550187
 20
-46.84409
 11
-53.550187
 21
-55.177423
  0
LINE
  8
別途部材
  6
CONTINUOUS
 10
-54.550187
 20
-45.84409
 11
-54.550187
 21
-55.177423
  0
LINE
  8
別途部材
  6
CONTINUOUS
 10
-52.550187
 20
-46.84409
 11
-52.550187
 21
-55.177423
  0
LINE
  8
別途部材
  6
CONTINUOUS
 10
-51.550187
 20
-45.84409
 11
-51.550187
 21
-55.177423
  0
LINE
  8
別途部材
  6
CONTINUOUS
 10
-49.550187
 20
-46.84409
 11
-49.550187
 21
-55.177423
  0
LINE
  8
別途部材
  6
CONTINUOUS
 10
-50.550187
 20
-45.84409
 11
-50.550187
 21
-55.177423
  0
LINE
  8
別途部材
  6
CONTINUOUS
 10
-48.550187
 20
-46.84409
 11
-48.550187
 21
-55.177423
  0
LINE
  8
別途部材
  6
CONTINUOUS
 10
-47.550187
 20
-45.84409
 11
-47.550187
 21
-55.177423
  0
LINE
  8
別途部材
  6
CONTINUOUS
 10
-45.550187
 20
-46.84409
 11
-45.550187
 21
-55.177423
  0
LINE
  8
別途部材
  6
CONTINUOUS
 10
-46.550187
 20
-45.84409
 11
-46.550187
 21
-55.177423
  0
LINE
  8
別途部材
  6
CONTINUOUS
 10
-44.550187
 20
-46.84409
 11
-44.550187
 21
-55.177423
  0
LINE
  8
別途部材
  6
CONTINUOUS
 10
-43.550187
 20
-45.84409
 11
-43.550187
 21
-55.177423
  0
LINE
  8
別途部材
  6
CONTINUOUS
 10
-92.550187
 20
-46.84409
 11
-94.716855
 21
-46.84409
  0
LINE
  8
別途部材
  6
CONTINUOUS
 62
    96
 10
25.283145
 20
-55.177423
 11
25.683145
 21
-56.177423
  0
ARC
  8
別途部材
  6
CONTINUOUS
 10
8.61648
 20
-64.510757
 40
17.666667
 50
31.890796
 51
90.0
  0
LINE
  8
別途部材
  6
CONTINUOUS
 62
    96
 10
25.283145
 20
-55.177423
 11
-43.050187
 21
-55.177423
  0
LINE
  8
別途部材
  6
CONTINUOUS
 10
25.683145
 20
-56.177423
 11
-43.050187
 21
-56.177423
  0
LINE
  8
別途部材
  6
CONTINUOUS
 10
-42.550187
 20
-45.84409
 11
-41.550187
 21
-46.84409
  0
LINE
  8
別途部材
  6
CONTINUOUS
 10
-40.550187
 20
-46.84409
 11
-39.550187
 21
-45.84409
  0
LINE
  8
別途部材
  6
CONTINUOUS
 10
-38.550187
 20
-45.84409
 11
-37.550187
 21
-46.84409
  0
LINE
  8
別途部材
  6
CONTINUOUS
 10
-39.550187
 20
-45.84409
 11
-38.550187
 21
-45.84409
  0
LINE
  8
別途部材
  6
CONTINUOUS
 10
-42.550187
 20
-45.84409
 11
-43.050187
 21
-45.84409
  0
LINE
  8
別途部材
  6
CONTINUOUS
 10
-36.550187
 20
-46.84409
 11
-35.550187
 21
-45.84409
  0
LINE
  8
別途部材
  6
CONTINUOUS
 10
-34.550187
 20
-45.84409
 11
-33.550187
 21
-46.84409
  0
LINE
  8
別途部材
  6
CONTINUOUS
 10
-35.550187
 20
-45.84409
 11
-34.550187
 21
-45.84409
  0
LINE
  8
別途部材
  6
CONTINUOUS
 10
-32.550187
 20
-46.84409
 11
-31.550187
 21
-45.84409
  0
LINE
  8
別途部材
  6
CONTINUOUS
 10
-30.550187
 20
-45.84409
 11
-29.550187
 21
-46.84409
  0
LINE
  8
別途部材
  6
CONTINUOUS
 10
-31.550187
 20
-45.84409
 11
-30.550187
 21
-45.84409
  0
LINE
  8
別途部材
  6
CONTINUOUS
 10
-28.550187
 20
-46.84409
 11
-27.550187
 21
-45.84409
  0
LINE
  8
別途部材
  6
CONTINUOUS
 10
-26.550187
 20
-45.84409
 11
-25.550187
 21
-46.84409
  0
LINE
  8
別途部材
  6
CONTINUOUS
 10
-27.550187
 20
-45.84409
 11
-26.550187
 21
-45.84409
  0
LINE
  8
別途部材
  6
CONTINUOUS
 10
-24.550187
 20
-46.84409
 11
-23.550187
 21
-45.84409
  0
LINE
  8
別途部材
  6
CONTINUOUS
 10
-22.550187
 20
-45.84409
 11
-21.550187
 21
-46.84409
  0
LINE
  8
別途部材
  6
CONTINUOUS
 10
-23.550187
 20
-45.84409
 11
-22.550187
 21
-45.84409
  0
LINE
  8
別途部材
  6
CONTINUOUS
 10
-20.550187
 20
-46.84409
 11
-19.550187
 21
-45.84409
  0
LINE
  8
別途部材
  6
CONTINUOUS
 10
-18.550187
 20
-45.84409
 11
-17.550187
 21
-46.84409
  0
LINE
  8
別途部材
  6
CONTINUOUS
 10
-19.550187
 20
-45.84409
 11
-18.550187
 21
-45.84409
  0
LINE
  8
別途部材
  6
CONTINUOUS
 10
-16.550187
 20
-46.84409
 11
-15.550187
 21
-45.84409
  0
LINE
  8
別途部材
  6
CONTINUOUS
 10
-14.550187
 20
-45.84409
 11
-13.550187
 21
-46.84409
  0
LINE
  8
別途部材
  6
CONTINUOUS
 10
-15.550187
 20
-45.84409
 11
-14.550187
 21
-45.84409
  0
LINE
  8
別途部材
  6
CONTINUOUS
 10
-12.550187
 20
-46.84409
 11
-11.550187
 21
-45.84409
  0
LINE
  8
別途部材
  6
CONTINUOUS
 10
-10.550187
 20
-45.84409
 11
-9.550187
 21
-46.84409
  0
LINE
  8
別途部材
  6
CONTINUOUS
 10
-11.550187
 20
-45.84409
 11
-10.550187
 21
-45.84409
  0
LINE
  8
別途部材
  6
CONTINUOUS
 10
-8.550187
 20
-46.84409
 11
-7.550187
 21
-45.84409
  0
LINE
  8
別途部材
  6
CONTINUOUS
 10
-6.550187
 20
-45.84409
 11
-5.550187
 21
-46.84409
  0
LINE
  8
別途部材
  6
CONTINUOUS
 10
-7.550187
 20
-45.84409
 11
-6.550187
 21
-45.84409
  0
LINE
  8
別途部材
  6
CONTINUOUS
 10
-4.550187
 20
-46.84409
 11
-3.550187
 21
-45.84409
  0
LINE
  8
別途部材
  6
CONTINUOUS
 10
-2.550187
 20
-45.84409
 11
-1.550187
 21
-46.84409
  0
LINE
  8
別途部材
  6
CONTINUOUS
 10
-3.550187
 20
-45.84409
 11
-2.550187
 21
-45.84409
  0
LINE
  8
別途部材
  6
CONTINUOUS
 10
-0.550187
 20
-46.84409
 11
0.449813
 21
-45.84409
  0
LINE
  8
別途部材
  6
CONTINUOUS
 10
1.449813
 20
-45.84409
 11
2.449813
 21
-46.84409
  0
LINE
  8
別途部材
  6
CONTINUOUS
 10
0.449813
 20
-45.84409
 11
1.449813
 21
-45.84409
  0
LINE
  8
別途部材
  6
CONTINUOUS
 10
-1.550187
 20
-46.84409
 11
-0.550187
 21
-46.84409
  0
LINE
  8
別途部材
  6
CONTINUOUS
 10
-5.550187
 20
-46.84409
 11
-4.550187
 21
-46.84409
  0
LINE
  8
別途部材
  6
CONTINUOUS
 10
-9.550187
 20
-46.84409
 11
-8.550187
 21
-46.84409
  0
LINE
  8
別途部材
  6
CONTINUOUS
 10
-13.550187
 20
-46.84409
 11
-12.550187
 21
-46.84409
  0
LINE
  8
別途部材
  6
CONTINUOUS
 10
-17.550187
 20
-46.84409
 11
-16.550187
 21
-46.84409
  0
LINE
  8
別途部材
  6
CONTINUOUS
 10
-21.550187
 20
-46.84409
 11
-20.550187
 21
-46.84409
  0
LINE
  8
別途部材
  6
CONTINUOUS
 10
-25.550187
 20
-46.84409
 11
-24.550187
 21
-46.84409
  0
LINE
  8
別途部材
  6
CONTINUOUS
 10
-29.550187
 20
-46.84409
 11
-28.550187
 21
-46.84409
  0
LINE
  8
別途部材
  6
CONTINUOUS
 10
-33.550187
 20
-46.84409
 11
-32.550187
 21
-46.84409
  0
LINE
  8
別途部材
  6
CONTINUOUS
 10
-37.550187
 20
-46.84409
 11
-36.550187
 21
-46.84409
  0
LINE
  8
別途部材
  6
CONTINUOUS
 10
-40.550187
 20
-46.84409
 11
-41.550187
 21
-46.84409
  0
LINE
  8
別途部材
  6
CONTINUOUS
 10
3.449813
 20
-46.84409
 11
4.449813
 21
-45.84409
  0
LINE
  8
別途部材
  6
CONTINUOUS
 10
5.449813
 20
-45.84409
 11
6.449813
 21
-46.84409
  0
LINE
  8
別途部材
  6
CONTINUOUS
 10
4.449813
 20
-45.84409
 11
5.449813
 21
-45.84409
  0
LINE
  8
別途部材
  6
CONTINUOUS
 10
2.449813
 20
-46.84409
 11
3.449813
 21
-46.84409
  0
LINE
  8
別途部材
  6
CONTINUOUS
 10
1.449813
 20
-45.84409
 11
1.449813
 21
-55.177423
  0
LINE
  8
別途部材
  6
CONTINUOUS
 10
-2.550187
 20
-45.84409
 11
-2.550187
 21
-55.177423
  0
LINE
  8
別途部材
  6
CONTINUOUS
 10
-4.550187
 20
-46.84409
 11
-4.550187
 21
-55.177423
  0
LINE
  8
別途部材
  6
CONTINUOUS
 10
0.449813
 20
-45.84409
 11
0.449813
 21
-55.177423
  0
LINE
  8
別途部材
  6
CONTINUOUS
 10
4.449813
 20
-45.84409
 11
4.449813
 21
-55.177423
  0
LINE
  8
別途部材
  6
CONTINUOUS
 10
6.449813
 20
-46.84409
 11
6.449813
 21
-55.177423
  0
LINE
  8
別途部材
  6
CONTINUOUS
 10
5.449813
 20
-45.84409
 11
5.449813
 21
-55.177423
  0
LINE
  8
別途部材
  6
CONTINUOUS
 10
3.449813
 20
-46.84409
 11
3.449813
 21
-55.177423
  0
LINE
  8
別途部材
  6
CONTINUOUS
 10
2.449813
 20
-46.84409
 11
2.449813
 21
-55.177423
  0
LINE
  8
別途部材
  6
CONTINUOUS
 10
-0.550187
 20
-46.84409
 11
-0.550187
 21
-55.177423
  0
LINE
  8
別途部材
  6
CONTINUOUS
 10
-1.550187
 20
-46.84409
 11
-1.550187
 21
-55.177423
  0
LINE
  8
別途部材
  6
CONTINUOUS
 10
-3.550187
 20
-45.84409
 11
-3.550187
 21
-55.177423
  0
LINE
  8
別途部材
  6
CONTINUOUS
 10
-6.550187
 20
-45.84409
 11
-6.550187
 21
-55.177423
  0
LINE
  8
別途部材
  6
CONTINUOUS
 10
-5.550187
 20
-46.84409
 11
-5.550187
 21
-55.177423
  0
LINE
  8
別途部材
  6
CONTINUOUS
 10
-7.550187
 20
-45.84409
 11
-7.550187
 21
-55.177423
  0
LINE
  8
別途部材
  6
CONTINUOUS
 10
-8.550187
 20
-46.84409
 11
-8.550187
 21
-55.177423
  0
LINE
  8
別途部材
  6
CONTINUOUS
 10
-9.550187
 20
-46.84409
 11
-9.550187
 21
-55.177423
  0
LINE
  8
別途部材
  6
CONTINUOUS
 10
-10.550187
 20
-45.84409
 11
-10.550187
 21
-55.177423
  0
LINE
  8
別途部材
  6
CONTINUOUS
 10
-12.550187
 20
-46.84409
 11
-12.550187
 21
-55.177423
  0
LINE
  8
別途部材
  6
CONTINUOUS
 10
-11.550187
 20
-45.84409
 11
-11.550187
 21
-55.177423
  0
LINE
  8
別途部材
  6
CONTINUOUS
 10
-14.550187
 20
-45.84409
 11
-14.550187
 21
-55.177423
  0
LINE
  8
別途部材
  6
CONTINUOUS
 10
-13.550187
 20
-46.84409
 11
-13.550187
 21
-55.177423
  0
LINE
  8
別途部材
  6
CONTINUOUS
 10
-17.550187
 20
-46.84409
 11
-17.550187
 21
-55.177423
  0
LINE
  8
別途部材
  6
CONTINUOUS
 10
-18.550187
 20
-45.84409
 11
-18.550187
 21
-55.177423
  0
LINE
  8
別途部材
  6
CONTINUOUS
 10
-19.550187
 20
-45.84409
 11
-19.550187
 21
-55.177423
  0
LINE
  8
別途部材
  6
CONTINUOUS
 10
-16.550187
 20
-46.84409
 11
-16.550187
 21
-55.177423
  0
LINE
  8
別途部材
  6
CONTINUOUS
 10
-15.550187
 20
-45.84409
 11
-15.550187
 21
-55.177423
  0
LINE
  8
別途部材
  6
CONTINUOUS
 10
-23.550187
 20
-45.84409
 11
-23.550187
 21
-55.177423
  0
LINE
  8
別途部材
  6
CONTINUOUS
 10
-21.550187
 20
-46.84409
 11
-21.550187
 21
-55.177423
  0
LINE
  8
別途部材
  6
CONTINUOUS
 10
-20.550187
 20
-46.84409
 11
-20.550187
 21
-55.177423
  0
LINE
  8
別途部材
  6
CONTINUOUS
 10
-22.550187
 20
-45.84409
 11
-22.550187
 21
-55.177423
  0
LINE
  8
別途部材
  6
CONTINUOUS
 10
-24.550187
 20
-46.84409
 11
-24.550187
 21
-55.177423
  0
LINE
  8
別途部材
  6
CONTINUOUS
 10
-26.550187
 20
-45.84409
 11
-26.550187
 21
-55.177423
  0
LINE
  8
別途部材
  6
CONTINUOUS
 10
-27.550187
 20
-45.84409
 11
-27.550187
 21
-55.177423
  0
LINE
  8
別途部材
  6
CONTINUOUS
 10
-29.550187
 20
-46.84409
 11
-29.550187
 21
-55.177423
  0
LINE
  8
別途部材
  6
CONTINUOUS
 10
-28.550187
 20
-46.84409
 11
-28.550187
 21
-55.177423
  0
LINE
  8
別途部材
  6
CONTINUOUS
 10
-25.550187
 20
-46.84409
 11
-25.550187
 21
-55.177423
  0
LINE
  8
別途部材
  6
CONTINUOUS
 10
-30.550187
 20
-45.84409
 11
-30.550187
 21
-55.177423
  0
LINE
  8
別途部材
  6
CONTINUOUS
 10
-32.550187
 20
-46.84409
 11
-32.550187
 21
-55.177423
  0
LINE
  8
別途部材
  6
CONTINUOUS
 10
-31.550187
 20
-45.84409
 11
-31.550187
 21
-55.177423
  0
LINE
  8
別途部材
  6
CONTINUOUS
 10
-33.550187
 20
-46.84409
 11
-33.550187
 21
-55.177423
  0
LINE
  8
別途部材
  6
CONTINUOUS
 10
-34.550187
 20
-45.84409
 11
-34.550187
 21
-55.177423
  0
LINE
  8
別途部材
  6
CONTINUOUS
 10
-36.550187
 20
-46.84409
 11
-36.550187
 21
-55.177423
  0
LINE
  8
別途部材
  6
CONTINUOUS
 10
-35.550187
 20
-45.84409
 11
-35.550187
 21
-55.177423
  0
LINE
  8
別途部材
  6
CONTINUOUS
 10
-37.550187
 20
-46.84409
 11
-37.550187
 21
-55.177423
  0
LINE
  8
別途部材
  6
CONTINUOUS
 10
-38.550187
 20
-45.84409
 11
-38.550187
 21
-55.177423
  0
LINE
  8
別途部材
  6
CONTINUOUS
 10
-40.550187
 20
-46.84409
 11
-40.550187
 21
-55.177423
  0
LINE
  8
別途部材
  6
CONTINUOUS
 10
-39.550187
 20
-45.84409
 11
-39.550187
 21
-55.177423
  0
LINE
  8
別途部材
  6
CONTINUOUS
 10
-41.550187
 20
-46.84409
 11
-41.550187
 21
-55.177423
  0
LINE
  8
別途部材
  6
CONTINUOUS
 10
-42.550187
 20
-45.84409
 11
-42.550187
 21
-55.177423
  0
LINE
  8
別途部材
  6
CONTINUOUS
 10
6.449813
 20
-46.84409
 11
8.616477
 21
-46.84409
  0
ENDBLK
  0
BLOCK
  2
*DIM_0021
 70
    65
 10
0.0
 20
0.0
  0
LINE
  8
寸法
  6
CONTINUOUS
 10
32.349842
 20
-61.677663
 11
46.326923
 21
-61.677663
  0
LINE
  8
寸法
  6
CONTINUOUS
 10
30.283145
 20
-55.177423
 11
46.326923
 21
-55.177423
  0
LINE
  8
寸法
  6
CONTINUOUS
 10
46.326923
 20
-61.677663
 11
46.326923
 21
-55.177423
  0
POINT
  8
寸法
 10
46.326923
 20
-61.677663
  0
POINT
  8
寸法
 10
46.326923
 20
-55.177423
  0
TEXT
  7
TextStyle03
  8
寸法
  6
CONTINUOUS
 10
45.95
 20
-60.8875
  1
195
 40
3.0
 50
90.0
 72
     5
 11
45.95
 21
-56.0125
  0
ENDBLK
  0
BLOCK
  2
*DIM_0022
 70
    65
 10
0.0
 20
0.0
  0
LINE
  8
寸法
  6
CONTINUOUS
 10
13.232052
 20
-46.84409
 11
46.326923
 21
-46.84409
  0
LINE
  8
寸法
  6
CONTINUOUS
 10
46.326923
 20
-55.177423
 11
46.326923
 21
-46.84409
  0
POINT
  8
寸法
 10
46.326923
 20
-46.84409
  0
TEXT
  7
TextStyle03
  8
寸法
  6
CONTINUOUS
 10
45.95
 20
-53.4625
  1
250
 40
3.0
 50
90.0
 72
     5
 11
45.95
 21
-48.5875
  0
ENDBLK
  0
BLOCK
  2
*DIM_0023
 70
    65
 10
0.0
 20
0.0
  0
LINE
  8
寸法
  6
CONTINUOUS
 10
102.565347
 20
-30.451318
 11
102.565347
 21
-20.852473
  0
LINE
  8
寸法
  6
CONTINUOUS
 10
135.405348
 20
-30.451318
 11
135.405348
 21
-20.852473
  0
LINE
  8
寸法
  6
CONTINUOUS
 10
102.565347
 20
-20.852473
 11
135.405348
 21
-20.852473
  0
POINT
  8
寸法
 10
102.565347
 20
-20.852473
  0
POINT
  8
寸法
 10
135.405348
 20
-20.852473
  0
TEXT
  7
TextStyle03
  8
寸法
  6
CONTINUOUS
 10
114.85
 20
-20.5
  1
985.2
 40
3.0
 72
     5
 11
123.1
 21
-20.5
  0
ENDBLK
  0
BLOCK
  2
*DIM_0024
 70
    65
 10
0.0
 20
0.0
  0
LINE
  8
寸法
  6
CONTINUOUS
 10
140.405348
 20
-35.451318
 11
150.29118
 21
-35.451318
  0
LINE
  8
寸法
  6
CONTINUOUS
 10
140.405348
 20
-65.984652
 11
150.29118
 21
-65.984652
  0
LINE
  8
寸法
  6
CONTINUOUS
 10
150.29118
 20
-35.451318
 11
150.29118
 21
-65.984652
  0
POINT
  8
寸法
 10
150.29118
 20
-35.451318
  0
POINT
  8
寸法
 10
150.29118
 20
-65.984652
  0
TEXT
  7
TextStyle03
  8
寸法
  6
CONTINUOUS
 10
149.9
 20
-53.1625
  1
916
 40
3.0
 50
90.0
 72
     5
 11
149.9
 21
-48.2875
  0
ENDBLK
  0
BLOCK
  2
*GRP_0025
 70
    65
 10
0.0
 20
0.0
  0
LINE
  8
ボルト／ビス
  6
CONTINUOUS
 10
24.283145
 20
-55.177423
 11
24.283145
 21
-54.710755
  0
LINE
  8
ボルト／ビス
  6
CONTINUOUS
 10
24.649813
 20
-55.177423
 11
24.649813
 21
-55.110755
  0
LINE
  8
ボルト／ビス
  6
CONTINUOUS
 10
24.649813
 20
-55.110755
 11
23.916477
 21
-55.110755
  0
LINE
  8
ボルト／ビス
  6
CONTINUOUS
 10
23.916477
 20
-55.110755
 11
23.916477
 21
-55.177423
  0
LINE
  8
ボルト／ビス
  6
CONTINUOUS
 10
24.649813
 20
-55.177423
 11
23.916477
 21
-55.177423
  0
LINE
  8
ボルト／ビス
  6
CONTINUOUS
 10
24.583145
 20
-55.077423
 11
24.583145
 21
-55.110755
  0
LINE
  8
ボルト／ビス
  6
CONTINUOUS
 10
24.583145
 20
-55.077423
 11
23.983145
 21
-55.077423
  0
LINE
  8
ボルト／ビス
  6
CONTINUOUS
 10
23.983145
 20
-55.077423
 11
23.983145
 21
-55.110755
  0
LINE
  8
ボルト／ビス
  6
CONTINUOUS
 62
    64
 10
24.44352
 20
-54.877423
 11
24.475595
 21
-54.889098
  0
ARC
  8
ボルト／ビス
  6
CONTINUOUS
 62
    64
 10
24.427483
 20
-54.982402
 40
0.104978
 50
90.0
 51
117.278033
  0
ARC
  8
ボルト／ビス
  6
CONTINUOUS
 62
    64
 10
24.283145
 20
-55.279826
 40
0.402402
 50
76.165015
 51
103.834998
  0
LINE
  8
ボルト／ビス
  6
CONTINUOUS
 62
    64
 10
24.12277
 20
-54.877423
 11
24.090695
 21
-54.889098
  0
ARC
  8
ボルト／ビス
  6
CONTINUOUS
 62
    64
 10
24.138808
 20
-54.982402
 40
0.104978
 50
62.721967
 51
90.0
  0
LINE
  8
ボルト／ビス
  6
CONTINUOUS
 62
    64
 10
24.44352
 20
-54.877423
 11
24.12277
 21
-54.877423
  0
LINE
  8
ボルト／ビス
  6
CONTINUOUS
 62
    64
 10
24.090695
 20
-54.889098
 11
24.090695
 21
-55.010755
  0
LINE
  8
ボルト／ビス
  6
CONTINUOUS
 62
    64
 10
24.18692
 20
-54.889098
 11
24.18692
 21
-55.010755
  0
LINE
  8
ボルト／ビス
  6
CONTINUOUS
 62
    64
 10
24.475595
 20
-54.889098
 11
24.475595
 21
-55.010755
  0
LINE
  8
ボルト／ビス
  6
CONTINUOUS
 62
    64
 10
24.37937
 20
-54.889098
 11
24.37937
 21
-55.010755
  0
LINE
  8
ボルト／ビス
  6
CONTINUOUS
 10
24.475595
 20
-55.010755
 11
24.090695
 21
-55.010755
  0
LINE
  8
ボルト／ビス
  6
CONTINUOUS
 10
24.483145
 20
-55.010755
 11
24.483145
 21
-55.077423
  0
LINE
  8
ボルト／ビス
  6
CONTINUOUS
 10
24.483145
 20
-55.010755
 11
24.083145
 21
-55.010755
  0
LINE
  8
ボルト／ビス
  6
CONTINUOUS
 10
24.083145
 20
-55.010755
 11
24.083145
 21
-55.077423
  0
ENDBLK
  0
BLOCK
  2
*GRP_0026
 70
    65
 10
0.0
 20
0.0
  0
LINE
  8
ボルト／ビス
  6
CONTINUOUS
 10
-110.383525
 20
-55.177423
 11
-110.383525
 21
-54.710755
  0
LINE
  8
ボルト／ビス
  6
CONTINUOUS
 10
-110.016857
 20
-55.177423
 11
-110.016857
 21
-55.110755
  0
LINE
  8
ボルト／ビス
  6
CONTINUOUS
 10
-110.016857
 20
-55.110755
 11
-110.750192
 21
-55.110755
  0
LINE
  8
ボルト／ビス
  6
CONTINUOUS
 10
-110.750192
 20
-55.110755
 11
-110.750192
 21
-55.177423
  0
LINE
  8
ボルト／ビス
  6
CONTINUOUS
 10
-110.016857
 20
-55.177423
 11
-110.750192
 21
-55.177423
  0
LINE
  8
ボルト／ビス
  6
CONTINUOUS
 10
-110.083525
 20
-55.077423
 11
-110.083525
 21
-55.110755
  0
LINE
  8
ボルト／ビス
  6
CONTINUOUS
 10
-110.083525
 20
-55.077423
 11
-110.683525
 21
-55.077423
  0
LINE
  8
ボルト／ビス
  6
CONTINUOUS
 10
-110.683525
 20
-55.077423
 11
-110.683525
 21
-55.110755
  0
LINE
  8
ボルト／ビス
  6
CONTINUOUS
 62
    64
 10
-110.22315
 20
-54.877423
 11
-110.191075
 21
-54.889098
  0
ARC
  8
ボルト／ビス
  6
CONTINUOUS
 62
    64
 10
-110.239187
 20
-54.982402
 40
0.104978
 50
90.0
 51
117.278033
  0
ARC
  8
ボルト／ビス
  6
CONTINUOUS
 62
    64
 10
-110.383525
 20
-55.279826
 40
0.402402
 50
76.165015
 51
103.834998
  0
LINE
  8
ボルト／ビス
  6
CONTINUOUS
 62
    64
 10
-110.5439
 20
-54.877423
 11
-110.575975
 21
-54.889098
  0
ARC
  8
ボルト／ビス
  6
CONTINUOUS
 62
    64
 10
-110.527862
 20
-54.982402
 40
0.104978
 50
62.721967
 51
90.0
  0
LINE
  8
ボルト／ビス
  6
CONTINUOUS
 62
    64
 10
-110.22315
 20
-54.877423
 11
-110.5439
 21
-54.877423
  0
LINE
  8
ボルト／ビス
  6
CONTINUOUS
 62
    64
 10
-110.575975
 20
-54.889098
 11
-110.575975
 21
-55.010755
  0
LINE
  8
ボルト／ビス
  6
CONTINUOUS
 62
    64
 10
-110.47975
 20
-54.889098
 11
-110.47975
 21
-55.010755
  0
LINE
  8
ボルト／ビス
  6
CONTINUOUS
 62
    64
 10
-110.191075
 20
-54.889098
 11
-110.191075
 21
-55.010755
  0
LINE
  8
ボルト／ビス
  6
CONTINUOUS
 62
    64
 10
-110.2873
 20
-54.889098
 11
-110.2873
 21
-55.010755
  0
LINE
  8
ボルト／ビス
  6
CONTINUOUS
 10
-110.191075
 20
-55.010755
 11
-110.575975
 21
-55.010755
  0
LINE
  8
ボルト／ビス
  6
CONTINUOUS
 10
-110.183525
 20
-55.010755
 11
-110.183525
 21
-55.077423
  0
LINE
  8
ボルト／ビス
  6
CONTINUOUS
 10
-110.183525
 20
-55.010755
 11
-110.583525
 21
-55.010755
  0
LINE
  8
ボルト／ビス
  6
CONTINUOUS
 10
-110.583525
 20
-55.010755
 11
-110.583525
 21
-55.077423
  0
ENDBLK
  0
BLOCK
  2
*GRP_0027
 70
    65
 10
0.0
 20
0.0
  0
LINE
  8
ボルト／ビス
  6
CONTINUOUS
 10
147.30385
 20
36.328695
 11
146.837183
 21
36.328695
  0
LINE
  8
ボルト／ビス
  6
CONTINUOUS
 10
147.30385
 20
36.695363
 11
147.237183
 21
36.695363
  0
LINE
  8
ボルト／ビス
  6
CONTINUOUS
 10
147.237183
 20
36.695363
 11
147.237183
 21
35.962027
  0
LINE
  8
ボルト／ビス
  6
CONTINUOUS
 10
147.237183
 20
35.962027
 11
147.30385
 21
35.962027
  0
LINE
  8
ボルト／ビス
  6
CONTINUOUS
 10
147.30385
 20
36.695363
 11
147.30385
 21
35.962027
  0
LINE
  8
ボルト／ビス
  6
CONTINUOUS
 10
147.20385
 20
36.628695
 11
147.237183
 21
36.628695
  0
LINE
  8
ボルト／ビス
  6
CONTINUOUS
 10
147.20385
 20
36.628695
 11
147.20385
 21
36.028695
  0
LINE
  8
ボルト／ビス
  6
CONTINUOUS
 10
147.20385
 20
36.028695
 11
147.237183
 21
36.028695
  0
LINE
  8
ボルト／ビス
  6
CONTINUOUS
 62
    64
 10
147.00385
 20
36.48907
 11
147.015525
 21
36.521145
  0
ARC
  8
ボルト／ビス
  6
CONTINUOUS
 62
    64
 10
147.108829
 20
36.473032
 40
0.104978
 50
180.0
 51
207.278033
  0
ARC
  8
ボルト／ビス
  6
CONTINUOUS
 62
    64
 10
147.406253
 20
36.328694
 40
0.402402
 50
166.165015
 51
193.834998
  0
LINE
  8
ボルト／ビス
  6
CONTINUOUS
 62
    64
 10
147.00385
 20
36.16832
 11
147.015525
 21
36.136245
  0
ARC
  8
ボルト／ビス
  6
CONTINUOUS
 62
    64
 10
147.108829
 20
36.184356
 40
0.104978
 50
152.721967
 51
180.0
  0
LINE
  8
ボルト／ビス
  6
CONTINUOUS
 62
    64
 10
147.00385
 20
36.48907
 11
147.00385
 21
36.16832
  0
LINE
  8
ボルト／ビス
  6
CONTINUOUS
 62
    64
 10
147.015525
 20
36.136245
 11
147.137183
 21
36.136245
  0
LINE
  8
ボルト／ビス
  6
CONTINUOUS
 62
    64
 10
147.015525
 20
36.23247
 11
147.137183
 21
36.23247
  0
LINE
  8
ボルト／ビス
  6
CONTINUOUS
 62
    64
 10
147.015525
 20
36.521145
 11
147.137183
 21
36.521145
  0
LINE
  8
ボルト／ビス
  6
CONTINUOUS
 62
    64
 10
147.015525
 20
36.42492
 11
147.137183
 21
36.42492
  0
LINE
  8
ボルト／ビス
  6
CONTINUOUS
 10
147.137183
 20
36.521145
 11
147.137183
 21
36.136245
  0
LINE
  8
ボルト／ビス
  6
CONTINUOUS
 10
147.137183
 20
36.528695
 11
147.20385
 21
36.528695
  0
LINE
  8
ボルト／ビス
  6
CONTINUOUS
 10
147.137183
 20
36.528695
 11
147.137183
 21
36.128695
  0
LINE
  8
ボルト／ビス
  6
CONTINUOUS
 10
147.137183
 20
36.128695
 11
147.20385
 21
36.128695
  0
ENDBLK
  0
BLOCK
  2
*GRP_0028
 70
    65
 10
0.0
 20
0.0
  0
LINE
  8
ボルト／ビス
  6
CONTINUOUS
 10
147.30385
 20
67.66203
 11
146.837183
 21
67.66203
  0
LINE
  8
ボルト／ビス
  6
CONTINUOUS
 10
147.30385
 20
68.028698
 11
147.237183
 21
68.028698
  0
LINE
  8
ボルト／ビス
  6
CONTINUOUS
 10
147.237183
 20
68.028698
 11
147.237183
 21
67.295363
  0
LINE
  8
ボルト／ビス
  6
CONTINUOUS
 10
147.237183
 20
67.295363
 11
147.30385
 21
67.295363
  0
LINE
  8
ボルト／ビス
  6
CONTINUOUS
 10
147.30385
 20
68.028698
 11
147.30385
 21
67.295363
  0
LINE
  8
ボルト／ビス
  6
CONTINUOUS
 10
147.20385
 20
67.96203
 11
147.237183
 21
67.96203
  0
LINE
  8
ボルト／ビス
  6
CONTINUOUS
 10
147.20385
 20
67.96203
 11
147.20385
 21
67.36203
  0
LINE
  8
ボルト／ビス
  6
CONTINUOUS
 10
147.20385
 20
67.36203
 11
147.237183
 21
67.36203
  0
LINE
  8
ボルト／ビス
  6
CONTINUOUS
 62
    64
 10
147.00385
 20
67.822405
 11
147.015525
 21
67.85448
  0
ARC
  8
ボルト／ビス
  6
CONTINUOUS
 62
    64
 10
147.108829
 20
67.806367
 40
0.104978
 50
180.0
 51
207.278033
  0
ARC
  8
ボルト／ビス
  6
CONTINUOUS
 62
    64
 10
147.406253
 20
67.66203
 40
0.402402
 50
166.165015
 51
193.834998
  0
LINE
  8
ボルト／ビス
  6
CONTINUOUS
 62
    64
 10
147.00385
 20
67.501655
 11
147.015525
 21
67.46958
  0
ARC
  8
ボルト／ビス
  6
CONTINUOUS
 62
    64
 10
147.108829
 20
67.517692
 40
0.104978
 50
152.721967
 51
180.0
  0
LINE
  8
ボルト／ビス
  6
CONTINUOUS
 62
    64
 10
147.00385
 20
67.822405
 11
147.00385
 21
67.501655
  0
LINE
  8
ボルト／ビス
  6
CONTINUOUS
 62
    64
 10
147.015525
 20
67.46958
 11
147.137183
 21
67.46958
  0
LINE
  8
ボルト／ビス
  6
CONTINUOUS
 62
    64
 10
147.015525
 20
67.565805
 11
147.137183
 21
67.565805
  0
LINE
  8
ボルト／ビス
  6
CONTINUOUS
 62
    64
 10
147.015525
 20
67.85448
 11
147.137183
 21
67.85448
  0
LINE
  8
ボルト／ビス
  6
CONTINUOUS
 62
    64
 10
147.015525
 20
67.758255
 11
147.137183
 21
67.758255
  0
LINE
  8
ボルト／ビス
  6
CONTINUOUS
 10
147.137183
 20
67.85448
 11
147.137183
 21
67.46958
  0
LINE
  8
ボルト／ビス
  6
CONTINUOUS
 10
147.137183
 20
67.86203
 11
147.20385
 21
67.86203
  0
LINE
  8
ボルト／ビス
  6
CONTINUOUS
 10
147.137183
 20
67.86203
 11
147.137183
 21
67.46203
  0
LINE
  8
ボルト／ビス
  6
CONTINUOUS
 10
147.137183
 20
67.46203
 11
147.20385
 21
67.46203
  0
ENDBLK
  0
BLOCK
  2
*GRP_0029
 70
    65
 10
0.0
 20
0.0
  0
LINE
  8
ボルト／ビス
  6
DOT
 10
146.433648
 20
70.908258
 11
146.103665
 21
71.238242
  0
LINE
  8
ボルト／ビス
  6
DOT
 10
146.692922
 20
71.16753
 11
146.64578
 21
71.214673
  0
LINE
  8
ボルト／ビス
  6
DOT
 10
146.64578
 20
71.214673
 11
146.127235
 21
70.696125
  0
LINE
  8
ボルト／ビス
  6
DOT
 10
146.127235
 20
70.696125
 11
146.174375
 21
70.648985
  0
LINE
  8
ボルト／ビス
  6
DOT
 10
146.692922
 20
71.16753
 11
146.174375
 21
70.648985
  0
LINE
  8
ボルト／ビス
  6
DOT
 10
146.57507
 20
71.1911
 11
146.59864
 21
71.16753
  0
LINE
  8
ボルト／ビス
  6
DOT
 10
146.57507
 20
71.1911
 11
146.150805
 21
70.766837
  0
LINE
  8
ボルト／ビス
  6
DOT
 10
146.150805
 20
70.766837
 11
146.174375
 21
70.743268
  0
LINE
  8
ボルト／ビス
  6
DOT
 62
    64
 10
146.334917
 20
71.233792
 11
146.365855
 21
71.248217
  0
ARC
  8
ボルト／ビス
  6
DOT
 62
    64
 10
146.397808
 20
71.148218
 40
0.104978
 50
135.0
 51
162.278033
  0
ARC
  8
ボルト／ビス
  6
DOT
 62
    64
 10
146.506057
 20
70.835846
 40
0.402402
 50
121.165015
 51
148.834998
  0
LINE
  8
ボルト／ビス
  6
DOT
 62
    64
 10
146.108115
 20
71.006987
 11
146.09369
 21
70.976052
  0
ARC
  8
ボルト／ビス
  6
DOT
 62
    64
 10
146.193684
 20
70.944094
 40
0.104978
 50
107.721967
 51
135.0
  0
LINE
  8
ボルト／ビス
  6
DOT
 62
    64
 10
146.334917
 20
71.233792
 11
146.108115
 21
71.006987
  0
LINE
  8
ボルト／ビス
  6
DOT
 62
    64
 10
146.09369
 20
70.976052
 11
146.179715
 21
70.890028
  0
LINE
  8
ボルト／ビス
  6
DOT
 62
    64
 10
146.16173
 20
71.044093
 11
146.247755
 21
70.958067
  0
LINE
  8
ボルト／ビス
  6
DOT
 62
    64
 10
146.365855
 20
71.248217
 11
146.45188
 21
71.162192
  0
LINE
  8
ボルト／ビス
  6
DOT
 62
    64
 10
146.297812
 20
71.180175
 11
146.383837
 21
71.09415
  0
LINE
  8
ボルト／ビス
  6
DOT
 10
146.45188
 20
71.162192
 11
146.179715
 21
70.890028
  0
LINE
  8
ボルト／ビス
  6
DOT
 10
146.457217
 20
71.16753
 11
146.50436
 21
71.12039
  0
LINE
  8
ボルト／ビス
  6
DOT
 10
146.457217
 20
71.16753
 11
146.174375
 21
70.884687
  0
LINE
  8
ボルト／ビス
  6
DOT
 10
146.174375
 20
70.884687
 11
146.221515
 21
70.837548
  0
ENDBLK
  0
BLOCK
  2
*GRP_0030
 70
    65
 10
0.0
 20
0.0
  0
LINE
  8
ボルト／ビス
  6
DOT
 10
124.277633
 20
48.752245
 11
123.94765
 21
49.08223
  0
LINE
  8
ボルト／ビス
  6
DOT
 10
124.536908
 20
49.011518
 11
124.489765
 21
49.05866
  0
LINE
  8
ボルト／ビス
  6
DOT
 10
124.489765
 20
49.05866
 11
123.97122
 21
48.540113
  0
LINE
  8
ボルト／ビス
  6
DOT
 10
123.97122
 20
48.540113
 11
124.01836
 21
48.492972
  0
LINE
  8
ボルト／ビス
  6
DOT
 10
124.536908
 20
49.011518
 11
124.01836
 21
48.492972
  0
LINE
  8
ボルト／ビス
  6
DOT
 10
124.419055
 20
49.035088
 11
124.442625
 21
49.011518
  0
LINE
  8
ボルト／ビス
  6
DOT
 10
124.419055
 20
49.035088
 11
123.99479
 21
48.610825
  0
LINE
  8
ボルト／ビス
  6
DOT
 10
123.99479
 20
48.610825
 11
124.01836
 21
48.587255
  0
LINE
  8
ボルト／ビス
  6
DOT
 62
    64
 10
124.178903
 20
49.07778
 11
124.20984
 21
49.092205
  0
ARC
  8
ボルト／ビス
  6
DOT
 62
    64
 10
124.241794
 20
48.992205
 40
0.104978
 50
135.0
 51
162.278033
  0
ARC
  8
ボルト／ビス
  6
DOT
 62
    64
 10
124.350042
 20
48.679833
 40
0.402402
 50
121.165015
 51
148.834998
  0
LINE
  8
ボルト／ビス
  6
DOT
 62
    64
 10
123.9521
 20
48.850975
 11
123.937675
 21
48.82004
  0
ARC
  8
ボルト／ビス
  6
DOT
 62
    64
 10
124.03767
 20
48.788081
 40
0.104978
 50
107.721967
 51
135.0
  0
LINE
  8
ボルト／ビス
  6
DOT
 62
    64
 10
124.178903
 20
49.07778
 11
123.9521
 21
48.850975
  0
LINE
  8
ボルト／ビス
  6
DOT
 62
    64
 10
123.937675
 20
48.82004
 11
124.0237
 21
48.734015
  0
LINE
  8
ボルト／ビス
  6
DOT
 62
    64
 10
124.005715
 20
48.88808
 11
124.09174
 21
48.802055
  0
LINE
  8
ボルト／ビス
  6
DOT
 62
    64
 10
124.20984
 20
49.092205
 11
124.295865
 21
49.00618
  0
LINE
  8
ボルト／ビス
  6
DOT
 62
    64
 10
124.141798
 20
49.024163
 11
124.227823
 21
48.938138
  0
LINE
  8
ボルト／ビス
  6
DOT
 10
124.295865
 20
49.00618
 11
124.0237
 21
48.734015
  0
LINE
  8
ボルト／ビス
  6
DOT
 10
124.301203
 20
49.011518
 11
124.348345
 21
48.964378
  0
LINE
  8
ボルト／ビス
  6
DOT
 10
124.301203
 20
49.011518
 11
124.01836
 21
48.728675
  0
LINE
  8
ボルト／ビス
  6
DOT
 10
124.01836
 20
48.728675
 11
124.0655
 21
48.681535
  0
ENDBLK
  0
ENDSEC
  0
SECTION
  2
ENTITIES
  0
POLYLINE
  8
通り芯
  6
CONTINUOUS
 66
     1
 70
     1
  0
VERTEX
  8
通り芯
 10
-210.0
 20
-148.5
  0
VERTEX
  8
通り芯
 10
210.0
 20
-148.5
  0
VERTEX
  8
通り芯
 10
210.0
 20
148.5
  0
VERTEX
  8
通り芯
 10
-210.0
 20
148.5
  0
SEQEND
  0
INSERT
  2
*GRP_0001
  8
型材断面
  6
CONTINUOUS
 10
0.0
 20
0.0
  0
LINE
  8
型材断面
  6
CONTINUOUS
 62
    47
 10
150.7373
 20
68.042055
 11
150.7373
 21
68.76227
  0
LINE
  8
型材断面
  6
CONTINUOUS
 62
    47
 10
149.44398
 20
68.718905
 11
149.43398
 21
68.728905
  0
LINE
  8
型材断面
  6
CONTINUOUS
 62
    47
 10
149.44398
 20
68.718905
 11
149.45398
 21
68.728905
  0
LINE
  8
型材断面
  6
CONTINUOUS
 62
    47
 10
150.086212
 20
68.718905
 11
150.076212
 21
68.728905
  0
LINE
  8
型材断面
  6
CONTINUOUS
 62
    47
 10
150.086212
 20
68.718905
 11
150.096213
 21
68.728905
  0
LINE
  8
型材断面
  6
CONTINUOUS
 62
    47
 10
150.503997
 20
68.728905
 11
150.096213
 21
68.728905
  0
LINE
  8
型材断面
  6
CONTINUOUS
 62
    47
 10
150.076212
 20
68.728905
 11
149.45398
 21
68.728905
  0
LINE
  8
型材断面
  6
CONTINUOUS
 62
    47
 10
154.137418
 20
70.228732
 11
153.804085
 21
70.228732
  0
LINE
  8
型材断面
  6
CONTINUOUS
 62
    47
 10
153.137415
 20
68.29557
 11
153.137415
 21
67.698725
  0
LINE
  8
型材断面
  6
CONTINUOUS
 62
    47
 10
153.137402
 20
68.528725
 11
153.304085
 21
70.728725
  0
LINE
  8
型材断面
  6
CONTINUOUS
 62
    47
 10
153.804085
 20
70.728725
 11
153.304085
 21
70.728725
  0
LINE
  8
型材断面
  6
CONTINUOUS
 62
    47
 10
150.570655
 20
69.99539
 11
150.7373
 21
69.99539
  0
LINE
  8
型材断面
  6
CONTINUOUS
 62
    47
 10
151.00396
 20
69.99539
 11
150.870643
 21
69.99539
  0
LINE
  8
型材断面
  6
CONTINUOUS
 62
    47
 10
150.503997
 20
68.728905
 11
150.570655
 21
70.002078
  0
LINE
  8
型材断面
  6
CONTINUOUS
 62
    47
 10
151.00396
 20
68.528725
 11
153.137415
 21
68.528725
  0
LINE
  8
型材断面
  6
CONTINUOUS
 62
    47
 10
149.43398
 20
68.728905
 11
148.30385
 21
68.728905
  0
LINE
  8
型材断面
  6
CONTINUOUS
 62
    47
 10
151.00396
 20
69.99539
 11
151.00396
 21
51.995363
  0
LINE
  8
型材断面
  6
CONTINUOUS
 10
150.570655
 20
69.99539
 11
150.570655
 21
51.995363
  0
LINE
  8
型材断面
  6
CONTINUOUS
 62
    47
 10
150.7373
 20
69.99539
 11
150.7373
 21
51.995363
  0
LINE
  8
型材断面
  6
CONTINUOUS
 10
150.503997
 20
68.728905
 11
150.503997
 21
51.995363
  0
LINE
  8
型材断面
  6
CONTINUOUS
 62
    47
 10
150.870643
 20
69.99539
 11
150.870643
 21
51.995363
  0
LINE
  8
型材断面
  6
CONTINUOUS
 10
153.137415
 20
68.528725
 11
153.137415
 21
51.995363
  0
LINE
  8
型材断面
  6
CONTINUOUS
 10
153.304085
 20
70.728725
 11
153.304085
 21
51.995363
  0
LINE
  8
型材断面
  6
CONTINUOUS
 10
154.137418
 20
70.228732
 11
154.137418
 21
51.995363
  0
LINE
  8
型材断面
  6
CONTINUOUS
 10
153.804085
 20
70.728725
 11
153.804085
 21
51.995363
  0
LINE
  8
型材断面
  6
CONTINUOUS
 62
    47
 10
150.7373
 20
35.94867
 11
150.7373
 21
35.228455
  0
LINE
  8
型材断面
  6
CONTINUOUS
 62
    47
 10
149.44398
 20
35.27182
 11
149.43398
 21
35.26182
  0
LINE
  8
型材断面
  6
CONTINUOUS
 62
    47
 10
149.44398
 20
35.27182
 11
149.45398
 21
35.26182
  0
LINE
  8
型材断面
  6
CONTINUOUS
 62
    47
 10
150.086212
 20
35.27182
 11
150.076212
 21
35.26182
  0
LINE
  8
型材断面
  6
CONTINUOUS
 62
    47
 10
150.086212
 20
35.27182
 11
150.096213
 21
35.26182
  0
LINE
  8
型材断面
  6
CONTINUOUS
 62
    47
 10
150.503997
 20
35.26182
 11
150.096213
 21
35.26182
  0
LINE
  8
型材断面
  6
CONTINUOUS
 62
    47
 10
150.076212
 20
35.26182
 11
149.45398
 21
35.26182
  0
LINE
  8
型材断面
  6
CONTINUOUS
 62
    47
 10
154.137418
 20
33.761993
 11
153.804085
 21
33.761993
  0
LINE
  8
型材断面
  6
CONTINUOUS
 62
    47
 10
153.137415
 20
35.695155
 11
153.137415
 21
36.292
  0
LINE
  8
型材断面
  6
CONTINUOUS
 62
    47
 10
153.137402
 20
35.462
 11
153.304085
 21
33.262
  0
LINE
  8
型材断面
  6
CONTINUOUS
 62
    47
 10
153.804085
 20
33.262
 11
153.304085
 21
33.262
  0
LINE
  8
型材断面
  6
CONTINUOUS
 62
    47
 10
150.570655
 20
33.995335
 11
150.7373
 21
33.995335
  0
LINE
  8
型材断面
  6
CONTINUOUS
 62
    47
 10
151.00396
 20
33.995335
 11
150.870643
 21
33.995335
  0
LINE
  8
型材断面
  6
CONTINUOUS
 62
    47
 10
150.503997
 20
35.26182
 11
150.570655
 21
33.988647
  0
LINE
  8
型材断面
  6
CONTINUOUS
 62
    47
 10
151.00396
 20
35.462
 11
153.137415
 21
35.462
  0
LINE
  8
型材断面
  6
CONTINUOUS
 62
    47
 10
149.43398
 20
35.26182
 11
148.30385
 21
35.26182
  0
LINE
  8
型材断面
  6
CONTINUOUS
 62
    47
 10
151.00396
 20
33.995335
 11
151.00396
 21
51.995363
  0
LINE
  8
型材断面
  6
CONTINUOUS
 10
150.570655
 20
33.995335
 11
150.570655
 21
51.995363
  0
LINE
  8
型材断面
  6
CONTINUOUS
 62
    47
 10
150.7373
 20
33.995335
 11
150.7373
 21
51.995363
  0
LINE
  8
型材断面
  6
CONTINUOUS
 10
150.503997
 20
35.26182
 11
150.503997
 21
51.995363
  0
LINE
  8
型材断面
  6
CONTINUOUS
 62
    47
 10
150.870643
 20
33.995335
 11
150.870643
 21
51.995363
  0
LINE
  8
型材断面
  6
CONTINUOUS
 10
153.137415
 20
35.462
 11
153.137415
 21
51.995363
  0
LINE
  8
型材断面
  6
CONTINUOUS
 10
153.304085
 20
33.262
 11
153.304085
 21
51.995363
  0
LINE
  8
型材断面
  6
CONTINUOUS
 10
154.137418
 20
33.761993
 11
154.137418
 21
51.995363
  0
LINE
  8
型材断面
  6
CONTINUOUS
 10
153.804085
 20
33.262
 11
153.804085
 21
51.995363
  0
LINE
  8
型材断面
  6
CONTINUOUS
 62
    47
 10
150.7373
 20
68.042055
 11
150.7373
 21
68.76227
  0
LINE
  8
型材断面
  6
CONTINUOUS
 62
    47
 10
149.44398
 20
68.718905
 11
149.43398
 21
68.728905
  0
LINE
  8
型材断面
  6
CONTINUOUS
 62
    47
 10
149.44398
 20
68.718905
 11
149.45398
 21
68.728905
  0
LINE
  8
型材断面
  6
CONTINUOUS
 62
    47
 10
150.086212
 20
68.718905
 11
150.076212
 21
68.728905
  0
LINE
  8
型材断面
  6
CONTINUOUS
 62
    47
 10
150.086212
 20
68.718905
 11
150.096213
 21
68.728905
  0
LINE
  8
型材断面
  6
CONTINUOUS
 62
    47
 10
150.503997
 20
68.728905
 11
150.096213
 21
68.728905
  0
LINE
  8
型材断面
  6
CONTINUOUS
 62
    47
 10
150.076212
 20
68.728905
 11
149.45398
 21
68.728905
  0
LINE
  8
型材断面
  6
CONTINUOUS
 62
    47
 10
150.570655
 20
69.99539
 11
150.7373
 21
69.99539
  0
LINE
  8
型材断面
  6
CONTINUOUS
 62
    47
 10
150.503997
 20
68.728905
 11
150.570655
 21
70.002078
  0
LINE
  8
型材断面
  6
CONTINUOUS
 62
    47
 10
149.43398
 20
68.728905
 11
148.30385
 21
68.728905
  0
LINE
  8
型材断面
  6
CONTINUOUS
 10
150.570655
 20
69.99539
 11
150.570655
 21
51.995363
  0
LINE
  8
型材断面
  6
CONTINUOUS
 62
    47
 10
150.7373
 20
69.99539
 11
150.7373
 21
51.995363
  0
LINE
  8
型材断面
  6
CONTINUOUS
 10
150.503997
 20
68.728905
 11
150.503997
 21
51.995363
  0
LINE
  8
型材断面
  6
CONTINUOUS
 62
    47
 10
150.7373
 20
35.94867
 11
150.7373
 21
35.228455
  0
LINE
  8
型材断面
  6
CONTINUOUS
 62
    47
 10
149.44398
 20
35.27182
 11
149.43398
 21
35.26182
  0
LINE
  8
型材断面
  6
CONTINUOUS
 62
    47
 10
149.44398
 20
35.27182
 11
149.45398
 21
35.26182
  0
LINE
  8
型材断面
  6
CONTINUOUS
 62
    47
 10
150.086212
 20
35.27182
 11
150.076212
 21
35.26182
  0
LINE
  8
型材断面
  6
CONTINUOUS
 62
    47
 10
150.086212
 20
35.27182
 11
150.096213
 21
35.26182
  0
LINE
  8
型材断面
  6
CONTINUOUS
 62
    47
 10
150.503997
 20
35.26182
 11
150.096213
 21
35.26182
  0
LINE
  8
型材断面
  6
CONTINUOUS
 62
    47
 10
150.076212
 20
35.26182
 11
149.45398
 21
35.26182
  0
LINE
  8
型材断面
  6
CONTINUOUS
 62
    47
 10
150.570655
 20
33.995335
 11
150.7373
 21
33.995335
  0
LINE
  8
型材断面
  6
CONTINUOUS
 62
    47
 10
150.503997
 20
35.26182
 11
150.570655
 21
33.988647
  0
LINE
  8
型材断面
  6
CONTINUOUS
 62
    47
 10
149.43398
 20
35.26182
 11
148.30385
 21
35.26182
  0
LINE
  8
型材断面
  6
CONTINUOUS
 10
150.570655
 20
33.995335
 11
150.570655
 21
51.995363
  0
LINE
  8
型材断面
  6
CONTINUOUS
 62
    47
 10
150.7373
 20
33.995335
 11
150.7373
 21
51.995363
  0
LINE
  8
型材断面
  6
CONTINUOUS
 10
150.503997
 20
35.26182
 11
150.503997
 21
51.995363
  0
LINE
  8
型材断面
  6
DOT
 62
    47
 10
149.13018
 20
68.74916
 11
149.63945
 21
69.25843
  0
LINE
  8
型材断面
  6
DOT
 62
    47
 10
148.69427
 20
70.142282
 11
148.69427
 21
70.156425
  0
LINE
  8
型材断面
  6
DOT
 62
    47
 10
148.69427
 20
70.142282
 11
148.708412
 21
70.142282
  0
LINE
  8
型材断面
  6
DOT
 62
    47
 10
149.148397
 20
69.688155
 11
149.148397
 21
69.702297
  0
LINE
  8
型材断面
  6
DOT
 62
    47
 10
149.148397
 20
69.688155
 11
149.16254
 21
69.688155
  0
LINE
  8
型材断面
  6
DOT
 62
    47
 10
149.450885
 20
69.399807
 11
149.16254
 21
69.688155
  0
LINE
  8
型材断面
  6
DOT
 62
    47
 10
149.148397
 20
69.702297
 11
148.708412
 21
70.142282
  0
LINE
  8
型材断面
  6
DOT
 62
    47
 10
150.39356
 20
70.248215
 11
150.511398
 21
70.130378
  0
LINE
  8
型材断面
  6
DOT
 62
    47
 10
149.450885
 20
69.399807
 11
150.39829
 21
70.252943
  0
LINE
  8
型材断面
  6
DOT
 62
    47
 10
148.69427
 20
70.156425
 11
147.895147
 21
70.955547
  0
LINE
  8
型材断面
  6
DOT
 10
150.39356
 20
70.248215
 11
137.66562
 21
57.52027
  0
LINE
  8
型材断面
  6
DOT
 62
    47
 10
150.511398
 20
70.130378
 11
137.783455
 21
57.402435
  0
LINE
  8
型材断面
  6
DOT
 10
149.450885
 20
69.399807
 11
137.618485
 21
57.567405
  0
LINE
  8
型材断面
  6
DOT
 62
    47
 10
126.43673
 20
46.05571
 11
125.92746
 21
45.546443
  0
LINE
  8
型材断面
  6
DOT
 62
    47
 10
125.04361
 20
46.49162
 11
125.029465
 21
46.49162
  0
LINE
  8
型材断面
  6
DOT
 62
    47
 10
125.04361
 20
46.49162
 11
125.04361
 21
46.477477
  0
LINE
  8
型材断面
  6
DOT
 62
    47
 10
125.497735
 20
46.037495
 11
125.483592
 21
46.037495
  0
LINE
  8
型材断面
  6
DOT
 62
    47
 10
125.497735
 20
46.037495
 11
125.497735
 21
46.02335
  0
LINE
  8
型材断面
  6
DOT
 62
    47
 10
125.786082
 20
45.735005
 11
125.497735
 21
46.02335
  0
LINE
  8
型材断面
  6
DOT
 62
    47
 10
125.483592
 20
46.037495
 11
125.04361
 21
46.477477
  0
LINE
  8
型材断面
  6
DOT
 62
    47
 10
124.937678
 20
44.79233
 11
125.055513
 21
44.674495
  0
LINE
  8
型材断面
  6
DOT
 62
    47
 10
125.786082
 20
45.735005
 11
124.93295
 21
44.7876
  0
LINE
  8
型材断面
  6
DOT
 62
    47
 10
125.029465
 20
46.49162
 11
124.230343
 21
47.290745
  0
LINE
  8
型材断面
  6
DOT
 10
124.937678
 20
44.79233
 11
137.66562
 21
57.52027
  0
LINE
  8
型材断面
  6
DOT
 62
    47
 10
125.055513
 20
44.674495
 11
137.783455
 21
57.402435
  0
LINE
  8
型材断面
  6
DOT
 10
125.786082
 20
45.735005
 11
137.618485
 21
57.567405
  0
LINE
  8
型材断面
  6
DOT
 62
    47
 10
149.13018
 20
68.74916
 11
149.63945
 21
69.25843
  0
LINE
  8
型材断面
  6
DOT
 62
    47
 10
148.69427
 20
70.142282
 11
148.69427
 21
70.156425
  0
LINE
  8
型材断面
  6
DOT
 62
    47
 10
148.69427
 20
70.142282
 11
148.708412
 21
70.142282
  0
LINE
  8
型材断面
  6
DOT
 62
    47
 10
149.148397
 20
69.688155
 11
149.148397
 21
69.702297
  0
LINE
  8
型材断面
  6
DOT
 62
    47
 10
149.148397
 20
69.688155
 11
149.16254
 21
69.688155
  0
LINE
  8
型材断面
  6
DOT
 62
    47
 10
149.450885
 20
69.399807
 11
149.16254
 21
69.688155
  0
LINE
  8
型材断面
  6
DOT
 62
    47
 10
149.148397
 20
69.702297
 11
148.708412
 21
70.142282
  0
LINE
  8
型材断面
  6
DOT
 62
    47
 10
150.39356
 20
70.248215
 11
150.511398
 21
70.130378
  0
LINE
  8
型材断面
  6
DOT
 62
    47
 10
149.450885
 20
69.399807
 11
150.39829
 21
70.252943
  0
LINE
  8
型材断面
  6
DOT
 62
    47
 10
148.69427
 20
70.156425
 11
147.895147
 21
70.955547
  0
LINE
  8
型材断面
  6
DOT
 10
150.39356
 20
70.248215
 11
137.66562
 21
57.52027
  0
LINE
  8
型材断面
  6
DOT
 62
    47
 10
150.511398
 20
70.130378
 11
137.783455
 21
57.402435
  0
LINE
  8
型材断面
  6
DOT
 10
149.450885
 20
69.399807
 11
137.618485
 21
57.567405
  0
LINE
  8
型材断面
  6
DOT
 62
    47
 10
126.43673
 20
46.05571
 11
125.92746
 21
45.546443
  0
LINE
  8
型材断面
  6
DOT
 62
    47
 10
125.04361
 20
46.49162
 11
125.029465
 21
46.49162
  0
LINE
  8
型材断面
  6
DOT
 62
    47
 10
125.04361
 20
46.49162
 11
125.04361
 21
46.477477
  0
LINE
  8
型材断面
  6
DOT
 62
    47
 10
125.497735
 20
46.037495
 11
125.483592
 21
46.037495
  0
LINE
  8
型材断面
  6
DOT
 62
    47
 10
125.497735
 20
46.037495
 11
125.497735
 21
46.02335
  0
LINE
  8
型材断面
  6
DOT
 62
    47
 10
125.786082
 20
45.735005
 11
125.497735
 21
46.02335
  0
LINE
  8
型材断面
  6
DOT
 62
    47
 10
125.483592
 20
46.037495
 11
125.04361
 21
46.477477
  0
LINE
  8
型材断面
  6
DOT
 62
    47
 10
124.937678
 20
44.79233
 11
125.055513
 21
44.674495
  0
LINE
  8
型材断面
  6
DOT
 62
    47
 10
125.786082
 20
45.735005
 11
124.93295
 21
44.7876
  0
LINE
  8
型材断面
  6
DOT
 62
    47
 10
125.029465
 20
46.49162
 11
124.230343
 21
47.290745
  0
LINE
  8
型材断面
  6
DOT
 10
124.937678
 20
44.79233
 11
137.66562
 21
57.52027
  0
LINE
  8
型材断面
  6
DOT
 62
    47
 10
125.055513
 20
44.674495
 11
137.783455
 21
57.402435
  0
LINE
  8
型材断面
  6
DOT
 10
125.786082
 20
45.735005
 11
137.618485
 21
57.567405
  0
ARC
  8
型材断面
  6
DASHDOT
 10
150.787289
 20
70.335575
 40
36.340275
 50
224.92118
 51
269.921181
  0
LINE
  8
型材断面
  6
DASHDOT
 10
-43.050183
 20
-66.258275
 11
-43.050183
 21
66.995363
  0
LINE
  8
型材断面
  6
CONTINUOUS
 62
    47
 10
24.663172
 20
-58.610877
 11
25.383388
 21
-58.610877
  0
LINE
  8
型材断面
  6
CONTINUOUS
 62
    47
 10
25.340022
 20
-57.317558
 11
25.350022
 21
-57.307557
  0
LINE
  8
型材断面
  6
CONTINUOUS
 62
    47
 10
25.340022
 20
-57.317558
 11
25.350022
 21
-57.327557
  0
LINE
  8
型材断面
  6
CONTINUOUS
 62
    47
 10
25.340022
 20
-57.95979
 11
25.350022
 21
-57.94979
  0
LINE
  8
型材断面
  6
CONTINUOUS
 62
    47
 10
25.340022
 20
-57.95979
 11
25.350022
 21
-57.96979
  0
LINE
  8
型材断面
  6
CONTINUOUS
 62
    47
 10
25.350022
 20
-58.377575
 11
25.350022
 21
-57.96979
  0
LINE
  8
型材断面
  6
CONTINUOUS
 62
    47
 10
25.350022
 20
-57.94979
 11
25.350022
 21
-57.327557
  0
LINE
  8
型材断面
  6
CONTINUOUS
 62
    47
 10
26.84985
 20
-62.010995
 11
26.84985
 21
-61.677663
  0
LINE
  8
型材断面
  6
CONTINUOUS
 62
    47
 10
24.916688
 20
-61.010992
 11
24.319843
 21
-61.010992
  0
LINE
  8
型材断面
  6
CONTINUOUS
 62
    47
 10
25.149842
 20
-61.01098
 11
27.349842
 21
-61.177663
  0
LINE
  8
型材断面
  6
CONTINUOUS
 62
    47
 10
27.349842
 20
-61.677663
 11
27.349842
 21
-61.177663
  0
LINE
  8
型材断面
  6
CONTINUOUS
 62
    47
 10
26.616508
 20
-58.444232
 11
26.616508
 21
-58.610877
  0
LINE
  8
型材断面
  6
CONTINUOUS
 62
    47
 10
26.616508
 20
-58.877538
 11
26.616508
 21
-58.74422
  0
LINE
  8
型材断面
  6
CONTINUOUS
 62
    47
 10
25.350022
 20
-58.377575
 11
26.623195
 21
-58.444232
  0
LINE
  8
型材断面
  6
CONTINUOUS
 62
    47
 10
25.149842
 20
-58.877538
 11
25.149842
 21
-61.010992
  0
LINE
  8
型材断面
  6
CONTINUOUS
 62
    47
 10
25.350022
 20
-57.307557
 11
25.350022
 21
-56.177427
  0
LINE
  8
型材断面
  6
CONTINUOUS
 62
    47
 10
26.616508
 20
-58.74422
 11
-43.050183
 21
-58.74422
  0
LINE
  8
型材断面
  6
CONTINUOUS
 10
25.350022
 20
-58.377575
 11
-43.050183
 21
-58.377575
  0
LINE
  8
型材断面
  6
CONTINUOUS
 10
26.616508
 20
-58.444232
 11
-43.050183
 21
-58.444232
  0
LINE
  8
型材断面
  6
CONTINUOUS
 62
    47
 10
26.616508
 20
-58.877538
 11
-43.050183
 21
-58.877538
  0
LINE
  8
型材断面
  6
CONTINUOUS
 62
    47
 10
26.616508
 20
-58.610877
 11
-43.050183
 21
-58.610877
  0
LINE
  8
型材断面
  6
CONTINUOUS
 10
27.349842
 20
-61.677663
 11
-43.050183
 21
-61.677663
  0
LINE
  8
型材断面
  6
CONTINUOUS
 10
27.349842
 20
-61.177663
 11
-43.050183
 21
-61.177663
  0
LINE
  8
型材断面
  6
CONTINUOUS
 10
26.84985
 20
-62.010995
 11
-43.050183
 21
-62.010995
  0
LINE
  8
型材断面
  6
CONTINUOUS
 10
25.149842
 20
-61.010992
 11
-43.050183
 21
-61.010992
  0
LINE
  8
型材断面
  6
CONTINUOUS
 10
25.683148
 20
34.928698
 11
27.349842
 21
33.262003
  0
LINE
  8
型材断面
  6
CONTINUOUS
 10
27.349842
 20
33.262003
 11
27.349842
 21
46.995363
  0
LINE
  8
型材断面
  6
CONTINUOUS
 10
26.616508
 20
33.995335
 11
26.616508
 21
46.995363
  0
LINE
  8
型材断面
  6
CONTINUOUS
 10
25.683148
 20
69.06203
 11
27.349842
 21
70.728725
  0
LINE
  8
型材断面
  6
CONTINUOUS
 10
27.349842
 20
46.995363
 11
27.349842
 21
70.728725
  0
LINE
  8
型材断面
  6
CONTINUOUS
 10
26.616508
 20
46.995363
 11
26.616508
 21
69.99539
  0
LINE
  8
型材断面
  6
DASHDOT
 10
23.61648
 20
-66.258275
 11
23.61648
 21
66.995363
  0
LINE
  8
型材断面
  6
DOT
 10
31.949813
 20
-66.258275
 11
31.949813
 21
66.995363
  0
LINE
  8
型材断面
  6
CONTINUOUS
 62
    47
 10
-110.76354
 20
-58.610877
 11
-111.483752
 21
-58.610877
  0
LINE
  8
型材断面
  6
CONTINUOUS
 62
    47
 10
-111.44039
 20
-57.317558
 11
-111.45039
 21
-57.307557
  0
LINE
  8
型材断面
  6
CONTINUOUS
 62
    47
 10
-111.44039
 20
-57.317558
 11
-111.45039
 21
-57.327557
  0
LINE
  8
型材断面
  6
CONTINUOUS
 62
    47
 10
-111.44039
 20
-57.95979
 11
-111.45039
 21
-57.94979
  0
LINE
  8
型材断面
  6
CONTINUOUS
 62
    47
 10
-111.44039
 20
-57.95979
 11
-111.45039
 21
-57.96979
  0
LINE
  8
型材断面
  6
CONTINUOUS
 62
    47
 10
-111.45039
 20
-58.377575
 11
-111.45039
 21
-57.96979
  0
LINE
  8
型材断面
  6
CONTINUOUS
 62
    47
 10
-111.45039
 20
-57.94979
 11
-111.45039
 21
-57.327557
  0
LINE
  8
型材断面
  6
CONTINUOUS
 62
    47
 10
-112.950217
 20
-62.010995
 11
-112.950217
 21
-61.677663
  0
LINE
  8
型材断面
  6
CONTINUOUS
 62
    47
 10
-111.017055
 20
-61.010992
 11
-110.420208
 21
-61.010992
  0
LINE
  8
型材断面
  6
CONTINUOUS
 62
    47
 10
-111.250208
 20
-61.01098
 11
-113.450208
 21
-61.177663
  0
LINE
  8
型材断面
  6
CONTINUOUS
 62
    47
 10
-113.450208
 20
-61.677663
 11
-113.450208
 21
-61.177663
  0
LINE
  8
型材断面
  6
CONTINUOUS
 62
    47
 10
-112.716875
 20
-58.444232
 11
-112.716875
 21
-58.610877
  0
LINE
  8
型材断面
  6
CONTINUOUS
 62
    47
 10
-112.716875
 20
-58.877538
 11
-112.716875
 21
-58.74422
  0
LINE
  8
型材断面
  6
CONTINUOUS
 62
    47
 10
-111.45039
 20
-58.377575
 11
-112.723563
 21
-58.444232
  0
LINE
  8
型材断面
  6
CONTINUOUS
 62
    47
 10
-111.250208
 20
-58.877538
 11
-111.250208
 21
-61.010992
  0
LINE
  8
型材断面
  6
CONTINUOUS
 62
    47
 10
-111.45039
 20
-57.307557
 11
-111.45039
 21
-56.177427
  0
LINE
  8
型材断面
  6
CONTINUOUS
 62
    47
 10
-112.716875
 20
-58.74422
 11
-43.050183
 21
-58.74422
  0
LINE
  8
型材断面
  6
CONTINUOUS
 10
-111.45039
 20
-58.377575
 11
-43.050183
 21
-58.377575
  0
LINE
  8
型材断面
  6
CONTINUOUS
 10
-112.716875
 20
-58.444232
 11
-43.050183
 21
-58.444232
  0
LINE
  8
型材断面
  6
CONTINUOUS
 62
    47
 10
-112.716875
 20
-58.877538
 11
-43.050183
 21
-58.877538
  0
LINE
  8
型材断面
  6
CONTINUOUS
 62
    47
 10
-112.716875
 20
-58.610877
 11
-43.050183
 21
-58.610877
  0
LINE
  8
型材断面
  6
CONTINUOUS
 10
-113.450208
 20
-61.677663
 11
-43.050183
 21
-61.677663
  0
LINE
  8
型材断面
  6
CONTINUOUS
 10
-113.450208
 20
-61.177663
 11
-43.050183
 21
-61.177663
  0
LINE
  8
型材断面
  6
CONTINUOUS
 10
-112.950217
 20
-62.010995
 11
-43.050183
 21
-62.010995
  0
LINE
  8
型材断面
  6
CONTINUOUS
 10
-111.250208
 20
-61.010992
 11
-43.050183
 21
-61.010992
  0
LINE
  8
型材断面
  6
CONTINUOUS
 10
-111.783512
 20
34.928698
 11
-113.450208
 21
33.262003
  0
LINE
  8
型材断面
  6
CONTINUOUS
 10
-113.450208
 20
33.262003
 11
-113.450208
 21
46.995363
  0
LINE
  8
型材断面
  6
CONTINUOUS
 10
-112.716875
 20
33.995335
 11
-112.716875
 21
46.995363
  0
LINE
  8
型材断面
  6
CONTINUOUS
 10
-113.450208
 20
33.262003
 11
-91.383515
 21
33.262003
  0
LINE
  8
型材断面
  6
CONTINUOUS
 10
-112.716875
 20
33.995335
 11
-91.383515
 21
33.995335
  0
LINE
  8
型材断面
  6
DASHDOT
 10
-109.716848
 20
36.995363
 11
159.10577
 21
36.995363
  0
LINE
  8
型材断面
  6
CONTINUOUS
 10
-111.783512
 20
69.06203
 11
-113.450208
 21
70.728725
  0
LINE
  8
型材断面
  6
CONTINUOUS
 10
-113.450208
 20
70.728725
 11
-91.383515
 21
70.728725
  0
LINE
  8
型材断面
  6
CONTINUOUS
 10
-112.716875
 20
69.995392
 11
-91.383515
 21
69.995392
  0
LINE
  8
型材断面
  6
DASHDOT
 10
-109.716848
 20
66.995363
 11
159.10577
 21
66.995363
  0
LINE
  8
型材断面
  6
DASHDOT
 10
-109.716848
 20
51.995363
 11
159.10577
 21
51.995363
  0
LINE
  8
型材断面
  6
DASHDOT
 10
-109.716848
 20
-66.258275
 11
-109.716848
 21
66.995363
  0
LINE
  8
型材断面
  6
CONTINUOUS
 10
-112.716875
 20
46.995363
 11
-112.716875
 21
69.995392
  0
LINE
  8
型材断面
  6
CONTINUOUS
 10
-113.450208
 20
46.995363
 11
-113.450208
 21
70.728725
  0
LINE
  8
型材断面
  6
DOT
 10
-118.05018
 20
-66.258275
 11
-118.05018
 21
66.995363
  0
LINE
  8
型材断面
  6
CONTINUOUS
 10
27.349842
 20
33.262003
 11
-91.383515
 21
33.262003
  0
LINE
  8
型材断面
  6
CONTINUOUS
 10
26.616508
 20
33.995335
 11
-91.383515
 21
33.995335
  0
LINE
  8
型材断面
  6
CONTINUOUS
 10
27.349842
 20
70.728725
 11
-91.383515
 21
70.728725
  0
LINE
  8
型材断面
  6
CONTINUOUS
 10
26.616508
 20
69.995392
 11
-91.383515
 21
69.995392
  0
LINE
  8
型材断面
  6
DOT
 10
-41.800183
 20
36.995363
 11
-41.800183
 21
66.995363
  0
LINE
  8
型材断面
  6
DOT
 10
-44.300183
 20
36.995363
 11
-44.300183
 21
66.995363
  0
LINE
  8
型材断面
  6
DASHDOT
 10
-43.050183
 20
36.995363
 11
-43.050183
 21
66.995363
  0
LINE
  8
型材断面
  6
CONTINUOUS
 10
-93.05018
 20
69.625492
 11
-94.54581
 21
72.216
  0
LINE
  8
型材断面
  6
CONTINUOUS
 10
-93.05018
 20
69.625492
 11
-91.55455
 21
72.216
  0
LINE
  8
型材断面
  6
CONTINUOUS
 10
-91.55455
 20
72.216
 11
-94.54581
 21
72.216
  0
LINE
  8
型材断面
  6
CONTINUOUS
 10
-112.346977
 20
51.995363
 11
-114.937485
 21
53.490992
  0
LINE
  8
型材断面
  6
CONTINUOUS
 10
-112.346977
 20
51.995363
 11
-114.937485
 21
50.499733
  0
LINE
  8
型材断面
  6
CONTINUOUS
 10
-114.937485
 20
50.499733
 11
-114.937485
 21
53.490992
  0
LINE
  8
型材断面
  6
CONTINUOUS
 10
-93.05018
 20
34.365232
 11
-94.54581
 21
31.774725
  0
LINE
  8
型材断面
  6
CONTINUOUS
 10
-93.05018
 20
34.365232
 11
-91.55455
 21
31.774725
  0
LINE
  8
型材断面
  6
CONTINUOUS
 10
-91.55455
 20
31.774725
 11
-94.54581
 21
31.774725
  0
LINE
  8
型材断面
  6
CONTINUOUS
 10
6.949815
 20
69.625492
 11
8.445445
 21
72.216
  0
LINE
  8
型材断面
  6
CONTINUOUS
 10
6.949815
 20
69.625492
 11
5.454185
 21
72.216
  0
LINE
  8
型材断面
  6
CONTINUOUS
 10
5.454185
 20
72.216
 11
8.445445
 21
72.216
  0
LINE
  8
型材断面
  6
CONTINUOUS
 10
6.949815
 20
34.365232
 11
8.445445
 21
31.774725
  0
LINE
  8
型材断面
  6
CONTINUOUS
 10
6.949815
 20
34.365232
 11
5.454185
 21
31.774725
  0
LINE
  8
型材断面
  6
CONTINUOUS
 10
5.454185
 20
31.774725
 11
8.445445
 21
31.774725
  0
LINE
  8
型材断面
  6
CONTINUOUS
 10
-163.59537
 20
104.972835
 11
-162.999315
 21
102.382328
  0
LINE
  8
型材断面
  6
CONTINUOUS
 10
-163.59537
 20
104.972835
 11
-164.191428
 21
102.382328
  0
LINE
  8
型材断面
  6
CONTINUOUS
 10
-164.191428
 20
102.382328
 11
-162.999315
 21
102.382328
  0
LINE
  8
型材断面
  6
CONTINUOUS
 10
-169.617958
 20
99.103435
 11
-123.37618
 21
99.103435
  0
LINE
  8
型材断面
  6
CONTINUOUS
 10
-163.59537
 20
111.50271
 11
-165.091
 21
108.912203
  0
LINE
  8
型材断面
  6
CONTINUOUS
 10
-163.59537
 20
111.50271
 11
-162.09974
 21
108.912203
  0
LINE
  8
型材断面
  6
CONTINUOUS
 10
-162.09974
 20
108.912203
 11
-165.091
 21
108.912203
  0
LINE
  8
型材断面
  6
CONTINUOUS
 10
-169.617958
 20
107.973608
 11
-123.37618
 21
107.973608
  0
LINE
  8
型材断面
  6
CONTINUOUS
 10
-169.617958
 20
93.315402
 11
-123.37618
 21
93.315402
  0
LINE
  8
型材断面
  6
CONTINUOUS
 10
26.246613
 20
51.995363
 11
28.83712
 21
53.490992
  0
LINE
  8
型材断面
  6
CONTINUOUS
 10
26.246613
 20
51.995363
 11
28.83712
 21
50.499733
  0
LINE
  8
型材断面
  6
CONTINUOUS
 10
28.83712
 20
50.499733
 11
28.83712
 21
53.490992
  0
POLYLINE
  8
型材断面
  6
DASHDOT
 66
     1
  0
VERTEX
  8
型材断面
 10
-109.716848
 20
36.995363
  0
VERTEX
  8
型材断面
 10
-43.050183
 20
66.995363
  0
VERTEX
  8
型材断面
 10
23.616485
 20
36.995363
  0
SEQEND
  0
LINE
  8
型材断面
  6
CONTINUOUS
 10
21.616485
 20
34.38855
 11
21.020428
 21
31.798045
  0
LINE
  8
型材断面
  6
CONTINUOUS
 10
21.616485
 20
34.38855
 11
22.212543
 21
31.798045
  0
LINE
  8
型材断面
  6
CONTINUOUS
 10
22.212543
 20
31.798045
 11
21.020428
 21
31.798045
  0
LINE
  8
型材断面
  6
CONTINUOUS
 10
-107.71685
 20
34.38855
 11
-107.120792
 21
31.798045
  0
LINE
  8
型材断面
  6
CONTINUOUS
 10
-107.71685
 20
34.38855
 11
-108.312907
 21
31.798045
  0
LINE
  8
型材断面
  6
CONTINUOUS
 10
-108.312907
 20
31.798045
 11
-107.120792
 21
31.798045
  0
LINE
  8
型材断面
  6
DASHDOT
 10
-76.726847
 20
36.995363
 11
-76.726847
 21
66.995363
  0
LINE
  8
型材断面
  6
DOT
 10
-77.976847
 20
36.995363
 11
-77.976847
 21
66.995363
  0
LINE
  8
型材断面
  6
DOT
 10
-75.476847
 20
36.995363
 11
-75.476847
 21
66.995363
  0
LINE
  8
型材断面
  6
DASHDOT
 10
-9.373517
 20
36.995363
 11
-9.373517
 21
66.995363
  0
LINE
  8
型材断面
  6
DOT
 10
-8.123517
 20
36.995363
 11
-8.123517
 21
66.995363
  0
LINE
  8
型材断面
  6
DOT
 10
-10.623517
 20
36.995363
 11
-10.623517
 21
66.995363
  0
POLYLINE
  8
ガラス
  6
CONTINUOUS
 66
     1
 70
     1
  0
VERTEX
  8
ガラス
 10
135.405348
 20
-35.451318
  0
VERTEX
  8
ガラス
 10
102.565347
 20
-35.451318
  0
VERTEX
  8
ガラス
 10
102.565347
 20
-65.984652
  0
VERTEX
  8
ガラス
 10
135.405348
 20
-65.984652
  0
SEQEND
  0
TEXT
  7
TextStyle03
  8
文字
  6
CONTINUOUS
 10
80.875
 20
94.425
  1
ＮＳコード：ＮＳＨＬ
 40
5.0
 72
     5
 11
136.5
 21
94.425
  0
TEXT
  7
TextStyle03
  8
文字
  6
CONTINUOUS
 10
129.975
 20
30.25
  1
45°
 40
3.0
 72
     5
 11
136.35
 21
30.25
  0
TEXT
  7
TextStyle03
  8
文字
  6
CONTINUOUS
 10
81.225
 20
116.5
  1
シリーズ：ＴＤ１ＨＬ
 40
5.0
 72
     5
 11
136.85
 21
116.5
  0
TEXT
  7
TextStyle03
  8
文字
  6
CONTINUOUS
 10
81.225
 20
110.875
  1
　　　　　（片側開閉）900×4000タイプ
 40
5.0
 72
     5
 11
184.6625
 21
110.875
  0
TEXT
  7
TextStyle03
  8
文字
  6
CONTINUOUS
 10
81.225
 20
105.25
  1
図面名　：外観姿図
 40
5.0
 72
     5
 11
131.225
 21
105.25
  0
TEXT
  7
TextStyle03
  8
文字
  6
CONTINUOUS
 10
81.225
 20
99.625
  1
　　　　　　
 40
5.0
 72
     5
 11
114.35
 21
99.625
  0
TEXT
  7
TextStyle03
  8
文字
  6
CONTINUOUS
 10
-160.8
 20
109.1
  1
は排水穴位置を示す
 40
3.0
 72
     5
 11
-130.8
 21
109.1
  0
TEXT
  7
TextStyle03
  8
文字
  6
CONTINUOUS
 10
-160.8
 20
103.575
  1
はケーシング位置を示す
 40
3.0
 72
     5
 11
-124.05
 21
103.575
  0
TEXT
  7
TextStyle03
  8
文字
  6
CONTINUOUS
 10
-160.8
 20
100.2
  1
２ヶ所中1ヶ所に設定
 40
3.0
 72
     5
 11
-129.1125
 21
100.2
  0
TEXT
  7
TextStyle03
  8
文字
  6
CONTINUOUS
 10
-130.65
 20
30.45
  1
アンカーピッチ
 40
3.0
 50
90.0
 72
     5
 11
-130.65
 21
53.7
  0
TEXT
  7
TextStyle03
  8
文字
  6
CONTINUOUS
 10
-101.6
 20
105.0
  1
アンカーピッチ
 40
3.0
 72
     5
 11
-78.35
 21
105.0
  0
TEXT
  7
TextStyle03
  8
文字
  6
CONTINUOUS
 10
-164.525
 20
94.225
  1
アンカー数量　１６ヶ所
 40
3.0
 72
     5
 11
-127.775
 21
94.225
  0
TEXT
  7
TextStyle03
  8
文字
  6
CONTINUOUS
 10
116.725
 20
-58.475
  1
網入り6.8t
 40
3.0
 72
     5
 11
133.4125
 21
-58.475
  0
TEXT
  7
TextStyle03
  8
文字
  6
CONTINUOUS
 10
123.35
 20
-63.725
  1
×４枚
 40
3.0
 72
     5
 11
133.1
 21
-63.725
  0
INSERT
  2
*DIM_0002
  8
寸法
  6
CONTINUOUS
 10
0.0
 20
0.0
  0
INSERT
  2
*DIM_0003
  8
寸法
  6
CONTINUOUS
 10
0.0
 20
0.0
  0
INSERT
  2
*DIM_0005
  8
寸法
  6
CONTINUOUS
 10
0.0
 20
0.0
  0
INSERT
  2
*DIM_0006
  8
寸法
  6
CONTINUOUS
 10
0.0
 20
0.0
  0
INSERT
  2
*DIM_0007
  8
寸法
  6
CONTINUOUS
 10
0.0
 20
0.0
  0
INSERT
  2
*DIM_0008
  8
寸法
  6
CONTINUOUS
 10
0.0
 20
0.0
  0
INSERT
  2
*DIM_0009
  8
寸法
  6
CONTINUOUS
 10
0.0
 20
0.0
  0
INSERT
  2
*DIM_0010
  8
寸法
  6
CONTINUOUS
 10
0.0
 20
0.0
  0
INSERT
  2
*DIM_0011
  8
寸法
  6
CONTINUOUS
 10
0.0
 20
0.0
  0
INSERT
  2
*DIM_0012
  8
寸法
  6
CONTINUOUS
 10
0.0
 20
0.0
  0
INSERT
  2
*DIM_0013
  8
寸法
  6
CONTINUOUS
 10
0.0
 20
0.0
  0
INSERT
  2
*DIM_0014
  8
寸法
  6
CONTINUOUS
 10
0.0
 20
0.0
  0
INSERT
  2
*DIM_0015
  8
寸法
  6
CONTINUOUS
 10
0.0
 20
0.0
  0
INSERT
  2
*DIM_0016
  8
寸法
  6
CONTINUOUS
 10
0.0
 20
0.0
  0
INSERT
  2
*DIM_0017
  8
寸法
  6
CONTINUOUS
 10
0.0
 20
0.0
  0
INSERT
  2
*DIM_0018
  8
寸法
  6
CONTINUOUS
 10
0.0
 20
0.0
  0
INSERT
  2
*DIM_0019
  8
寸法
  6
CONTINUOUS
 10
0.0
 20
0.0
  0
INSERT
  2
*DIM_0021
  8
寸法
  6
CONTINUOUS
 10
0.0
 20
0.0
  0
INSERT
  2
*DIM_0022
  8
寸法
  6
CONTINUOUS
 10
0.0
 20
0.0
  0
INSERT
  2
*DIM_0023
  8
寸法
  6
CONTINUOUS
 10
0.0
 20
0.0
  0
INSERT
  2
*DIM_0024
  8
寸法
  6
CONTINUOUS
 10
0.0
 20
0.0
  0
LINE
  8
別途部材
  6
CONTINUOUS
 62
    96
 10
147.30385
 20
68.66203
 11
148.30385
 21
69.06203
  0
LINE
  8
別途部材
  6
CONTINUOUS
 62
    96
 10
147.30385
 20
68.66203
 11
147.30385
 21
51.995363
  0
LINE
  8
別途部材
  6
CONTINUOUS
 10
148.30385
 20
69.06203
 11
148.30385
 21
51.995363
  0
LINE
  8
別途部材
  6
CONTINUOUS
 62
    96
 10
147.30385
 20
35.328695
 11
148.30385
 21
34.928695
  0
LINE
  8
別途部材
  6
CONTINUOUS
 62
    96
 10
147.30385
 20
35.328695
 11
147.30385
 21
51.995363
  0
LINE
  8
別途部材
  6
CONTINUOUS
 10
148.30385
 20
34.928695
 11
148.30385
 21
51.995363
  0
ARC
  8
別途部材
  6
CONTINUOUS
 10
156.63718
 20
51.995363
 40
17.666667
 50
121.890792
 51
238.109208
  0
INSERT
  2
*GRP_0004
  8
別途部材
  6
CONTINUOUS
 10
0.0
 20
0.0
  0
LINE
  8
別途部材
  6
CONTINUOUS
 62
    96
 10
147.30385
 20
68.66203
 11
148.30385
 21
69.06203
  0
LINE
  8
別途部材
  6
CONTINUOUS
 62
    96
 10
147.30385
 20
68.66203
 11
147.30385
 21
51.995363
  0
LINE
  8
別途部材
  6
CONTINUOUS
 10
148.30385
 20
69.06203
 11
148.30385
 21
51.995363
  0
LINE
  8
別途部材
  6
CONTINUOUS
 62
    96
 10
147.30385
 20
35.328695
 11
148.30385
 21
34.928695
  0
LINE
  8
別途部材
  6
CONTINUOUS
 62
    96
 10
147.30385
 20
35.328695
 11
147.30385
 21
51.995363
  0
LINE
  8
別途部材
  6
CONTINUOUS
 10
148.30385
 20
34.928695
 11
148.30385
 21
51.995363
  0
ARC
  8
別途部材
  6
CONTINUOUS
 10
156.63718
 20
51.995363
 40
17.666667
 50
121.890792
 51
238.109208
  0
LINE
  8
別途部材
  6
DOT
 62
    96
 10
147.14075
 20
71.615365
 11
148.1307
 21
71.1911
  0
LINE
  8
別途部材
  6
DOT
 62
    96
 10
147.14075
 20
71.615365
 11
135.355638
 21
59.830252
  0
LINE
  8
別途部材
  6
DOT
 10
148.1307
 20
71.1911
 11
136.062745
 21
59.123145
  0
LINE
  8
別途部材
  6
DOT
 62
    96
 10
123.570525
 20
48.04514
 11
123.99479
 21
47.05519
  0
LINE
  8
別途部材
  6
DOT
 62
    96
 10
123.570525
 20
48.04514
 11
135.355638
 21
59.830252
  0
LINE
  8
別途部材
  6
DOT
 10
123.99479
 20
47.05519
 11
136.062745
 21
59.123145
  0
ARC
  8
別途部材
  6
DOT
 10
141.955298
 20
53.23059
 40
17.666667
 50
76.890792
 51
193.109208
  0
LINE
  8
別途部材
  6
DOT
 62
    96
 10
147.14075
 20
71.615365
 11
148.1307
 21
71.1911
  0
LINE
  8
別途部材
  6
DOT
 62
    96
 10
147.14075
 20
71.615365
 11
135.355638
 21
59.830252
  0
LINE
  8
別途部材
  6
DOT
 10
148.1307
 20
71.1911
 11
136.062745
 21
59.123145
  0
LINE
  8
別途部材
  6
DOT
 62
    96
 10
123.570525
 20
48.04514
 11
123.99479
 21
47.05519
  0
LINE
  8
別途部材
  6
DOT
 62
    96
 10
123.570525
 20
48.04514
 11
135.355638
 21
59.830252
  0
LINE
  8
別途部材
  6
DOT
 10
123.99479
 20
47.05519
 11
136.062745
 21
59.123145
  0
ARC
  8
別途部材
  6
DOT
 10
141.955298
 20
53.23059
 40
17.666667
 50
76.890792
 51
193.109208
  0
LINE
  8
別途部材
  6
CONTINUOUS
 10
25.683152
 20
34.928695
 11
25.283152
 21
35.328695
  0
LINE
  8
別途部材
  6
CONTINUOUS
 10
23.616485
 20
36.995363
 11
15.55723
 21
45.05462
  0
LINE
  8
別途部材
  6
CONTINUOUS
 10
25.283152
 20
35.328695
 11
25.283152
 21
51.995363
  0
LINE
  8
別途部材
  6
CONTINUOUS
 10
25.683152
 20
34.928695
 11
25.683152
 21
51.995363
  0
LINE
  8
別途部材
  6
CONTINUOUS
 10
25.683152
 20
69.06203
 11
25.283152
 21
68.66203
  0
LINE
  8
別途部材
  6
CONTINUOUS
 10
23.616485
 20
66.995363
 11
15.55723
 21
58.936105
  0
LINE
  8
別途部材
  6
CONTINUOUS
 10
25.283152
 20
68.66203
 11
25.283152
 21
51.995363
  0
LINE
  8
別途部材
  6
CONTINUOUS
 10
25.683152
 20
69.06203
 11
25.683152
 21
51.995363
  0
LINE
  8
別途部材
  6
CONTINUOUS
 10
25.283152
 20
68.66203
 11
-43.050183
 21
68.66203
  0
LINE
  8
別途部材
  6
CONTINUOUS
 10
25.683152
 20
69.06203
 11
-43.050183
 21
69.06203
  0
LINE
  8
別途部材
  6
CONTINUOUS
 10
25.683152
 20
34.928695
 11
-43.050183
 21
34.928695
  0
LINE
  8
別途部材
  6
CONTINUOUS
 10
25.283152
 20
35.328695
 11
-43.050183
 21
35.328695
  0
LINE
  8
別途部材
  6
CONTINUOUS
 10
-111.783518
 20
34.928695
 11
-111.383518
 21
35.328695
  0
LINE
  8
別途部材
  6
CONTINUOUS
 10
-109.71685
 20
36.995363
 11
-101.657595
 21
45.05462
  0
LINE
  8
別途部材
  6
CONTINUOUS
 10
-111.383518
 20
35.328695
 11
-111.383518
 21
51.995363
  0
LINE
  8
別途部材
  6
CONTINUOUS
 10
-111.783518
 20
34.928695
 11
-111.783518
 21
51.995363
  0
LINE
  8
別途部材
  6
CONTINUOUS
 10
-111.783518
 20
69.06203
 11
-111.383518
 21
68.66203
  0
LINE
  8
別途部材
  6
CONTINUOUS
 10
-109.71685
 20
66.995363
 11
-101.657595
 21
58.936105
  0
LINE
  8
別途部材
  6
CONTINUOUS
 10
-111.383518
 20
68.66203
 11
-111.383518
 21
51.995363
  0
LINE
  8
別途部材
  6
CONTINUOUS
 10
-111.783518
 20
69.06203
 11
-111.783518
 21
51.995363
  0
LINE
  8
別途部材
  6
CONTINUOUS
 10
-111.383518
 20
68.66203
 11
-43.050183
 21
68.66203
  0
LINE
  8
別途部材
  6
CONTINUOUS
 10
-111.783518
 20
69.06203
 11
-43.050183
 21
69.06203
  0
LINE
  8
別途部材
  6
CONTINUOUS
 10
-111.783518
 20
34.928695
 11
-43.050183
 21
34.928695
  0
LINE
  8
別途部材
  6
CONTINUOUS
 10
-111.383518
 20
35.328695
 11
-43.050183
 21
35.328695
  0
INSERT
  2
*GRP_0020
  8
別途部材
  6
CONTINUOUS
 10
0.0
 20
0.0
  0
INSERT
  2
*GRP_0025
  8
別途部材
  6
DOT
 10
0.0
 20
0.0
  0
INSERT
  2
*GRP_0026
  8
別途部材
  6
DOT
 10
0.0
 20
0.0
  0
INSERT
  2
*GRP_0027
  8
別途部材
  6
DOT
 10
0.0
 20
0.0
  0
INSERT
  2
*GRP_0028
  8
別途部材
  6
DOT
 10
0.0
 20
0.0
  0
INSERT
  2
*GRP_0029
  8
別途部材
  6
DOT
 10
0.0
 20
0.0
  0
INSERT
  2
*GRP_0030
  8
別途部材
  6
DOT
 10
0.0
 20
0.0
  0
ENDSEC
  0
EOF
