  0
SECTION
  2
HEADER
  9
$EXTMIN
 10
-210.0
 20
-148.5
  9
$EXTMAX
 10
210.0
 20
148.5
  9
$PDMODE
 70
    32
  9
$PDSIZE
 40
1.5
  9
$LTSCALE
 40
10.0
  0
ENDSEC
  0
SECTION
  2
TABLES
  0
TABLE
  2
LTYPE
 70
    15
  0
LTYPE
  2
CONTINUOUS
 70
    64
  3
実線
 72
    65
 73
     0
 40
0.0
  0
LTYPE
  2
DASHED
 70
    64
  3
破線A
 72
    65
 73
     2
 40
0.6
 49
0.4
 49
-0.2
  0
LTYPE
  2
DASHEDX2
 70
    64
  3
破線B
 72
    65
 73
     2
 40
1.3
 49
0.9
 49
-0.4
  0
LTYPE
  2
DASHDOT
 70
    64
  3
１点鎖線A
 72
    65
 73
     4
 40
0.5375
 49
0.375
 49
-0.05
 49
0.0625
 49
-0.05
  0
LTYPE
  2
DASHDOTX2
 70
    64
  3
１点鎖線B
 72
    65
 73
     4
 40
1.075
 49
0.75
 49
-0.1
 49
0.125
 49
-0.1
  0
LTYPE
  2
DIVIDE2
 70
    64
  3
２点鎖線A
 72
    65
 73
     6
 40
0.5125
 49
0.3
 49
-0.0375
 49
0.05
 49
-0.0375
 49
0.05
 49
-0.0375
  0
LTYPE
  2
DIVIDE
 70
    64
  3
２点鎖線B
 72
    65
 73
     6
 40
1.05
 49
0.55
 49
-0.1
 49
0.1
 49
-0.1
 49
0.1
 49
-0.1
  0
LTYPE
  2
DOT
 70
    64
  3
点線A
 72
    65
 73
     2
 40
0.1125
 49
0.0625
 49
-0.05
  0
LTYPE
  2
DOTX2
 70
    64
  3
点線B
 72
    65
 73
     2
 40
0.275
 49
0.15
 49
-0.125
  0
LTYPE
  2
CONTINUOUS
 70
    64
  3
実線
 72
    65
 73
     0
 40
0.0
  0
LTYPE
  2
CONTINUOUS
 70
    64
  3
実線
 72
    65
 73
     0
 40
0.0
  0
LTYPE
  2
CONTINUOUS
 70
    64
  3
実線
 72
    65
 73
     0
 40
0.0
  0
LTYPE
  2
CONTINUOUS
 70
    64
  3
実線
 72
    65
 73
     0
 40
0.0
  0
LTYPE
  2
CONTINUOUS
 70
    64
  3
実線
 72
    65
 73
     0
 40
0.0
  0
LTYPE
  2
CONTINUOUS
 70
    64
  3
実線
 72
    65
 73
     0
 40
0.0
  0
ENDTAB
  0
TABLE
  2
LAYER
 70
    34
  0
LAYER
  2
通り芯
 70
     0
 62
    15
  6
CONTINUOUS
  0
LAYER
  2
補助線
 70
     0
 62
    16
  6
DOT
  0
LAYER
  2
躯体
 70
     0
 62
    31
  6
CONTINUOUS
  0
LAYER
  2
型材
 70
     0
 62
    32
  6
CONTINUOUS
  0
LAYER
  2
型材断面
 70
     0
 62
    47
  6
CONTINUOUS
  0
LAYER
  2
ガラス
 70
     0
 62
    48
  6
CONTINUOUS
  0
LAYER
  2
ゴム等
 70
     0
 62
    63
  6
CONTINUOUS
  0
LAYER
  2
ボルト／ビス
 70
     0
 62
    64
  6
CONTINUOUS
  0
LAYER
  2
文字
 70
     0
 62
    79
  6
CONTINUOUS
  0
LAYER
  2
寸法
 70
     0
 62
    80
  6
CONTINUOUS
  0
LAYER
  2
ﾊｯﾁﾝｸﾞ
 70
     0
 62
    95
  6
CONTINUOUS
  0
LAYER
  2
別途部材
 70
     0
 62
    96
  6
CONTINUOUS
  0
LAYER
  2
曲げ物
 70
     0
 62
   111
  6
CONTINUOUS
  0
LAYER
  2
鉄骨等
 70
     0
 62
   112
  6
CONTINUOUS
  0
LAYER
  2
St
 70
     0
 62
   127
  6
CONTINUOUS
  0
LAYER
  2
その他部品等
 70
     0
 62
   128
  6
CONTINUOUS
  0
LAYER
  2
ｶﾞｽｹｯﾄ
 70
     0
 62
   143
  6
CONTINUOUS
  0
LAYER
  2
ｽｹｯﾁ
 70
     0
 62
    14
  6
CONTINUOUS
  0
LAYER
  2
0
 70
     0
 62
    17
  6
CONTINUOUS
  0
LAYER
  2
1
 70
     0
 62
    30
  6
CONTINUOUS
  0
LAYER
  2
4
 70
     0
 62
    33
  6
CONTINUOUS
  0
LAYER
  2
ﾚｲﾔ3
 70
     0
 62
    46
  6
CONTINUOUS
  0
LAYER
  2
外形線
 70
     0
 62
    49
  6
CONTINUOUS
  0
LAYER
  2
部品
 70
     0
 62
    14
  6
CONTINUOUS
  0
LAYER
  2
サッシ芯
 70
     0
 62
    17
  6
DASHDOTX2
  0
LAYER
  2
寸法線
 70
     0
 62
    62
  6
CONTINUOUS
  0
LAYER
  2
姿図外形線
 70
     0
 62
    65
  6
CONTINUOUS
  0
LAYER
  2
姿補助線
 70
     0
 62
    30
  6
CONTINUOUS
  0
LAYER
  2
透視線
 70
     0
 62
    78
  6
DOT
  0
LAYER
  2
用紙
 70
     0
 62
    81
  6
CONTINUOUS
  0
LAYER
  2
実線図枠
 70
     0
 62
    94
  6
CONTINUOUS
  0
LAYER
  2
補助図枠
 70
     0
 62
    97
  6
CONTINUOUS
  0
LAYER
  2
建具記号
 70
     0
 62
   110
  6
CONTINUOUS
  0
LAYER
  2
補助文字
 70
     0
 62
   113
  6
CONTINUOUS
  0
ENDTAB
  0
TABLE
  2
STYLE
 70
    10
  0
STYLE
  2
STANDARD
 70
     0
 40
1.0
 41
1.0
 42
1.0
 50
0.0
 71
     0
  3
TXT
  4
BIGFONT
  0
STYLE
  2
TATE
 70
     4
 40
1.0
 41
1.0
 42
1.0
 50
0.0
 71
     0
  3
TXT
  4
BIGFONT
  0
STYLE
  2
TextStyle03
 70
     0
 40
1.0
 41
1.0
 42
1.0
 50
0.0
 71
     0
  3
MONOTXT
  4
BIGFONT
  0
STYLE
  2
TextStyle04
 70
     0
 40
1.0
 41
1.0
 42
1.0
 50
0.0
 71
     0
  3
MONOTXT
  4
BIGFONT
  0
STYLE
  2
TextStyle05
 70
     0
 40
1.0
 41
1.0
 42
1.0
 50
0.0
 71
     0
  3
MONOTXT
  4
BIGFONT
  0
STYLE
  2
TextStyle06
 70
     0
 40
1.0
 41
1.0
 42
1.0
 50
0.0
 71
     0
  3
MONOTXT
  4
BIGFONT
  0
STYLE
  2
TextStyle07
 70
     0
 40
1.0
 41
1.0
 42
1.0
 50
0.0
 71
     0
  3
MONOTXT
  4
BIGFONT
  0
STYLE
  2
TextStyle08
 70
     0
 40
1.0
 41
1.0
 42
1.0
 50
0.0
 71
     0
  3
MONOTXT
  4
BIGFONT
  0
STYLE
  2
TextStyle09
 70
     0
 40
1.0
 41
1.0
 42
1.0
 50
0.0
 71
     0
  3
MONOTXT
  4
BIGFONT
  0
STYLE
  2
TextStyle10
 70
     0
 40
1.0
 41
1.0
 42
1.0
 50
0.0
 71
     0
  3
MONOTXT
  4
BIGFONT
  0
ENDTAB
  0
ENDSEC
  0
SECTION
  2
BLOCKS
  0
BLOCK
  2
*GRP_0001
 70
    65
 10
0.0
 20
0.0
  0
LINE
  8
型材断面
  6
CONTINUOUS
 10
195.0
 20
133.5
 11
195.0
 21
-133.5
  0
LINE
  8
型材断面
  6
CONTINUOUS
 10
195.0
 20
-133.5
 11
-185.0
 21
-133.5
  0
LINE
  8
型材断面
  6
CONTINUOUS
 10
-185.0
 20
-133.5
 11
-185.0
 21
133.5
  0
LINE
  8
型材断面
  6
CONTINUOUS
 10
195.0
 20
133.5
 11
-185.0
 21
133.5
  0
LINE
  8
型材断面
  6
CONTINUOUS
 10
145.0
 20
-133.5
 11
145.0
 21
-118.5
  0
LINE
  8
型材断面
  6
CONTINUOUS
 10
195.0
 20
-118.5
 11
145.0
 21
-118.5
  0
ENDBLK
  0
BLOCK
  2
*GRP_0002
 70
    65
 10
0.0
 20
0.0
  0
INSERT
  2
*GRP_0012
  8
補助線
  6
CONTINUOUS
 10
0.0
 20
0.0
  0
LINE
  8
ボルト／ビス
  6
CONTINUOUS
 10
-84.935405
 20
0.403315
 11
-84.685405
 21
0.547653
  0
LINE
  8
ボルト／ビス
  6
CONTINUOUS
 10
-84.935405
 20
0.403315
 11
-85.185405
 21
0.547653
  0
LINE
  8
ボルト／ビス
  6
CONTINUOUS
 10
-84.685405
 20
0.836327
 11
-84.935405
 21
0.980665
  0
LINE
  8
ボルト／ビス
  6
CONTINUOUS
 10
-85.185405
 20
0.836327
 11
-84.935405
 21
0.980665
  0
CIRCLE
  8
ボルト／ビス
  6
CONTINUOUS
 10
-84.935405
 20
0.69199
 40
0.25
  0
LINE
  8
ボルト／ビス
  6
CONTINUOUS
 10
-85.185405
 20
0.547653
 11
-85.185405
 21
0.836327
  0
LINE
  8
ボルト／ビス
  6
CONTINUOUS
 10
-84.685405
 20
0.836327
 11
-84.685405
 21
0.547653
  0
ENDBLK
  0
BLOCK
  2
*GRP_0003
 70
    65
 10
0.0
 20
0.0
  0
INSERT
  2
*GRP_0013
  8
補助線
  6
CONTINUOUS
 10
0.0
 20
0.0
  0
LINE
  8
ボルト／ビス
  6
CONTINUOUS
 10
-93.72408
 20
9.19199
 11
-93.579742
 21
9.44199
  0
LINE
  8
ボルト／ビス
  6
CONTINUOUS
 10
-93.72408
 20
9.19199
 11
-93.579742
 21
8.94199
  0
LINE
  8
ボルト／ビス
  6
CONTINUOUS
 10
-93.291068
 20
9.44199
 11
-93.14673
 21
9.19199
  0
LINE
  8
ボルト／ビス
  6
CONTINUOUS
 10
-93.291068
 20
8.94199
 11
-93.14673
 21
9.19199
  0
CIRCLE
  8
ボルト／ビス
  6
CONTINUOUS
 10
-93.435405
 20
9.19199
 40
0.25
  0
LINE
  8
ボルト／ビス
  6
CONTINUOUS
 10
-93.579742
 20
8.94199
 11
-93.291068
 21
8.94199
  0
LINE
  8
ボルト／ビス
  6
CONTINUOUS
 10
-93.291068
 20
9.44199
 11
-93.579742
 21
9.44199
  0
ENDBLK
  0
BLOCK
  2
*GRP_0004
 70
    65
 10
0.0
 20
0.0
  0
INSERT
  2
*GRP_0014
  8
補助線
  6
CONTINUOUS
 10
0.0
 20
0.0
  0
LINE
  8
ボルト／ビス
  6
CONTINUOUS
 10
-69.935405
 20
0.403315
 11
-70.185405
 21
0.547653
  0
LINE
  8
ボルト／ビス
  6
CONTINUOUS
 10
-69.935405
 20
0.403315
 11
-69.685405
 21
0.547653
  0
LINE
  8
ボルト／ビス
  6
CONTINUOUS
 10
-70.185405
 20
0.836327
 11
-69.935405
 21
0.980665
  0
LINE
  8
ボルト／ビス
  6
CONTINUOUS
 10
-69.685405
 20
0.836327
 11
-69.935405
 21
0.980665
  0
CIRCLE
  8
ボルト／ビス
  6
CONTINUOUS
 10
-69.935405
 20
0.69199
 40
0.25
  0
LINE
  8
ボルト／ビス
  6
CONTINUOUS
 10
-69.685405
 20
0.547653
 11
-69.685405
 21
0.836327
  0
LINE
  8
ボルト／ビス
  6
CONTINUOUS
 10
-70.185405
 20
0.836327
 11
-70.185405
 21
0.547653
  0
ENDBLK
  0
BLOCK
  2
*GRP_0005
 70
    65
 10
0.0
 20
0.0
  0
INSERT
  2
*GRP_0015
  8
補助線
  6
CONTINUOUS
 10
0.0
 20
0.0
  0
LINE
  8
ボルト／ビス
  6
CONTINUOUS
 10
-61.14673
 20
9.19199
 11
-61.291068
 21
9.44199
  0
LINE
  8
ボルト／ビス
  6
CONTINUOUS
 10
-61.14673
 20
9.19199
 11
-61.291068
 21
8.94199
  0
LINE
  8
ボルト／ビス
  6
CONTINUOUS
 10
-61.579742
 20
9.44199
 11
-61.72408
 21
9.19199
  0
LINE
  8
ボルト／ビス
  6
CONTINUOUS
 10
-61.579742
 20
8.94199
 11
-61.72408
 21
9.19199
  0
CIRCLE
  8
ボルト／ビス
  6
CONTINUOUS
 10
-61.435405
 20
9.19199
 40
0.25
  0
LINE
  8
ボルト／ビス
  6
CONTINUOUS
 10
-61.291068
 20
8.94199
 11
-61.579742
 21
8.94199
  0
LINE
  8
ボルト／ビス
  6
CONTINUOUS
 10
-61.579742
 20
9.44199
 11
-61.291068
 21
9.44199
  0
ENDBLK
  0
BLOCK
  2
*GRP_0006
 70
    65
 10
0.0
 20
0.0
  0
INSERT
  2
*GRP_0016
  8
補助線
  6
CONTINUOUS
 10
0.0
 20
0.0
  0
LINE
  8
ボルト／ビス
  6
CONTINUOUS
 10
-69.935405
 20
32.980665
 11
-70.185405
 21
32.836327
  0
LINE
  8
ボルト／ビス
  6
CONTINUOUS
 10
-69.935405
 20
32.980665
 11
-69.685405
 21
32.836327
  0
LINE
  8
ボルト／ビス
  6
CONTINUOUS
 10
-70.185405
 20
32.547653
 11
-69.935405
 21
32.403315
  0
LINE
  8
ボルト／ビス
  6
CONTINUOUS
 10
-69.685405
 20
32.547653
 11
-69.935405
 21
32.403315
  0
CIRCLE
  8
ボルト／ビス
  6
CONTINUOUS
 10
-69.935405
 20
32.69199
 40
0.25
  0
LINE
  8
ボルト／ビス
  6
CONTINUOUS
 10
-69.685405
 20
32.836327
 11
-69.685405
 21
32.547653
  0
LINE
  8
ボルト／ビス
  6
CONTINUOUS
 10
-70.185405
 20
32.547653
 11
-70.185405
 21
32.836327
  0
ENDBLK
  0
BLOCK
  2
*GRP_0007
 70
    65
 10
0.0
 20
0.0
  0
INSERT
  2
*GRP_0017
  8
補助線
  6
CONTINUOUS
 10
0.0
 20
0.0
  0
LINE
  8
ボルト／ビス
  6
CONTINUOUS
 10
-61.14673
 20
24.19199
 11
-61.291068
 21
23.94199
  0
LINE
  8
ボルト／ビス
  6
CONTINUOUS
 10
-61.14673
 20
24.19199
 11
-61.291068
 21
24.44199
  0
LINE
  8
ボルト／ビス
  6
CONTINUOUS
 10
-61.579742
 20
23.94199
 11
-61.72408
 21
24.19199
  0
LINE
  8
ボルト／ビス
  6
CONTINUOUS
 10
-61.579742
 20
24.44199
 11
-61.72408
 21
24.19199
  0
CIRCLE
  8
ボルト／ビス
  6
CONTINUOUS
 10
-61.435405
 20
24.19199
 40
0.25
  0
LINE
  8
ボルト／ビス
  6
CONTINUOUS
 10
-61.291068
 20
24.44199
 11
-61.579742
 21
24.44199
  0
LINE
  8
ボルト／ビス
  6
CONTINUOUS
 10
-61.579742
 20
23.94199
 11
-61.291068
 21
23.94199
  0
ENDBLK
  0
BLOCK
  2
*GRP_0008
 70
    65
 10
0.0
 20
0.0
  0
INSERT
  2
*GRP_0018
  8
補助線
  6
CONTINUOUS
 10
0.0
 20
0.0
  0
LINE
  8
ボルト／ビス
  6
CONTINUOUS
 10
-84.935405
 20
32.980665
 11
-84.685405
 21
32.836327
  0
LINE
  8
ボルト／ビス
  6
CONTINUOUS
 10
-84.935405
 20
32.980665
 11
-85.185405
 21
32.836327
  0
LINE
  8
ボルト／ビス
  6
CONTINUOUS
 10
-84.685405
 20
32.547653
 11
-84.935405
 21
32.403315
  0
LINE
  8
ボルト／ビス
  6
CONTINUOUS
 10
-85.185405
 20
32.547653
 11
-84.935405
 21
32.403315
  0
CIRCLE
  8
ボルト／ビス
  6
CONTINUOUS
 10
-84.935405
 20
32.69199
 40
0.25
  0
LINE
  8
ボルト／ビス
  6
CONTINUOUS
 10
-85.185405
 20
32.836327
 11
-85.185405
 21
32.547653
  0
LINE
  8
ボルト／ビス
  6
CONTINUOUS
 10
-84.685405
 20
32.547653
 11
-84.685405
 21
32.836327
  0
ENDBLK
  0
BLOCK
  2
*GRP_0009
 70
    65
 10
0.0
 20
0.0
  0
INSERT
  2
*GRP_0019
  8
補助線
  6
CONTINUOUS
 10
0.0
 20
0.0
  0
LINE
  8
ボルト／ビス
  6
CONTINUOUS
 10
-93.72408
 20
24.19199
 11
-93.579742
 21
23.94199
  0
LINE
  8
ボルト／ビス
  6
CONTINUOUS
 10
-93.72408
 20
24.19199
 11
-93.579742
 21
24.44199
  0
LINE
  8
ボルト／ビス
  6
CONTINUOUS
 10
-93.291068
 20
23.94199
 11
-93.14673
 21
24.19199
  0
LINE
  8
ボルト／ビス
  6
CONTINUOUS
 10
-93.291068
 20
24.44199
 11
-93.14673
 21
24.19199
  0
CIRCLE
  8
ボルト／ビス
  6
CONTINUOUS
 10
-93.435405
 20
24.19199
 40
0.25
  0
LINE
  8
ボルト／ビス
  6
CONTINUOUS
 10
-93.579742
 20
24.44199
 11
-93.291068
 21
24.44199
  0
LINE
  8
ボルト／ビス
  6
CONTINUOUS
 10
-93.291068
 20
23.94199
 11
-93.579742
 21
23.94199
  0
ENDBLK
  0
BLOCK
  2
*DIM_0010
 70
    65
 10
0.0
 20
0.0
  0
LINE
  8
寸法
  6
BYBLOCK
 62
     0
 10
-76.435405
 20
-54.248265
 11
-41.30588
 21
-54.248265
  0
LINE
  8
寸法
  6
BYBLOCK
 62
     0
 10
-41.30588
 20
-62.248265
 11
-41.30588
 21
-54.248265
  0
POINT
  8
寸法
 62
     0
 10
-41.30588
 20
-62.248265
  0
POINT
  8
寸法
 62
     0
 10
-41.30588
 20
-54.248265
  0
TEXT
  7
TextStyle03
  8
寸法
  6
CONTINUOUS
 62
     0
 10
-41.7
 20
-60.6875
  1
160
 40
3.0
 50
90.0
 72
     5
 11
-41.7
 21
-55.8125
  0
ENDBLK
  0
BLOCK
  2
*DIM_0011
 70
    65
 10
0.0
 20
0.0
  0
LINE
  8
寸法
  6
BYBLOCK
 62
     0
 10
-92.435405
 20
-26.094458
 11
-62.435405
 21
-26.094458
  0
POINT
  8
寸法
 62
     0
 10
-92.435405
 20
-26.094458
  0
POINT
  8
寸法
 62
     0
 10
-62.435405
 20
-26.094458
  0
TEXT
  7
TextStyle03
  8
寸法
  6
CONTINUOUS
 62
     0
 10
-88.325
 20
-25.725
  1
呼称寸法　600
 40
3.0
 72
     5
 11
-66.575
 21
-25.725
  0
ENDBLK
  0
BLOCK
  2
*GRP_0012
 70
    65
 10
0.0
 20
0.0
  0
LINE
  8
補助線
  6
BYBLOCK
 62
     0
 10
-85.060405
 20
0.69199
 11
-84.810405
 21
0.69199
  0
LINE
  8
補助線
  6
BYBLOCK
 62
     0
 10
-84.935405
 20
0.56699
 11
-84.935405
 21
0.81699
  0
ENDBLK
  0
BLOCK
  2
*GRP_0013
 70
    65
 10
0.0
 20
0.0
  0
LINE
  8
補助線
  6
BYBLOCK
 62
     0
 10
-93.435405
 20
9.06699
 11
-93.435405
 21
9.31699
  0
LINE
  8
補助線
  6
BYBLOCK
 62
     0
 10
-93.560405
 20
9.19199
 11
-93.310405
 21
9.19199
  0
ENDBLK
  0
BLOCK
  2
*GRP_0014
 70
    65
 10
0.0
 20
0.0
  0
LINE
  8
補助線
  6
BYBLOCK
 62
     0
 10
-69.810405
 20
0.69199
 11
-70.060405
 21
0.69199
  0
LINE
  8
補助線
  6
BYBLOCK
 62
     0
 10
-69.935405
 20
0.56699
 11
-69.935405
 21
0.81699
  0
ENDBLK
  0
BLOCK
  2
*GRP_0015
 70
    65
 10
0.0
 20
0.0
  0
LINE
  8
補助線
  6
BYBLOCK
 62
     0
 10
-61.435405
 20
9.06699
 11
-61.435405
 21
9.31699
  0
LINE
  8
補助線
  6
BYBLOCK
 62
     0
 10
-61.310405
 20
9.19199
 11
-61.560405
 21
9.19199
  0
ENDBLK
  0
BLOCK
  2
*GRP_0016
 70
    65
 10
0.0
 20
0.0
  0
LINE
  8
補助線
  6
BYBLOCK
 62
     0
 10
-69.810405
 20
32.69199
 11
-70.060405
 21
32.69199
  0
LINE
  8
補助線
  6
BYBLOCK
 62
     0
 10
-69.935405
 20
32.81699
 11
-69.935405
 21
32.56699
  0
ENDBLK
  0
BLOCK
  2
*GRP_0017
 70
    65
 10
0.0
 20
0.0
  0
LINE
  8
補助線
  6
BYBLOCK
 62
     0
 10
-61.435405
 20
24.31699
 11
-61.435405
 21
24.06699
  0
LINE
  8
補助線
  6
BYBLOCK
 62
     0
 10
-61.310405
 20
24.19199
 11
-61.560405
 21
24.19199
  0
ENDBLK
  0
BLOCK
  2
*GRP_0018
 70
    65
 10
0.0
 20
0.0
  0
LINE
  8
補助線
  6
BYBLOCK
 62
     0
 10
-85.060405
 20
32.69199
 11
-84.810405
 21
32.69199
  0
LINE
  8
補助線
  6
BYBLOCK
 62
     0
 10
-84.935405
 20
32.81699
 11
-84.935405
 21
32.56699
  0
ENDBLK
  0
BLOCK
  2
*GRP_0019
 70
    65
 10
0.0
 20
0.0
  0
LINE
  8
補助線
  6
BYBLOCK
 62
     0
 10
-93.435405
 20
24.31699
 11
-93.435405
 21
24.06699
  0
LINE
  8
補助線
  6
BYBLOCK
 62
     0
 10
-93.560405
 20
24.19199
 11
-93.310405
 21
24.19199
  0
ENDBLK
  0
BLOCK
  2
*DIM_0020
 70
    65
 10
0.0
 20
0.0
  0
LINE
  8
寸法
  6
BYBLOCK
 62
     0
 10
-61.435405
 20
31.69199
 11
-46.752115
 21
31.69199
  0
LINE
  8
寸法
  6
BYBLOCK
 62
     0
 10
-53.411528
 20
28.69199
 11
-46.752115
 21
28.69199
  0
LINE
  8
寸法
  6
BYBLOCK
 62
     0
 10
-46.752115
 20
31.69199
 11
-46.752115
 21
28.69199
  0
POINT
  8
寸法
 62
     0
 10
-46.752115
 20
31.69199
  0
POINT
  8
寸法
 62
     0
 10
-46.752115
 20
28.69199
  0
TEXT
  7
TextStyle03
  8
寸法
  6
CONTINUOUS
 62
     0
 10
-43.775
 20
28.58125
  1
60
 40
3.0
 50
90.0
 72
     5
 11
-43.775
 21
31.76875
  0
ENDBLK
  0
BLOCK
  2
*DIM_0021
 70
    65
 10
0.0
 20
0.0
  0
LINE
  8
寸法
  6
BYBLOCK
 62
     0
 10
-61.435405
 20
1.69199
 11
-46.752115
 21
1.69199
  0
LINE
  8
寸法
  6
BYBLOCK
 62
     0
 10
-53.411528
 20
4.69199
 11
-46.752115
 21
4.69199
  0
LINE
  8
寸法
  6
BYBLOCK
 62
     0
 10
-46.752115
 20
1.69199
 11
-46.752115
 21
4.69199
  0
POINT
  8
寸法
 62
     0
 10
-46.752115
 20
1.69199
  0
POINT
  8
寸法
 62
     0
 10
-46.752115
 20
4.69199
  0
TEXT
  7
TextStyle03
  8
寸法
  6
CONTINUOUS
 62
     0
 10
-43.775
 20
1.58125
  1
60
 40
3.0
 50
90.0
 72
     5
 11
-43.775
 21
4.76875
  0
ENDBLK
  0
BLOCK
  2
*DIM_0022
 70
    65
 10
0.0
 20
0.0
  0
LINE
  8
寸法
  6
BYBLOCK
 62
     0
 10
-87.435402
 20
32.691993
 11
-87.435402
 21
52.281172
  0
LINE
  8
寸法
  6
BYBLOCK
 62
     0
 10
-67.435402
 20
32.691993
 11
-67.435402
 21
52.281172
  0
LINE
  8
寸法
  6
BYBLOCK
 62
     0
 10
-87.435402
 20
52.281172
 11
-67.435402
 21
52.281172
  0
POINT
  8
寸法
 62
     0
 10
-87.435402
 20
52.281172
  0
POINT
  8
寸法
 62
     0
 10
-67.435402
 20
52.281172
  0
TEXT
  7
TextStyle03
  8
寸法
  6
CONTINUOUS
 62
     0
 10
-79.8875
 20
52.675
  1
400
 40
3.0
 72
     5
 11
-75.0125
 21
52.675
  0
ENDBLK
  0
BLOCK
  2
*GRP_0023
 70
    65
 10
0.0
 20
0.0
  0
LINE
  8
別途部材
  6
CONTINUOUS
 62
    96
 10
-94.28589
 20
-69.87343
 11
-94.13589
 21
-69.87343
  0
LINE
  8
別途部材
  6
CONTINUOUS
 62
    96
 10
-94.43589
 20
-66.72181
 11
-96.432097
 21
-66.82632
  0
LINE
  8
別途部材
  6
CONTINUOUS
 62
    96
 10
-96.44589
 20
-67.64843
 11
-96.84589
 21
-67.47343
  0
LINE
  8
別途部材
  6
CONTINUOUS
 62
    96
 10
-96.414515
 20
-67.49843
 11
-96.646015
 21
-67.39715
  0
LINE
  8
別途部材
  6
CONTINUOUS
 62
    96
 10
-96.471273
 20
-66.678165
 11
-96.861575
 21
-66.87384
  0
LINE
  8
別途部材
  6
CONTINUOUS
 62
    96
 10
-96.432097
 20
-66.82632
 11
-96.827515
 21
-67.02456
  0
LINE
  8
別途部材
  6
CONTINUOUS
 62
    96
 10
-96.730192
 20
-67.077963
 11
-96.614498
 21
-66.982492
  0
LINE
  8
別途部材
  6
DASHDOTX2
 62
    96
 10
-96.84589
 20
-67.17343
 11
-96.84589
 21
-66.703203
  0
LINE
  8
別途部材
  6
DASHDOTX2
 62
    96
 10
-96.84589
 20
-67.17343
 11
-96.84589
 21
-67.66912
  0
LINE
  8
別途部材
  6
DASHDOTX2
 62
    96
 10
-96.84589
 20
-67.17343
 11
-96.450683
 21
-67.17343
  0
LINE
  8
別途部材
  6
DASHDOTX2
 62
    96
 10
-96.84589
 20
-67.17343
 11
-97.263355
 21
-67.17343
  0
LINE
  8
別途部材
  6
CONTINUOUS
 62
    96
 10
-94.13589
 20
-67.49843
 11
-96.414515
 21
-67.49843
  0
LINE
  8
別途部材
  6
CONTINUOUS
 62
    96
 10
-94.28589
 20
-67.64843
 11
-96.44589
 21
-67.64843
  0
LINE
  8
別途部材
  6
CONTINUOUS
 62
    96
 10
-94.585893
 20
-64.87181
 11
-94.585893
 21
-66.579457
  0
LINE
  8
別途部材
  6
CONTINUOUS
 62
    96
 10
-94.43589
 20
-64.87181
 11
-94.585893
 21
-64.87181
  0
LINE
  8
別途部材
  6
CONTINUOUS
 62
    96
 10
-94.43589
 20
-64.87181
 11
-94.43589
 21
-66.72181
  0
CIRCLE
  8
別途部材
  6
CONTINUOUS
 62
    96
 10
-96.84589
 20
-67.17343
 40
0.15
  0
ARC
  8
別途部材
  6
CONTINUOUS
 62
    96
 10
-96.845891
 20
-67.173428
 40
0.3
 50
92.998444
 51
411.219394
  0
LINE
  8
別途部材
  6
CONTINUOUS
 62
    96
 10
-94.13589
 20
-67.49843
 11
-94.13589
 21
-69.87343
  0
LINE
  8
別途部材
  6
CONTINUOUS
 62
    96
 10
-94.28589
 20
-67.64843
 11
-94.28589
 21
-69.87343
  0
LINE
  8
別途部材
  6
CONTINUOUS
 62
    96
 10
-96.471273
 20
-66.678165
 11
-94.585893
 21
-66.579457
  0
ENDBLK
  0
BLOCK
  2
*DIM_0024
 70
    65
 10
0.0
 20
0.0
  0
LINE
  8
寸法
  6
BYBLOCK
 62
     0
 10
-58.935405
 20
-62.248265
 11
-41.30588
 21
-62.248265
  0
LINE
  8
寸法
  6
BYBLOCK
 62
     0
 10
-56.435195
 20
-71.098445
 11
-41.30588
 21
-71.098445
  0
LINE
  8
寸法
  6
BYBLOCK
 62
     0
 10
-41.30588
 20
-62.248265
 11
-41.30588
 21
-71.098445
  0
POINT
  8
寸法
 62
     0
 10
-41.30588
 20
-62.248265
  0
POINT
  8
寸法
 62
     0
 10
-41.30588
 20
-71.098445
  0
TEXT
  7
TextStyle03
  8
寸法
  6
CONTINUOUS
 62
     0
 10
-41.7
 20
-69.1125
  1
177
 40
3.0
 50
90.0
 72
     5
 11
-41.7
 21
-64.2375
  0
ENDBLK
  0
BLOCK
  2
*DIM_0025
 70
    65
 10
0.0
 20
0.0
  0
LINE
  8
寸法
  6
BYBLOCK
 62
     0
 10
-57.435195
 20
-69.348442
 11
-57.435195
 21
-26.094458
  0
LINE
  8
寸法
  6
BYBLOCK
 62
     0
 10
-62.435405
 20
-26.094458
 11
-57.435195
 21
-26.094458
  0
POINT
  8
寸法
 62
     0
 10
-62.435405
 20
-26.094458
  0
POINT
  8
寸法
 62
     0
 10
-57.435195
 20
-26.094458
  0
TEXT
  7
TextStyle03
  8
寸法
  6
CONTINUOUS
 62
     0
 10
-57.3375
 20
-25.725
  1
100
 40
3.0
 72
     5
 11
-52.4625
 21
-25.725
  0
ENDBLK
  0
BLOCK
  2
*DIM_0026
 70
    65
 10
0.0
 20
0.0
  0
LINE
  8
寸法
  6
BYBLOCK
 62
     0
 10
-97.435615
 20
-69.348442
 11
-97.435615
 21
-26.094458
  0
LINE
  8
寸法
  6
BYBLOCK
 62
     0
 10
-92.435405
 20
-26.094458
 11
-97.435615
 21
-26.094458
  0
POINT
  8
寸法
 62
     0
 10
-92.435405
 20
-26.094458
  0
POINT
  8
寸法
 62
     0
 10
-97.435615
 20
-26.094458
  0
TEXT
  7
TextStyle03
  8
寸法
  6
CONTINUOUS
 62
     0
 10
-102.4375
 20
-25.725
  1
100
 40
3.0
 72
     5
 11
-97.5625
 21
-25.725
  0
ENDBLK
  0
BLOCK
  2
*GRP_0027
 70
    65
 10
0.0
 20
0.0
  0
LINE
  8
別途部材
  6
CONTINUOUS
 62
    96
 10
39.352108
 20
-69.87343
 11
39.502108
 21
-69.87343
  0
LINE
  8
別途部材
  6
CONTINUOUS
 62
    96
 10
39.202108
 20
-66.72181
 11
37.2059
 21
-66.82632
  0
LINE
  8
別途部材
  6
CONTINUOUS
 62
    96
 10
37.192108
 20
-67.64843
 11
36.792108
 21
-67.47343
  0
LINE
  8
別途部材
  6
CONTINUOUS
 62
    96
 10
37.223482
 20
-67.49843
 11
36.991983
 21
-67.39715
  0
LINE
  8
別途部材
  6
CONTINUOUS
 62
    96
 10
37.166725
 20
-66.678165
 11
36.776423
 21
-66.87384
  0
LINE
  8
別途部材
  6
CONTINUOUS
 62
    96
 10
37.2059
 20
-66.82632
 11
36.810483
 21
-67.02456
  0
LINE
  8
別途部材
  6
CONTINUOUS
 62
    96
 10
36.907805
 20
-67.077963
 11
37.0235
 21
-66.982492
  0
LINE
  8
別途部材
  6
DASHDOTX2
 62
    96
 10
36.792108
 20
-67.17343
 11
36.792108
 21
-66.703203
  0
LINE
  8
別途部材
  6
DASHDOTX2
 62
    96
 10
36.792108
 20
-67.17343
 11
36.792108
 21
-67.66912
  0
LINE
  8
別途部材
  6
DASHDOTX2
 62
    96
 10
36.792108
 20
-67.17343
 11
37.187315
 21
-67.17343
  0
LINE
  8
別途部材
  6
DASHDOTX2
 62
    96
 10
36.792108
 20
-67.17343
 11
36.374642
 21
-67.17343
  0
LINE
  8
別途部材
  6
CONTINUOUS
 62
    96
 10
39.502108
 20
-67.49843
 11
37.223482
 21
-67.49843
  0
LINE
  8
別途部材
  6
CONTINUOUS
 62
    96
 10
39.352108
 20
-67.64843
 11
37.192108
 21
-67.64843
  0
LINE
  8
別途部材
  6
CONTINUOUS
 62
    96
 10
39.052105
 20
-64.87181
 11
39.052105
 21
-66.579457
  0
LINE
  8
別途部材
  6
CONTINUOUS
 62
    96
 10
39.202108
 20
-64.87181
 11
39.052105
 21
-64.87181
  0
LINE
  8
別途部材
  6
CONTINUOUS
 62
    96
 10
39.202108
 20
-64.87181
 11
39.202108
 21
-66.72181
  0
CIRCLE
  8
別途部材
  6
CONTINUOUS
 62
    96
 10
36.792108
 20
-67.17343
 40
0.15
  0
ARC
  8
別途部材
  6
CONTINUOUS
 62
    96
 10
36.792108
 20
-67.173428
 40
0.3
 50
92.998444
 51
411.219394
  0
LINE
  8
別途部材
  6
CONTINUOUS
 62
    96
 10
39.502108
 20
-67.49843
 11
39.502108
 21
-69.87343
  0
LINE
  8
別途部材
  6
CONTINUOUS
 62
    96
 10
39.352108
 20
-67.64843
 11
39.352108
 21
-69.87343
  0
LINE
  8
別途部材
  6
CONTINUOUS
 62
    96
 10
37.166725
 20
-66.678165
 11
39.052105
 21
-66.579457
  0
ENDBLK
  0
BLOCK
  2
*DIM_0028
 70
    65
 10
0.0
 20
0.0
  0
LINE
  8
寸法
  6
BYBLOCK
 62
     0
 10
136.504785
 20
67.724703
 11
136.504785
 21
75.54922
  0
LINE
  8
寸法
  6
BYBLOCK
 62
     0
 10
167.304785
 20
67.724703
 11
167.304785
 21
75.54922
  0
LINE
  8
寸法
  6
BYBLOCK
 62
     0
 10
136.504785
 20
75.54922
 11
167.304785
 21
75.54922
  0
POINT
  8
寸法
 62
     0
 10
136.504785
 20
75.54922
  0
POINT
  8
寸法
 62
     0
 10
167.304785
 20
75.54922
  0
TEXT
  7
TextStyle03
  8
寸法
  6
CONTINUOUS
 62
     0
 10
149.4625
 20
75.9
  1
616
 40
3.0
 72
     5
 11
154.3375
 21
75.9
  0
ENDBLK
  0
BLOCK
  2
*DIM_0029
 70
    65
 10
0.0
 20
0.0
  0
LINE
  8
寸法
  6
BYBLOCK
 62
     0
 10
170.304785
 20
64.724703
 11
179.960675
 21
64.724703
  0
LINE
  8
寸法
  6
BYBLOCK
 62
     0
 10
170.304785
 20
33.924703
 11
179.960675
 21
33.924703
  0
LINE
  8
寸法
  6
BYBLOCK
 62
     0
 10
179.960675
 20
64.724703
 11
179.960675
 21
33.924703
  0
POINT
  8
寸法
 62
     0
 10
179.960675
 20
64.724703
  0
POINT
  8
寸法
 62
     0
 10
179.960675
 20
33.924703
  0
TEXT
  7
TextStyle03
  8
寸法
  6
CONTINUOUS
 62
     0
 10
179.575
 20
46.8625
  1
616
 40
3.0
 50
90.0
 72
     5
 11
179.575
 21
51.7375
  0
ENDBLK
  0
BLOCK
  2
*GRP_0030
 70
    65
 10
0.0
 20
0.0
  0
LINE
  8
ボルト／ビス
  6
CONTINUOUS
 10
-93.435405
 20
-62.248268
 11
-93.435405
 21
-61.548265
  0
LINE
  8
ボルト／ビス
  6
CONTINUOUS
 10
-92.885402
 20
-62.248268
 11
-92.885402
 21
-62.148265
  0
LINE
  8
ボルト／ビス
  6
CONTINUOUS
 10
-92.885402
 20
-62.148265
 11
-93.985405
 21
-62.148265
  0
LINE
  8
ボルト／ビス
  6
CONTINUOUS
 10
-93.985405
 20
-62.148265
 11
-93.985405
 21
-62.248268
  0
LINE
  8
ボルト／ビス
  6
CONTINUOUS
 10
-92.885402
 20
-62.248268
 11
-93.985405
 21
-62.248268
  0
LINE
  8
ボルト／ビス
  6
CONTINUOUS
 10
-92.985405
 20
-62.098268
 11
-92.985405
 21
-62.148265
  0
LINE
  8
ボルト／ビス
  6
CONTINUOUS
 10
-92.985405
 20
-62.098268
 11
-93.885405
 21
-62.098268
  0
LINE
  8
ボルト／ビス
  6
CONTINUOUS
 10
-93.885405
 20
-62.098268
 11
-93.885405
 21
-62.148265
  0
LINE
  8
ボルト／ビス
  6
CONTINUOUS
 62
    64
 10
-93.194842
 20
-61.798268
 11
-93.14673
 21
-61.81578
  0
ARC
  8
ボルト／ビス
  6
CONTINUOUS
 62
    64
 10
-93.218899
 20
-61.955737
 40
0.157468
 50
90.0
 51
117.278033
  0
ARC
  8
ボルト／ビス
  6
CONTINUOUS
 62
    64
 10
-93.435406
 20
-62.401873
 40
0.603603
 50
76.165015
 51
103.834998
  0
LINE
  8
ボルト／ビス
  6
CONTINUOUS
 62
    64
 10
-93.675968
 20
-61.798268
 11
-93.72408
 21
-61.81578
  0
ARC
  8
ボルト／ビス
  6
CONTINUOUS
 62
    64
 10
-93.651912
 20
-61.955737
 40
0.157468
 50
62.721967
 51
90.0
  0
LINE
  8
ボルト／ビス
  6
CONTINUOUS
 62
    64
 10
-93.194842
 20
-61.798268
 11
-93.675968
 21
-61.798268
  0
LINE
  8
ボルト／ビス
  6
CONTINUOUS
 62
    64
 10
-93.72408
 20
-61.81578
 11
-93.72408
 21
-61.998265
  0
LINE
  8
ボルト／ビス
  6
CONTINUOUS
 62
    64
 10
-93.579742
 20
-61.81578
 11
-93.579742
 21
-61.998265
  0
LINE
  8
ボルト／ビス
  6
CONTINUOUS
 62
    64
 10
-93.14673
 20
-61.81578
 11
-93.14673
 21
-61.998265
  0
LINE
  8
ボルト／ビス
  6
CONTINUOUS
 62
    64
 10
-93.291068
 20
-61.81578
 11
-93.291068
 21
-61.998265
  0
LINE
  8
ボルト／ビス
  6
CONTINUOUS
 10
-93.14673
 20
-61.998265
 11
-93.72408
 21
-61.998265
  0
LINE
  8
ボルト／ビス
  6
CONTINUOUS
 10
-93.135405
 20
-61.998265
 11
-93.135405
 21
-62.098268
  0
LINE
  8
ボルト／ビス
  6
CONTINUOUS
 10
-93.135405
 20
-61.998265
 11
-93.735405
 21
-61.998265
  0
LINE
  8
ボルト／ビス
  6
CONTINUOUS
 10
-93.735405
 20
-61.998265
 11
-93.735405
 21
-62.098268
  0
ENDBLK
  0
BLOCK
  2
*GRP_0031
 70
    65
 10
0.0
 20
0.0
  0
LINE
  8
ボルト／ビス
  6
CONTINUOUS
 10
-61.435405
 20
-62.248268
 11
-61.435405
 21
-61.548265
  0
LINE
  8
ボルト／ビス
  6
CONTINUOUS
 10
-60.885402
 20
-62.248268
 11
-60.885402
 21
-62.148265
  0
LINE
  8
ボルト／ビス
  6
CONTINUOUS
 10
-60.885402
 20
-62.148265
 11
-61.985405
 21
-62.148265
  0
LINE
  8
ボルト／ビス
  6
CONTINUOUS
 10
-61.985405
 20
-62.148265
 11
-61.985405
 21
-62.248268
  0
LINE
  8
ボルト／ビス
  6
CONTINUOUS
 10
-60.885402
 20
-62.248268
 11
-61.985405
 21
-62.248268
  0
LINE
  8
ボルト／ビス
  6
CONTINUOUS
 10
-60.985405
 20
-62.098268
 11
-60.985405
 21
-62.148265
  0
LINE
  8
ボルト／ビス
  6
CONTINUOUS
 10
-60.985405
 20
-62.098268
 11
-61.885405
 21
-62.098268
  0
LINE
  8
ボルト／ビス
  6
CONTINUOUS
 10
-61.885405
 20
-62.098268
 11
-61.885405
 21
-62.148265
  0
LINE
  8
ボルト／ビス
  6
CONTINUOUS
 62
    64
 10
-61.194842
 20
-61.798268
 11
-61.14673
 21
-61.81578
  0
ARC
  8
ボルト／ビス
  6
CONTINUOUS
 62
    64
 10
-61.218899
 20
-61.955737
 40
0.157468
 50
90.0
 51
117.278033
  0
ARC
  8
ボルト／ビス
  6
CONTINUOUS
 62
    64
 10
-61.435406
 20
-62.401873
 40
0.603603
 50
76.165015
 51
103.834998
  0
LINE
  8
ボルト／ビス
  6
CONTINUOUS
 62
    64
 10
-61.675968
 20
-61.798268
 11
-61.72408
 21
-61.81578
  0
ARC
  8
ボルト／ビス
  6
CONTINUOUS
 62
    64
 10
-61.651912
 20
-61.955737
 40
0.157468
 50
62.721967
 51
90.0
  0
LINE
  8
ボルト／ビス
  6
CONTINUOUS
 62
    64
 10
-61.194842
 20
-61.798268
 11
-61.675968
 21
-61.798268
  0
LINE
  8
ボルト／ビス
  6
CONTINUOUS
 62
    64
 10
-61.72408
 20
-61.81578
 11
-61.72408
 21
-61.998265
  0
LINE
  8
ボルト／ビス
  6
CONTINUOUS
 62
    64
 10
-61.579742
 20
-61.81578
 11
-61.579742
 21
-61.998265
  0
LINE
  8
ボルト／ビス
  6
CONTINUOUS
 62
    64
 10
-61.14673
 20
-61.81578
 11
-61.14673
 21
-61.998265
  0
LINE
  8
ボルト／ビス
  6
CONTINUOUS
 62
    64
 10
-61.291068
 20
-61.81578
 11
-61.291068
 21
-61.998265
  0
LINE
  8
ボルト／ビス
  6
CONTINUOUS
 10
-61.14673
 20
-61.998265
 11
-61.72408
 21
-61.998265
  0
LINE
  8
ボルト／ビス
  6
CONTINUOUS
 10
-61.135405
 20
-61.998265
 11
-61.135405
 21
-62.098268
  0
LINE
  8
ボルト／ビス
  6
CONTINUOUS
 10
-61.135405
 20
-61.998265
 11
-61.735405
 21
-61.998265
  0
LINE
  8
ボルト／ビス
  6
CONTINUOUS
 10
-61.735405
 20
-61.998265
 11
-61.735405
 21
-62.098268
  0
ENDBLK
  0
BLOCK
  2
*GRP_0032
 70
    65
 10
0.0
 20
0.0
  0
LINE
  8
ボルト／ビス
  6
CONTINUOUS
 10
40.202592
 20
-62.248268
 11
40.202592
 21
-61.548265
  0
LINE
  8
ボルト／ビス
  6
CONTINUOUS
 10
40.752595
 20
-62.248268
 11
40.752595
 21
-62.148265
  0
LINE
  8
ボルト／ビス
  6
CONTINUOUS
 10
40.752595
 20
-62.148265
 11
39.652592
 21
-62.148265
  0
LINE
  8
ボルト／ビス
  6
CONTINUOUS
 10
39.652592
 20
-62.148265
 11
39.652592
 21
-62.248268
  0
LINE
  8
ボルト／ビス
  6
CONTINUOUS
 10
40.752595
 20
-62.248268
 11
39.652592
 21
-62.248268
  0
LINE
  8
ボルト／ビス
  6
CONTINUOUS
 10
40.652592
 20
-62.098268
 11
40.652592
 21
-62.148265
  0
LINE
  8
ボルト／ビス
  6
CONTINUOUS
 10
40.652592
 20
-62.098268
 11
39.752592
 21
-62.098268
  0
LINE
  8
ボルト／ビス
  6
CONTINUOUS
 10
39.752592
 20
-62.098268
 11
39.752592
 21
-62.148265
  0
LINE
  8
ボルト／ビス
  6
CONTINUOUS
 62
    64
 10
40.443155
 20
-61.798268
 11
40.491267
 21
-61.81578
  0
ARC
  8
ボルト／ビス
  6
CONTINUOUS
 62
    64
 10
40.419099
 20
-61.955737
 40
0.157468
 50
90.0
 51
117.278033
  0
ARC
  8
ボルト／ビス
  6
CONTINUOUS
 62
    64
 10
40.202592
 20
-62.401872
 40
0.603603
 50
76.165015
 51
103.834998
  0
LINE
  8
ボルト／ビス
  6
CONTINUOUS
 62
    64
 10
39.96203
 20
-61.798268
 11
39.913918
 21
-61.81578
  0
ARC
  8
ボルト／ビス
  6
CONTINUOUS
 62
    64
 10
39.986086
 20
-61.955737
 40
0.157468
 50
62.721967
 51
90.0
  0
LINE
  8
ボルト／ビス
  6
CONTINUOUS
 62
    64
 10
40.443155
 20
-61.798268
 11
39.96203
 21
-61.798268
  0
LINE
  8
ボルト／ビス
  6
CONTINUOUS
 62
    64
 10
39.913918
 20
-61.81578
 11
39.913918
 21
-61.998265
  0
LINE
  8
ボルト／ビス
  6
CONTINUOUS
 62
    64
 10
40.058255
 20
-61.81578
 11
40.058255
 21
-61.998265
  0
LINE
  8
ボルト／ビス
  6
CONTINUOUS
 62
    64
 10
40.491267
 20
-61.81578
 11
40.491267
 21
-61.998265
  0
LINE
  8
ボルト／ビス
  6
CONTINUOUS
 62
    64
 10
40.34693
 20
-61.81578
 11
40.34693
 21
-61.998265
  0
LINE
  8
ボルト／ビス
  6
CONTINUOUS
 10
40.491267
 20
-61.998265
 11
39.913918
 21
-61.998265
  0
LINE
  8
ボルト／ビス
  6
CONTINUOUS
 10
40.502592
 20
-61.998265
 11
40.502592
 21
-62.098268
  0
LINE
  8
ボルト／ビス
  6
CONTINUOUS
 10
40.502592
 20
-61.998265
 11
39.902592
 21
-61.998265
  0
LINE
  8
ボルト／ビス
  6
CONTINUOUS
 10
39.902592
 20
-61.998265
 11
39.902592
 21
-62.098268
  0
ENDBLK
  0
BLOCK
  2
*GRP_0033
 70
    65
 10
0.0
 20
0.0
  0
LINE
  8
ボルト／ビス
  6
CONTINUOUS
 10
72.202592
 20
-62.248268
 11
72.202592
 21
-61.548265
  0
LINE
  8
ボルト／ビス
  6
CONTINUOUS
 10
72.752595
 20
-62.248268
 11
72.752595
 21
-62.148265
  0
LINE
  8
ボルト／ビス
  6
CONTINUOUS
 10
72.752595
 20
-62.148265
 11
71.652592
 21
-62.148265
  0
LINE
  8
ボルト／ビス
  6
CONTINUOUS
 10
71.652592
 20
-62.148265
 11
71.652592
 21
-62.248268
  0
LINE
  8
ボルト／ビス
  6
CONTINUOUS
 10
72.752595
 20
-62.248268
 11
71.652592
 21
-62.248268
  0
LINE
  8
ボルト／ビス
  6
CONTINUOUS
 10
72.652592
 20
-62.098268
 11
72.652592
 21
-62.148265
  0
LINE
  8
ボルト／ビス
  6
CONTINUOUS
 10
72.652592
 20
-62.098268
 11
71.752592
 21
-62.098268
  0
LINE
  8
ボルト／ビス
  6
CONTINUOUS
 10
71.752592
 20
-62.098268
 11
71.752592
 21
-62.148265
  0
LINE
  8
ボルト／ビス
  6
CONTINUOUS
 62
    64
 10
72.443155
 20
-61.798268
 11
72.491267
 21
-61.81578
  0
ARC
  8
ボルト／ビス
  6
CONTINUOUS
 62
    64
 10
72.419099
 20
-61.955737
 40
0.157468
 50
90.0
 51
117.278033
  0
ARC
  8
ボルト／ビス
  6
CONTINUOUS
 62
    64
 10
72.202592
 20
-62.401872
 40
0.603603
 50
76.165015
 51
103.834998
  0
LINE
  8
ボルト／ビス
  6
CONTINUOUS
 62
    64
 10
71.96203
 20
-61.798268
 11
71.913918
 21
-61.81578
  0
ARC
  8
ボルト／ビス
  6
CONTINUOUS
 62
    64
 10
71.986086
 20
-61.955737
 40
0.157468
 50
62.721967
 51
90.0
  0
LINE
  8
ボルト／ビス
  6
CONTINUOUS
 62
    64
 10
72.443155
 20
-61.798268
 11
71.96203
 21
-61.798268
  0
LINE
  8
ボルト／ビス
  6
CONTINUOUS
 62
    64
 10
71.913918
 20
-61.81578
 11
71.913918
 21
-61.998265
  0
LINE
  8
ボルト／ビス
  6
CONTINUOUS
 62
    64
 10
72.058255
 20
-61.81578
 11
72.058255
 21
-61.998265
  0
LINE
  8
ボルト／ビス
  6
CONTINUOUS
 62
    64
 10
72.491267
 20
-61.81578
 11
72.491267
 21
-61.998265
  0
LINE
  8
ボルト／ビス
  6
CONTINUOUS
 62
    64
 10
72.34693
 20
-61.81578
 11
72.34693
 21
-61.998265
  0
LINE
  8
ボルト／ビス
  6
CONTINUOUS
 10
72.491267
 20
-61.998265
 11
71.913918
 21
-61.998265
  0
LINE
  8
ボルト／ビス
  6
CONTINUOUS
 10
72.502592
 20
-61.998265
 11
72.502592
 21
-62.098268
  0
LINE
  8
ボルト／ビス
  6
CONTINUOUS
 10
72.502592
 20
-61.998265
 11
71.902592
 21
-61.998265
  0
LINE
  8
ボルト／ビス
  6
CONTINUOUS
 10
71.902592
 20
-61.998265
 11
71.902592
 21
-62.098268
  0
ENDBLK
  0
BLOCK
  2
*GRP_0034
 70
    65
 10
0.0
 20
0.0
  0
LINE
  8
ボルト／ビス
  6
DOT
 10
35.721068
 20
-61.279238
 11
35.226093
 21
-60.78426
  0
LINE
  8
ボルト／ビス
  6
DOT
 10
36.10998
 20
-60.890327
 11
36.039267
 21
-60.819615
  0
LINE
  8
ボルト／ビス
  6
DOT
 10
36.039267
 20
-60.819615
 11
35.261448
 21
-61.597433
  0
LINE
  8
ボルト／ビス
  6
DOT
 10
35.261448
 20
-61.597433
 11
35.33216
 21
-61.668145
  0
LINE
  8
ボルト／ビス
  6
DOT
 10
36.10998
 20
-60.890327
 11
35.33216
 21
-61.668145
  0
LINE
  8
ボルト／ビス
  6
DOT
 10
35.9332
 20
-60.854972
 11
35.968555
 21
-60.890327
  0
LINE
  8
ボルト／ビス
  6
DOT
 10
35.9332
 20
-60.854972
 11
35.296805
 21
-61.49137
  0
LINE
  8
ボルト／ビス
  6
DOT
 10
35.296805
 20
-61.49137
 11
35.332157
 21
-61.526722
  0
LINE
  8
ボルト／ビス
  6
DOT
 62
    64
 10
35.572972
 20
-60.790935
 11
35.619377
 21
-60.769297
  0
ARC
  8
ボルト／ビス
  6
DOT
 62
    64
 10
35.667311
 20
-60.919294
 40
0.157468
 50
135.0
 51
162.278033
  0
ARC
  8
ボルト／ビス
  6
DOT
 62
    64
 10
35.829683
 20
-61.387853
 40
0.603603
 50
121.165015
 51
148.834998
  0
LINE
  8
ボルト／ビス
  6
DOT
 62
    64
 10
35.232768
 20
-61.131142
 11
35.21113
 21
-61.177548
  0
ARC
  8
ボルト／ビス
  6
DOT
 62
    64
 10
35.361125
 20
-61.22548
 40
0.157468
 50
107.721967
 51
135.0
  0
LINE
  8
ボルト／ビス
  6
DOT
 62
    64
 10
35.572972
 20
-60.790935
 11
35.232768
 21
-61.131142
  0
LINE
  8
ボルト／ビス
  6
DOT
 62
    64
 10
35.21113
 20
-61.177548
 11
35.340165
 21
-61.306582
  0
LINE
  8
ボルト／ビス
  6
DOT
 62
    64
 10
35.313192
 20
-61.075485
 11
35.442228
 21
-61.20452
  0
LINE
  8
ボルト／ビス
  6
DOT
 62
    64
 10
35.619377
 20
-60.769297
 11
35.748415
 21
-60.898335
  0
LINE
  8
ボルト／ビス
  6
DOT
 62
    64
 10
35.517315
 20
-60.87136
 11
35.646352
 21
-61.000397
  0
LINE
  8
ボルト／ビス
  6
DOT
 10
35.748415
 20
-60.898335
 11
35.340165
 21
-61.306582
  0
LINE
  8
ボルト／ビス
  6
DOT
 10
35.756423
 20
-60.890327
 11
35.827135
 21
-60.96104
  0
LINE
  8
ボルト／ビス
  6
DOT
 10
35.756423
 20
-60.890327
 11
35.332157
 21
-61.31459
  0
LINE
  8
ボルト／ビス
  6
DOT
 10
35.332157
 20
-61.31459
 11
35.40287
 21
-61.385303
  0
ENDBLK
  0
BLOCK
  2
*GRP_0035
 70
    65
 10
0.0
 20
0.0
  0
LINE
  8
ボルト／ビス
  6
DOT
 10
58.348485
 20
-38.65182
 11
57.85351
 21
-38.156843
  0
LINE
  8
ボルト／ビス
  6
DOT
 10
58.737398
 20
-38.26291
 11
58.666685
 21
-38.192198
  0
LINE
  8
ボルト／ビス
  6
DOT
 10
58.666685
 20
-38.192198
 11
57.888865
 21
-38.970015
  0
LINE
  8
ボルト／ビス
  6
DOT
 10
57.888865
 20
-38.970015
 11
57.959577
 21
-39.040727
  0
LINE
  8
ボルト／ビス
  6
DOT
 10
58.737398
 20
-38.26291
 11
57.959577
 21
-39.040727
  0
LINE
  8
ボルト／ビス
  6
DOT
 10
58.560618
 20
-38.227555
 11
58.595973
 21
-38.26291
  0
LINE
  8
ボルト／ビス
  6
DOT
 10
58.560618
 20
-38.227555
 11
57.924222
 21
-38.863952
  0
LINE
  8
ボルト／ビス
  6
DOT
 10
57.924222
 20
-38.863952
 11
57.959575
 21
-38.899305
  0
LINE
  8
ボルト／ビス
  6
DOT
 62
    64
 10
58.20039
 20
-38.163518
 11
58.246795
 21
-38.14188
  0
ARC
  8
ボルト／ビス
  6
DOT
 62
    64
 10
58.294729
 20
-38.291877
 40
0.157468
 50
135.0
 51
162.278033
  0
ARC
  8
ボルト／ビス
  6
DOT
 62
    64
 10
58.457102
 20
-38.760436
 40
0.603603
 50
121.165015
 51
148.834998
  0
LINE
  8
ボルト／ビス
  6
DOT
 62
    64
 10
57.860185
 20
-38.503725
 11
57.838547
 21
-38.55013
  0
ARC
  8
ボルト／ビス
  6
DOT
 62
    64
 10
57.988543
 20
-38.598063
 40
0.157468
 50
107.721967
 51
135.0
  0
LINE
  8
ボルト／ビス
  6
DOT
 62
    64
 10
58.20039
 20
-38.163518
 11
57.860185
 21
-38.503725
  0
LINE
  8
ボルト／ビス
  6
DOT
 62
    64
 10
57.838547
 20
-38.55013
 11
57.967583
 21
-38.679165
  0
LINE
  8
ボルト／ビス
  6
DOT
 62
    64
 10
57.94061
 20
-38.448067
 11
58.069645
 21
-38.577103
  0
LINE
  8
ボルト／ビス
  6
DOT
 62
    64
 10
58.246795
 20
-38.14188
 11
58.375833
 21
-38.270917
  0
LINE
  8
ボルト／ビス
  6
DOT
 62
    64
 10
58.144732
 20
-38.243942
 11
58.27377
 21
-38.37298
  0
LINE
  8
ボルト／ビス
  6
DOT
 10
58.375833
 20
-38.270917
 11
57.967583
 21
-38.679165
  0
LINE
  8
ボルト／ビス
  6
DOT
 10
58.38384
 20
-38.26291
 11
58.454552
 21
-38.333623
  0
LINE
  8
ボルト／ビス
  6
DOT
 10
58.38384
 20
-38.26291
 11
57.959575
 21
-38.687172
  0
LINE
  8
ボルト／ビス
  6
DOT
 10
57.959575
 20
-38.687172
 11
58.030287
 21
-38.757885
  0
ENDBLK
  0
ENDSEC
  0
SECTION
  2
ENTITIES
  0
POLYLINE
  8
通り芯
  6
CONTINUOUS
 66
     1
 70
     1
  0
VERTEX
  8
通り芯
 10
-210.0
 20
-148.5
  0
VERTEX
  8
通り芯
 10
210.0
 20
-148.5
  0
VERTEX
  8
通り芯
 10
210.0
 20
148.5
  0
VERTEX
  8
通り芯
 10
-210.0
 20
148.5
  0
SEQEND
  0
INSERT
  2
*GRP_0001
  8
型材断面
  6
CONTINUOUS
 10
0.0
 20
0.0
  0
LINE
  8
型材断面
  6
DASHDOT
 10
-92.435405
 20
1.69199
 11
-62.435405
 21
1.69199
  0
LINE
  8
型材断面
  6
DASHDOT
 10
-92.435405
 20
-77.76228
 11
-92.435405
 21
31.69199
  0
LINE
  8
型材断面
  6
DASHDOT
 10
-77.435405
 20
-77.76228
 11
-77.435405
 21
31.69199
  0
LINE
  8
型材断面
  6
DASHDOT
 10
-62.435405
 20
-77.76228
 11
-62.435405
 21
31.69199
  0
LINE
  8
型材断面
  6
DASHDOT
 10
-92.435405
 20
16.69199
 11
-62.435405
 21
16.69199
  0
LINE
  8
型材断面
  6
DASHDOT
 10
-92.435405
 20
31.69199
 11
-62.435405
 21
31.69199
  0
LINE
  8
型材断面
  6
CONTINUOUS
 10
-100.459278
 20
16.69199
 11
-104.345038
 21
14.448545
  0
LINE
  8
型材断面
  6
CONTINUOUS
 10
-100.459278
 20
16.69199
 11
-104.345038
 21
18.935435
  0
LINE
  8
型材断面
  6
CONTINUOUS
 10
-104.345038
 20
18.935435
 11
-104.345038
 21
14.448545
  0
LINE
  8
型材断面
  6
CONTINUOUS
 10
-54.411528
 20
16.69199
 11
-50.525767
 21
14.448545
  0
LINE
  8
型材断面
  6
CONTINUOUS
 10
-54.411528
 20
16.69199
 11
-50.525767
 21
18.935435
  0
LINE
  8
型材断面
  6
CONTINUOUS
 10
-50.525767
 20
18.935435
 11
-50.525767
 21
14.448545
  0
LINE
  8
型材断面
  6
CONTINUOUS
 10
-77.435405
 20
39.715863
 11
-79.67885
 21
43.601622
  0
LINE
  8
型材断面
  6
CONTINUOUS
 10
-77.435405
 20
39.715863
 11
-75.19196
 21
43.601622
  0
LINE
  8
型材断面
  6
CONTINUOUS
 10
-75.19196
 20
43.601622
 11
-79.67885
 21
43.601622
  0
LINE
  8
型材断面
  6
CONTINUOUS
 10
-77.435405
 20
-6.331887
 11
-79.67885
 21
-10.217648
  0
LINE
  8
型材断面
  6
CONTINUOUS
 10
-77.435405
 20
-6.331887
 11
-75.19196
 21
-10.217648
  0
LINE
  8
型材断面
  6
CONTINUOUS
 10
-75.19196
 20
-10.217648
 11
-79.67885
 21
-10.217648
  0
LINE
  8
型材断面
  6
CONTINUOUS
 10
-35.48472
 20
-6.182028
 11
-37.728165
 21
-10.067788
  0
LINE
  8
型材断面
  6
CONTINUOUS
 10
-35.48472
 20
-6.182028
 11
-33.241275
 21
-10.067788
  0
LINE
  8
型材断面
  6
CONTINUOUS
 10
-33.241275
 20
-10.067788
 11
-37.728165
 21
-10.067788
  0
LINE
  8
型材断面
  6
CONTINUOUS
 10
-35.48472
 20
-13.871575
 11
-34.590635
 21
-17.757335
  0
LINE
  8
型材断面
  6
CONTINUOUS
 10
-35.48472
 20
-13.871575
 11
-36.378805
 21
-17.757335
  0
LINE
  8
型材断面
  6
CONTINUOUS
 10
-36.378805
 20
-17.757335
 11
-34.590635
 21
-17.757335
  0
LINE
  8
型材断面
  6
CONTINUOUS
 10
-44.5186
 20
-11.47568
 11
8.13808
 21
-11.47568
  0
LINE
  8
型材断面
  6
CONTINUOUS
 10
-44.5186
 20
-22.675673
 11
8.13808
 21
-22.675673
  0
LINE
  8
型材断面
  6
CONTINUOUS
 10
-44.5186
 20
-29.515618
 11
8.13808
 21
-29.515618
  0
LINE
  8
型材断面
  6
CONTINUOUS
 10
-54.411528
 20
28.69199
 11
-50.525767
 21
27.797905
  0
LINE
  8
型材断面
  6
CONTINUOUS
 10
-54.411528
 20
28.69199
 11
-50.525767
 21
29.586075
  0
LINE
  8
型材断面
  6
CONTINUOUS
 10
-50.525767
 20
29.586075
 11
-50.525767
 21
27.797905
  0
LINE
  8
型材断面
  6
CONTINUOUS
 10
-54.411528
 20
4.69199
 11
-50.525767
 21
5.586075
  0
LINE
  8
型材断面
  6
CONTINUOUS
 10
-54.411528
 20
4.69199
 11
-50.525767
 21
3.797905
  0
LINE
  8
型材断面
  6
CONTINUOUS
 10
-50.525767
 20
3.797905
 11
-50.525767
 21
5.586075
  0
POLYLINE
  8
型材断面
  6
CONTINUOUS
 66
     1
 70
     1
  0
VERTEX
  8
型材断面
 10
-101.415475
 20
-64.546893
  0
VERTEX
  8
型材断面
 10
-115.011485
 20
-64.546893
  0
VERTEX
  8
型材断面
 10
-115.011485
 20
-69.84042
  0
VERTEX
  8
型材断面
 10
-101.415475
 20
-69.84042
  0
SEQEND
  0
LINE
  8
型材断面
  6
CONTINUOUS
 62
    47
 10
-94.420405
 20
-65.158463
 11
-94.435405
 21
-65.143462
  0
LINE
  8
型材断面
  6
CONTINUOUS
 62
    47
 10
-94.420405
 20
-65.158463
 11
-94.435405
 21
-65.173462
  0
LINE
  8
型材断面
  6
CONTINUOUS
 62
    47
 10
-94.420405
 20
-66.12181
 11
-94.435405
 21
-66.10681
  0
LINE
  8
型材断面
  6
CONTINUOUS
 62
    47
 10
-94.420405
 20
-66.12181
 11
-94.435405
 21
-66.13681
  0
LINE
  8
型材断面
  6
CONTINUOUS
 62
    47
 10
-94.435405
 20
-66.748463
 11
-94.435405
 21
-66.13681
  0
LINE
  8
型材断面
  6
CONTINUOUS
 62
    47
 10
-94.435405
 20
-66.10681
 11
-94.435405
 21
-65.173462
  0
LINE
  8
型材断面
  6
CONTINUOUS
 62
    47
 10
-94.435405
 20
-65.143462
 11
-94.435405
 21
-64.098435
  0
LINE
  8
型材断面
  6
CONTINUOUS
 62
    47
 10
-94.435405
 20
-64.098435
 11
-77.435402
 21
-64.098435
  0
LINE
  8
型材断面
  6
CONTINUOUS
 10
-94.435405
 20
-66.748463
 11
-77.435402
 21
-66.748463
  0
LINE
  8
型材断面
  6
CONTINUOUS
 10
-77.435402
 20
-66.84795
 11
-96.335617
 21
-66.84795
  0
LINE
  8
型材断面
  6
CONTINUOUS
 62
    47
 10
-96.335617
 20
-66.84795
 11
-96.335617
 21
-67.097893
  0
LINE
  8
型材断面
  6
CONTINUOUS
 62
    47
 10
-77.435402
 20
-67.097893
 11
-96.335617
 21
-67.097893
  0
LINE
  8
型材断面
  6
CONTINUOUS
 62
    47
 10
-94.120615
 20
-68.448458
 11
-94.135615
 21
-68.433457
  0
LINE
  8
型材断面
  6
CONTINUOUS
 62
    47
 10
-94.120615
 20
-68.448458
 11
-94.135615
 21
-68.463458
  0
LINE
  8
型材断面
  6
CONTINUOUS
 62
    47
 10
-94.120615
 20
-69.148467
 11
-94.135615
 21
-69.133468
  0
LINE
  8
型材断面
  6
CONTINUOUS
 62
    47
 10
-94.120615
 20
-69.148467
 11
-94.135615
 21
-69.163468
  0
LINE
  8
型材断面
  6
CONTINUOUS
 62
    47
 10
-94.135615
 20
-67.49843
 11
-94.135615
 21
-68.433457
  0
LINE
  8
型材断面
  6
CONTINUOUS
 62
    47
 10
-94.135615
 20
-68.463458
 11
-94.135615
 21
-69.133468
  0
LINE
  8
型材断面
  6
CONTINUOUS
 62
    47
 10
-97.435615
 20
-70.348442
 11
-97.435615
 21
-71.098445
  0
LINE
  8
型材断面
  6
CONTINUOUS
 62
    47
 10
-96.685628
 20
-71.598442
 11
-96.685628
 21
-71.098445
  0
LINE
  8
型材断面
  6
CONTINUOUS
 62
    47
 10
-97.435615
 20
-70.348442
 11
-94.135615
 21
-70.098442
  0
LINE
  8
型材断面
  6
CONTINUOUS
 62
    47
 10
-93.035402
 20
-70.098442
 11
-94.035615
 21
-70.098442
  0
LINE
  8
型材断面
  6
CONTINUOUS
 62
    47
 10
-94.120615
 20
-69.948442
 11
-94.135615
 21
-69.933442
  0
LINE
  8
型材断面
  6
CONTINUOUS
 62
    47
 10
-94.120615
 20
-69.948442
 11
-94.135615
 21
-69.963443
  0
LINE
  8
型材断面
  6
CONTINUOUS
 62
    47
 10
-94.135615
 20
-70.098442
 11
-94.135615
 21
-69.963443
  0
LINE
  8
型材断面
  6
CONTINUOUS
 62
    47
 10
-94.135615
 20
-69.163468
 11
-94.135615
 21
-69.933442
  0
LINE
  8
型材断面
  6
CONTINUOUS
 62
    47
 10
-77.435402
 20
-67.298455
 11
-96.335615
 21
-67.298455
  0
LINE
  8
型材断面
  6
CONTINUOUS
 62
    47
 10
-96.335615
 20
-67.49843
 11
-96.335615
 21
-67.298455
  0
LINE
  8
型材断面
  6
CONTINUOUS
 62
    47
 10
-96.335615
 20
-67.49843
 11
-77.435402
 21
-67.49843
  0
LINE
  8
型材断面
  6
CONTINUOUS
 10
-77.435402
 20
-70.098442
 11
-94.135615
 21
-70.098442
  0
LINE
  8
型材断面
  6
CONTINUOUS
 10
-77.435402
 20
-70.348442
 11
-97.435615
 21
-70.348442
  0
LINE
  8
型材断面
  6
CONTINUOUS
 62
    47
 10
-97.435615
 20
-71.098445
 11
-77.435402
 21
-71.098445
  0
LINE
  8
型材断面
  6
CONTINUOUS
 62
    47
 10
-96.685628
 20
-71.598442
 11
-77.435402
 21
-71.598442
  0
LINE
  8
型材断面
  6
CONTINUOUS
 62
    47
 10
-94.435405
 20
-66.748463
 11
-96.335617
 21
-66.84795
  0
LINE
  8
型材断面
  6
CONTINUOUS
 62
    47
 10
-94.03042
 20
-64.098435
 11
-94.03042
 21
-63.748265
  0
LINE
  8
型材断面
  6
CONTINUOUS
 62
    47
 10
-60.450405
 20
-65.158463
 11
-60.435405
 21
-65.143462
  0
LINE
  8
型材断面
  6
CONTINUOUS
 62
    47
 10
-60.450405
 20
-65.158463
 11
-60.435405
 21
-65.173462
  0
LINE
  8
型材断面
  6
CONTINUOUS
 62
    47
 10
-60.450405
 20
-66.12181
 11
-60.435405
 21
-66.10681
  0
LINE
  8
型材断面
  6
CONTINUOUS
 62
    47
 10
-60.450405
 20
-66.12181
 11
-60.435405
 21
-66.13681
  0
LINE
  8
型材断面
  6
CONTINUOUS
 62
    47
 10
-60.435405
 20
-66.748463
 11
-60.435405
 21
-66.13681
  0
LINE
  8
型材断面
  6
CONTINUOUS
 62
    47
 10
-60.435405
 20
-66.10681
 11
-60.435405
 21
-65.173462
  0
LINE
  8
型材断面
  6
CONTINUOUS
 62
    47
 10
-60.435405
 20
-65.143462
 11
-60.435405
 21
-64.098435
  0
LINE
  8
型材断面
  6
CONTINUOUS
 62
    47
 10
-60.435405
 20
-64.098435
 11
-77.435408
 21
-64.098435
  0
LINE
  8
型材断面
  6
CONTINUOUS
 10
-60.435405
 20
-66.748463
 11
-77.435408
 21
-66.748463
  0
LINE
  8
型材断面
  6
CONTINUOUS
 10
-77.435408
 20
-66.84795
 11
-58.535192
 21
-66.84795
  0
LINE
  8
型材断面
  6
CONTINUOUS
 62
    47
 10
-58.535192
 20
-66.84795
 11
-58.535192
 21
-67.097893
  0
LINE
  8
型材断面
  6
CONTINUOUS
 62
    47
 10
-77.435408
 20
-67.097893
 11
-58.535192
 21
-67.097893
  0
LINE
  8
型材断面
  6
CONTINUOUS
 62
    47
 10
-60.750195
 20
-68.448458
 11
-60.735195
 21
-68.433457
  0
LINE
  8
型材断面
  6
CONTINUOUS
 62
    47
 10
-60.750195
 20
-68.448458
 11
-60.735195
 21
-68.463458
  0
LINE
  8
型材断面
  6
CONTINUOUS
 62
    47
 10
-60.750195
 20
-69.148467
 11
-60.735195
 21
-69.133468
  0
LINE
  8
型材断面
  6
CONTINUOUS
 62
    47
 10
-60.750195
 20
-69.148467
 11
-60.735195
 21
-69.163468
  0
LINE
  8
型材断面
  6
CONTINUOUS
 62
    47
 10
-60.735195
 20
-67.49843
 11
-60.735195
 21
-68.433457
  0
LINE
  8
型材断面
  6
CONTINUOUS
 62
    47
 10
-60.735195
 20
-68.463458
 11
-60.735195
 21
-69.133468
  0
LINE
  8
型材断面
  6
CONTINUOUS
 62
    47
 10
-57.435195
 20
-70.348442
 11
-57.435195
 21
-71.098445
  0
LINE
  8
型材断面
  6
CONTINUOUS
 62
    47
 10
-58.185182
 20
-71.598442
 11
-58.185182
 21
-71.098445
  0
LINE
  8
型材断面
  6
CONTINUOUS
 62
    47
 10
-57.435195
 20
-70.348442
 11
-60.735195
 21
-70.098442
  0
LINE
  8
型材断面
  6
CONTINUOUS
 62
    47
 10
-61.835408
 20
-70.098442
 11
-60.835195
 21
-70.098442
  0
LINE
  8
型材断面
  6
CONTINUOUS
 62
    47
 10
-60.750195
 20
-69.948442
 11
-60.735195
 21
-69.933442
  0
LINE
  8
型材断面
  6
CONTINUOUS
 62
    47
 10
-60.750195
 20
-69.948442
 11
-60.735195
 21
-69.963443
  0
LINE
  8
型材断面
  6
CONTINUOUS
 62
    47
 10
-60.735195
 20
-70.098442
 11
-60.735195
 21
-69.963443
  0
LINE
  8
型材断面
  6
CONTINUOUS
 62
    47
 10
-60.735195
 20
-69.163468
 11
-60.735195
 21
-69.933442
  0
LINE
  8
型材断面
  6
CONTINUOUS
 62
    47
 10
-77.435408
 20
-67.298455
 11
-58.535195
 21
-67.298455
  0
LINE
  8
型材断面
  6
CONTINUOUS
 62
    47
 10
-58.535195
 20
-67.49843
 11
-58.535195
 21
-67.298455
  0
LINE
  8
型材断面
  6
CONTINUOUS
 62
    47
 10
-58.535195
 20
-67.49843
 11
-77.435408
 21
-67.49843
  0
LINE
  8
型材断面
  6
CONTINUOUS
 10
-77.435408
 20
-70.098442
 11
-60.735195
 21
-70.098442
  0
LINE
  8
型材断面
  6
CONTINUOUS
 10
-77.435408
 20
-70.348442
 11
-57.435195
 21
-70.348442
  0
LINE
  8
型材断面
  6
CONTINUOUS
 62
    47
 10
-57.435195
 20
-71.098445
 11
-77.435408
 21
-71.098445
  0
LINE
  8
型材断面
  6
CONTINUOUS
 62
    47
 10
-58.185182
 20
-71.598442
 11
-77.435408
 21
-71.598442
  0
LINE
  8
型材断面
  6
CONTINUOUS
 62
    47
 10
-60.435405
 20
-66.748463
 11
-58.535192
 21
-66.84795
  0
LINE
  8
型材断面
  6
CONTINUOUS
 62
    47
 10
-60.84039
 20
-64.098435
 11
-60.84039
 21
-63.748265
  0
LINE
  8
型材断面
  6
CONTINUOUS
 10
-59.335405
 20
-1.40801
 11
-57.435195
 21
-3.30822
  0
LINE
  8
型材断面
  6
CONTINUOUS
 10
-58.535192
 20
-2.208223
 11
-58.535192
 21
16.69199
  0
LINE
  8
型材断面
  6
CONTINUOUS
 10
-57.435195
 20
-3.30822
 11
-57.435195
 21
16.69199
  0
LINE
  8
型材断面
  6
CONTINUOUS
 10
-58.535192
 20
-2.208223
 11
-77.435405
 21
-2.208223
  0
LINE
  8
型材断面
  6
CONTINUOUS
 10
-57.435195
 20
-3.30822
 11
-77.435405
 21
-3.30822
  0
LINE
  8
型材断面
  6
CONTINUOUS
 10
-59.335405
 20
34.79199
 11
-57.435195
 21
36.6922
  0
LINE
  8
型材断面
  6
CONTINUOUS
 10
-58.535192
 20
35.592202
 11
-58.535192
 21
16.69199
  0
LINE
  8
型材断面
  6
CONTINUOUS
 10
-57.435195
 20
36.6922
 11
-57.435195
 21
16.69199
  0
LINE
  8
型材断面
  6
CONTINUOUS
 10
-58.535192
 20
35.592202
 11
-77.435405
 21
35.592202
  0
LINE
  8
型材断面
  6
CONTINUOUS
 10
-57.435195
 20
36.6922
 11
-77.435405
 21
36.6922
  0
LINE
  8
型材断面
  6
CONTINUOUS
 10
-95.535405
 20
34.79199
 11
-97.435615
 21
36.6922
  0
LINE
  8
型材断面
  6
CONTINUOUS
 10
-96.335617
 20
35.592202
 11
-96.335617
 21
16.69199
  0
LINE
  8
型材断面
  6
CONTINUOUS
 10
-97.435615
 20
36.6922
 11
-97.435615
 21
16.69199
  0
LINE
  8
型材断面
  6
CONTINUOUS
 10
-96.335617
 20
35.592202
 11
-77.435405
 21
35.592202
  0
LINE
  8
型材断面
  6
CONTINUOUS
 10
-97.435615
 20
36.6922
 11
-77.435405
 21
36.6922
  0
LINE
  8
型材断面
  6
CONTINUOUS
 10
-95.535405
 20
-1.40801
 11
-97.435615
 21
-3.30822
  0
LINE
  8
型材断面
  6
CONTINUOUS
 10
-96.335617
 20
-2.208223
 11
-96.335617
 21
16.69199
  0
LINE
  8
型材断面
  6
CONTINUOUS
 10
-97.435615
 20
-3.30822
 11
-97.435615
 21
16.69199
  0
LINE
  8
型材断面
  6
CONTINUOUS
 10
-96.335617
 20
-2.208223
 11
-77.435405
 21
-2.208223
  0
LINE
  8
型材断面
  6
CONTINUOUS
 10
-97.435615
 20
-3.30822
 11
-77.435405
 21
-3.30822
  0
LINE
  8
型材断面
  6
CONTINUOUS
 10
-59.335405
 20
34.79199
 11
-57.435195
 21
36.6922
  0
LINE
  8
型材断面
  6
CONTINUOUS
 10
-95.535405
 20
34.79199
 11
-97.435615
 21
36.6922
  0
LINE
  8
型材断面
  6
CONTINUOUS
 10
-95.535405
 20
-1.40801
 11
-97.435615
 21
-3.30822
  0
LINE
  8
型材断面
  6
CONTINUOUS
 62
    47
 10
39.217592
 20
-65.158463
 11
39.202592
 21
-65.143462
  0
LINE
  8
型材断面
  6
CONTINUOUS
 62
    47
 10
39.217592
 20
-65.158463
 11
39.202592
 21
-65.173462
  0
LINE
  8
型材断面
  6
CONTINUOUS
 62
    47
 10
39.217592
 20
-66.12181
 11
39.202592
 21
-66.10681
  0
LINE
  8
型材断面
  6
CONTINUOUS
 62
    47
 10
39.217592
 20
-66.12181
 11
39.202592
 21
-66.13681
  0
LINE
  8
型材断面
  6
CONTINUOUS
 62
    47
 10
39.202592
 20
-66.748463
 11
39.202592
 21
-66.13681
  0
LINE
  8
型材断面
  6
CONTINUOUS
 62
    47
 10
39.202592
 20
-66.10681
 11
39.202592
 21
-65.173462
  0
LINE
  8
型材断面
  6
CONTINUOUS
 62
    47
 10
39.202592
 20
-65.143462
 11
39.202592
 21
-64.098435
  0
LINE
  8
型材断面
  6
CONTINUOUS
 62
    47
 10
39.202592
 20
-64.098435
 11
56.202595
 21
-64.098435
  0
LINE
  8
型材断面
  6
CONTINUOUS
 10
39.202592
 20
-66.748463
 11
56.202595
 21
-66.748463
  0
LINE
  8
型材断面
  6
CONTINUOUS
 10
56.202595
 20
-66.84795
 11
37.30238
 21
-66.84795
  0
LINE
  8
型材断面
  6
CONTINUOUS
 62
    47
 10
37.30238
 20
-66.84795
 11
37.30238
 21
-67.097893
  0
LINE
  8
型材断面
  6
CONTINUOUS
 62
    47
 10
56.202595
 20
-67.097893
 11
37.30238
 21
-67.097893
  0
LINE
  8
型材断面
  6
CONTINUOUS
 62
    47
 10
39.517382
 20
-68.448458
 11
39.502383
 21
-68.433457
  0
LINE
  8
型材断面
  6
CONTINUOUS
 62
    47
 10
39.517382
 20
-68.448458
 11
39.502383
 21
-68.463458
  0
LINE
  8
型材断面
  6
CONTINUOUS
 62
    47
 10
39.517382
 20
-69.148467
 11
39.502383
 21
-69.133468
  0
LINE
  8
型材断面
  6
CONTINUOUS
 62
    47
 10
39.517382
 20
-69.148467
 11
39.502383
 21
-69.163468
  0
LINE
  8
型材断面
  6
CONTINUOUS
 62
    47
 10
39.502383
 20
-67.49843
 11
39.502383
 21
-68.433457
  0
LINE
  8
型材断面
  6
CONTINUOUS
 62
    47
 10
39.502383
 20
-68.463458
 11
39.502383
 21
-69.133468
  0
LINE
  8
型材断面
  6
CONTINUOUS
 62
    47
 10
36.202383
 20
-70.348442
 11
36.202383
 21
-71.098445
  0
LINE
  8
型材断面
  6
CONTINUOUS
 62
    47
 10
36.95237
 20
-71.598442
 11
36.95237
 21
-71.098445
  0
LINE
  8
型材断面
  6
CONTINUOUS
 62
    47
 10
36.202383
 20
-70.348442
 11
39.502383
 21
-70.098442
  0
LINE
  8
型材断面
  6
CONTINUOUS
 62
    47
 10
40.602595
 20
-70.098442
 11
39.602383
 21
-70.098442
  0
LINE
  8
型材断面
  6
CONTINUOUS
 62
    47
 10
39.517382
 20
-69.948442
 11
39.502383
 21
-69.933442
  0
LINE
  8
型材断面
  6
CONTINUOUS
 62
    47
 10
39.517382
 20
-69.948442
 11
39.502383
 21
-69.963443
  0
LINE
  8
型材断面
  6
CONTINUOUS
 62
    47
 10
39.502383
 20
-70.098442
 11
39.502383
 21
-69.963443
  0
LINE
  8
型材断面
  6
CONTINUOUS
 62
    47
 10
39.502383
 20
-69.163468
 11
39.502383
 21
-69.933442
  0
LINE
  8
型材断面
  6
CONTINUOUS
 62
    47
 10
56.202595
 20
-67.298455
 11
37.302383
 21
-67.298455
  0
LINE
  8
型材断面
  6
CONTINUOUS
 62
    47
 10
37.302383
 20
-67.49843
 11
37.302383
 21
-67.298455
  0
LINE
  8
型材断面
  6
CONTINUOUS
 62
    47
 10
37.302383
 20
-67.49843
 11
56.202595
 21
-67.49843
  0
LINE
  8
型材断面
  6
CONTINUOUS
 10
56.202595
 20
-70.098442
 11
39.502383
 21
-70.098442
  0
LINE
  8
型材断面
  6
CONTINUOUS
 10
56.202595
 20
-70.348442
 11
36.202383
 21
-70.348442
  0
LINE
  8
型材断面
  6
CONTINUOUS
 62
    47
 10
36.202383
 20
-71.098445
 11
56.202595
 21
-71.098445
  0
LINE
  8
型材断面
  6
CONTINUOUS
 62
    47
 10
36.95237
 20
-71.598442
 11
56.202595
 21
-71.598442
  0
LINE
  8
型材断面
  6
CONTINUOUS
 62
    47
 10
39.202592
 20
-66.748463
 11
37.30238
 21
-66.84795
  0
LINE
  8
型材断面
  6
CONTINUOUS
 62
    47
 10
39.607577
 20
-64.098435
 11
39.607577
 21
-63.748265
  0
LINE
  8
型材断面
  6
CONTINUOUS
 62
    47
 10
73.187593
 20
-65.158463
 11
73.202592
 21
-65.143462
  0
LINE
  8
型材断面
  6
CONTINUOUS
 62
    47
 10
73.187593
 20
-65.158463
 11
73.202592
 21
-65.173462
  0
LINE
  8
型材断面
  6
CONTINUOUS
 62
    47
 10
73.187593
 20
-66.12181
 11
73.202592
 21
-66.10681
  0
LINE
  8
型材断面
  6
CONTINUOUS
 62
    47
 10
73.187593
 20
-66.12181
 11
73.202592
 21
-66.13681
  0
LINE
  8
型材断面
  6
CONTINUOUS
 62
    47
 10
73.202592
 20
-66.748463
 11
73.202592
 21
-66.13681
  0
LINE
  8
型材断面
  6
CONTINUOUS
 62
    47
 10
73.202592
 20
-66.10681
 11
73.202592
 21
-65.173462
  0
LINE
  8
型材断面
  6
CONTINUOUS
 62
    47
 10
73.202592
 20
-65.143462
 11
73.202592
 21
-64.098435
  0
LINE
  8
型材断面
  6
CONTINUOUS
 62
    47
 10
73.202592
 20
-64.098435
 11
56.20259
 21
-64.098435
  0
LINE
  8
型材断面
  6
CONTINUOUS
 10
73.202592
 20
-66.748463
 11
56.20259
 21
-66.748463
  0
LINE
  8
型材断面
  6
CONTINUOUS
 10
56.20259
 20
-66.84795
 11
75.102805
 21
-66.84795
  0
LINE
  8
型材断面
  6
CONTINUOUS
 62
    47
 10
75.102805
 20
-66.84795
 11
75.102805
 21
-67.097893
  0
LINE
  8
型材断面
  6
CONTINUOUS
 62
    47
 10
56.20259
 20
-67.097893
 11
75.102805
 21
-67.097893
  0
LINE
  8
型材断面
  6
CONTINUOUS
 62
    47
 10
72.887802
 20
-68.448458
 11
72.902802
 21
-68.433457
  0
LINE
  8
型材断面
  6
CONTINUOUS
 62
    47
 10
72.887802
 20
-68.448458
 11
72.902802
 21
-68.463458
  0
LINE
  8
型材断面
  6
CONTINUOUS
 62
    47
 10
72.887802
 20
-69.148467
 11
72.902802
 21
-69.133468
  0
LINE
  8
型材断面
  6
CONTINUOUS
 62
    47
 10
72.887802
 20
-69.148467
 11
72.902802
 21
-69.163468
  0
LINE
  8
型材断面
  6
CONTINUOUS
 62
    47
 10
72.902802
 20
-67.49843
 11
72.902802
 21
-68.433457
  0
LINE
  8
型材断面
  6
CONTINUOUS
 62
    47
 10
72.902802
 20
-68.463458
 11
72.902802
 21
-69.133468
  0
LINE
  8
型材断面
  6
CONTINUOUS
 62
    47
 10
76.202802
 20
-70.348442
 11
76.202802
 21
-71.098445
  0
LINE
  8
型材断面
  6
CONTINUOUS
 62
    47
 10
75.452815
 20
-71.598442
 11
75.452815
 21
-71.098445
  0
LINE
  8
型材断面
  6
CONTINUOUS
 62
    47
 10
76.202802
 20
-70.348442
 11
72.902802
 21
-70.098442
  0
LINE
  8
型材断面
  6
CONTINUOUS
 62
    47
 10
71.80259
 20
-70.098442
 11
72.802802
 21
-70.098442
  0
LINE
  8
型材断面
  6
CONTINUOUS
 62
    47
 10
72.887802
 20
-69.948442
 11
72.902802
 21
-69.933442
  0
LINE
  8
型材断面
  6
CONTINUOUS
 62
    47
 10
72.887802
 20
-69.948442
 11
72.902802
 21
-69.963443
  0
LINE
  8
型材断面
  6
CONTINUOUS
 62
    47
 10
72.902802
 20
-70.098442
 11
72.902802
 21
-69.963443
  0
LINE
  8
型材断面
  6
CONTINUOUS
 62
    47
 10
72.902802
 20
-69.163468
 11
72.902802
 21
-69.933442
  0
LINE
  8
型材断面
  6
CONTINUOUS
 62
    47
 10
56.20259
 20
-67.298455
 11
75.102802
 21
-67.298455
  0
LINE
  8
型材断面
  6
CONTINUOUS
 62
    47
 10
75.102802
 20
-67.49843
 11
75.102802
 21
-67.298455
  0
LINE
  8
型材断面
  6
CONTINUOUS
 62
    47
 10
75.102802
 20
-67.49843
 11
56.20259
 21
-67.49843
  0
LINE
  8
型材断面
  6
CONTINUOUS
 10
56.20259
 20
-70.098442
 11
72.902802
 21
-70.098442
  0
LINE
  8
型材断面
  6
CONTINUOUS
 10
56.20259
 20
-70.348442
 11
76.202802
 21
-70.348442
  0
LINE
  8
型材断面
  6
CONTINUOUS
 62
    47
 10
76.202802
 20
-71.098445
 11
56.20259
 21
-71.098445
  0
LINE
  8
型材断面
  6
CONTINUOUS
 62
    47
 10
75.452815
 20
-71.598442
 11
56.20259
 21
-71.598442
  0
LINE
  8
型材断面
  6
CONTINUOUS
 62
    47
 10
73.202592
 20
-66.748463
 11
75.102805
 21
-66.84795
  0
LINE
  8
型材断面
  6
CONTINUOUS
 62
    47
 10
72.797608
 20
-64.098435
 11
72.797608
 21
-63.748265
  0
LINE
  8
型材断面
  6
DOT
 62
    47
 10
37.082388
 20
-64.033555
 11
37.061175
 21
-64.033555
  0
LINE
  8
型材断面
  6
DOT
 62
    47
 10
37.082388
 20
-64.033555
 11
37.082388
 21
-64.05477
  0
LINE
  8
型材断面
  6
DOT
 62
    47
 10
37.763578
 20
-64.714745
 11
37.742362
 21
-64.714745
  0
LINE
  8
型材断面
  6
DOT
 62
    47
 10
37.763578
 20
-64.714745
 11
37.763578
 21
-64.735958
  0
LINE
  8
型材断面
  6
DOT
 62
    47
 10
38.19608
 20
-65.168462
 11
37.763578
 21
-64.735958
  0
LINE
  8
型材断面
  6
DOT
 62
    47
 10
37.742362
 20
-64.714745
 11
37.082388
 21
-64.05477
  0
LINE
  8
型材断面
  6
DOT
 62
    47
 10
37.061175
 20
-64.033555
 11
36.322228
 21
-63.29461
  0
LINE
  8
型材断面
  6
DOT
 62
    47
 10
36.322228
 20
-63.29461
 11
48.343045
 21
-51.273793
  0
LINE
  8
型材断面
  6
DOT
 10
38.19608
 20
-65.168462
 11
50.216898
 21
-53.147645
  0
LINE
  8
型材断面
  6
DOT
 10
50.287245
 20
-53.217993
 11
36.922775
 21
-66.582463
  0
LINE
  8
型材断面
  6
DOT
 62
    47
 10
36.922775
 20
-66.582463
 11
37.099512
 21
-66.7592
  0
LINE
  8
型材断面
  6
DOT
 62
    47
 10
50.463983
 20
-53.39473
 11
37.099512
 21
-66.7592
  0
LINE
  8
型材断面
  6
DOT
 62
    47
 10
38.19608
 20
-65.168462
 11
36.922775
 21
-66.582463
  0
LINE
  8
型材断面
  6
DOT
 62
    47
 10
36.608595
 20
-63.008242
 11
36.360988
 21
-62.760635
  0
LINE
  8
型材断面
  6
DOT
 62
    47
 10
61.102805
 20
-40.013137
 11
61.102805
 21
-39.991925
  0
LINE
  8
型材断面
  6
DOT
 62
    47
 10
61.102805
 20
-40.013137
 11
61.124018
 21
-40.013137
  0
LINE
  8
型材断面
  6
DOT
 62
    47
 10
61.783995
 20
-40.694327
 11
61.783995
 21
-40.673115
  0
LINE
  8
型材断面
  6
DOT
 62
    47
 10
61.783995
 20
-40.694327
 11
61.805207
 21
-40.694327
  0
LINE
  8
型材断面
  6
DOT
 62
    47
 10
62.23771
 20
-41.126832
 11
61.805207
 21
-40.694327
  0
LINE
  8
型材断面
  6
DOT
 62
    47
 10
61.783995
 20
-40.673115
 11
61.124018
 21
-40.013137
  0
LINE
  8
型材断面
  6
DOT
 62
    47
 10
61.102805
 20
-39.991925
 11
60.363858
 21
-39.25298
  0
LINE
  8
型材断面
  6
DOT
 62
    47
 10
60.363858
 20
-39.25298
 11
48.343043
 21
-51.273798
  0
LINE
  8
型材断面
  6
DOT
 10
62.23771
 20
-41.126832
 11
50.216895
 21
-53.14765
  0
LINE
  8
型材断面
  6
DOT
 10
50.287242
 20
-53.217998
 11
63.651713
 21
-39.853528
  0
LINE
  8
型材断面
  6
DOT
 62
    47
 10
63.651713
 20
-39.853528
 11
63.828448
 21
-40.030263
  0
LINE
  8
型材断面
  6
DOT
 62
    47
 10
50.463977
 20
-53.394733
 11
63.828448
 21
-40.030263
  0
LINE
  8
型材断面
  6
DOT
 62
    47
 10
62.23771
 20
-41.126832
 11
63.651713
 21
-39.853528
  0
LINE
  8
型材断面
  6
DOT
 62
    47
 10
60.07749
 20
-39.539347
 11
59.829882
 21
-39.29174
  0
ARC
  8
型材断面
  6
DASHDOT
 10
36.792108
 20
-67.17343
 40
38.310772
 50
360.11297
 51
405.112972
  0
LINE
  8
ガラス
  6
CONTINUOUS
 10
167.304785
 20
64.724703
 11
136.504785
 21
64.724703
  0
LINE
  8
ガラス
  6
CONTINUOUS
 10
136.504785
 20
64.724703
 11
136.504785
 21
33.924703
  0
LINE
  8
ガラス
  6
CONTINUOUS
 10
136.504785
 20
33.924703
 11
167.304785
 21
33.924703
  0
LINE
  8
ガラス
  6
CONTINUOUS
 10
167.304785
 20
64.724703
 11
167.304785
 21
33.924703
  0
CIRCLE
  8
ボルト／ビス
  6
CONTINUOUS
 10
-84.935405
 20
0.69199
 40
0.288675
  0
CIRCLE
  8
ボルト／ビス
  6
CONTINUOUS
 10
-84.935405
 20
0.69199
 40
0.455885
  0
CIRCLE
  8
ボルト／ビス
  6
CONTINUOUS
 10
-93.435405
 20
9.19199
 40
0.288675
  0
CIRCLE
  8
ボルト／ビス
  6
CONTINUOUS
 10
-93.435405
 20
9.19199
 40
0.455885
  0
CIRCLE
  8
ボルト／ビス
  6
CONTINUOUS
 10
-69.935405
 20
0.69199
 40
0.288675
  0
CIRCLE
  8
ボルト／ビス
  6
CONTINUOUS
 10
-69.935405
 20
0.69199
 40
0.455885
  0
CIRCLE
  8
ボルト／ビス
  6
CONTINUOUS
 10
-61.435405
 20
9.19199
 40
0.288675
  0
CIRCLE
  8
ボルト／ビス
  6
CONTINUOUS
 10
-61.435405
 20
9.19199
 40
0.455885
  0
CIRCLE
  8
ボルト／ビス
  6
CONTINUOUS
 10
-69.935405
 20
32.69199
 40
0.288675
  0
CIRCLE
  8
ボルト／ビス
  6
CONTINUOUS
 10
-69.935405
 20
32.69199
 40
0.455885
  0
CIRCLE
  8
ボルト／ビス
  6
CONTINUOUS
 10
-61.435405
 20
24.19199
 40
0.288675
  0
CIRCLE
  8
ボルト／ビス
  6
CONTINUOUS
 10
-61.435405
 20
24.19199
 40
0.455885
  0
CIRCLE
  8
ボルト／ビス
  6
CONTINUOUS
 10
-84.935405
 20
32.69199
 40
0.288675
  0
CIRCLE
  8
ボルト／ビス
  6
CONTINUOUS
 10
-84.935405
 20
32.69199
 40
0.455885
  0
CIRCLE
  8
ボルト／ビス
  6
CONTINUOUS
 10
-93.435405
 20
24.19199
 40
0.288675
  0
CIRCLE
  8
ボルト／ビス
  6
CONTINUOUS
 10
-93.435405
 20
24.19199
 40
0.455885
  0
INSERT
  2
*GRP_0002
  8
文字
  6
CONTINUOUS
 10
0.0
 20
0.0
  0
INSERT
  2
*GRP_0003
  8
文字
  6
CONTINUOUS
 10
0.0
 20
0.0
  0
INSERT
  2
*GRP_0004
  8
文字
  6
CONTINUOUS
 10
0.0
 20
0.0
  0
INSERT
  2
*GRP_0005
  8
文字
  6
CONTINUOUS
 10
0.0
 20
0.0
  0
INSERT
  2
*GRP_0006
  8
文字
  6
CONTINUOUS
 10
0.0
 20
0.0
  0
INSERT
  2
*GRP_0007
  8
文字
  6
CONTINUOUS
 10
0.0
 20
0.0
  0
INSERT
  2
*GRP_0008
  8
文字
  6
CONTINUOUS
 10
0.0
 20
0.0
  0
INSERT
  2
*GRP_0009
  8
文字
  6
CONTINUOUS
 10
0.0
 20
0.0
  0
TEXT
  7
TextStyle03
  8
文字
  6
CONTINUOUS
 10
-31.2
 20
-9.725
  1
は排水穴位置を示す
 40
3.0
 72
     5
 11
-1.2
 21
-9.725
  0
TEXT
  7
TextStyle03
  8
文字
  6
CONTINUOUS
 10
-36.8
 20
-28.1
  1
アンカー数量　４ヶ所
 40
3.0
 72
     5
 11
-3.425
 21
-28.1
  0
TEXT
  7
TextStyle03
  8
文字
  6
CONTINUOUS
 10
-31.2
 20
-17.575
  1
はケーシング位置を示す
 40
3.0
 72
     5
 11
5.55
 21
-17.575
  0
TEXT
  7
TextStyle03
  8
文字
  6
CONTINUOUS
 10
-31.2
 20
-20.95
  1
２ヶ所中1ヶ所に設定
 40
3.0
 72
     5
 11
0.4875
 21
-20.95
  0
TEXT
  7
TextStyle03
  8
文字
  6
CONTINUOUS
 10
-98.825
 20
58.1
  1
アンカーピッチ
 40
3.0
 72
     5
 11
-75.575
 21
58.1
  0
TEXT
  7
TextStyle03
  8
文字
  6
CONTINUOUS
 10
-113.4
 20
-68.55
  1
丁番側
 40
3.0
 72
     5
 11
-103.65
 21
-68.55
  0
TEXT
  7
TextStyle03
  8
文字
  6
CONTINUOUS
 10
74.1
 20
-54.325
  1
45°
 40
3.0
 72
     5
 11
80.475
 21
-54.325
  0
TEXT
  7
TextStyle03
  8
文字
  6
CONTINUOUS
 10
86.825
 20
96.8
  1
ＮＳコード：ＮＳＨＺ
 40
5.0
 72
     5
 11
142.45
 21
96.8
  0
TEXT
  7
TextStyle03
  8
文字
  6
CONTINUOUS
 10
147.5
 20
42.125
  1
網入り6.8t
 40
3.0
 72
     5
 11
164.1875
 21
42.125
  0
TEXT
  7
TextStyle03
  8
文字
  6
CONTINUOUS
 10
154.125
 20
36.875
  1
×１枚
 40
3.0
 72
     5
 11
163.875
 21
36.875
  0
TEXT
  7
TextStyle03
  8
文字
  6
CONTINUOUS
 10
87.1
 20
119.575
  1
シリーズ：ＴＤ２Ｈ
 40
5.0
 72
     5
 11
137.1
 21
119.575
  0
TEXT
  7
TextStyle03
  8
文字
  6
CONTINUOUS
 10
87.1
 20
113.95
  1
　　　　　（片側開閉）600×600タイプ
 40
5.0
 72
     5
 11
187.725
 21
113.95
  0
TEXT
  7
TextStyle03
  8
文字
  6
CONTINUOUS
 10
87.1
 20
108.325
  1
図面名　：外観姿図
 40
5.0
 72
     5
 11
137.1
 21
108.325
  0
TEXT
  7
TextStyle03
  8
文字
  6
CONTINUOUS
 10
87.1
 20
102.7
  1
　　　　　　
 40
5.0
 72
     5
 11
120.225
 21
102.7
  0
INSERT
  2
*DIM_0010
  8
寸法
  6
CONTINUOUS
 10
0.0
 20
0.0
  0
INSERT
  2
*DIM_0011
  8
寸法
  6
CONTINUOUS
 10
0.0
 20
0.0
  0
INSERT
  2
*DIM_0020
  8
寸法
  6
CONTINUOUS
 10
0.0
 20
0.0
  0
INSERT
  2
*DIM_0021
  8
寸法
  6
CONTINUOUS
 10
0.0
 20
0.0
  0
INSERT
  2
*DIM_0022
  8
寸法
  6
CONTINUOUS
 10
0.0
 20
0.0
  0
INSERT
  2
*DIM_0024
  8
寸法
  6
CONTINUOUS
 10
0.0
 20
0.0
  0
INSERT
  2
*DIM_0025
  8
寸法
  6
CONTINUOUS
 10
0.0
 20
0.0
  0
INSERT
  2
*DIM_0026
  8
寸法
  6
CONTINUOUS
 10
0.0
 20
0.0
  0
INSERT
  2
*DIM_0028
  8
寸法
  6
CONTINUOUS
 10
0.0
 20
0.0
  0
INSERT
  2
*DIM_0029
  8
寸法
  6
CONTINUOUS
 10
0.0
 20
0.0
  0
LINE
  8
別途部材
  6
CONTINUOUS
 10
-95.535405
 20
-1.40801
 11
-94.935405
 21
-0.80801
  0
LINE
  8
別途部材
  6
CONTINUOUS
 62
    96
 10
-94.935405
 20
-62.248265
 11
-95.535405
 21
-63.748265
  0
LINE
  8
別途部材
  6
CONTINUOUS
 62
    96
 10
-94.935405
 20
-62.248265
 11
-77.435405
 21
-62.248265
  0
LINE
  8
別途部材
  6
CONTINUOUS
 10
-95.535405
 20
-63.748265
 11
-77.435405
 21
-63.748265
  0
LINE
  8
別途部材
  6
CONTINUOUS
 62
    96
 10
-59.935405
 20
-62.248265
 11
-59.335405
 21
-63.748265
  0
LINE
  8
別途部材
  6
CONTINUOUS
 62
    96
 10
-59.935405
 20
-62.248265
 11
-77.435405
 21
-62.248265
  0
LINE
  8
別途部材
  6
CONTINUOUS
 10
-59.335405
 20
-63.748265
 11
-77.435405
 21
-63.748265
  0
ARC
  8
別途部材
  6
CONTINUOUS
 10
-77.435405
 20
-72.310764
 40
18.0625
 50
33.855026
 51
146.144974
  0
LINE
  8
別途部材
  6
CONTINUOUS
 10
-95.535405
 20
-1.40801
 11
-95.535405
 21
16.69199
  0
LINE
  8
別途部材
  6
CONTINUOUS
 10
-94.935405
 20
-0.80801
 11
-94.935405
 21
16.69199
  0
LINE
  8
別途部材
  6
CONTINUOUS
 10
-94.935405
 20
-0.80801
 11
-77.435405
 21
-0.80801
  0
LINE
  8
別途部材
  6
CONTINUOUS
 10
-95.535405
 20
-1.40801
 11
-77.435405
 21
-1.40801
  0
LINE
  8
別途部材
  6
CONTINUOUS
 10
-59.335405
 20
-1.40801
 11
-59.935405
 21
-0.80801
  0
LINE
  8
別途部材
  6
CONTINUOUS
 10
-59.335405
 20
-1.40801
 11
-59.335405
 21
16.69199
  0
LINE
  8
別途部材
  6
CONTINUOUS
 10
-59.935405
 20
-0.80801
 11
-59.935405
 21
16.69199
  0
LINE
  8
別途部材
  6
CONTINUOUS
 10
-59.935405
 20
-0.80801
 11
-77.435405
 21
-0.80801
  0
LINE
  8
別途部材
  6
CONTINUOUS
 10
-59.335405
 20
-1.40801
 11
-77.435405
 21
-1.40801
  0
LINE
  8
別途部材
  6
CONTINUOUS
 10
-59.335405
 20
34.79199
 11
-59.935405
 21
34.19199
  0
LINE
  8
別途部材
  6
CONTINUOUS
 10
-59.335405
 20
34.79199
 11
-59.335405
 21
16.69199
  0
LINE
  8
別途部材
  6
CONTINUOUS
 10
-59.935405
 20
34.19199
 11
-59.935405
 21
16.69199
  0
LINE
  8
別途部材
  6
CONTINUOUS
 10
-59.935405
 20
34.19199
 11
-77.435405
 21
34.19199
  0
LINE
  8
別途部材
  6
CONTINUOUS
 10
-59.335405
 20
34.79199
 11
-77.435405
 21
34.79199
  0
LINE
  8
別途部材
  6
CONTINUOUS
 10
-95.535405
 20
34.79199
 11
-94.935405
 21
34.19199
  0
LINE
  8
別途部材
  6
CONTINUOUS
 10
-95.535405
 20
34.79199
 11
-95.535405
 21
16.69199
  0
LINE
  8
別途部材
  6
CONTINUOUS
 10
-94.935405
 20
34.19199
 11
-94.935405
 21
16.69199
  0
LINE
  8
別途部材
  6
CONTINUOUS
 10
-94.935405
 20
34.19199
 11
-77.435405
 21
34.19199
  0
LINE
  8
別途部材
  6
CONTINUOUS
 10
-95.535405
 20
34.79199
 11
-77.435405
 21
34.79199
  0
LINE
  8
別途部材
  6
CONTINUOUS
 10
-92.435405
 20
1.69199
 11
-88.025072
 21
6.102323
  0
LINE
  8
別途部材
  6
CONTINUOUS
 10
-62.435405
 20
1.69199
 11
-66.845737
 21
6.102323
  0
LINE
  8
別途部材
  6
CONTINUOUS
 10
-92.435405
 20
31.69199
 11
-88.025072
 21
27.281658
  0
LINE
  8
別途部材
  6
CONTINUOUS
 10
-62.435405
 20
31.69199
 11
-66.845737
 21
27.281658
  0
INSERT
  2
*GRP_0023
  8
別途部材
  6
CONTINUOUS
 10
0.0
 20
0.0
  0
LINE
  8
別途部材
  6
CONTINUOUS
 62
    96
 10
38.702592
 20
-62.248265
 11
38.102592
 21
-63.748265
  0
LINE
  8
別途部材
  6
CONTINUOUS
 62
    96
 10
38.702592
 20
-62.248265
 11
56.202592
 21
-62.248265
  0
LINE
  8
別途部材
  6
CONTINUOUS
 10
38.102592
 20
-63.748265
 11
56.202592
 21
-63.748265
  0
LINE
  8
別途部材
  6
CONTINUOUS
 62
    96
 10
73.702592
 20
-62.248265
 11
74.302592
 21
-63.748265
  0
LINE
  8
別途部材
  6
CONTINUOUS
 62
    96
 10
73.702592
 20
-62.248265
 11
56.202592
 21
-62.248265
  0
LINE
  8
別途部材
  6
CONTINUOUS
 10
74.302592
 20
-63.748265
 11
56.202592
 21
-63.748265
  0
ARC
  8
別途部材
  6
CONTINUOUS
 10
56.202594
 20
-72.310764
 40
18.0625
 50
33.855026
 51
146.144974
  0
INSERT
  2
*GRP_0027
  8
別途部材
  6
CONTINUOUS
 10
0.0
 20
0.0
  0
LINE
  8
別途部材
  6
DOT
 62
    96
 10
34.660407
 20
-62.339895
 11
35.296803
 21
-63.82482
  0
LINE
  8
別途部材
  6
DOT
 62
    96
 10
34.660407
 20
-62.339895
 11
47.034775
 21
-49.965528
  0
LINE
  8
別途部材
  6
DOT
 10
35.296803
 20
-63.82482
 11
48.095435
 21
-51.026188
  0
LINE
  8
別途部材
  6
DOT
 62
    96
 10
59.409145
 20
-37.591158
 11
60.894067
 21
-38.227555
  0
LINE
  8
別途部材
  6
DOT
 62
    96
 10
59.409145
 20
-37.591158
 11
47.034775
 21
-49.965528
  0
LINE
  8
別途部材
  6
DOT
 10
60.894067
 20
-38.227555
 11
48.095435
 21
-51.026188
  0
ARC
  8
別途部材
  6
DOT
 10
54.150037
 20
-57.080787
 40
18.0625
 50
78.855026
 51
191.144974
  0
INSERT
  2
*GRP_0030
  8
別途部材
  6
DOT
 10
0.0
 20
0.0
  0
INSERT
  2
*GRP_0031
  8
別途部材
  6
DOT
 10
0.0
 20
0.0
  0
INSERT
  2
*GRP_0032
  8
別途部材
  6
DOT
 10
0.0
 20
0.0
  0
INSERT
  2
*GRP_0033
  8
別途部材
  6
DOT
 10
0.0
 20
0.0
  0
INSERT
  2
*GRP_0034
  8
別途部材
  6
DOT
 10
0.0
 20
0.0
  0
INSERT
  2
*GRP_0035
  8
別途部材
  6
DOT
 10
0.0
 20
0.0
  0
ENDSEC
  0
EOF
