  0
SECTION
  2
HEADER
  9
$EXTMIN
 10
-210.0
 20
-148.5
  9
$EXTMAX
 10
210.0
 20
148.5
  9
$PDMODE
 70
    32
  9
$PDSIZE
 40
1.5
  9
$LTSCALE
 40
10.0
  0
ENDSEC
  0
SECTION
  2
TABLES
  0
TABLE
  2
LTYPE
 70
    15
  0
LTYPE
  2
CONTINUOUS
 70
    64
  3
実線
 72
    65
 73
     0
 40
0.0
  0
LTYPE
  2
DASHED
 70
    64
  3
破線A
 72
    65
 73
     2
 40
0.6
 49
0.4
 49
-0.2
  0
LTYPE
  2
DASHEDX2
 70
    64
  3
破線B
 72
    65
 73
     2
 40
1.3
 49
0.9
 49
-0.4
  0
LTYPE
  2
DASHDOT
 70
    64
  3
１点鎖線A
 72
    65
 73
     4
 40
0.5375
 49
0.375
 49
-0.05
 49
0.0625
 49
-0.05
  0
LTYPE
  2
DASHDOTX2
 70
    64
  3
１点鎖線B
 72
    65
 73
     4
 40
1.075
 49
0.75
 49
-0.1
 49
0.125
 49
-0.1
  0
LTYPE
  2
DIVIDE2
 70
    64
  3
２点鎖線A
 72
    65
 73
     6
 40
0.5125
 49
0.3
 49
-0.0375
 49
0.05
 49
-0.0375
 49
0.05
 49
-0.0375
  0
LTYPE
  2
DIVIDE
 70
    64
  3
２点鎖線B
 72
    65
 73
     6
 40
1.05
 49
0.55
 49
-0.1
 49
0.1
 49
-0.1
 49
0.1
 49
-0.1
  0
LTYPE
  2
DOT
 70
    64
  3
点線A
 72
    65
 73
     2
 40
0.1125
 49
0.0625
 49
-0.05
  0
LTYPE
  2
DOTX2
 70
    64
  3
点線B
 72
    65
 73
     2
 40
0.275
 49
0.15
 49
-0.125
  0
LTYPE
  2
CONTINUOUS
 70
    64
  3
実線
 72
    65
 73
     0
 40
0.0
  0
LTYPE
  2
CONTINUOUS
 70
    64
  3
実線
 72
    65
 73
     0
 40
0.0
  0
LTYPE
  2
CONTINUOUS
 70
    64
  3
実線
 72
    65
 73
     0
 40
0.0
  0
LTYPE
  2
CONTINUOUS
 70
    64
  3
実線
 72
    65
 73
     0
 40
0.0
  0
LTYPE
  2
CONTINUOUS
 70
    64
  3
実線
 72
    65
 73
     0
 40
0.0
  0
LTYPE
  2
CONTINUOUS
 70
    64
  3
実線
 72
    65
 73
     0
 40
0.0
  0
ENDTAB
  0
TABLE
  2
LAYER
 70
    34
  0
LAYER
  2
通り芯
 70
     0
 62
    15
  6
CONTINUOUS
  0
LAYER
  2
補助線
 70
     0
 62
    16
  6
DOT
  0
LAYER
  2
躯体
 70
     0
 62
    31
  6
CONTINUOUS
  0
LAYER
  2
型材
 70
     0
 62
    32
  6
CONTINUOUS
  0
LAYER
  2
型材断面
 70
     0
 62
    47
  6
CONTINUOUS
  0
LAYER
  2
ガラス
 70
     0
 62
    48
  6
CONTINUOUS
  0
LAYER
  2
ゴム等
 70
     0
 62
    63
  6
CONTINUOUS
  0
LAYER
  2
ボルト／ビス
 70
     0
 62
    64
  6
CONTINUOUS
  0
LAYER
  2
文字
 70
     0
 62
    79
  6
CONTINUOUS
  0
LAYER
  2
寸法
 70
     0
 62
    80
  6
CONTINUOUS
  0
LAYER
  2
ﾊｯﾁﾝｸﾞ
 70
     0
 62
    95
  6
CONTINUOUS
  0
LAYER
  2
別途部材
 70
     0
 62
    96
  6
CONTINUOUS
  0
LAYER
  2
曲げ物
 70
     0
 62
   111
  6
CONTINUOUS
  0
LAYER
  2
鉄骨等
 70
     0
 62
   112
  6
CONTINUOUS
  0
LAYER
  2
St
 70
     0
 62
   127
  6
CONTINUOUS
  0
LAYER
  2
その他部品等
 70
     0
 62
   128
  6
CONTINUOUS
  0
LAYER
  2
ｶﾞｽｹｯﾄ
 70
     0
 62
   143
  6
CONTINUOUS
  0
LAYER
  2
ｽｹｯﾁ
 70
     0
 62
    14
  6
CONTINUOUS
  0
LAYER
  2
0
 70
     0
 62
    17
  6
CONTINUOUS
  0
LAYER
  2
1
 70
     0
 62
    30
  6
CONTINUOUS
  0
LAYER
  2
4
 70
     0
 62
    33
  6
CONTINUOUS
  0
LAYER
  2
ﾚｲﾔ3
 70
     0
 62
    46
  6
CONTINUOUS
  0
LAYER
  2
外形線
 70
     0
 62
    49
  6
CONTINUOUS
  0
LAYER
  2
部品
 70
     0
 62
    14
  6
CONTINUOUS
  0
LAYER
  2
サッシ芯
 70
     0
 62
    17
  6
DASHDOTX2
  0
LAYER
  2
寸法線
 70
     0
 62
    62
  6
CONTINUOUS
  0
LAYER
  2
姿図外形線
 70
     0
 62
    65
  6
CONTINUOUS
  0
LAYER
  2
姿補助線
 70
     0
 62
    30
  6
CONTINUOUS
  0
LAYER
  2
透視線
 70
     0
 62
    78
  6
DOT
  0
LAYER
  2
用紙
 70
     0
 62
    81
  6
CONTINUOUS
  0
LAYER
  2
実線図枠
 70
     0
 62
    94
  6
CONTINUOUS
  0
LAYER
  2
補助図枠
 70
     0
 62
    97
  6
CONTINUOUS
  0
LAYER
  2
建具記号
 70
     0
 62
   110
  6
CONTINUOUS
  0
LAYER
  2
補助文字
 70
     0
 62
   113
  6
CONTINUOUS
  0
ENDTAB
  0
TABLE
  2
STYLE
 70
    10
  0
STYLE
  2
STANDARD
 70
     0
 40
1.0
 41
1.0
 42
1.0
 50
0.0
 71
     0
  3
TXT
  4
BIGFONT
  0
STYLE
  2
TATE
 70
     4
 40
1.0
 41
1.0
 42
1.0
 50
0.0
 71
     0
  3
TXT
  4
BIGFONT
  0
STYLE
  2
TextStyle03
 70
     0
 40
1.0
 41
1.0
 42
1.0
 50
0.0
 71
     0
  3
MONOTXT
  4
BIGFONT
  0
STYLE
  2
TextStyle04
 70
     0
 40
1.0
 41
1.0
 42
1.0
 50
0.0
 71
     0
  3
MONOTXT
  4
BIGFONT
  0
STYLE
  2
TextStyle05
 70
     0
 40
1.0
 41
1.0
 42
1.0
 50
0.0
 71
     0
  3
MONOTXT
  4
BIGFONT
  0
STYLE
  2
TextStyle06
 70
     0
 40
1.0
 41
1.0
 42
1.0
 50
0.0
 71
     0
  3
MONOTXT
  4
BIGFONT
  0
STYLE
  2
TextStyle07
 70
     0
 40
1.0
 41
1.0
 42
1.0
 50
0.0
 71
     0
  3
MONOTXT
  4
BIGFONT
  0
STYLE
  2
TextStyle08
 70
     0
 40
1.0
 41
1.0
 42
1.0
 50
0.0
 71
     0
  3
MONOTXT
  4
BIGFONT
  0
STYLE
  2
TextStyle09
 70
     0
 40
1.0
 41
1.0
 42
1.0
 50
0.0
 71
     0
  3
MONOTXT
  4
BIGFONT
  0
STYLE
  2
TextStyle10
 70
     0
 40
1.0
 41
1.0
 42
1.0
 50
0.0
 71
     0
  3
MONOTXT
  4
BIGFONT
  0
ENDTAB
  0
ENDSEC
  0
SECTION
  2
BLOCKS
  0
BLOCK
  2
*HAT_0001
 70
    65
 10
0.0
 20
0.0
  0
LINE
  8
ゴム等
 10
-31.15
 20
-11.125
 11
-32.7
 21
-9.625
  0
LINE
  8
ゴム等
 10
-29.5
 20
-11.125
 11
-32.7
 21
-7.925
  0
LINE
  8
ゴム等
 10
-27.8
 20
-11.125
 11
-32.7
 21
-6.225
  0
LINE
  8
ゴム等
 10
-26.1
 20
-11.125
 11
-32.1
 21
-5.125
  0
LINE
  8
ゴム等
 10
-24.4
 20
-11.125
 11
-30.4
 21
-5.125
  0
LINE
  8
ゴム等
 10
-22.7
 20
-11.125
 11
-28.7
 21
-5.125
  0
LINE
  8
ゴム等
 10
-21.0
 20
-11.125
 11
-27.0
 21
-5.125
  0
LINE
  8
ゴム等
 10
-19.3
 20
-11.125
 11
-25.3
 21
-5.125
  0
LINE
  8
ゴム等
 10
-17.7
 20
-11.075
 11
-23.6
 21
-5.125
  0
LINE
  8
ゴム等
 10
-17.7
 20
-9.375
 11
-21.9
 21
-5.125
  0
LINE
  8
ゴム等
 10
-17.7
 20
-7.675
 11
-20.2
 21
-5.125
  0
LINE
  8
ゴム等
 10
-17.7
 20
-5.975
 11
-18.55
 21
-5.125
  0
ENDBLK
  0
BLOCK
  2
*HAT_0002
 70
    65
 10
0.0
 20
0.0
  0
LINE
  8
ゴム等
 10
-57.0
 20
85.875
 11
-58.75
 21
87.625
  0
LINE
  8
ゴム等
 10
-55.3
 20
85.875
 11
-58.05
 21
88.625
  0
LINE
  8
ゴム等
 10
-53.6
 20
85.875
 11
-56.6
 21
88.875
  0
LINE
  8
ゴム等
 10
-51.9
 20
85.875
 11
-54.9
 21
88.875
  0
LINE
  8
ゴム等
 10
-50.2
 20
85.875
 11
-53.2
 21
88.875
  0
LINE
  8
ゴム等
 10
-48.5
 20
85.875
 11
-51.5
 21
88.875
  0
LINE
  8
ゴム等
 10
-46.8
 20
85.875
 11
-49.85
 21
88.875
  0
LINE
  8
ゴム等
 10
-45.15
 20
85.875
 11
-48.15
 21
88.875
  0
LINE
  8
ゴム等
 10
-43.45
 20
85.875
 11
-46.45
 21
88.875
  0
LINE
  8
ゴム等
 10
-41.75
 20
85.875
 11
-44.75
 21
88.875
  0
LINE
  8
ゴム等
 10
-40.05
 20
85.875
 11
-43.05
 21
88.875
  0
LINE
  8
ゴム等
 10
-38.35
 20
85.875
 11
-41.35
 21
88.875
  0
LINE
  8
ゴム等
 10
-36.65
 20
85.875
 11
-39.65
 21
88.875
  0
LINE
  8
ゴム等
 10
-34.95
 20
85.875
 11
-37.95
 21
88.875
  0
LINE
  8
ゴム等
 10
-33.25
 20
85.875
 11
-36.25
 21
88.875
  0
LINE
  8
ゴム等
 10
-31.6
 20
85.875
 11
-34.55
 21
88.875
  0
LINE
  8
ゴム等
 10
-29.9
 20
85.875
 11
-32.9
 21
88.875
  0
LINE
  8
ゴム等
 10
-28.95
 20
86.625
 11
-31.2
 21
88.875
  0
ENDBLK
  0
BLOCK
  2
*HAT_0003
 70
    65
 10
0.0
 20
0.0
  0
LINE
  8
ゴム等
 10
-1.65
 20
-11.1
 11
-2.8
 21
-9.95
  0
LINE
  8
ゴム等
 10
-3.15
 20
-9.65
 11
-4.3
 21
-8.5
  0
LINE
  8
ゴム等
 10
0.05
 20
-11.1
 11
-0.95
 21
-10.1
  0
LINE
  8
ゴム等
 10
-3.3
 20
-7.8
 11
-4.25
 21
-6.8
  0
LINE
  8
ゴム等
 10
1.75
 20
-11.1
 11
0.75
 21
-10.1
  0
LINE
  8
ゴム等
 10
-3.0
 20
-6.4
 11
-3.7
 21
-5.7
  0
LINE
  8
ゴム等
 10
3.4
 20
-11.1
 11
2.4
 21
-10.1
  0
LINE
  8
ゴム等
 10
-1.6
 20
-6.1
 11
-2.55
 21
-5.15
  0
LINE
  8
ゴム等
 10
5.1
 20
-11.1
 11
4.1
 21
-10.1
  0
LINE
  8
ゴム等
 10
0.1
 20
-6.1
 11
-0.9
 21
-5.1
  0
LINE
  8
ゴム等
 10
6.6
 20
-10.9
 11
5.8
 21
-10.1
  0
LINE
  8
ゴム等
 10
1.8
 20
-6.1
 11
-1.4
 21
-2.9
  0
LINE
  8
ゴム等
 10
7.45
 20
-10.1
 11
6.7
 21
-9.3
  0
LINE
  8
ゴム等
 10
3.5
 20
-6.1
 11
-0.5
 21
-2.1
  0
LINE
  8
ゴム等
 10
7.7
 20
-8.65
 11
6.7
 21
-7.65
  0
LINE
  8
ゴム等
 10
5.2
 20
-6.1
 11
4.2
 21
-5.1
  0
LINE
  8
ゴム等
 10
3.85
 20
-4.8
 11
1.2
 21
-2.1
  0
LINE
  8
ゴム等
 10
7.7
 20
-6.95
 11
5.9
 21
-5.15
  0
LINE
  8
ゴム等
 10
4.45
 20
-3.65
 11
2.9
 21
-2.1
  0
LINE
  8
ゴム等
 10
5.0
 20
-2.55
 11
4.6
 21
-2.1
  0
ENDBLK
  0
BLOCK
  2
*HAT_0004
 70
    65
 10
0.0
 20
0.0
  0
LINE
  8
その他部品等
 10
-52.35
 20
-68.45
 11
-52.45
 21
-68.35
  0
LINE
  8
その他部品等
 10
-50.825
 20
-68.575
 11
-52.325
 21
-67.075
  0
LINE
  8
その他部品等
 10
-49.3
 20
-68.675
 11
-50.9
 21
-67.075
  0
LINE
  8
その他部品等
 10
-47.775
 20
-68.8
 11
-49.5
 21
-67.075
  0
LINE
  8
その他部品等
 10
-46.25
 20
-68.925
 11
-48.075
 21
-67.075
  0
LINE
  8
その他部品等
 10
-44.725
 20
-69.025
 11
-46.675
 21
-67.075
  0
LINE
  8
その他部品等
 10
-43.2
 20
-69.15
 11
-45.25
 21
-67.075
  0
LINE
  8
その他部品等
 10
-41.675
 20
-69.275
 11
-43.85
 21
-67.075
  0
LINE
  8
その他部品等
 10
-40.15
 20
-69.375
 11
-42.425
 21
-67.075
  0
LINE
  8
その他部品等
 10
-38.6
 20
-69.5
 11
-41.025
 21
-67.075
  0
LINE
  8
その他部品等
 10
-37.075
 20
-69.6
 11
-39.6
 21
-67.075
  0
LINE
  8
その他部品等
 10
-35.55
 20
-69.725
 11
-38.2
 21
-67.075
  0
LINE
  8
その他部品等
 10
-34.025
 20
-69.85
 11
-36.775
 21
-67.075
  0
LINE
  8
その他部品等
 10
-32.5
 20
-69.95
 11
-35.375
 21
-67.075
  0
LINE
  8
その他部品等
 10
-30.975
 20
-70.075
 11
-33.975
 21
-67.075
  0
LINE
  8
その他部品等
 10
-29.45
 20
-70.2
 11
-32.55
 21
-67.075
  0
LINE
  8
その他部品等
 10
-27.925
 20
-70.3
 11
-31.025
 21
-67.2
  0
LINE
  8
その他部品等
 10
-26.4
 20
-70.425
 11
-29.5
 21
-67.3
  0
LINE
  8
その他部品等
 10
-24.85
 20
-70.525
 11
-27.975
 21
-67.425
  0
LINE
  8
その他部品等
 10
-23.325
 20
-70.65
 11
-26.45
 21
-67.55
  0
LINE
  8
その他部品等
 10
-21.8
 20
-70.775
 11
-24.925
 21
-67.65
  0
LINE
  8
その他部品等
 10
-20.275
 20
-70.875
 11
-23.375
 21
-67.775
  0
LINE
  8
その他部品等
 10
-18.75
 20
-71.0
 11
-21.85
 21
-67.9
  0
LINE
  8
その他部品等
 10
-17.225
 20
-71.125
 11
-20.325
 21
-68.0
  0
LINE
  8
その他部品等
 10
-15.7
 20
-71.225
 11
-18.8
 21
-68.125
  0
LINE
  8
その他部品等
 10
-14.175
 20
-71.35
 11
-17.275
 21
-68.225
  0
LINE
  8
その他部品等
 10
-12.65
 20
-71.45
 11
-15.75
 21
-68.35
  0
LINE
  8
その他部品等
 10
-11.1
 20
-71.575
 11
-14.225
 21
-68.475
  0
LINE
  8
その他部品等
 10
-9.575
 20
-71.7
 11
-12.7
 21
-68.575
  0
LINE
  8
その他部品等
 10
-8.05
 20
-71.8
 11
-11.175
 21
-68.7
  0
LINE
  8
その他部品等
 10
-6.525
 20
-71.925
 11
-9.65
 21
-68.825
  0
LINE
  8
その他部品等
 10
-5.0
 20
-72.05
 11
-8.1
 21
-68.925
  0
LINE
  8
その他部品等
 10
-3.475
 20
-72.15
 11
-6.575
 21
-69.05
  0
LINE
  8
その他部品等
 10
-1.95
 20
-72.275
 11
-5.05
 21
-69.175
  0
LINE
  8
その他部品等
 10
-0.425
 20
-72.375
 11
-3.525
 21
-69.275
  0
LINE
  8
その他部品等
 10
1.1
 20
-72.5
 11
-2.0
 21
-69.4
  0
LINE
  8
その他部品等
 10
2.625
 20
-72.625
 11
-0.475
 21
-69.5
  0
LINE
  8
その他部品等
 10
4.175
 20
-72.725
 11
1.05
 21
-69.625
  0
LINE
  8
その他部品等
 10
5.7
 20
-72.85
 11
2.575
 21
-69.75
  0
LINE
  8
その他部品等
 10
7.225
 20
-72.975
 11
4.1
 21
-69.85
  0
LINE
  8
その他部品等
 10
8.75
 20
-73.075
 11
5.65
 21
-69.975
  0
LINE
  8
その他部品等
 10
10.275
 20
-73.2
 11
7.175
 21
-70.1
  0
LINE
  8
その他部品等
 10
11.8
 20
-73.325
 11
8.7
 21
-70.2
  0
LINE
  8
その他部品等
 10
13.325
 20
-73.425
 11
10.225
 21
-70.325
  0
LINE
  8
その他部品等
 10
14.85
 20
-73.55
 11
11.75
 21
-70.425
  0
LINE
  8
その他部品等
 10
16.375
 20
-73.65
 11
13.275
 21
-70.55
  0
LINE
  8
その他部品等
 10
17.925
 20
-73.775
 11
14.8
 21
-70.675
  0
LINE
  8
その他部品等
 10
28.625
 20
-83.075
 11
28.55
 21
-83.0
  0
LINE
  8
その他部品等
 10
30.05
 20
-83.075
 11
28.55
 21
-81.575
  0
LINE
  8
その他部品等
 10
31.45
 20
-83.075
 11
28.55
 21
-80.175
  0
LINE
  8
その他部品等
 10
19.45
 20
-73.9
 11
16.325
 21
-70.775
  0
LINE
  8
その他部品等
 10
20.975
 20
-74.0
 11
17.85
 21
-70.9
  0
LINE
  8
その他部品等
 10
22.5
 20
-74.125
 11
19.4
 21
-71.025
  0
LINE
  8
その他部品等
 10
31.55
 20
-81.75
 11
28.55
 21
-78.75
  0
LINE
  8
その他部品等
 10
31.55
 20
-80.35
 11
28.55
 21
-77.35
  0
LINE
  8
その他部品等
 10
24.025
 20
-74.25
 11
20.925
 21
-71.125
  0
LINE
  8
その他部品等
 10
25.55
 20
-74.35
 11
22.45
 21
-71.25
  0
LINE
  8
その他部品等
 10
31.55
 20
-78.95
 11
28.475
 21
-75.85
  0
LINE
  8
その他部品等
 10
27.1
 20
-74.475
 11
23.975
 21
-71.375
  0
LINE
  8
その他部品等
 10
31.55
 20
-77.525
 11
25.5
 21
-71.475
  0
LINE
  8
その他部品等
 10
31.55
 20
-76.125
 11
27.025
 21
-71.6
  0
LINE
  8
その他部品等
 10
31.55
 20
-74.7
 11
28.55
 21
-71.7
  0
LINE
  8
その他部品等
 10
31.55
 20
-73.3
 11
30.075
 21
-71.825
  0
LINE
  8
その他部品等
 10
31.55
 20
-82.275
 11
30.75
 21
-83.075
  0
LINE
  8
その他部品等
 10
31.55
 20
-80.875
 11
29.35
 21
-83.075
  0
LINE
  8
その他部品等
 10
31.55
 20
-79.475
 11
28.55
 21
-82.475
  0
LINE
  8
その他部品等
 10
31.55
 20
-78.05
 11
28.55
 21
-81.05
  0
LINE
  8
その他部品等
 10
31.55
 20
-76.65
 11
28.55
 21
-79.65
  0
LINE
  8
その他部品等
 10
31.55
 20
-75.225
 11
28.55
 21
-78.225
  0
LINE
  8
その他部品等
 10
31.55
 20
-73.825
 11
28.55
 21
-76.825
  0
LINE
  8
その他部品等
 10
31.55
 20
-72.4
 11
28.35
 21
-75.6
  0
LINE
  8
その他部品等
 10
30.675
 20
-71.875
 11
27.75
 21
-74.775
  0
LINE
  8
その他部品等
 10
29.375
 20
-71.775
 11
26.7
 21
-74.425
  0
LINE
  8
その他部品等
 10
28.05
 20
-71.675
 11
25.375
 21
-74.35
  0
LINE
  8
その他部品等
 10
26.75
 20
-71.575
 11
24.075
 21
-74.25
  0
LINE
  8
その他部品等
 10
25.425
 20
-71.475
 11
22.75
 21
-74.15
  0
LINE
  8
その他部品等
 10
24.125
 20
-71.375
 11
21.45
 21
-74.05
  0
LINE
  8
その他部品等
 10
22.8
 20
-71.275
 11
20.125
 21
-73.95
  0
LINE
  8
その他部品等
 10
21.5
 20
-71.175
 11
18.825
 21
-73.85
  0
LINE
  8
その他部品等
 10
20.175
 20
-71.075
 11
17.5
 21
-73.75
  0
LINE
  8
その他部品等
 10
18.875
 20
-70.975
 11
16.2
 21
-73.65
  0
LINE
  8
その他部品等
 10
17.55
 20
-70.875
 11
14.875
 21
-73.55
  0
LINE
  8
その他部品等
 10
16.25
 20
-70.775
 11
13.575
 21
-73.45
  0
LINE
  8
その他部品等
 10
14.925
 20
-70.675
 11
12.25
 21
-73.35
  0
LINE
  8
その他部品等
 10
13.6
 20
-70.575
 11
10.95
 21
-73.25
  0
LINE
  8
その他部品等
 10
12.3
 20
-70.475
 11
9.625
 21
-73.15
  0
LINE
  8
その他部品等
 10
11.0
 20
-70.375
 11
8.325
 21
-73.05
  0
LINE
  8
その他部品等
 10
9.675
 20
-70.275
 11
7.0
 21
-72.95
  0
LINE
  8
その他部品等
 10
8.375
 20
-70.175
 11
5.7
 21
-72.85
  0
LINE
  8
その他部品等
 10
7.05
 20
-70.075
 11
4.375
 21
-72.75
  0
LINE
  8
その他部品等
 10
5.75
 20
-69.975
 11
3.075
 21
-72.65
  0
LINE
  8
その他部品等
 10
4.425
 20
-69.875
 11
1.75
 21
-72.55
  0
LINE
  8
その他部品等
 10
3.125
 20
-69.775
 11
0.45
 21
-72.45
  0
LINE
  8
その他部品等
 10
1.8
 20
-69.675
 11
-0.875
 21
-72.35
  0
LINE
  8
その他部品等
 10
0.5
 20
-69.575
 11
-2.175
 21
-72.25
  0
LINE
  8
その他部品等
 10
-0.825
 20
-69.475
 11
-3.5
 21
-72.15
  0
LINE
  8
その他部品等
 10
-2.125
 20
-69.375
 11
-4.8
 21
-72.05
  0
LINE
  8
その他部品等
 10
-3.45
 20
-69.275
 11
-6.125
 21
-71.95
  0
LINE
  8
その他部品等
 10
-4.75
 20
-69.175
 11
-7.425
 21
-71.85
  0
LINE
  8
その他部品等
 10
-6.075
 20
-69.075
 11
-8.75
 21
-71.75
  0
LINE
  8
その他部品等
 10
-7.375
 20
-68.975
 11
-10.05
 21
-71.65
  0
LINE
  8
その他部品等
 10
-8.7
 20
-68.875
 11
-11.375
 21
-71.55
  0
LINE
  8
その他部品等
 10
-10.0
 20
-68.775
 11
-12.675
 21
-71.45
  0
LINE
  8
その他部品等
 10
-11.325
 20
-68.675
 11
-14.0
 21
-71.35
  0
LINE
  8
その他部品等
 10
-12.625
 20
-68.575
 11
-15.3
 21
-71.25
  0
LINE
  8
その他部品等
 10
-13.95
 20
-68.475
 11
-16.625
 21
-71.15
  0
LINE
  8
その他部品等
 10
-15.25
 20
-68.4
 11
-17.925
 21
-71.05
  0
LINE
  8
その他部品等
 10
-16.575
 20
-68.3
 11
-19.25
 21
-70.95
  0
LINE
  8
その他部品等
 10
-17.875
 20
-68.2
 11
-20.55
 21
-70.85
  0
LINE
  8
その他部品等
 10
-19.2
 20
-68.1
 11
-21.875
 21
-70.75
  0
LINE
  8
その他部品等
 10
-20.5
 20
-68.0
 11
-23.175
 21
-70.65
  0
LINE
  8
その他部品等
 10
-21.825
 20
-67.9
 11
-24.5
 21
-70.55
  0
LINE
  8
その他部品等
 10
-23.125
 20
-67.8
 11
-25.8
 21
-70.45
  0
LINE
  8
その他部品等
 10
-24.45
 20
-67.7
 11
-27.125
 21
-70.35
  0
LINE
  8
その他部品等
 10
-25.775
 20
-67.6
 11
-28.425
 21
-70.25
  0
LINE
  8
その他部品等
 10
-27.075
 20
-67.5
 11
-29.75
 21
-70.15
  0
LINE
  8
その他部品等
 10
-28.375
 20
-67.4
 11
-31.05
 21
-70.05
  0
LINE
  8
その他部品等
 10
-29.7
 20
-67.3
 11
-32.375
 21
-69.975
  0
LINE
  8
その他部品等
 10
-31.0
 20
-67.2
 11
-33.675
 21
-69.875
  0
LINE
  8
その他部品等
 10
-32.325
 20
-67.1
 11
-35.0
 21
-69.775
  0
LINE
  8
その他部品等
 10
-33.725
 20
-67.075
 11
-36.3
 21
-69.675
  0
LINE
  8
その他部品等
 10
-35.125
 20
-67.075
 11
-37.625
 21
-69.575
  0
LINE
  8
その他部品等
 10
-36.55
 20
-67.075
 11
-38.925
 21
-69.475
  0
LINE
  8
その他部品等
 10
-37.95
 20
-67.075
 11
-40.25
 21
-69.375
  0
LINE
  8
その他部品等
 10
-39.375
 20
-67.075
 11
-41.55
 21
-69.275
  0
LINE
  8
その他部品等
 10
-40.775
 20
-67.075
 11
-42.875
 21
-69.175
  0
LINE
  8
その他部品等
 10
-42.2
 20
-67.075
 11
-44.175
 21
-69.075
  0
LINE
  8
その他部品等
 10
-43.6
 20
-67.075
 11
-45.5
 21
-68.975
  0
LINE
  8
その他部品等
 10
-45.025
 20
-67.075
 11
-46.8
 21
-68.875
  0
LINE
  8
その他部品等
 10
-46.425
 20
-67.075
 11
-48.125
 21
-68.775
  0
LINE
  8
その他部品等
 10
-47.85
 20
-67.075
 11
-49.425
 21
-68.675
  0
LINE
  8
その他部品等
 10
-49.25
 20
-67.075
 11
-50.75
 21
-68.575
  0
LINE
  8
その他部品等
 10
-50.675
 20
-67.075
 11
-52.05
 21
-68.475
  0
LINE
  8
その他部品等
 10
-52.075
 20
-67.075
 11
-52.45
 21
-67.45
  0
ENDBLK
  0
BLOCK
  2
*HAT_0005
 70
    65
 10
0.0
 20
0.0
  0
LINE
  8
その他部品等
 10
-52.025
 20
-81.475
 11
-52.45
 21
-81.075
  0
LINE
  8
その他部品等
 10
-50.625
 20
-81.475
 11
-52.45
 21
-79.65
  0
LINE
  8
その他部品等
 10
-49.225
 20
-81.475
 11
-52.45
 21
-78.25
  0
LINE
  8
その他部品等
 10
-47.8
 20
-81.475
 11
-52.45
 21
-76.825
  0
LINE
  8
その他部品等
 10
-46.4
 20
-81.475
 11
-52.45
 21
-75.425
  0
LINE
  8
その他部品等
 10
-44.975
 20
-81.475
 11
-52.45
 21
-74.0
  0
LINE
  8
その他部品等
 10
-43.575
 20
-81.475
 11
-52.45
 21
-72.6
  0
LINE
  8
その他部品等
 10
-42.15
 20
-81.475
 11
-52.45
 21
-71.175
  0
LINE
  8
その他部品等
 10
-40.75
 20
-81.475
 11
-52.15
 21
-70.075
  0
LINE
  8
その他部品等
 10
-39.325
 20
-81.475
 11
-50.625
 21
-70.2
  0
LINE
  8
その他部品等
 10
-37.925
 20
-81.475
 11
-49.1
 21
-70.3
  0
LINE
  8
その他部品等
 10
-36.5
 20
-81.475
 11
-47.575
 21
-70.425
  0
LINE
  8
その他部品等
 10
-35.1
 20
-81.475
 11
-46.05
 21
-70.525
  0
LINE
  8
その他部品等
 10
-33.675
 20
-81.475
 11
-44.525
 21
-70.65
  0
LINE
  8
その他部品等
 10
-32.65
 20
-81.1
 11
-42.975
 21
-70.775
  0
LINE
  8
その他部品等
 10
-32.65
 20
-79.675
 11
-41.45
 21
-70.875
  0
LINE
  8
その他部品等
 10
-32.65
 20
-78.275
 11
-39.925
 21
-71.0
  0
LINE
  8
その他部品等
 10
-32.65
 20
-76.85
 11
-38.4
 21
-71.125
  0
LINE
  8
その他部品等
 10
-32.65
 20
-75.45
 11
-36.875
 21
-71.225
  0
LINE
  8
その他部品等
 10
-32.65
 20
-74.05
 11
-35.35
 21
-71.35
  0
LINE
  8
その他部品等
 10
-32.65
 20
-72.625
 11
-33.825
 21
-71.475
  0
LINE
  8
その他部品等
 10
-32.65
 20
-80.125
 11
-34.0
 21
-81.475
  0
LINE
  8
その他部品等
 10
-32.65
 20
-78.725
 11
-35.425
 21
-81.475
  0
LINE
  8
その他部品等
 10
-32.65
 20
-77.3
 11
-36.825
 21
-81.475
  0
LINE
  8
その他部品等
 10
-32.65
 20
-75.9
 11
-38.25
 21
-81.475
  0
LINE
  8
その他部品等
 10
-32.65
 20
-74.475
 11
-39.65
 21
-81.475
  0
LINE
  8
その他部品等
 10
-32.65
 20
-73.075
 11
-41.05
 21
-81.475
  0
LINE
  8
その他部品等
 10
-32.65
 20
-71.65
 11
-42.475
 21
-81.475
  0
LINE
  8
その他部品等
 10
-33.875
 20
-71.45
 11
-43.875
 21
-81.475
  0
LINE
  8
その他部品等
 10
-35.175
 20
-71.35
 11
-45.3
 21
-81.475
  0
LINE
  8
その他部品等
 10
-36.475
 20
-71.25
 11
-46.7
 21
-81.475
  0
LINE
  8
その他部品等
 10
-37.8
 20
-71.15
 11
-48.125
 21
-81.475
  0
LINE
  8
その他部品等
 10
-39.1
 20
-71.05
 11
-49.525
 21
-81.475
  0
LINE
  8
その他部品等
 10
-40.425
 20
-70.95
 11
-50.95
 21
-81.475
  0
LINE
  8
その他部品等
 10
-41.75
 20
-70.85
 11
-52.35
 21
-81.475
  0
LINE
  8
その他部品等
 10
-43.05
 20
-70.75
 11
-52.45
 21
-80.15
  0
LINE
  8
その他部品等
 10
-44.375
 20
-70.65
 11
-52.45
 21
-78.75
  0
LINE
  8
その他部品等
 10
-45.675
 20
-70.575
 11
-52.45
 21
-77.325
  0
LINE
  8
その他部品等
 10
-47.0
 20
-70.475
 11
-52.45
 21
-75.925
  0
LINE
  8
その他部品等
 10
-48.3
 20
-70.375
 11
-52.45
 21
-74.5
  0
LINE
  8
その他部品等
 10
-49.6
 20
-70.275
 11
-52.45
 21
-73.1
  0
LINE
  8
その他部品等
 10
-50.925
 20
-70.175
 11
-52.45
 21
-71.675
  0
LINE
  8
その他部品等
 10
-52.25
 20
-70.075
 11
-52.45
 21
-70.275
  0
ENDBLK
  0
BLOCK
  2
*GRP_0001
 70
    65
 10
0.0
 20
0.0
  0
LINE
  8
型材断面
  6
CONTINUOUS
 10
195.0
 20
133.5
 11
195.0
 21
-133.5
  0
LINE
  8
型材断面
  6
CONTINUOUS
 10
195.0
 20
-133.5
 11
-185.0
 21
-133.5
  0
LINE
  8
型材断面
  6
CONTINUOUS
 10
-185.0
 20
-133.5
 11
-185.0
 21
133.5
  0
LINE
  8
型材断面
  6
CONTINUOUS
 10
195.0
 20
133.5
 11
-185.0
 21
133.5
  0
LINE
  8
型材断面
  6
CONTINUOUS
 10
145.0
 20
-133.5
 11
145.0
 21
-118.5
  0
LINE
  8
型材断面
  6
CONTINUOUS
 10
195.0
 20
-118.5
 11
145.0
 21
-118.5
  0
ENDBLK
  0
BLOCK
  2
*GRP_0002
 70
    65
 10
0.0
 20
0.0
  0
LINE
  8
別途部材
  6
CONTINUOUS
 62
    47
 10
-45.377025
 20
-83.084418
 11
12.12295
 21
-83.084418
  0
LINE
  8
別途部材
  6
CONTINUOUS
 62
    47
 10
-45.377025
 20
-81.484418
 11
12.12295
 21
-81.484418
  0
LINE
  8
別途部材
  6
CONTINUOUS
 62
    47
 10
-2.377025
 20
-83.084418
 11
3.85835
 21
-86.684418
  0
LINE
  8
別途部材
  6
CONTINUOUS
 62
    47
 10
12.12295
 20
-86.684418
 11
3.85835
 21
-86.684418
  0
LINE
  8
別途部材
  6
CONTINUOUS
 62
    47
 10
12.12295
 20
-85.084418
 11
4.287075
 21
-85.084418
  0
LINE
  8
別途部材
  6
CONTINUOUS
 62
    47
 10
0.822975
 20
-83.084418
 11
4.287075
 21
-85.084418
  0
LINE
  8
別途部材
  6
CONTINUOUS
 62
    47
 10
12.12295
 20
-83.084418
 11
12.12295
 21
-81.484418
  0
LINE
  8
別途部材
  6
CONTINUOUS
 62
    47
 10
12.12295
 20
-85.084418
 11
12.12295
 21
-86.684418
  0
LINE
  8
別途部材
  6
CONTINUOUS
 62
    47
 10
-30.877025
 20
-83.084418
 11
-37.1124
 21
-86.684418
  0
LINE
  8
別途部材
  6
CONTINUOUS
 62
    47
 10
-45.377025
 20
-86.684418
 11
-37.1124
 21
-86.684418
  0
LINE
  8
別途部材
  6
CONTINUOUS
 62
    47
 10
-45.377025
 20
-85.084418
 11
-37.54115
 21
-85.084418
  0
LINE
  8
別途部材
  6
CONTINUOUS
 62
    47
 10
-34.07705
 20
-83.084418
 11
-37.54115
 21
-85.084418
  0
LINE
  8
別途部材
  6
CONTINUOUS
 62
    47
 10
-45.377025
 20
-85.084418
 11
-45.377025
 21
-86.684418
  0
LINE
  8
別途部材
  6
CONTINUOUS
 62
    47
 10
-8.87705
 20
-99.484418
 11
-8.87705
 21
-83.084418
  0
LINE
  8
別途部材
  6
CONTINUOUS
 62
    47
 10
-10.477025
 20
-99.484418
 11
-10.477025
 21
-83.084418
  0
LINE
  8
別途部材
  6
CONTINUOUS
 62
    47
 10
-8.87705
 20
-99.484418
 11
-10.477025
 21
-99.484418
  0
LINE
  8
別途部材
  6
CONTINUOUS
 62
    47
 10
-45.377025
 20
-81.484418
 11
-45.377025
 21
-83.084418
  0
ENDBLK
  0
BLOCK
  2
*GRP_0003
 70
    65
 10
0.0
 20
0.0
  0
SPLINE
  5
1400000
100
AcDbEntity
  8
ガラス
100
AcDbSpline
  6
CONTINUOUS
 70
     0
 71
     3
 74
     3
 44
0.0
 11
-72.99125
 21
-63.104007
 11
-74.810067
 21
-63.173908
 11
-76.081015
 21
-64.272665
  0
SPLINE
  5
1400001
100
AcDbEntity
  8
ガラス
100
AcDbSpline
  6
CONTINUOUS
 70
     0
 71
     3
 74
     3
 44
0.0
 11
-76.081015
 21
-64.272665
 11
-74.778905
 21
-64.48194
 11
-73.71502
 21
-64.871857
  0
ARC
  8
ガラス
  6
CONTINUOUS
 10
-73.353137
 20
-63.987931
 40
0.955135
 50
247.735412
 51
427.735412
  0
ENDBLK
  0
BLOCK
  2
*GRP_0004
 70
    65
 10
0.0
 20
0.0
  0
SPLINE
  5
1400002
100
AcDbEntity
  8
ガラス
100
AcDbSpline
  6
CONTINUOUS
 70
     0
 71
     3
 74
     3
 44
0.0
 11
-58.670863
 21
-63.104007
 11
-60.48968
 21
-63.173908
 11
-61.760628
 21
-64.272665
  0
SPLINE
  5
1400003
100
AcDbEntity
  8
ガラス
100
AcDbSpline
  6
CONTINUOUS
 70
     0
 71
     3
 74
     3
 44
0.0
 11
-61.760628
 21
-64.272665
 11
-60.458518
 21
-64.48194
 11
-59.394632
 21
-64.871857
  0
ARC
  8
ガラス
  6
CONTINUOUS
 10
-59.032749
 20
-63.987931
 40
0.955135
 50
247.735412
 51
427.735412
  0
ENDBLK
  0
BLOCK
  2
*GRP_0005
 70
    65
 10
0.0
 20
0.0
  0
SPLINE
  5
1400004
100
AcDbEntity
  8
ガラス
100
AcDbSpline
  6
CONTINUOUS
 70
     0
 71
     3
 74
     3
 44
0.0
 11
-41.174358
 21
-63.104007
 11
-42.993175
 21
-63.173908
 11
-44.264123
 21
-64.272665
  0
SPLINE
  5
1400005
100
AcDbEntity
  8
ガラス
100
AcDbSpline
  6
CONTINUOUS
 70
     0
 71
     3
 74
     3
 44
0.0
 11
-44.264123
 21
-64.272665
 11
-42.962013
 21
-64.48194
 11
-41.898128
 21
-64.871857
  0
ARC
  8
ガラス
  6
CONTINUOUS
 10
-41.536243
 20
-63.987931
 40
0.955135
 50
247.735412
 51
427.735412
  0
ENDBLK
  0
BLOCK
  2
*GRP_0006
 70
    65
 10
0.0
 20
0.0
  0
SPLINE
  5
1400006
100
AcDbEntity
  8
ガラス
100
AcDbSpline
  6
CONTINUOUS
 70
     0
 71
     3
 74
     3
 44
0.0
 11
-27.188298
 21
-63.104007
 11
-29.007115
 21
-63.173908
 11
-30.278063
 21
-64.272665
  0
SPLINE
  5
1400007
100
AcDbEntity
  8
ガラス
100
AcDbSpline
  6
CONTINUOUS
 70
     0
 71
     3
 74
     3
 44
0.0
 11
-30.278063
 21
-64.272665
 11
-28.975953
 21
-64.48194
 11
-27.912068
 21
-64.871857
  0
ARC
  8
ガラス
  6
CONTINUOUS
 10
-27.550183
 20
-63.987931
 40
0.955135
 50
247.735412
 51
427.735412
  0
ENDBLK
  0
BLOCK
  2
*GRP_0007
 70
    65
 10
0.0
 20
0.0
  0
INSERT
  2
*HAT_0001
  8
ゴム等
 10
0.0
 20
0.0
  0
LINE
  8
ゴム等
  6
CONTINUOUS
 10
-32.83105
 20
-5.083798
 11
-32.83105
 21
-11.083798
  0
LINE
  8
ゴム等
  6
CONTINUOUS
 10
-32.83105
 20
-11.083798
 11
-17.83105
 21
-11.083798
  0
LINE
  8
ゴム等
  6
CONTINUOUS
 10
-17.83105
 20
-11.083798
 11
-17.83105
 21
-5.083798
  0
LINE
  8
ゴム等
  6
CONTINUOUS
 10
-32.83105
 20
-5.083798
 11
-17.83105
 21
-5.083798
  0
ENDBLK
  0
BLOCK
  2
*GRP_0008
 70
    65
 10
0.0
 20
0.0
  0
ARC
  8
ゴム等
  6
CONTINUOUS
 62
    63
 10
-57.397115
 20
87.41567
 40
1.5
 50
90.0
 51
180.0
  0
LINE
  8
ゴム等
  6
CONTINUOUS
 62
    63
 10
-58.8971
 20
87.415653
 11
-58.8971
 21
87.415653
  0
ARC
  8
ゴム等
  6
CONTINUOUS
 62
    63
 10
-57.397115
 20
87.41567
 40
1.5
 50
180.0
 51
270.0
  0
LINE
  8
ゴム等
  6
CONTINUOUS
 62
    63
 10
-30.3971
 20
88.915653
 11
-57.3971
 21
88.915653
  0
ARC
  8
ゴム等
  6
CONTINUOUS
 62
    63
 10
-30.397115
 20
87.41567
 40
1.5
 50
0.0
 51
90.0
  0
LINE
  8
ゴム等
  6
CONTINUOUS
 62
    63
 10
-28.8971
 20
87.415653
 11
-28.8971
 21
87.415653
  0
LINE
  8
ゴム等
  6
CONTINUOUS
 62
    63
 10
-30.3971
 20
85.915653
 11
-57.3971
 21
85.915653
  0
ARC
  8
ゴム等
  6
CONTINUOUS
 62
    63
 10
-30.397115
 20
87.41567
 40
1.5
 50
270.0
 51
360.0
  0
INSERT
  2
*HAT_0002
  8
ゴム等
 10
0.0
 20
0.0
  0
ENDBLK
  0
BLOCK
  2
*GRP_0009
 70
    65
 10
0.0
 20
0.0
  0
INSERT
  2
*HAT_0003
  8
ゴム等
 10
0.0
 20
0.0
  0
LINE
  8
ゴム等
  6
CONTINUOUS
 10
5.163582
 20
-2.084173
 11
-1.835492
 21
-2.084173
  0
LINE
  8
ゴム等
  6
CONTINUOUS
 10
-1.835492
 20
-2.084173
 11
-0.335517
 21
-5.084173
  0
LINE
  8
ゴム等
  6
CONTINUOUS
 10
5.163582
 20
-2.084173
 11
3.663782
 21
-5.083798
  0
LINE
  8
ゴム等
  6
CONTINUOUS
 10
5.664033
 20
-5.083798
 11
3.663782
 21
-5.083798
  0
ARC
  8
ゴム等
  6
CONTINUOUS
 10
5.664028
 20
-7.08377
 40
2.0
 50
0.0
 51
90.0
  0
LINE
  8
ゴム等
  6
CONTINUOUS
 10
7.664057
 20
-9.083773
 11
7.664057
 21
-7.083773
  0
ARC
  8
ゴム等
  6
CONTINUOUS
 10
5.664028
 20
-9.08377
 40
2.0
 50
270.0
 51
360.0
  0
LINE
  8
ゴム等
  6
CONTINUOUS
 10
5.664033
 20
-11.083798
 11
-2.335967
 21
-11.083798
  0
ARC
  8
ゴム等
  6
CONTINUOUS
 10
-2.335972
 20
-9.08377
 40
2.0
 50
180.0
 51
270.0
  0
LINE
  8
ゴム等
  6
CONTINUOUS
 10
-4.335942
 20
-9.083773
 11
-4.335942
 21
-7.084173
  0
LINE
  8
ゴム等
  6
CONTINUOUS
 10
-2.335967
 20
-5.084173
 11
-0.335517
 21
-5.084173
  0
ARC
  8
ゴム等
  6
CONTINUOUS
 10
-2.335972
 20
-7.08416
 40
2.0
 50
90.0
 51
180.0
  0
ARC
  8
ゴム等
  6
CONTINUOUS
 10
5.66403
 20
-7.083768
 40
1.0
 50
0.0
 51
90.0
  0
LINE
  8
ゴム等
  6
CONTINUOUS
 10
6.664033
 20
-9.083798
 11
6.664033
 21
-7.083773
  0
ARC
  8
ゴム等
  6
CONTINUOUS
 10
5.66403
 20
-9.083773
 40
1.0
 50
270.0
 51
360.0
  0
LINE
  8
ゴム等
  6
CONTINUOUS
 10
-2.335967
 20
-10.083773
 11
5.664057
 21
-10.083773
  0
ARC
  8
ゴム等
  6
CONTINUOUS
 10
-2.335975
 20
-9.083773
 40
1.0
 50
180.0
 51
270.0
  0
LINE
  8
ゴム等
  6
CONTINUOUS
 10
-3.335967
 20
-7.083773
 11
-3.335967
 21
-9.083798
  0
LINE
  8
ゴム等
  6
CONTINUOUS
 10
-2.335967
 20
-6.083773
 11
5.664057
 21
-6.083773
  0
ARC
  8
ゴム等
  6
CONTINUOUS
 10
-2.335975
 20
-7.083768
 40
1.0
 50
90.0
 51
180.0
  0
ENDBLK
  0
BLOCK
  2
*GRP_0010
 70
    65
 10
0.0
 20
0.0
  0
LINE
  8
ボルト／ビス
  6
CONTINUOUS
 62
    64
 10
-42.12702
 20
-83.284353
 11
-46.12702
 21
-83.284353
  0
LINE
  8
ボルト／ビス
  6
CONTINUOUS
 62
    64
 10
-41.12702
 20
-85.084353
 11
-42.12702
 21
-83.284353
  0
LINE
  8
ボルト／ビス
  6
CONTINUOUS
 62
    64
 10
-41.12702
 20
-85.084353
 11
-47.12702
 21
-85.084353
  0
LINE
  8
ボルト／ビス
  6
CONTINUOUS
 62
    64
 10
-47.12702
 20
-85.084353
 11
-46.12702
 21
-83.284353
  0
LINE
  8
ボルト／ビス
  6
CONTINUOUS
 62
    64
 10
-44.12702
 20
-86.567885
 11
-44.12702
 21
-76.205325
  0
LINE
  8
ボルト／ビス
  6
CONTINUOUS
 62
    64
 10
-42.12702
 20
-77.584353
 11
-42.62702
 21
-77.084353
  0
LINE
  8
ボルト／ビス
  6
CONTINUOUS
 62
    64
 10
-46.12702
 20
-77.584353
 11
-45.62702
 21
-77.084353
  0
LINE
  8
ボルト／ビス
  6
CONTINUOUS
 62
    64
 10
-42.62702
 20
-77.084353
 11
-45.62702
 21
-77.084353
  0
LINE
  8
ボルト／ビス
  6
CONTINUOUS
 62
    64
 10
-42.12702
 20
-77.584353
 11
-46.12702
 21
-77.584353
  0
LINE
  8
ボルト／ビス
  6
CONTINUOUS
 62
    64
 10
-42.62702
 20
-83.284353
 11
-42.62702
 21
-77.084353
  0
LINE
  8
ボルト／ビス
  6
CONTINUOUS
 62
    64
 10
-45.62702
 20
-83.284353
 11
-45.62702
 21
-77.084353
  0
LINE
  8
ボルト／ビス
  6
CONTINUOUS
 62
    64
 10
-46.12702
 20
-83.284353
 11
-46.12702
 21
-77.584353
  0
LINE
  8
ボルト／ビス
  6
CONTINUOUS
 62
    64
 10
-42.12702
 20
-83.284353
 11
-42.12702
 21
-77.584353
  0
ENDBLK
  0
BLOCK
  2
*GRP_0011
 70
    65
 10
0.0
 20
0.0
  0
LINE
  8
ボルト／ビス
  6
CONTINUOUS
 62
    64
 10
-34.631333
 20
59.214812
 11
-33.583168
 21
59.306517
  0
ARC
  8
ボルト／ビス
  6
CONTINUOUS
 62
    64
 10
-33.731335
 20
61.00005
 40
1.7
 50
274.999989
 51
360.0
  0
LINE
  8
ボルト／ビス
  6
CONTINUOUS
 62
    64
 10
-32.031333
 20
61.000048
 11
-32.031333
 21
62.714812
  0
LINE
  8
ボルト／ビス
  6
CONTINUOUS
 62
    64
 10
-34.631333
 20
66.214812
 11
-33.583168
 21
66.123113
  0
ARC
  8
ボルト／ビス
  6
CONTINUOUS
 62
    64
 10
-33.731335
 20
64.429583
 40
1.7
 50
0.0
 51
85.000011
  0
LINE
  8
ボルト／ビス
  6
CONTINUOUS
 62
    64
 10
-32.031333
 20
64.429582
 11
-32.031333
 21
62.714812
  0
LINE
  8
ボルト／ビス
  6
CONTINUOUS
 62
    64
 10
-32.416237
 20
60.318173
 11
-32.174078
 21
60.318173
  0
LINE
  8
ボルト／ビス
  6
CONTINUOUS
 62
    64
 10
-33.066323
 20
62.014812
 11
-33.066323
 21
62.714812
  0
LINE
  8
ボルト／ビス
  6
CONTINUOUS
 62
    64
 10
-32.416237
 20
61.614812
 11
-32.416237
 21
60.318173
  0
LINE
  8
ボルト／ビス
  6
CONTINUOUS
 62
    64
 10
-33.066323
 20
62.014812
 11
-32.816237
 21
62.014812
  0
ARC
  8
ボルト／ビス
  6
CONTINUOUS
 62
    64
 10
-32.81624
 20
61.614816
 40
0.4
 50
0.0
 51
90.0
  0
LINE
  8
ボルト／ビス
  6
CONTINUOUS
 62
    64
 10
-32.416237
 20
65.111453
 11
-32.174078
 21
65.111453
  0
LINE
  8
ボルト／ビス
  6
CONTINUOUS
 62
    64
 10
-33.066323
 20
63.414812
 11
-33.066323
 21
62.714812
  0
LINE
  8
ボルト／ビス
  6
CONTINUOUS
 62
    64
 10
-32.416237
 20
63.814812
 11
-32.416237
 21
65.111453
  0
LINE
  8
ボルト／ビス
  6
CONTINUOUS
 62
    64
 10
-33.066323
 20
63.414812
 11
-32.816237
 21
63.414812
  0
ARC
  8
ボルト／ビス
  6
CONTINUOUS
 62
    64
 10
-32.81624
 20
63.814816
 40
0.4
 50
270.0
 51
360.0
  0
LINE
  8
ボルト／ビス
  6
CONTINUOUS
 62
    64
 10
-34.631333
 20
59.214812
 11
-34.631333
 21
66.214812
  0
LINE
  8
ボルト／ビス
  6
CONTINUOUS
 62
    64
 10
-44.131333
 20
60.714812
 11
-44.631333
 21
61.214812
  0
LINE
  8
ボルト／ビス
  6
CONTINUOUS
 62
    64
 10
-44.131333
 20
64.714812
 11
-44.631333
 21
64.214812
  0
LINE
  8
ボルト／ビス
  6
CONTINUOUS
 62
    64
 10
-44.131333
 20
60.714812
 11
-44.131333
 21
64.714812
  0
LINE
  8
ボルト／ビス
  6
CONTINUOUS
 62
    64
 10
-44.631333
 20
61.214812
 11
-44.631333
 21
64.214812
  0
LINE
  8
ボルト／ビス
  6
CONTINUOUS
 62
    64
 10
-30.059948
 20
62.714812
 11
-46.206207
 21
62.714812
  0
LINE
  8
ボルト／ビス
  6
CONTINUOUS
 62
    64
 10
-34.631333
 20
60.714812
 11
-44.131333
 21
60.714812
  0
LINE
  8
ボルト／ビス
  6
CONTINUOUS
 62
    64
 10
-34.631333
 20
64.714812
 11
-44.131333
 21
64.714812
  0
LINE
  8
ボルト／ビス
  6
CONTINUOUS
 62
    64
 10
-34.631333
 20
64.214812
 11
-44.631333
 21
64.214812
  0
LINE
  8
ボルト／ビス
  6
CONTINUOUS
 62
    64
 10
-34.631333
 20
61.214812
 11
-44.631333
 21
61.214812
  0
ENDBLK
  0
BLOCK
  2
*GRP_0012
 70
    65
 10
0.0
 20
0.0
  0
LINE
  8
ボルト／ビス
  6
CONTINUOUS
 62
    64
 10
26.47274
 20
-83.284477
 11
22.47274
 21
-83.284477
  0
LINE
  8
ボルト／ビス
  6
CONTINUOUS
 62
    64
 10
27.47274
 20
-85.084477
 11
26.47274
 21
-83.284477
  0
LINE
  8
ボルト／ビス
  6
CONTINUOUS
 62
    64
 10
27.47274
 20
-85.084477
 11
21.47274
 21
-85.084477
  0
LINE
  8
ボルト／ビス
  6
CONTINUOUS
 62
    64
 10
21.47274
 20
-85.084477
 11
22.47274
 21
-83.284477
  0
LINE
  8
ボルト／ビス
  6
CONTINUOUS
 62
    64
 10
24.47274
 20
-86.56801
 11
24.47274
 21
-76.20545
  0
LINE
  8
ボルト／ビス
  6
CONTINUOUS
 62
    64
 10
26.47274
 20
-77.584477
 11
25.97274
 21
-77.084477
  0
LINE
  8
ボルト／ビス
  6
CONTINUOUS
 62
    64
 10
22.47274
 20
-77.584477
 11
22.97274
 21
-77.084477
  0
LINE
  8
ボルト／ビス
  6
CONTINUOUS
 62
    64
 10
25.97274
 20
-77.084477
 11
22.97274
 21
-77.084477
  0
LINE
  8
ボルト／ビス
  6
CONTINUOUS
 62
    64
 10
26.47274
 20
-77.584477
 11
22.47274
 21
-77.584477
  0
LINE
  8
ボルト／ビス
  6
CONTINUOUS
 62
    64
 10
25.97274
 20
-83.284477
 11
25.97274
 21
-77.084477
  0
LINE
  8
ボルト／ビス
  6
CONTINUOUS
 62
    64
 10
22.97274
 20
-83.284477
 11
22.97274
 21
-77.084477
  0
LINE
  8
ボルト／ビス
  6
CONTINUOUS
 62
    64
 10
22.47274
 20
-83.284477
 11
22.47274
 21
-77.584477
  0
LINE
  8
ボルト／ビス
  6
CONTINUOUS
 62
    64
 10
26.47274
 20
-83.284477
 11
26.47274
 21
-77.584477
  0
ENDBLK
  0
BLOCK
  2
*GRP_0013
 70
    65
 10
0.0
 20
0.0
  0
LINE
  8
ボルト／ビス
  6
CONTINUOUS
 62
    64
 10
-16.04827
 20
-21.794045
 11
-17.01052
 21
-21.443818
  0
ARC
  8
ボルト／ビス
  6
CONTINUOUS
 62
    64
 10
-15.56714
 20
-18.644689
 40
3.149353
 50
270.0
 51
297.278033
  0
ARC
  8
ボルト／ビス
  6
CONTINUOUS
 62
    64
 10
-11.237012
 20
-9.721974
 40
12.072067
 50
256.165015
 51
283.834998
  0
LINE
  8
ボルト／ビス
  6
CONTINUOUS
 62
    64
 10
-6.425755
 20
-21.794045
 11
-5.463505
 21
-21.443818
  0
ARC
  8
ボルト／ビス
  6
CONTINUOUS
 62
    64
 10
-6.906885
 20
-18.644689
 40
3.149353
 50
242.721967
 51
270.0
  0
LINE
  8
ボルト／ビス
  6
CONTINUOUS
 62
    64
 10
-16.04827
 20
-21.794045
 11
-6.425755
 21
-21.794045
  0
LINE
  8
ボルト／ビス
  6
CONTINUOUS
 62
    64
 10
-5.463505
 20
-21.443818
 11
-5.463505
 21
-17.794048
  0
LINE
  8
ボルト／ビス
  6
CONTINUOUS
 62
    64
 10
-8.350255
 20
-21.443818
 11
-8.350255
 21
-17.794048
  0
LINE
  8
ボルト／ビス
  6
CONTINUOUS
 62
    64
 10
-17.01052
 20
-21.443818
 11
-17.01052
 21
-17.794048
  0
LINE
  8
ボルト／ビス
  6
CONTINUOUS
 62
    64
 10
-14.123755
 20
-21.443818
 11
-14.123755
 21
-17.794048
  0
LINE
  8
ボルト／ビス
  6
CONTINUOUS
 62
    64
 10
-5.063508
 20
-16.294048
 11
-5.063508
 21
-17.794048
  0
LINE
  8
ボルト／ビス
  6
CONTINUOUS
 62
    64
 10
-4.237007
 20
-15.394048
 11
-4.237007
 21
-16.294048
  0
LINE
  8
ボルト／ビス
  6
CONTINUOUS
 62
    64
 10
-17.41051
 20
-16.294048
 11
-17.41051
 21
-17.794048
  0
LINE
  8
ボルト／ビス
  6
CONTINUOUS
 62
    64
 10
-18.23701
 20
-15.394048
 11
-18.23701
 21
-16.294048
  0
LINE
  8
ボルト／ビス
  6
CONTINUOUS
 62
    64
 10
-4.237007
 20
-16.294048
 11
-18.23701
 21
-16.294048
  0
LINE
  8
ボルト／ビス
  6
CONTINUOUS
 62
    64
 10
-4.237007
 20
-15.394048
 11
-18.23701
 21
-15.394048
  0
LINE
  8
ボルト／ビス
  6
CONTINUOUS
 62
    64
 10
-5.063508
 20
-17.794048
 11
-17.41051
 21
-17.794048
  0
LINE
  8
ボルト／ビス
  6
CONTINUOUS
 62
    64
 10
-11.237005
 20
-16.294048
 11
-11.237005
 21
-17.794048
  0
LINE
  8
ボルト／ビス
  6
CONTINUOUS
 62
    64
 10
-8.237005
 20
-8.794048
 11
-8.93701
 21
-7.794042
  0
LINE
  8
ボルト／ビス
  6
CONTINUOUS
 62
    64
 10
-14.237005
 20
-8.794048
 11
-13.537007
 21
-7.794042
  0
LINE
  8
ボルト／ビス
  6
CONTINUOUS
 62
    64
 10
-14.237005
 20
-8.794048
 11
-8.237005
 21
-8.794048
  0
LINE
  8
ボルト／ビス
  6
CONTINUOUS
 62
    64
 10
-13.537007
 20
-7.794042
 11
-8.93701
 21
-7.794042
  0
LINE
  8
ボルト／ビス
  6
CONTINUOUS
 62
    64
 10
-11.237005
 20
-26.794048
 11
-11.237005
 21
-4.547232
  0
LINE
  8
ボルト／ビス
  6
CONTINUOUS
 62
    64
 10
-8.237005
 20
-8.794048
 11
-8.237005
 21
-15.394048
  0
LINE
  8
ボルト／ビス
  6
CONTINUOUS
 62
    64
 10
-8.93701
 20
-7.794042
 11
-8.93701
 21
-15.394048
  0
LINE
  8
ボルト／ビス
  6
CONTINUOUS
 62
    64
 10
-13.537007
 20
-7.794042
 11
-13.537007
 21
-15.394048
  0
LINE
  8
ボルト／ビス
  6
CONTINUOUS
 62
    64
 10
-14.237005
 20
-8.794048
 11
-14.237005
 21
-15.394048
  0
ENDBLK
  0
BLOCK
  2
*GRP_0014
 70
    65
 10
0.0
 20
0.0
  0
LINE
  8
ボルト／ビス
  6
CONTINUOUS
 10
-35.531515
 20
91.919223
 11
-35.531515
 21
93.919225
  0
LINE
  8
ボルト／ビス
  6
CONTINUOUS
 10
-35.531515
 20
93.919225
 11
-57.53152
 21
93.919225
  0
LINE
  8
ボルト／ビス
  6
CONTINUOUS
 10
-57.53152
 20
93.919225
 11
-57.53152
 21
91.919223
  0
LINE
  8
ボルト／ビス
  6
CONTINUOUS
 10
-35.531515
 20
91.919223
 11
-57.53152
 21
91.919223
  0
LINE
  8
ボルト／ビス
  6
CONTINUOUS
 10
-37.531517
 20
94.919223
 11
-37.531517
 21
93.919225
  0
LINE
  8
ボルト／ビス
  6
CONTINUOUS
 10
-37.531517
 20
94.919223
 11
-55.531517
 21
94.919223
  0
LINE
  8
ボルト／ビス
  6
CONTINUOUS
 10
-55.531517
 20
94.919223
 11
-55.531517
 21
93.919225
  0
LINE
  8
ボルト／ビス
  6
CONTINUOUS
 62
    64
 10
-41.720268
 20
100.919223
 11
-40.758018
 21
100.568995
  0
ARC
  8
ボルト／ビス
  6
CONTINUOUS
 62
    64
 10
-42.201394
 20
97.769869
 40
3.149352
 50
90.0
 51
117.278033
  0
ARC
  8
ボルト／ビス
  6
CONTINUOUS
 62
    64
 10
-46.531522
 20
88.847154
 40
12.072067
 50
76.165015
 51
103.834998
  0
LINE
  8
ボルト／ビス
  6
CONTINUOUS
 62
    64
 10
-51.342767
 20
100.919223
 11
-52.305018
 21
100.568995
  0
ARC
  8
ボルト／ビス
  6
CONTINUOUS
 62
    64
 10
-50.861649
 20
97.769869
 40
3.149352
 50
62.721967
 51
90.0
  0
LINE
  8
ボルト／ビス
  6
CONTINUOUS
 62
    64
 10
-41.720268
 20
100.919223
 11
-51.342767
 21
100.919223
  0
LINE
  8
ボルト／ビス
  6
CONTINUOUS
 62
    64
 10
-52.305018
 20
100.568995
 11
-52.305018
 21
96.919225
  0
LINE
  8
ボルト／ビス
  6
CONTINUOUS
 62
    64
 10
-49.418267
 20
100.568995
 11
-49.418267
 21
96.919225
  0
LINE
  8
ボルト／ビス
  6
CONTINUOUS
 62
    64
 10
-40.758018
 20
100.568995
 11
-40.758018
 21
96.919225
  0
LINE
  8
ボルト／ビス
  6
CONTINUOUS
 62
    64
 10
-43.644768
 20
100.568995
 11
-43.644768
 21
96.919225
  0
LINE
  8
ボルト／ビス
  6
CONTINUOUS
 10
-40.758018
 20
96.919225
 11
-52.305018
 21
96.919225
  0
LINE
  8
ボルト／ビス
  6
CONTINUOUS
 10
-40.531517
 20
96.919225
 11
-40.531517
 21
94.919223
  0
LINE
  8
ボルト／ビス
  6
CONTINUOUS
 10
-40.531517
 20
96.919225
 11
-52.531517
 21
96.919225
  0
LINE
  8
ボルト／ビス
  6
CONTINUOUS
 10
-52.531517
 20
96.919225
 11
-52.531517
 21
94.919223
  0
LINE
  8
ボルト／ビス
  6
CONTINUOUS
 62
    64
 10
-44.231515
 20
91.919223
 11
-44.231515
 21
71.919227
  0
LINE
  8
ボルト／ビス
  6
CONTINUOUS
 62
    64
 10
-48.83152
 20
91.919223
 11
-48.83152
 21
71.919227
  0
LINE
  8
ボルト／ビス
  6
CONTINUOUS
 62
    64
 10
-44.231515
 20
71.919227
 11
-48.83152
 21
71.919227
  0
LINE
  8
ボルト／ビス
  6
CONTINUOUS
 62
    64
 10
-49.531517
 20
72.919225
 11
-48.83152
 21
71.919227
  0
LINE
  8
ボルト／ビス
  6
CONTINUOUS
 62
    64
 10
-43.531517
 20
72.919225
 11
-44.231515
 21
71.919227
  0
LINE
  8
ボルト／ビス
  6
CONTINUOUS
 62
    64
 10
-43.531517
 20
72.919225
 11
-49.531517
 21
72.919225
  0
LINE
  8
ボルト／ビス
  6
CONTINUOUS
 62
    64
 10
-44.231515
 20
71.919227
 11
-48.83152
 21
71.919227
  0
LINE
  8
ボルト／ビス
  6
CONTINUOUS
 62
    64
 10
-49.531517
 20
91.919223
 11
-49.531517
 21
72.919225
  0
LINE
  8
ボルト／ビス
  6
CONTINUOUS
 62
    64
 10
-43.531517
 20
91.919223
 11
-43.531517
 21
72.919225
  0
ENDBLK
  0
BLOCK
  2
*DIM_0015
 70
    65
 10
0.0
 20
0.0
  0
LINE
  8
寸法
  6
BYBLOCK
 62
     0
 10
34.47274
 20
-85.084353
 11
65.711227
 21
-85.084353
  0
LINE
  8
寸法
  6
BYBLOCK
 62
     0
 10
-29.531508
 20
85.912068
 11
65.711227
 21
85.912068
  0
LINE
  8
寸法
  6
BYBLOCK
 62
     0
 10
65.711227
 20
-85.084353
 11
65.711227
 21
85.912068
  0
POINT
  8
寸法
 62
     0
 10
65.711227
 20
-85.084353
  0
POINT
  8
寸法
 62
     0
 10
65.711227
 20
85.912068
  0
TEXT
  7
TextStyle03
  8
寸法
  6
CONTINUOUS
 62
     0
 10
65.325
 20
-2.0375
  1
171
 40
3.0
 50
90.0
 72
     5
 11
65.325
 21
2.8375
  0
ENDBLK
  0
BLOCK
  2
*DIM_0016
 70
    65
 10
0.0
 20
0.0
  0
LINE
  8
寸法
  6
BYBLOCK
 62
     0
 10
-29.531508
 20
85.912068
 11
65.711227
 21
85.912068
  0
LINE
  8
寸法
  6
BYBLOCK
 62
     0
 10
-15.53151
 20
91.919223
 11
65.711227
 21
91.919223
  0
LINE
  8
寸法
  6
BYBLOCK
 62
     0
 10
65.711227
 20
85.912068
 11
65.711227
 21
91.919223
  0
POINT
  8
寸法
 62
     0
 10
65.711227
 20
91.919223
  0
TEXT
  7
TextStyle03
  8
寸法
  6
CONTINUOUS
 62
     0
 10
65.325
 20
88.15
  1
6
 40
3.0
 50
90.0
 72
     5
 11
65.325
 21
89.65
  0
ENDBLK
  0
BLOCK
  2
*DIM_0017
 70
    65
 10
0.0
 20
0.0
  0
LINE
  8
寸法
  6
BYBLOCK
 62
     0
 10
-25.53151
 20
1.915263
 11
56.14762
 21
1.915263
  0
LINE
  8
寸法
  6
BYBLOCK
 62
     0
 10
12.67276
 20
-0.084952
 11
56.14762
 21
-0.084952
  0
LINE
  8
寸法
  6
BYBLOCK
 62
     0
 10
56.14762
 20
1.915263
 11
56.14762
 21
-0.084952
  0
POINT
  8
寸法
 62
     0
 10
56.14762
 20
-0.084952
  0
TEXT
  7
TextStyle03
  8
寸法
  6
CONTINUOUS
 62
     0
 10
55.775
 20
0.15
  1
2
 40
3.0
 50
90.0
 72
     5
 11
55.775
 21
1.65
  0
ENDBLK
  0
BLOCK
  2
*DIM_0018
 70
    65
 10
0.0
 20
0.0
  0
LINE
  8
寸法
  6
BYBLOCK
 62
     0
 10
12.67276
 20
-0.084952
 11
56.14762
 21
-0.084952
  0
LINE
  8
寸法
  6
BYBLOCK
 62
     0
 10
12.67273
 20
-13.084047
 11
56.14762
 21
-13.084047
  0
LINE
  8
寸法
  6
BYBLOCK
 62
     0
 10
56.14762
 20
-0.084952
 11
56.14762
 21
-13.084047
  0
POINT
  8
寸法
 62
     0
 10
56.14762
 20
-13.084047
  0
TEXT
  7
TextStyle03
  8
寸法
  6
CONTINUOUS
 62
     0
 10
55.775
 20
-8.19375
  1
13
 40
3.0
 50
90.0
 72
     5
 11
55.775
 21
-5.00625
  0
ENDBLK
  0
BLOCK
  2
*DIM_0019
 70
    65
 10
0.0
 20
0.0
  0
LINE
  8
寸法
  6
BYBLOCK
 62
     0
 10
12.67273
 20
-13.084047
 11
56.14762
 21
-13.084047
  0
LINE
  8
寸法
  6
BYBLOCK
 62
     0
 10
-31.527262
 20
-65.084297
 11
56.14762
 21
-65.084297
  0
LINE
  8
寸法
  6
BYBLOCK
 62
     0
 10
56.14762
 20
-13.084047
 11
56.14762
 21
-65.084297
  0
POINT
  8
寸法
 62
     0
 10
56.14762
 20
-65.084297
  0
TEXT
  7
TextStyle03
  8
寸法
  6
CONTINUOUS
 62
     0
 10
55.775
 20
-40.69375
  1
52
 40
3.0
 50
90.0
 72
     5
 11
55.775
 21
-37.50625
  0
ENDBLK
  0
BLOCK
  2
*DIM_0020
 70
    65
 10
0.0
 20
0.0
  0
LINE
  8
寸法
  6
BYBLOCK
 62
     0
 10
-31.527262
 20
-65.084297
 11
56.14762
 21
-65.084297
  0
LINE
  8
寸法
  6
BYBLOCK
 62
     0
 10
34.47274
 20
-70.084297
 11
56.14762
 21
-70.084297
  0
LINE
  8
寸法
  6
BYBLOCK
 62
     0
 10
56.14762
 20
-65.084297
 11
56.14762
 21
-70.084297
  0
POINT
  8
寸法
 62
     0
 10
56.14762
 20
-70.084297
  0
TEXT
  7
TextStyle03
  8
寸法
  6
CONTINUOUS
 62
     0
 10
55.775
 20
-68.35
  1
5
 40
3.0
 50
90.0
 72
     5
 11
55.775
 21
-66.85
  0
ENDBLK
  0
BLOCK
  2
*DIM_0021
 70
    65
 10
0.0
 20
0.0
  0
LINE
  8
寸法
  6
BYBLOCK
 62
     0
 10
34.47274
 20
-70.084297
 11
56.14762
 21
-70.084297
  0
LINE
  8
寸法
  6
BYBLOCK
 62
     0
 10
34.47274
 20
-85.084353
 11
56.14762
 21
-85.084353
  0
LINE
  8
寸法
  6
BYBLOCK
 62
     0
 10
56.14762
 20
-70.084297
 11
56.14762
 21
-85.084353
  0
POINT
  8
寸法
 62
     0
 10
56.14762
 20
-85.084353
  0
TEXT
  7
TextStyle03
  8
寸法
  6
CONTINUOUS
 62
     0
 10
55.775
 20
-79.19375
  1
15
 40
3.0
 50
90.0
 72
     5
 11
55.775
 21
-76.00625
  0
ENDBLK
  0
BLOCK
  2
*DIM_0022
 70
    65
 10
0.0
 20
0.0
  0
LINE
  8
寸法
  6
BYBLOCK
 62
     0
 10
47.118822
 20
-0.084952
 11
48.014393
 21
-0.084952
  0
LINE
  8
寸法
  6
BYBLOCK
 62
     0
 10
12.372768
 20
-5.083767
 11
48.014393
 21
-5.083767
  0
LINE
  8
寸法
  6
BYBLOCK
 62
     0
 10
48.014393
 20
-0.084952
 11
48.014393
 21
-5.083767
  0
POINT
  8
寸法
 62
     0
 10
48.014393
 20
-0.084952
  0
POINT
  8
寸法
 62
     0
 10
48.014393
 20
-5.083767
  0
TEXT
  7
TextStyle03
  8
寸法
  6
CONTINUOUS
 62
     0
 10
47.625
 20
-3.35
  1
5
 40
3.0
 50
90.0
 72
     5
 11
47.625
 21
-1.85
  0
ENDBLK
  0
BLOCK
  2
*DIM_0023
 70
    65
 10
0.0
 20
0.0
  0
LINE
  8
寸法
  6
BYBLOCK
 62
     0
 10
12.372768
 20
-5.083767
 11
48.014393
 21
-5.083767
  0
LINE
  8
寸法
  6
BYBLOCK
 62
     0
 10
12.37273
 20
-9.084555
 11
48.014393
 21
-9.084555
  0
LINE
  8
寸法
  6
BYBLOCK
 62
     0
 10
48.014393
 20
-5.083767
 11
48.014393
 21
-9.084555
  0
POINT
  8
寸法
 62
     0
 10
48.014393
 20
-9.084555
  0
TEXT
  7
TextStyle03
  8
寸法
  6
CONTINUOUS
 62
     0
 10
47.625
 20
-7.85
  1
4
 40
3.0
 50
90.0
 72
     5
 11
47.625
 21
-6.35
  0
ENDBLK
  0
BLOCK
  2
*DIM_0024
 70
    65
 10
0.0
 20
0.0
  0
LINE
  8
寸法
  6
BYBLOCK
 62
     0
 10
12.37273
 20
-9.084555
 11
48.014393
 21
-9.084555
  0
LINE
  8
寸法
  6
BYBLOCK
 62
     0
 10
13.67273
 20
-13.084047
 11
48.014393
 21
-13.084047
  0
LINE
  8
寸法
  6
BYBLOCK
 62
     0
 10
48.014393
 20
-9.084555
 11
48.014393
 21
-13.084047
  0
POINT
  8
寸法
 62
     0
 10
48.014393
 20
-13.084047
  0
TEXT
  7
TextStyle03
  8
寸法
  6
CONTINUOUS
 62
     0
 10
47.625
 20
-11.85
  1
4
 40
3.0
 50
90.0
 72
     5
 11
47.625
 21
-10.35
  0
ENDBLK
  0
BLOCK
  2
*DIM_0025
 70
    65
 10
0.0
 20
0.0
  0
LINE
  8
寸法
  6
BYBLOCK
 62
     0
 10
33.47274
 20
-69.084297
 11
33.47274
 21
128.95056
  0
LINE
  8
寸法
  6
BYBLOCK
 62
     0
 10
-66.53151
 20
128.95056
 11
33.47274
 21
128.95056
  0
POINT
  8
寸法
 62
     0
 10
-66.53151
 20
128.95056
  0
POINT
  8
寸法
 62
     0
 10
33.47274
 20
128.95056
  0
TEXT
  7
TextStyle03
  8
寸法
  6
CONTINUOUS
 62
     0
 10
-18.9625
 20
129.325
  1
100
 40
3.0
 72
     5
 11
-14.0875
 21
129.325
  0
ENDBLK
  0
BLOCK
  2
*DIM_0026
 70
    65
 10
0.0
 20
0.0
  0
LINE
  8
寸法
  6
BYBLOCK
 62
     0
 10
33.47274
 20
122.664168
 11
33.47274
 21
122.443323
  0
LINE
  8
寸法
  6
BYBLOCK
 62
     0
 10
-81.53151
 20
-58.084297
 11
-81.53151
 21
122.443323
  0
LINE
  8
寸法
  6
BYBLOCK
 62
     0
 10
33.47274
 20
122.443323
 11
-81.53151
 21
122.443323
  0
POINT
  8
寸法
 62
     0
 10
33.47274
 20
122.443323
  0
POINT
  8
寸法
 62
     0
 10
-81.53151
 20
122.443323
  0
TEXT
  7
TextStyle03
  8
寸法
  6
CONTINUOUS
 62
     0
 10
-26.4625
 20
122.8
  1
115
 40
3.0
 72
     5
 11
-21.5875
 21
122.8
  0
ENDBLK
  0
BLOCK
  2
*DIM_0027
 70
    65
 10
0.0
 20
0.0
  0
LINE
  8
寸法
  6
BYBLOCK
 62
     0
 10
-81.53151
 20
115.261635
 11
-81.53151
 21
115.948345
  0
LINE
  8
寸法
  6
BYBLOCK
 62
     0
 10
-66.53151
 20
115.261635
 11
-66.53151
 21
115.948345
  0
LINE
  8
寸法
  6
BYBLOCK
 62
     0
 10
-81.53151
 20
115.948345
 11
-66.53151
 21
115.948345
  0
POINT
  8
寸法
 62
     0
 10
-81.53151
 20
115.948345
  0
POINT
  8
寸法
 62
     0
 10
-66.53151
 20
115.948345
  0
TEXT
  7
TextStyle03
  8
寸法
  6
CONTINUOUS
 62
     0
 10
-75.61875
 20
116.3
  1
15
 40
3.0
 72
     5
 11
-72.43125
 21
116.3
  0
ENDBLK
  0
BLOCK
  2
*DIM_0028
 70
    65
 10
0.0
 20
0.0
  0
LINE
  8
寸法
  6
BYBLOCK
 62
     0
 10
-57.23151
 20
-5.083798
 11
-141.446683
 21
-5.083798
  0
LINE
  8
寸法
  6
BYBLOCK
 62
     0
 10
-57.23151
 20
-9.084548
 11
-141.446683
 21
-9.084548
  0
LINE
  8
寸法
  6
BYBLOCK
 62
     0
 10
-141.446683
 20
-5.083798
 11
-141.446683
 21
-9.084548
  0
POINT
  8
寸法
 62
     0
 10
-141.446683
 20
-9.084548
  0
TEXT
  7
TextStyle03
  8
寸法
  6
CONTINUOUS
 62
     0
 10
-141.825
 20
-7.85
  1
4
 40
3.0
 50
90.0
 72
     5
 11
-141.825
 21
-6.35
  0
ENDBLK
  0
BLOCK
  2
*DIM_0029
 70
    65
 10
0.0
 20
0.0
  0
LINE
  8
寸法
  6
BYBLOCK
 62
     0
 10
-57.23151
 20
-9.084548
 11
-141.446683
 21
-9.084548
  0
LINE
  8
寸法
  6
BYBLOCK
 62
     0
 10
-82.53151
 20
-67.084297
 11
-141.446683
 21
-67.084297
  0
LINE
  8
寸法
  6
BYBLOCK
 62
     0
 10
-141.446683
 20
-9.084548
 11
-141.446683
 21
-67.084297
  0
POINT
  8
寸法
 62
     0
 10
-141.446683
 20
-67.084297
  0
TEXT
  7
TextStyle03
  8
寸法
  6
CONTINUOUS
 62
     0
 10
-141.825
 20
-39.69375
  1
58
 40
3.0
 50
90.0
 72
     5
 11
-141.825
 21
-36.50625
  0
ENDBLK
  0
BLOCK
  2
*DIM_0030
 70
    65
 10
0.0
 20
0.0
  0
LINE
  8
寸法
  6
BYBLOCK
 62
     0
 10
-68.53151
 20
55.915827
 11
-141.446683
 21
55.915827
  0
LINE
  8
寸法
  6
BYBLOCK
 62
     0
 10
-67.53151
 20
45.915827
 11
-141.446683
 21
45.915827
  0
LINE
  8
寸法
  6
BYBLOCK
 62
     0
 10
-141.446683
 20
55.915827
 11
-141.446683
 21
45.915827
  0
POINT
  8
寸法
 62
     0
 10
-141.446683
 20
45.915827
  0
TEXT
  7
TextStyle03
  8
寸法
  6
CONTINUOUS
 62
     0
 10
-141.825
 20
49.30625
  1
10
 40
3.0
 50
90.0
 72
     5
 11
-141.825
 21
52.49375
  0
ENDBLK
  0
BLOCK
  2
*DIM_0031
 70
    65
 10
0.0
 20
0.0
  0
LINE
  8
寸法
  6
BYBLOCK
 62
     0
 10
-67.53151
 20
45.915827
 11
-141.446683
 21
45.915827
  0
LINE
  8
寸法
  6
BYBLOCK
 62
     0
 10
-57.23151
 20
-5.083798
 11
-141.446683
 21
-5.083798
  0
LINE
  8
寸法
  6
BYBLOCK
 62
     0
 10
-141.446683
 20
45.915827
 11
-141.446683
 21
-5.083798
  0
POINT
  8
寸法
 62
     0
 10
-141.446683
 20
-5.083798
  0
TEXT
  7
TextStyle03
  8
寸法
  6
CONTINUOUS
 62
     0
 10
-141.825
 20
18.80625
  1
51
 40
3.0
 50
90.0
 72
     5
 11
-141.825
 21
21.99375
  0
ENDBLK
  0
BLOCK
  2
*DIM_0032
 70
    65
 10
0.0
 20
0.0
  0
LINE
  8
寸法
  6
BYBLOCK
 62
     0
 10
11.47276
 20
0.925518
 11
11.47276
 21
115.948345
  0
LINE
  8
寸法
  6
BYBLOCK
 62
     0
 10
-16.53151
 20
115.948345
 11
11.47276
 21
115.948345
  0
POINT
  8
寸法
 62
     0
 10
-16.53151
 20
115.948345
  0
POINT
  8
寸法
 62
     0
 10
11.47276
 20
115.948345
  0
TEXT
  7
TextStyle03
  8
寸法
  6
CONTINUOUS
 62
     0
 10
-4.11875
 20
116.3
  1
28
 40
3.0
 72
     5
 11
-0.93125
 21
116.3
  0
ENDBLK
  0
BLOCK
  2
*DIM_0033
 70
    65
 10
0.0
 20
0.0
  0
LINE
  8
寸法
  6
BYBLOCK
 62
     0
 10
11.47276
 20
0.925518
 11
11.47276
 21
115.948345
  0
LINE
  8
寸法
  6
BYBLOCK
 62
     0
 10
33.47274
 20
2.915263
 11
33.47274
 21
115.948345
  0
LINE
  8
寸法
  6
BYBLOCK
 62
     0
 10
11.47276
 20
115.948345
 11
33.47274
 21
115.948345
  0
POINT
  8
寸法
 62
     0
 10
33.47274
 20
115.948345
  0
TEXT
  7
TextStyle03
  8
寸法
  6
CONTINUOUS
 62
     0
 10
20.88125
 20
116.3
  1
22
 40
3.0
 72
     5
 11
24.06875
 21
116.3
  0
ENDBLK
  0
BLOCK
  2
*DIM_0034
 70
    65
 10
0.0
 20
0.0
  0
LINE
  8
寸法
  6
BYBLOCK
 62
     0
 10
-25.53151
 20
1.915263
 11
56.14762
 21
1.915263
  0
LINE
  8
寸法
  6
BYBLOCK
 62
     0
 10
-25.53151
 20
54.915827
 11
56.14762
 21
54.915827
  0
LINE
  8
寸法
  6
BYBLOCK
 62
     0
 10
56.14762
 20
1.915263
 11
56.14762
 21
54.915827
  0
POINT
  8
寸法
 62
     0
 10
56.14762
 20
1.915263
  0
POINT
  8
寸法
 62
     0
 10
56.14762
 20
54.915827
  0
TEXT
  7
TextStyle03
  8
寸法
  6
CONTINUOUS
 62
     0
 10
55.775
 20
26.80625
  1
53
 40
3.0
 50
90.0
 72
     5
 11
55.775
 21
29.99375
  0
ENDBLK
  0
BLOCK
  2
*DIM_0035
 70
    65
 10
0.0
 20
0.0
  0
LINE
  8
寸法
  6
BYBLOCK
 62
     0
 10
-25.53151
 20
54.915827
 11
56.14762
 21
54.915827
  0
LINE
  8
寸法
  6
BYBLOCK
 62
     0
 10
12.47276
 20
85.912068
 11
56.14762
 21
85.912068
  0
LINE
  8
寸法
  6
BYBLOCK
 62
     0
 10
56.14762
 20
54.915827
 11
56.14762
 21
85.912068
  0
POINT
  8
寸法
 62
     0
 10
56.14762
 20
85.912068
  0
TEXT
  7
TextStyle03
  8
寸法
  6
CONTINUOUS
 62
     0
 10
55.775
 20
68.80625
  1
31
 40
3.0
 50
90.0
 72
     5
 11
55.775
 21
71.99375
  0
ENDBLK
  0
BLOCK
  2
*GRP_0036
 70
    65
 10
0.0
 20
0.0
  0
POLYLINE
  8
寸法
  6
BYBLOCK
 62
     0
 66
     1
  0
VERTEX
  8
寸法
 10
-61.495193
 20
85.915673
  0
VERTEX
  8
寸法
 10
-58.897117
 20
87.415673
  0
VERTEX
  8
寸法
 10
-60.397117
 20
84.817598
  0
SEQEND
  0
POLYLINE
  8
寸法
  6
BYBLOCK
 62
     0
 66
     1
  0
VERTEX
  8
寸法
 10
-58.897117
 20
87.415673
  0
VERTEX
  8
寸法
 10
-63.599392
 20
82.713398
  0
VERTEX
  8
寸法
 10
-87.146307
 20
82.713398
  0
SEQEND
  0
ENDBLK
  0
BLOCK
  2
*GRP_0037
 70
    65
 10
0.0
 20
0.0
  0
POLYLINE
  8
寸法
  6
BYBLOCK
 62
     0
 66
     1
  0
VERTEX
  8
寸法
 10
-77.624675
 20
72.09073
  0
VERTEX
  8
寸法
 10
-76.124675
 20
69.492655
  0
VERTEX
  8
寸法
 10
-78.72275
 20
70.992655
  0
SEQEND
  0
POLYLINE
  8
寸法
  6
BYBLOCK
 62
     0
 66
     1
  0
VERTEX
  8
寸法
 10
-76.124675
 20
69.492655
  0
VERTEX
  8
寸法
 10
-79.797185
 20
73.165165
  0
VERTEX
  8
寸法
 10
-87.269823
 20
73.165165
  0
SEQEND
  0
ENDBLK
  0
BLOCK
  2
*GRP_0038
 70
    65
 10
0.0
 20
0.0
  0
POLYLINE
  8
寸法
  6
BYBLOCK
 62
     0
 66
     1
  0
VERTEX
  8
寸法
 10
-23.682155
 20
-68.00993
  0
VERTEX
  8
寸法
 10
-25.345095
 20
-70.506852
  0
VERTEX
  8
寸法
 10
-25.153407
 20
-67.512985
  0
SEQEND
  0
POLYLINE
  8
寸法
  6
BYBLOCK
 62
     0
 66
     1
  0
VERTEX
  8
寸法
 10
-25.345095
 20
-70.506852
  0
VERTEX
  8
寸法
 10
-17.765722
 20
-48.06743
  0
VERTEX
  8
寸法
 10
-14.589605
 20
-48.06743
  0
SEQEND
  0
ENDBLK
  0
BLOCK
  2
*GRP_0039
 70
    65
 10
0.0
 20
0.0
  0
POLYLINE
  8
寸法
  6
BYBLOCK
 62
     0
 66
     1
  0
VERTEX
  8
寸法
 10
-15.307415
 20
-67.482333
  0
VERTEX
  8
寸法
 10
-16.919863
 20
-70.012158
  0
VERTEX
  8
寸法
 10
-16.788353
 20
-67.01504
  0
SEQEND
  0
POLYLINE
  8
寸法
  6
BYBLOCK
 62
     0
 66
     1
  0
VERTEX
  8
寸法
 10
-16.919863
 20
-70.012158
  0
VERTEX
  8
寸法
 10
-12.920197
 20
-57.336455
  0
VERTEX
  8
寸法
 10
-9.24259
 20
-57.336455
  0
SEQEND
  0
ENDBLK
  0
BLOCK
  2
*GRP_0040
 70
    65
 10
0.0
 20
0.0
  0
POLYLINE
  8
寸法
  6
BYBLOCK
 62
     0
 66
     1
  0
VERTEX
  8
寸法
 10
-49.83151
 20
28.469935
  0
VERTEX
  8
寸法
 10
-51.33151
 20
31.068013
  0
VERTEX
  8
寸法
 10
-48.733435
 20
29.568013
  0
SEQEND
  0
POLYLINE
  8
寸法
  6
BYBLOCK
 62
     0
 66
     1
  0
VERTEX
  8
寸法
 10
-51.33151
 20
31.068013
  0
VERTEX
  8
寸法
 10
-43.60286
 20
23.339363
  0
VERTEX
  8
寸法
 10
-12.051445
 20
23.339363
  0
SEQEND
  0
ENDBLK
  0
BLOCK
  2
*GRP_0041
 70
    65
 10
0.0
 20
0.0
  0
POLYLINE
  8
寸法
  6
BYBLOCK
 62
     0
 66
     1
  0
VERTEX
  8
寸法
 10
-51.400675
 20
-27.600888
  0
VERTEX
  8
寸法
 10
-52.900675
 20
-25.00281
  0
VERTEX
  8
寸法
 10
-50.3026
 20
-26.50281
  0
SEQEND
  0
POLYLINE
  8
寸法
  6
BYBLOCK
 62
     0
 66
     1
  0
VERTEX
  8
寸法
 10
-52.900675
 20
-25.00281
  0
VERTEX
  8
寸法
 10
-45.172025
 20
-32.73146
  0
VERTEX
  8
寸法
 10
-13.62061
 20
-32.73146
  0
SEQEND
  0
ENDBLK
  0
BLOCK
  2
*DIM_0042
 70
    65
 10
0.0
 20
0.0
  0
LINE
  8
寸法
  6
BYBLOCK
 62
     0
 10
-55.527262
 20
-85.084227
 11
-141.446683
 21
-85.084227
  0
LINE
  8
寸法
  6
BYBLOCK
 62
     0
 10
-141.446683
 20
-67.084297
 11
-141.446683
 21
-85.084227
  0
POINT
  8
寸法
 62
     0
 10
-141.446683
 20
-67.084297
  0
POINT
  8
寸法
 62
     0
 10
-141.446683
 20
-85.084227
  0
TEXT
  7
TextStyle03
  8
寸法
  6
CONTINUOUS
 62
     0
 10
-141.825
 20
-77.69375
  1
18
 40
3.0
 50
90.0
 72
     5
 11
-141.825
 21
-74.50625
  0
ENDBLK
  0
BLOCK
  2
*DIM_0043
 70
    65
 10
0.0
 20
0.0
  0
LINE
  8
寸法
  6
BYBLOCK
 62
     0
 10
-55.527262
 20
-85.084227
 11
-141.446683
 21
-85.084227
  0
LINE
  8
寸法
  6
BYBLOCK
 62
     0
 10
15.972985
 20
-95.084332
 11
-141.446683
 21
-95.084332
  0
LINE
  8
寸法
  6
BYBLOCK
 62
     0
 10
-141.446683
 20
-85.084227
 11
-141.446683
 21
-95.084332
  0
POINT
  8
寸法
 62
     0
 10
-141.446683
 20
-95.084332
  0
TEXT
  7
TextStyle03
  8
寸法
  6
CONTINUOUS
 62
     0
 10
-141.825
 20
-91.69375
  1
10
 40
3.0
 50
90.0
 72
     5
 11
-141.825
 21
-88.50625
  0
ENDBLK
  0
BLOCK
  2
*DIM_0044
 70
    65
 10
0.0
 20
0.0
  0
LINE
  8
寸法
  6
BYBLOCK
 62
     0
 10
19.472985
 20
-95.084332
 11
65.711227
 21
-95.084332
  0
LINE
  8
寸法
  6
BYBLOCK
 62
     0
 10
65.711227
 20
-85.084353
 11
65.711227
 21
-95.084332
  0
POINT
  8
寸法
 62
     0
 10
65.711227
 20
-85.084353
  0
POINT
  8
寸法
 62
     0
 10
65.711227
 20
-95.084332
  0
TEXT
  7
TextStyle03
  8
寸法
  6
CONTINUOUS
 62
     0
 10
65.325
 20
-91.69375
  1
10
 40
3.0
 50
90.0
 72
     5
 11
65.325
 21
-88.50625
  0
ENDBLK
  0
BLOCK
  2
*DIM_0045
 70
    65
 10
0.0
 20
0.0
  0
LINE
  8
寸法
  6
BYBLOCK
 62
     0
 10
33.47274
 20
-86.084353
 11
33.47274
 21
-106.048875
  0
LINE
  8
寸法
  6
BYBLOCK
 62
     0
 10
18.472985
 20
-96.084332
 11
18.472985
 21
-106.048875
  0
LINE
  8
寸法
  6
BYBLOCK
 62
     0
 10
33.47274
 20
-106.048875
 11
18.472985
 21
-106.048875
  0
POINT
  8
寸法
 62
     0
 10
33.47274
 20
-106.048875
  0
POINT
  8
寸法
 62
     0
 10
18.472985
 20
-106.048875
  0
TEXT
  7
TextStyle03
  8
寸法
  6
CONTINUOUS
 62
     0
 10
24.38125
 20
-105.675
  1
15
 40
3.0
 72
     5
 11
27.56875
 21
-105.675
  0
ENDBLK
  0
BLOCK
  2
*DIM_0046
 70
    65
 10
0.0
 20
0.0
  0
LINE
  8
寸法
  6
BYBLOCK
 62
     0
 10
-46.53151
 20
105.619223
 11
-46.53151
 21
115.948345
  0
LINE
  8
寸法
  6
BYBLOCK
 62
     0
 10
-66.53151
 20
115.948345
 11
-46.53151
 21
115.948345
  0
POINT
  8
寸法
 62
     0
 10
-66.53151
 20
115.948345
  0
POINT
  8
寸法
 62
     0
 10
-46.53151
 20
115.948345
  0
TEXT
  7
TextStyle03
  8
寸法
  6
CONTINUOUS
 62
     0
 10
-58.11875
 20
116.3
  1
20
 40
3.0
 72
     5
 11
-54.93125
 21
116.3
  0
ENDBLK
  0
BLOCK
  2
*DIM_0047
 70
    65
 10
0.0
 20
0.0
  0
LINE
  8
寸法
  6
BYBLOCK
 62
     0
 10
-46.53151
 20
105.619223
 11
-46.53151
 21
115.948345
  0
LINE
  8
寸法
  6
BYBLOCK
 62
     0
 10
-16.53151
 20
92.919223
 11
-16.53151
 21
115.948345
  0
LINE
  8
寸法
  6
BYBLOCK
 62
     0
 10
-46.53151
 20
115.948345
 11
-16.53151
 21
115.948345
  0
POINT
  8
寸法
 62
     0
 10
-16.53151
 20
115.948345
  0
TEXT
  7
TextStyle03
  8
寸法
  6
CONTINUOUS
 62
     0
 10
-33.11875
 20
116.3
  1
30
 40
3.0
 72
     5
 11
-29.93125
 21
116.3
  0
ENDBLK
  0
BLOCK
  2
*GRP_0048
 70
    65
 10
0.0
 20
0.0
  0
POLYLINE
  8
寸法
  6
BYBLOCK
 62
     0
 66
     1
  0
VERTEX
  8
寸法
 10
-0.759037
 20
-15.394528
  0
VERTEX
  8
寸法
 10
7.057305
 20
-23.21087
  0
VERTEX
  8
寸法
 10
9.783495
 20
-23.21087
  0
SEQEND
  0
ENDBLK
  0
BLOCK
  2
*DIM_0049
 70
    65
 10
0.0
 20
0.0
  0
LINE
  8
寸法
  6
BYBLOCK
 62
     0
 10
-130.54461
 20
-9.084548
 11
-131.377445
 21
-9.084548
  0
LINE
  8
寸法
  6
BYBLOCK
 62
     0
 10
-84.5315
 20
-57.083773
 11
-131.377445
 21
-57.083773
  0
LINE
  8
寸法
  6
BYBLOCK
 62
     0
 10
-131.377445
 20
-9.084548
 11
-131.377445
 21
-57.083773
  0
POINT
  8
寸法
 62
     0
 10
-131.377445
 20
-9.084548
  0
POINT
  8
寸法
 62
     0
 10
-131.377445
 20
-57.083773
  0
TEXT
  7
TextStyle03
  8
寸法
  6
CONTINUOUS
 62
     0
 10
-131.75
 20
-34.69375
  1
48
 40
3.0
 50
90.0
 72
     5
 11
-131.75
 21
-31.50625
  0
ENDBLK
  0
BLOCK
  2
*DIM_0050
 70
    65
 10
0.0
 20
0.0
  0
LINE
  8
寸法
  6
BYBLOCK
 62
     0
 10
-84.5315
 20
-57.083773
 11
-131.377445
 21
-57.083773
  0
LINE
  8
寸法
  6
BYBLOCK
 62
     0
 10
-87.5315
 20
-67.084297
 11
-131.377445
 21
-67.084297
  0
LINE
  8
寸法
  6
BYBLOCK
 62
     0
 10
-131.377445
 20
-57.083773
 11
-131.377445
 21
-67.084297
  0
POINT
  8
寸法
 62
     0
 10
-131.377445
 20
-67.084297
  0
TEXT
  7
TextStyle03
  8
寸法
  6
CONTINUOUS
 62
     0
 10
-131.75
 20
-63.69375
  1
10
 40
3.0
 50
90.0
 72
     5
 11
-131.75
 21
-60.50625
  0
ENDBLK
  0
BLOCK
  2
*DIM_0051
 70
    65
 10
0.0
 20
0.0
  0
LINE
  8
寸法
  6
BYBLOCK
 62
     0
 10
-54.527253
 20
-86.084235
 11
-54.527253
 21
-106.048875
  0
LINE
  8
寸法
  6
BYBLOCK
 62
     0
 10
18.472985
 20
-106.048875
 11
-54.527253
 21
-106.048875
  0
POINT
  8
寸法
 62
     0
 10
18.472985
 20
-106.048875
  0
POINT
  8
寸法
 62
     0
 10
-54.527253
 20
-106.048875
  0
TEXT
  7
TextStyle03
  8
寸法
  6
CONTINUOUS
 62
     0
 10
-19.61875
 20
-105.675
  1
73
 40
3.0
 72
     5
 11
-16.43125
 21
-105.675
  0
ENDBLK
  0
BLOCK
  2
*DIM_0052
 70
    65
 10
0.0
 20
0.0
  0
LINE
  8
寸法
  6
BYBLOCK
 62
     0
 10
-54.527253
 20
-86.084235
 11
-54.527253
 21
-106.048875
  0
LINE
  8
寸法
  6
BYBLOCK
 62
     0
 10
-81.531498
 20
-68.084303
 11
-81.531498
 21
-106.048875
  0
LINE
  8
寸法
  6
BYBLOCK
 62
     0
 10
-54.527253
 20
-106.048875
 11
-81.531498
 21
-106.048875
  0
POINT
  8
寸法
 62
     0
 10
-81.531498
 20
-106.048875
  0
TEXT
  7
TextStyle03
  8
寸法
  6
CONTINUOUS
 62
     0
 10
-69.61875
 20
-105.675
  1
27
 40
3.0
 72
     5
 11
-66.43125
 21
-105.675
  0
ENDBLK
  0
BLOCK
  2
*GRP_0053
 70
    65
 10
0.0
 20
0.0
  0
POLYLINE
  8
寸法
  6
BYBLOCK
 62
     0
 66
     1
  0
VERTEX
  8
寸法
 10
-8.87705
 20
-91.284418
  0
VERTEX
  8
寸法
 10
11.31541
 20
-111.476877
  0
VERTEX
  8
寸法
 10
17.48557
 20
-111.476877
  0
SEQEND
  0
ENDBLK
  0
BLOCK
  2
*GRP_0054
 70
    65
 10
0.0
 20
0.0
  0
LINE
  8
別途部材
  6
CONTINUOUS
 10
-67.03151
 20
-58.584303
 11
-67.03151
 21
-14.5843
  0
ARC
  8
別途部材
  6
CONTINUOUS
 10
-73.031523
 20
-58.584299
 40
6.0
 50
270.0
 51
360.0
  0
LINE
  8
別途部材
  6
CONTINUOUS
 10
-79.03151
 20
-58.584303
 11
-79.03151
 21
-14.5843
  0
ARC
  8
別途部材
  6
CONTINUOUS
 10
-73.031523
 20
-58.584299
 40
6.0
 50
180.0
 51
270.0
  0
CIRCLE
  8
別途部材
  6
CONTINUOUS
 10
-73.03151
 20
-58.584303
 40
3.0
  0
LINE
  8
別途部材
  6
CONTINUOUS
 10
-70.03151
 20
-58.584303
 11
-76.03151
 21
-58.584303
  0
LINE
  8
別途部材
  6
CONTINUOUS
 10
-73.03151
 20
-61.584303
 11
-73.03151
 21
-55.584303
  0
LINE
  8
別途部材
  6
CONTINUOUS
 10
-67.03151
 20
-14.5843
 11
-69.03152
 21
-14.5843
  0
LINE
  8
別途部材
  6
CONTINUOUS
 10
-77.031515
 20
-14.5843
 11
-79.03151
 21
-14.5843
  0
LINE
  8
別途部材
  6
CONTINUOUS
 10
-69.03152
 20
-14.5843
 11
-69.03152
 21
-52.584303
  0
LINE
  8
別途部材
  6
CONTINUOUS
 10
-69.03152
 20
-52.584303
 11
-77.031515
 21
-52.584303
  0
LINE
  8
別途部材
  6
CONTINUOUS
 10
-77.031515
 20
-14.5843
 11
-77.031515
 21
-52.584303
  0
ARC
  8
別途部材
  6
CONTINUOUS
 10
-73.031523
 20
-15.042631
 40
2.541667
 50
190.38896
 51
349.61104
  0
LINE
  8
別途部材
  6
CONTINUOUS
 10
-76.53152
 20
-14.5843
 11
-75.531515
 21
-14.5843
  0
LINE
  8
別途部材
  6
CONTINUOUS
 10
-69.531515
 20
-14.5843
 11
-70.53152
 21
-14.5843
  0
CIRCLE
  8
別途部材
  6
CONTINUOUS
 10
-73.03151
 20
-48.584305
 40
0.999997
  0
LINE
  8
別途部材
  6
CONTINUOUS
 10
-74.031515
 20
-48.584305
 11
-72.03152
 21
-48.584305
  0
LINE
  8
別途部材
  6
CONTINUOUS
 10
-73.03151
 20
-49.584303
 11
-73.03151
 21
-47.5843
  0
ARC
  8
別途部材
  6
CONTINUOUS
 10
-73.031523
 20
-50.125971
 40
2.541667
 50
10.38896
 51
169.61104
  0
LINE
  8
別途部材
  6
CONTINUOUS
 10
-76.53152
 20
-50.5843
 11
-75.531515
 21
-50.5843
  0
LINE
  8
別途部材
  6
CONTINUOUS
 10
-70.53152
 20
-50.5843
 11
-69.531515
 21
-50.5843
  0
LINE
  8
別途部材
  6
CONTINUOUS
 10
-75.531515
 20
-14.5843
 11
-75.531515
 21
-50.5843
  0
LINE
  8
別途部材
  6
CONTINUOUS
 10
-76.53152
 20
-14.5843
 11
-76.53152
 21
-50.5843
  0
LINE
  8
別途部材
  6
CONTINUOUS
 10
-70.53152
 20
-14.5843
 11
-70.53152
 21
-50.5843
  0
LINE
  8
別途部材
  6
CONTINUOUS
 10
-69.531515
 20
-14.5843
 11
-69.531515
 21
-50.5843
  0
ENDBLK
  0
BLOCK
  2
*GRP_0055
 70
    65
 10
0.0
 20
0.0
  0
LINE
  8
別途部材
  6
CONTINUOUS
 10
-73.03151
 20
-64.584303
 11
-73.03151
 21
-64.584303
  0
LINE
  8
別途部材
  6
CONTINUOUS
 10
-67.03151
 20
-51.584297
 11
-64.531513
 21
-51.584297
  0
LINE
  8
別途部材
  6
CONTINUOUS
 10
-73.03151
 20
-65.084297
 11
-73.031517
 21
-64.584295
  0
LINE
  8
別途部材
  6
CONTINUOUS
 10
-56.53151
 20
-52.584303
 11
-64.531513
 21
-52.584303
  0
ARC
  8
別途部材
  6
CONTINUOUS
 10
-57.531516
 20
-15.584301
 40
1.0
 50
0.0
 51
90.0
  0
LINE
  8
別途部材
  6
CONTINUOUS
 10
-63.531515
 20
-14.5843
 11
-57.531515
 21
-14.5843
  0
ARC
  8
別途部材
  6
CONTINUOUS
 10
-63.531516
 20
-15.584301
 40
1.0
 50
90.0
 51
180.0
  0
LINE
  8
別途部材
  6
CONTINUOUS
 10
-56.53151
 20
-15.584297
 11
-56.53151
 21
-64.0843
  0
ARC
  8
別途部材
  6
CONTINUOUS
 10
-57.531516
 20
-64.084301
 40
1.0
 50
270.0
 51
360.0
  0
LINE
  8
別途部材
  6
CONTINUOUS
 10
-64.531513
 20
-15.584297
 11
-64.531513
 21
-64.0843
  0
ARC
  8
別途部材
  6
CONTINUOUS
 10
-63.531516
 20
-64.084301
 40
1.0
 50
180.0
 51
270.0
  0
LINE
  8
別途部材
  6
CONTINUOUS
 10
-57.531515
 20
-65.084297
 11
-73.03151
 21
-65.084297
  0
LINE
  8
別途部材
  6
CONTINUOUS
 10
-62.23151
 20
-45.584297
 11
-62.23151
 21
-40.584303
  0
LINE
  8
別途部材
  6
CONTINUOUS
 10
-62.23151
 20
-25.584303
 11
-62.23151
 21
-20.584292
  0
POLYLINE
  8
別途部材
  6
CONTINUOUS
 66
     1
  0
VERTEX
  8
別途部材
 10
-64.531513
 20
-47.084297
  0
VERTEX
  8
別途部材
 10
-62.23151
 20
-45.584297
  0
VERTEX
  8
別途部材
 10
-56.53151
 20
-45.584297
  0
SEQEND
  0
LINE
  8
別途部材
  6
CONTINUOUS
 10
-64.531513
 20
-43.084292
 11
-56.53151
 21
-43.084292
  0
POLYLINE
  8
別途部材
  6
CONTINUOUS
 66
     1
  0
VERTEX
  8
別途部材
 10
-64.531513
 20
-39.084303
  0
VERTEX
  8
別途部材
 10
-62.23151
 20
-40.584303
  0
VERTEX
  8
別途部材
 10
-56.53151
 20
-40.584303
  0
SEQEND
  0
POLYLINE
  8
別途部材
  6
CONTINUOUS
 66
     1
  0
VERTEX
  8
別途部材
 10
-64.531513
 20
-27.084303
  0
VERTEX
  8
別途部材
 10
-62.23151
 20
-25.584303
  0
VERTEX
  8
別途部材
 10
-56.53151
 20
-25.584303
  0
SEQEND
  0
LINE
  8
別途部材
  6
CONTINUOUS
 10
-64.531513
 20
-23.084297
 11
-56.53151
 21
-23.084297
  0
POLYLINE
  8
別途部材
  6
CONTINUOUS
 66
     1
  0
VERTEX
  8
別途部材
 10
-64.531513
 20
-19.084292
  0
VERTEX
  8
別途部材
 10
-62.23151
 20
-20.584292
  0
VERTEX
  8
別途部材
 10
-56.53151
 20
-20.584292
  0
SEQEND
  0
ENDBLK
  0
BLOCK
  2
*GRP_0056
 70
    65
 10
0.0
 20
0.0
  0
LINE
  8
別途部材
  6
CONTINUOUS
 10
-67.03151
 20
39.415838
 11
-67.03151
 21
-4.584165
  0
ARC
  8
別途部材
  6
CONTINUOUS
 10
-73.031523
 20
39.415834
 40
6.0
 50
0.0
 51
90.0
  0
LINE
  8
別途部材
  6
CONTINUOUS
 10
-79.03151
 20
39.415838
 11
-79.03151
 21
-4.584165
  0
ARC
  8
別途部材
  6
CONTINUOUS
 10
-73.031523
 20
39.415834
 40
6.0
 50
90.0
 51
180.0
  0
CIRCLE
  8
別途部材
  6
CONTINUOUS
 10
-73.03151
 20
39.415838
 40
3.0
  0
LINE
  8
別途部材
  6
CONTINUOUS
 10
-70.03151
 20
39.415838
 11
-76.03151
 21
39.415838
  0
LINE
  8
別途部材
  6
CONTINUOUS
 10
-73.03151
 20
42.415838
 11
-73.03151
 21
36.415838
  0
LINE
  8
別途部材
  6
CONTINUOUS
 10
-67.03151
 20
-4.584165
 11
-69.03152
 21
-4.584165
  0
LINE
  8
別途部材
  6
CONTINUOUS
 10
-77.031515
 20
-4.584165
 11
-79.03151
 21
-4.584165
  0
LINE
  8
別途部材
  6
CONTINUOUS
 10
-69.03152
 20
-4.584165
 11
-69.03152
 21
33.415838
  0
LINE
  8
別途部材
  6
CONTINUOUS
 10
-69.03152
 20
33.415838
 11
-77.031515
 21
33.415838
  0
LINE
  8
別途部材
  6
CONTINUOUS
 10
-77.031515
 20
-4.584165
 11
-77.031515
 21
33.415838
  0
ARC
  8
別途部材
  6
CONTINUOUS
 10
-73.031523
 20
-4.125834
 40
2.541667
 50
10.38896
 51
169.61104
  0
LINE
  8
別途部材
  6
CONTINUOUS
 10
-76.53152
 20
-4.584165
 11
-75.531515
 21
-4.584165
  0
LINE
  8
別途部材
  6
CONTINUOUS
 10
-69.531515
 20
-4.584165
 11
-70.53152
 21
-4.584165
  0
CIRCLE
  8
別途部材
  6
CONTINUOUS
 10
-73.03151
 20
29.41584
 40
0.999997
  0
LINE
  8
別途部材
  6
CONTINUOUS
 10
-74.031515
 20
29.41584
 11
-72.03152
 21
29.41584
  0
LINE
  8
別途部材
  6
CONTINUOUS
 10
-73.03151
 20
30.415838
 11
-73.03151
 21
28.415835
  0
ARC
  8
別途部材
  6
CONTINUOUS
 10
-73.031523
 20
30.957506
 40
2.541667
 50
190.38896
 51
349.61104
  0
LINE
  8
別途部材
  6
CONTINUOUS
 10
-76.53152
 20
31.415835
 11
-75.531515
 21
31.415835
  0
LINE
  8
別途部材
  6
CONTINUOUS
 10
-70.53152
 20
31.415835
 11
-69.531515
 21
31.415835
  0
LINE
  8
別途部材
  6
CONTINUOUS
 10
-75.531515
 20
-4.584165
 11
-75.531515
 21
31.415835
  0
LINE
  8
別途部材
  6
CONTINUOUS
 10
-76.53152
 20
-4.584165
 11
-76.53152
 21
31.415835
  0
LINE
  8
別途部材
  6
CONTINUOUS
 10
-70.53152
 20
-4.584165
 11
-70.53152
 21
31.415835
  0
LINE
  8
別途部材
  6
CONTINUOUS
 10
-69.531515
 20
-4.584165
 11
-69.531515
 21
31.415835
  0
ENDBLK
  0
BLOCK
  2
*GRP_0057
 70
    65
 10
0.0
 20
0.0
  0
LINE
  8
別途部材
  6
CONTINUOUS
 10
-73.03151
 20
45.415838
 11
-73.03151
 21
45.415838
  0
LINE
  8
別途部材
  6
CONTINUOUS
 10
-67.03151
 20
32.415833
 11
-64.531513
 21
32.415833
  0
LINE
  8
別途部材
  6
CONTINUOUS
 10
-73.03151
 20
45.915833
 11
-73.031517
 21
45.41583
  0
LINE
  8
別途部材
  6
CONTINUOUS
 10
-56.53151
 20
33.415838
 11
-64.531513
 21
33.415838
  0
ARC
  8
別途部材
  6
CONTINUOUS
 10
-57.531516
 20
-3.584164
 40
1.0
 50
270.0
 51
360.0
  0
LINE
  8
別途部材
  6
CONTINUOUS
 10
-63.531515
 20
-4.584165
 11
-57.531515
 21
-4.584165
  0
ARC
  8
別途部材
  6
CONTINUOUS
 10
-63.531516
 20
-3.584164
 40
1.0
 50
180.0
 51
270.0
  0
LINE
  8
別途部材
  6
CONTINUOUS
 10
-56.53151
 20
-3.584167
 11
-56.53151
 21
44.915835
  0
ARC
  8
別途部材
  6
CONTINUOUS
 10
-57.531516
 20
44.915836
 40
1.0
 50
0.0
 51
90.0
  0
LINE
  8
別途部材
  6
CONTINUOUS
 10
-64.531513
 20
-3.584167
 11
-64.531513
 21
44.915835
  0
ARC
  8
別途部材
  6
CONTINUOUS
 10
-63.531516
 20
44.915836
 40
1.0
 50
90.0
 51
180.0
  0
LINE
  8
別途部材
  6
CONTINUOUS
 10
-57.531515
 20
45.915833
 11
-73.03151
 21
45.915833
  0
LINE
  8
別途部材
  6
CONTINUOUS
 10
-62.23151
 20
26.415833
 11
-62.23151
 21
21.415838
  0
LINE
  8
別途部材
  6
CONTINUOUS
 10
-62.23151
 20
6.415838
 11
-62.23151
 21
1.415827
  0
POLYLINE
  8
別途部材
  6
CONTINUOUS
 66
     1
  0
VERTEX
  8
別途部材
 10
-64.531513
 20
27.915833
  0
VERTEX
  8
別途部材
 10
-62.23151
 20
26.415833
  0
VERTEX
  8
別途部材
 10
-56.53151
 20
26.415833
  0
SEQEND
  0
LINE
  8
別途部材
  6
CONTINUOUS
 10
-64.531513
 20
23.915827
 11
-56.53151
 21
23.915827
  0
POLYLINE
  8
別途部材
  6
CONTINUOUS
 66
     1
  0
VERTEX
  8
別途部材
 10
-64.531513
 20
19.915838
  0
VERTEX
  8
別途部材
 10
-62.23151
 20
21.415838
  0
VERTEX
  8
別途部材
 10
-56.53151
 20
21.415838
  0
SEQEND
  0
POLYLINE
  8
別途部材
  6
CONTINUOUS
 66
     1
  0
VERTEX
  8
別途部材
 10
-64.531513
 20
7.915838
  0
VERTEX
  8
別途部材
 10
-62.23151
 20
6.415838
  0
VERTEX
  8
別途部材
 10
-56.53151
 20
6.415838
  0
SEQEND
  0
LINE
  8
別途部材
  6
CONTINUOUS
 10
-64.531513
 20
3.915833
 11
-56.53151
 21
3.915833
  0
POLYLINE
  8
別途部材
  6
CONTINUOUS
 66
     1
  0
VERTEX
  8
別途部材
 10
-64.531513
 20
-0.084173
  0
VERTEX
  8
別途部材
 10
-62.23151
 20
1.415827
  0
VERTEX
  8
別途部材
 10
-56.53151
 20
1.415827
  0
SEQEND
  0
ENDBLK
  0
BLOCK
  2
*GRP_0058
 70
    65
 10
0.0
 20
0.0
  0
ARC
  8
型材断面
  6
CONTINUOUS
 62
    47
 10
-0.659265
 20
-4.883791
 40
0.199974
 50
270.0
 51
386.565051
  0
ARC
  8
型材断面
  6
CONTINUOUS
 62
    47
 10
3.987347
 20
-4.883791
 40
0.199974
 50
153.434949
 51
270.0
  0
LINE
  8
型材断面
  6
CONTINUOUS
 62
    47
 10
6.363455
 20
-5.083798
 11
3.987372
 21
-5.083798
  0
ARC
  8
型材断面
  6
CONTINUOUS
 62
    47
 10
6.363432
 20
-4.783804
 40
0.299961
 50
270.0
 51
360.0
  0
LINE
  8
型材断面
  6
CONTINUOUS
 62
    47
 10
-3.335275
 20
-3.884173
 11
-5.33527
 21
-3.884173
  0
LINE
  8
型材断面
  6
CONTINUOUS
 62
    47
 10
-25.031492
 20
-4.583795
 11
-25.031492
 21
-3.884173
  0
ARC
  8
型材断面
  6
CONTINUOUS
 62
    47
 10
-25.531495
 20
-4.583792
 40
0.5
 50
270.0
 51
360.0
  0
LINE
  8
型材断面
  6
CONTINUOUS
 62
    47
 10
-28.031492
 20
-5.083798
 11
-25.531495
 21
-5.083798
  0
LINE
  8
型材断面
  6
CONTINUOUS
 62
    47
 10
-28.531495
 20
-2.084173
 11
-28.531495
 21
-4.583795
  0
ARC
  8
型材断面
  6
CONTINUOUS
 62
    47
 10
-28.031495
 20
-4.583792
 40
0.5
 50
180.0
 51
270.0
  0
LINE
  8
型材断面
  6
CONTINUOUS
 62
    47
 10
-0.659253
 20
-5.083798
 11
-4.835275
 21
-5.083798
  0
LINE
  8
型材断面
  6
CONTINUOUS
 62
    47
 10
-5.33527
 20
-4.583795
 11
-5.33527
 21
-3.884173
  0
ARC
  8
型材断面
  6
CONTINUOUS
 62
    47
 10
-4.835275
 20
-4.583792
 40
0.5
 50
180.0
 51
270.0
  0
LINE
  8
型材断面
  6
CONTINUOUS
 62
    47
 10
-5.33527
 20
-1.19723
 11
-5.33527
 21
-2.084173
  0
LINE
  8
型材断面
  6
CONTINUOUS
 62
    47
 10
-3.335275
 20
-2.084173
 11
-5.33527
 21
-2.084173
  0
LINE
  8
型材断面
  6
CONTINUOUS
 62
    47
 10
-25.031492
 20
-0.16601
 11
-25.031492
 21
-2.084173
  0
LINE
  8
型材断面
  6
CONTINUOUS
 62
    47
 10
-3.335275
 20
-3.884173
 11
-3.335275
 21
-2.084173
  0
LINE
  8
型材断面
  6
CONTINUOUS
 62
    47
 10
-14.183388
 20
-2.084173
 11
-16.183382
 21
-2.084173
  0
LINE
  8
型材断面
  6
CONTINUOUS
 62
    47
 10
-14.183388
 20
-2.084173
 11
-14.183388
 21
-0.733978
  0
LINE
  8
型材断面
  6
CONTINUOUS
 62
    47
 10
-16.183382
 20
-2.084173
 11
-16.183382
 21
-0.629263
  0
LINE
  8
型材断面
  6
CONTINUOUS
 62
    47
 10
-25.031492
 20
-0.16601
 11
-16.183382
 21
-0.629263
  0
LINE
  8
型材断面
  6
CONTINUOUS
 62
    47
 10
6.663425
 20
-4.78382
 11
6.663425
 21
-1.82543
  0
LINE
  8
型材断面
  6
CONTINUOUS
 62
    47
 10
-14.183388
 20
-0.733978
 11
-5.33527
 21
-1.19723
  0
LINE
  8
型材断面
  6
CONTINUOUS
 62
    47
 10
5.18156
 20
-2.048255
 11
-2.042552
 21
-1.67003
  0
LINE
  8
型材断面
  6
CONTINUOUS
 62
    47
 10
-0.480378
 20
-4.794373
 11
-2.042552
 21
-1.67003
  0
LINE
  8
型材断面
  6
CONTINUOUS
 62
    47
 10
3.808497
 20
-4.794373
 11
5.18156
 21
-2.048255
  0
LINE
  8
型材断面
  6
CONTINUOUS
 62
    47
 10
-25.031492
 20
-2.084173
 11
-27.031495
 21
-2.084173
  0
LINE
  8
型材断面
  6
CONTINUOUS
 62
    47
 10
-27.031495
 20
-2.084173
 11
-27.031495
 21
-3.884173
  0
LINE
  8
型材断面
  6
CONTINUOUS
 62
    47
 10
-25.031492
 20
-3.884173
 11
-27.031495
 21
-3.884173
  0
LINE
  8
型材断面
  6
CONTINUOUS
 62
    47
 10
1.960362
 20
0.123137
 11
1.676457
 21
0.438415
  0
LINE
  8
型材断面
  6
CONTINUOUS
 62
    47
 10
1.960362
 20
0.123137
 11
2.275633
 21
0.407042
  0
LINE
  8
型材断面
  6
CONTINUOUS
 62
    47
 10
-26.531492
 20
1.915263
 11
1.676457
 21
0.438415
  0
LINE
  8
型材断面
  6
CONTINUOUS
 62
    47
 10
-55.031492
 20
-4.783798
 11
-55.031492
 21
-2.084173
  0
ARC
  8
型材断面
  6
CONTINUOUS
 62
    47
 10
-55.331495
 20
-4.783792
 40
0.3
 50
270.0
 51
360.0
  0
LINE
  8
型材断面
  6
CONTINUOUS
 62
    47
 10
-56.231492
 20
-5.083798
 11
-55.331492
 21
-5.083798
  0
ARC
  8
型材断面
  6
CONTINUOUS
 62
    47
 10
-56.231495
 20
-4.783792
 40
0.3
 50
180.0
 51
270.0
  0
LINE
  8
型材断面
  6
CONTINUOUS
 62
    47
 10
-28.531495
 20
-2.084173
 11
-55.031492
 21
-2.084173
  0
LINE
  8
型材断面
  6
CONTINUOUS
 62
    47
 10
-26.831492
 20
33.715285
 11
-26.531492
 21
34.015285
  0
LINE
  8
型材断面
  6
CONTINUOUS
 62
    47
 10
-26.831492
 20
33.715285
 11
-26.531492
 21
33.415285
  0
LINE
  8
型材断面
  6
CONTINUOUS
 62
    47
 10
-26.831492
 20
14.448355
 11
-26.531492
 21
14.748355
  0
LINE
  8
型材断面
  6
CONTINUOUS
 62
    47
 10
-26.831492
 20
14.448355
 11
-26.531492
 21
14.148355
  0
LINE
  8
型材断面
  6
CONTINUOUS
 62
    47
 10
-26.531492
 20
1.915263
 11
-26.531492
 21
14.148355
  0
LINE
  8
型材断面
  6
CONTINUOUS
 62
    47
 10
-26.531492
 20
14.748355
 11
-26.531492
 21
33.415285
  0
LINE
  8
型材断面
  6
CONTINUOUS
 62
    47
 10
-54.53149
 20
47.91583
 11
-64.531495
 21
47.91583
  0
LINE
  8
型材断面
  6
CONTINUOUS
 62
    47
 10
-56.531492
 20
45.915827
 11
-66.53149
 21
45.915827
  0
LINE
  8
型材断面
  6
CONTINUOUS
 62
    47
 10
-64.531495
 20
52.815827
 11
-64.531495
 21
47.91583
  0
LINE
  8
型材断面
  6
CONTINUOUS
 62
    47
 10
-28.531495
 20
52.815827
 11
-64.531495
 21
52.815827
  0
LINE
  8
型材断面
  6
CONTINUOUS
 62
    47
 10
-41.63119
 20
55.815302
 11
-41.63119
 21
54.81583
  0
LINE
  8
型材断面
  6
CONTINUOUS
 62
    47
 10
-46.531488
 20
85.612075
 11
-46.831488
 21
85.912075
  0
LINE
  8
型材断面
  6
CONTINUOUS
 62
    47
 10
-46.531488
 20
85.612075
 11
-46.231488
 21
85.912075
  0
LINE
  8
型材断面
  6
CONTINUOUS
 62
    47
 10
-46.835065
 20
85.915645
 11
-56.531492
 21
85.915645
  0
LINE
  8
型材断面
  6
CONTINUOUS
 62
    47
 10
-56.03149
 20
84.412045
 11
-56.531492
 21
84.912047
  0
LINE
  8
型材断面
  6
CONTINUOUS
 62
    47
 10
-51.031495
 20
82.915645
 11
-52.527895
 21
84.412045
  0
LINE
  8
型材断面
  6
CONTINUOUS
 62
    47
 10
-56.03149
 20
84.412045
 11
-52.527895
 21
84.412045
  0
LINE
  8
型材断面
  6
CONTINUOUS
 62
    47
 10
-56.531492
 20
85.915645
 11
-56.531492
 21
84.912047
  0
LINE
  8
型材断面
  6
CONTINUOUS
 62
    47
 10
-56.731142
 20
54.81583
 11
-65.531492
 21
54.81583
  0
LINE
  8
型材断面
  6
CONTINUOUS
 62
    47
 10
-57.631188
 20
54.81583
 11
-65.531492
 21
54.81583
  0
LINE
  8
型材断面
  6
CONTINUOUS
 62
    47
 10
-34.631192
 20
64.364523
 11
-34.631192
 21
84.415645
  0
LINE
  8
型材断面
  6
CONTINUOUS
 62
    47
 10
-40.13119
 20
54.81583
 11
-40.13119
 21
56.815825
  0
LINE
  8
型材断面
  6
CONTINUOUS
 62
    47
 10
-41.63119
 20
54.81583
 11
-41.63119
 21
56.815825
  0
LINE
  8
型材断面
  6
CONTINUOUS
 62
    47
 10
-40.13119
 20
56.815825
 11
-41.63119
 21
56.815825
  0
LINE
  8
型材断面
  6
CONTINUOUS
 62
    47
 10
-40.13119
 20
68.61379
 11
-41.63119
 21
68.61379
  0
LINE
  8
型材断面
  6
CONTINUOUS
 62
    47
 10
-36.631188
 20
54.81583
 11
-40.13119
 21
54.81583
  0
LINE
  8
型材断面
  6
CONTINUOUS
 62
    47
 10
-55.231142
 20
54.81583
 11
-41.63119
 21
54.81583
  0
LINE
  8
型材断面
  6
CONTINUOUS
 62
    47
 10
-51.031495
 20
82.915645
 11
-36.631188
 21
82.915645
  0
LINE
  8
型材断面
  6
CONTINUOUS
 62
    47
 10
-36.631188
 20
72.113793
 11
-36.631188
 21
82.915645
  0
LINE
  8
型材断面
  6
CONTINUOUS
 62
    47
 10
-34.931192
 20
62.714815
 11
-34.631192
 21
63.014815
  0
LINE
  8
型材断面
  6
CONTINUOUS
 62
    47
 10
-34.931192
 20
62.714815
 11
-34.631192
 21
62.414815
  0
LINE
  8
型材断面
  6
CONTINUOUS
 62
    47
 10
-34.631192
 20
65.315305
 11
-34.631192
 21
63.014815
  0
LINE
  8
型材断面
  6
CONTINUOUS
 62
    47
 10
-30.53149
 20
85.912068
 11
-30.53149
 21
84.415645
  0
LINE
  8
型材断面
  6
CONTINUOUS
 62
    47
 10
-34.631192
 20
84.415645
 11
-30.53149
 21
84.415645
  0
LINE
  8
型材断面
  6
CONTINUOUS
 62
    47
 10
-56.531492
 20
-4.783798
 11
-56.531492
 21
45.915827
  0
LINE
  8
型材断面
  6
CONTINUOUS
 62
    47
 10
-54.53149
 20
46.41583
 11
-54.53149
 21
-0.08417
  0
LINE
  8
型材断面
  6
CONTINUOUS
 62
    47
 10
-28.531495
 20
52.815827
 11
-28.531495
 21
-0.08417
  0
LINE
  8
型材断面
  6
CONTINUOUS
 62
    47
 10
-67.531495
 20
53.815825
 11
-66.53149
 21
53.815825
  0
LINE
  8
型材断面
  6
CONTINUOUS
 62
    47
 10
-66.53149
 20
45.915827
 11
-66.53149
 21
53.815825
  0
LINE
  8
型材断面
  6
CONTINUOUS
 62
    47
 10
-65.531492
 20
54.81583
 11
-66.53149
 21
54.81583
  0
LINE
  8
型材断面
  6
CONTINUOUS
 62
    47
 10
-34.631192
 20
62.414815
 11
-34.631192
 21
54.915827
  0
LINE
  8
型材断面
  6
CONTINUOUS
 62
    47
 10
-34.631192
 20
54.915827
 11
-26.531492
 21
54.915827
  0
LINE
  8
型材断面
  6
CONTINUOUS
 62
    47
 10
-26.531492
 20
34.015285
 11
-26.531492
 21
54.915827
  0
LINE
  8
型材断面
  6
CONTINUOUS
 62
    47
 10
-67.531495
 20
53.815825
 11
-67.531495
 21
55.915825
  0
LINE
  8
型材断面
  6
CONTINUOUS
 62
    47
 10
-67.531495
 20
55.915825
 11
-66.53149
 21
55.915825
  0
LINE
  8
型材断面
  6
CONTINUOUS
 62
    47
 10
-66.53149
 20
54.81583
 11
-66.53149
 21
55.915825
  0
ARC
  8
型材断面
  6
CONTINUOUS
 62
    47
 10
11.172785
 20
-4.773334
 40
0.299961
 50
270.0
 51
360.0
  0
LINE
  8
型材断面
  6
CONTINUOUS
 62
    47
 10
9.773
 20
-5.073327
 11
11.1728
 21
-5.073327
  0
ARC
  8
型材断面
  6
CONTINUOUS
 62
    47
 10
9.772966
 20
-4.773334
 40
0.299961
 50
180.0
 51
270.0
  0
LINE
  8
型材断面
  6
CONTINUOUS
 62
    47
 10
11.472777
 20
-4.77335
 11
11.472777
 21
-0.07448
  0
LINE
  8
型材断面
  6
CONTINUOUS
 62
    47
 10
9.473022
 20
-4.77335
 11
9.473022
 21
-1.972535
  0
LINE
  8
型材断面
  6
CONTINUOUS
 62
    47
 10
2.275633
 20
0.407042
 11
11.472777
 21
-0.07448
  0
LINE
  8
型材断面
  6
CONTINUOUS
 62
    47
 10
6.663425
 20
-1.82543
 11
9.473022
 21
-1.972535
  0
LINE
  8
型材断面
  6
CONTINUOUS
 62
    47
 10
-47.23198
 20
70.313793
 11
-41.63119
 21
70.313793
  0
LINE
  8
型材断面
  6
CONTINUOUS
 62
    47
 10
-36.631188
 20
70.313793
 11
-40.13119
 21
70.313793
  0
LINE
  8
型材断面
  6
CONTINUOUS
 62
    47
 10
-36.631188
 20
54.81583
 11
-36.631188
 21
70.313793
  0
LINE
  8
型材断面
  6
CONTINUOUS
 62
    47
 10
-40.13119
 20
68.61379
 11
-40.13119
 21
70.313793
  0
LINE
  8
型材断面
  6
CONTINUOUS
 62
    47
 10
-41.63119
 20
68.61379
 11
-41.63119
 21
70.313793
  0
ARC
  8
型材断面
  6
CONTINUOUS
 62
    47
 10
-49.93198
 20
70.713794
 40
0.1
 50
135.0
 51
270.0
  0
LINE
  8
型材断面
  6
CONTINUOUS
 62
    47
 10
-48.73198
 20
70.613793
 11
-49.93198
 21
70.613793
  0
LINE
  8
型材断面
  6
CONTINUOUS
 62
    47
 10
-50.00269
 20
70.7845
 11
-48.673405
 21
72.113793
  0
LINE
  8
型材断面
  6
CONTINUOUS
 62
    47
 10
-48.73198
 20
70.613793
 11
-49.93198
 21
70.613793
  0
LINE
  8
型材断面
  6
CONTINUOUS
 62
    47
 10
-36.631188
 20
72.113793
 11
-48.673405
 21
72.113793
  0
LINE
  8
型材断面
  6
CONTINUOUS
 62
    47
 10
-47.23198
 20
70.313793
 11
-47.232025
 21
62.31379
  0
LINE
  8
型材断面
  6
CONTINUOUS
 62
    47
 10
-48.73198
 20
70.6138
 11
-48.732025
 21
62.31379
  0
LINE
  8
型材断面
  6
CONTINUOUS
 62
    47
 10
-48.732025
 20
62.31379
 11
-47.232025
 21
62.31379
  0
LINE
  8
型材断面
  6
CONTINUOUS
 62
    47
 10
-55.231142
 20
54.81583
 11
-55.231142
 21
57.115825
  0
ARC
  8
型材断面
  6
CONTINUOUS
 62
    47
 10
-53.83114
 20
57.215829
 40
0.1
 50
270.0
 51
405.0
  0
LINE
  8
型材断面
  6
CONTINUOUS
 62
    47
 10
-55.231142
 20
57.115825
 11
-53.83114
 21
57.115825
  0
LINE
  8
型材断面
  6
CONTINUOUS
 62
    47
 10
-53.76043
 20
57.28654
 11
-55.089722
 21
58.615825
  0
LINE
  8
型材断面
  6
CONTINUOUS
 62
    47
 10
-55.089722
 20
58.615825
 11
-56.731142
 21
58.615825
  0
LINE
  8
型材断面
  6
CONTINUOUS
 62
    47
 10
-56.731142
 20
54.81583
 11
-56.731142
 21
58.615825
  0
LINE
  8
型材断面
  6
CONTINUOUS
 62
    47
 10
-64.031492
 20
47.91583
 11
-48.53149
 21
47.91583
  0
LINE
  8
型材断面
  6
CONTINUOUS
 62
    47
 10
-48.53149
 20
47.91583
 11
-48.53149
 21
44.415827
  0
LINE
  8
型材断面
  6
CONTINUOUS
 62
    47
 10
-48.53149
 20
44.415827
 11
-50.03149
 21
44.415827
  0
LINE
  8
型材断面
  6
CONTINUOUS
 62
    47
 10
-50.03149
 20
44.415827
 11
-50.03149
 21
46.41583
  0
LINE
  8
型材断面
  6
CONTINUOUS
 62
    47
 10
-54.53149
 20
46.41583
 11
-50.03149
 21
46.41583
  0
LINE
  8
型材断面
  6
CONTINUOUS
 62
    47
 10
-48.53149
 20
-0.08417
 11
-48.53149
 21
1.41583
  0
LINE
  8
型材断面
  6
CONTINUOUS
 62
    47
 10
-50.03149
 20
-0.08417
 11
-50.03149
 21
1.41583
  0
LINE
  8
型材断面
  6
CONTINUOUS
 62
    47
 10
-28.531495
 20
-0.08417
 11
-48.53149
 21
-0.08417
  0
LINE
  8
型材断面
  6
CONTINUOUS
 62
    47
 10
-54.53149
 20
-0.08417
 11
-50.03149
 21
-0.08417
  0
LINE
  8
型材断面
  6
CONTINUOUS
 62
    47
 10
-30.53149
 20
85.912068
 11
-46.231495
 21
85.912068
  0
LINE
  8
寸法
  6
CONTINUOUS
 62
    47
 10
-48.53149
 20
1.41583
 11
-50.03149
 21
1.41583
  0
ENDBLK
  0
BLOCK
  2
*GRP_0059
 70
    65
 10
0.0
 20
0.0
  0
LINE
  8
型材断面
  6
CONTINUOUS
 62
    47
 10
-22.127913
 20
-11.08433
 11
-2.43046
 21
-11.08433
  0
LINE
  8
型材断面
  6
CONTINUOUS
 62
    47
 10
-22.127913
 20
-11.08433
 11
-2.43046
 21
-11.08433
  0
LINE
  8
型材断面
  6
CONTINUOUS
 62
    47
 10
-26.62687
 20
-11.08433
 11
-30.426648
 21
-11.08433
  0
ARC
  8
型材断面
  6
CONTINUOUS
 62
    47
 10
-33.127413
 20
-9.384489
 40
0.299961
 50
0.0
 51
90.0
  0
LINE
  8
型材断面
  6
CONTINUOUS
 62
    47
 10
-33.7273
 20
-9.084552
 11
-33.127375
 21
-9.084552
  0
ARC
  8
型材断面
  6
CONTINUOUS
 62
    47
 10
-33.727335
 20
-9.384489
 40
0.299961
 50
90.0
 51
180.0
  0
LINE
  8
型材断面
  6
CONTINUOUS
 62
    47
 10
-32.82742
 20
-9.3845
 11
-32.82742
 21
-11.0843
  0
LINE
  8
型材断面
  6
CONTINUOUS
 62
    47
 10
-34.027247
 20
-9.3845
 11
-34.027247
 21
-11.0843
  0
LINE
  8
型材断面
  6
CONTINUOUS
 62
    47
 10
-17.22352
 20
-11.0843
 11
-32.82742
 21
-11.0843
  0
LINE
  8
型材断面
  6
CONTINUOUS
 62
    47
 10
-30.728118
 20
-11.0843
 11
-32.82742
 21
-11.0843
  0
ARC
  8
型材断面
  6
CONTINUOUS
 62
    47
 10
-55.3315
 20
-9.384546
 40
0.3
 50
0.0
 51
90.0
  0
LINE
  8
型材断面
  6
CONTINUOUS
 62
    47
 10
-56.2315
 20
-9.084552
 11
-55.3315
 21
-9.084552
  0
ARC
  8
型材断面
  6
CONTINUOUS
 62
    47
 10
-56.2315
 20
-9.384546
 40
0.3
 50
90.0
 51
180.0
  0
LINE
  8
型材断面
  6
CONTINUOUS
 62
    47
 10
-55.0315
 20
-11.0843
 11
-55.0315
 21
-9.384552
  0
LINE
  8
型材断面
  6
CONTINUOUS
 62
    47
 10
-34.027247
 20
-11.0843
 11
-55.0315
 21
-11.0843
  0
LINE
  8
型材断面
  6
CONTINUOUS
 62
    47
 10
-32.827247
 20
-32.0846
 11
-32.527247
 21
-31.7846
  0
LINE
  8
型材断面
  6
CONTINUOUS
 62
    47
 10
-32.827247
 20
-32.0846
 11
-32.527247
 21
-32.3846
  0
LINE
  8
型材断面
  6
CONTINUOUS
 62
    47
 10
-32.827247
 20
-46.08482
 11
-32.527247
 21
-45.78482
  0
LINE
  8
型材断面
  6
CONTINUOUS
 62
    47
 10
-32.827247
 20
-46.08482
 11
-32.527247
 21
-46.38482
  0
LINE
  8
型材断面
  6
CONTINUOUS
 62
    47
 10
-32.527247
 20
-13.084055
 11
-32.527247
 21
-31.7846
  0
LINE
  8
型材断面
  6
CONTINUOUS
 62
    47
 10
-32.527247
 20
-32.3846
 11
-32.527247
 21
-45.78482
  0
LINE
  8
型材断面
  6
CONTINUOUS
 62
    47
 10
1.672745
 20
-11.38433
 11
1.372745
 21
-11.08433
  0
LINE
  8
型材断面
  6
CONTINUOUS
 62
    47
 10
1.672745
 20
-11.38433
 11
1.972745
 21
-11.08433
  0
LINE
  8
型材断面
  6
CONTINUOUS
 62
    47
 10
-9.230275
 20
-11.08433
 11
1.372745
 21
-11.08433
  0
LINE
  8
型材断面
  6
CONTINUOUS
 62
    47
 10
-56.5315
 20
-65.0843
 11
-80.031498
 21
-65.0843
  0
LINE
  8
型材断面
  6
CONTINUOUS
 62
    47
 10
18.473
 20
-95.084338
 11
16.973
 21
-95.084338
  0
LINE
  8
型材断面
  6
CONTINUOUS
 62
    47
 10
16.973
 20
-95.084338
 11
16.973
 21
-85.084235
  0
LINE
  8
型材断面
  6
CONTINUOUS
 62
    47
 10
33.472753
 20
-70.084303
 11
33.472753
 21
-85.084355
  0
LINE
  8
型材断面
  6
CONTINUOUS
 62
    47
 10
18.473
 20
-95.084338
 11
18.473
 21
-85.084355
  0
ARC
  8
型材断面
  6
CONTINUOUS
 62
    47
 10
-40.631272
 20
-83.584353
 40
0.5
 50
0.0
 51
90.0
  0
LINE
  8
型材断面
  6
CONTINUOUS
 62
    47
 10
-40.131272
 20
-83.584355
 11
-40.131272
 21
-84.584232
  0
ARC
  8
型材断面
  6
CONTINUOUS
 62
    47
 10
-40.631272
 20
-84.584228
 40
0.5
 50
270.0
 51
360.0
  0
LINE
  8
型材断面
  6
CONTINUOUS
 62
    47
 10
31.47275
 20
-83.08436
 11
31.47275
 21
-71.93852
  0
LINE
  8
型材断面
  6
CONTINUOUS
 62
    47
 10
-52.52725
 20
-83.08436
 11
-52.52725
 21
-67.084303
  0
LINE
  8
型材断面
  6
CONTINUOUS
 62
    47
 10
-40.631275
 20
-83.08436
 11
-52.52725
 21
-83.08436
  0
LINE
  8
型材断面
  6
CONTINUOUS
 62
    47
 10
33.472753
 20
-70.084303
 11
-32.527247
 21
-65.0843
  0
LINE
  8
型材断面
  6
CONTINUOUS
 62
    47
 10
-54.531498
 20
-65.0843
 11
-34.52725
 21
-65.0843
  0
ARC
  8
型材断面
  6
CONTINUOUS
 62
    47
 10
7.368728
 20
-83.584353
 40
0.5
 50
90.0
 51
180.0
  0
LINE
  8
型材断面
  6
CONTINUOUS
 62
    47
 10
6.868722
 20
-83.584355
 11
6.868722
 21
-84.584232
  0
ARC
  8
型材断面
  6
CONTINUOUS
 62
    47
 10
7.368728
 20
-84.584228
 40
0.5
 50
180.0
 51
270.0
  0
LINE
  8
型材断面
  6
CONTINUOUS
 62
    47
 10
16.973
 20
-85.084235
 11
7.368725
 21
-85.084235
  0
LINE
  8
型材断面
  6
CONTINUOUS
 62
    47
 10
31.47275
 20
-83.08436
 11
7.368725
 21
-83.08436
  0
LINE
  8
型材断面
  6
CONTINUOUS
 62
    47
 10
-32.827247
 20
-62.0843
 11
-32.527247
 21
-61.7843
  0
LINE
  8
型材断面
  6
CONTINUOUS
 62
    47
 10
-32.827247
 20
-62.0843
 11
-32.527247
 21
-62.3843
  0
LINE
  8
型材断面
  6
CONTINUOUS
 62
    47
 10
-32.527247
 20
-65.0843
 11
-32.527247
 21
-62.3843
  0
LINE
  8
型材断面
  6
CONTINUOUS
 62
    47
 10
31.47275
 20
-71.93852
 11
-32.602892
 21
-67.084303
  0
LINE
  8
型材断面
  6
CONTINUOUS
 62
    47
 10
-56.5315
 20
-9.384545
 11
-56.5315
 21
-65.0843
  0
LINE
  8
型材断面
  6
CONTINUOUS
 62
    47
 10
-32.527247
 20
-46.38482
 11
-32.527247
 21
-61.7843
  0
LINE
  8
型材断面
  6
CONTINUOUS
 62
    47
 10
-34.52725
 20
-13.084303
 11
-54.531498
 21
-13.084303
  0
LINE
  8
型材断面
  6
CONTINUOUS
 62
    47
 10
-34.52725
 20
-65.0843
 11
-34.52725
 21
-13.084303
  0
LINE
  8
型材断面
  6
CONTINUOUS
 62
    47
 10
-54.531498
 20
-65.0843
 11
-54.531498
 21
-13.084303
  0
LINE
  8
型材断面
  6
CONTINUOUS
 62
    47
 10
-32.602892
 20
-67.084303
 11
-52.52725
 21
-67.084303
  0
LINE
  8
型材断面
  6
CONTINUOUS
 62
    47
 10
-54.527253
 20
-67.084303
 11
-81.531498
 21
-67.084303
  0
LINE
  8
型材断面
  6
CONTINUOUS
 62
    47
 10
-54.527253
 20
-85.084235
 11
-54.527253
 21
-67.084303
  0
LINE
  8
型材断面
  6
CONTINUOUS
 62
    47
 10
-44.12701
 20
-84.784235
 11
-44.42701
 21
-85.084235
  0
LINE
  8
型材断面
  6
CONTINUOUS
 62
    47
 10
-44.12701
 20
-84.784235
 11
-43.82701
 21
-85.084235
  0
LINE
  8
型材断面
  6
CONTINUOUS
 62
    47
 10
-40.631275
 20
-85.084235
 11
-43.82701
 21
-85.084235
  0
LINE
  8
型材断面
  6
CONTINUOUS
 62
    47
 10
-54.527253
 20
-85.084235
 11
-44.42701
 21
-85.084235
  0
LINE
  8
型材断面
  6
CONTINUOUS
 62
    47
 10
24.472753
 20
-84.784355
 11
24.172753
 21
-85.084355
  0
LINE
  8
型材断面
  6
CONTINUOUS
 62
    47
 10
24.472753
 20
-84.784355
 11
24.772753
 21
-85.084355
  0
LINE
  8
型材断面
  6
CONTINUOUS
 62
    47
 10
18.473
 20
-85.084355
 11
24.172753
 21
-85.084355
  0
LINE
  8
型材断面
  6
CONTINUOUS
 62
    47
 10
33.472753
 20
-85.084355
 11
24.772753
 21
-85.084355
  0
ARC
  8
型材断面
  6
CONTINUOUS
 62
    47
 10
11.172743
 20
-9.384519
 40
0.299961
 50
0.0
 51
90.0
  0
LINE
  8
型材断面
  6
CONTINUOUS
 62
    47
 10
10.572838
 20
-9.084583
 11
11.172762
 21
-9.084583
  0
ARC
  8
型材断面
  6
CONTINUOUS
 62
    47
 10
10.57282
 20
-9.384519
 40
0.299961
 50
90.0
 51
180.0
  0
LINE
  8
型材断面
  6
CONTINUOUS
 62
    47
 10
10.27289
 20
-9.38453
 11
10.27289
 21
-11.08433
  0
LINE
  8
型材断面
  6
CONTINUOUS
 62
    47
 10
11.47274
 20
-9.38453
 11
11.47274
 21
-13.084055
  0
LINE
  8
型材断面
  6
CONTINUOUS
 62
    47
 10
-32.527247
 20
-13.084055
 11
11.47274
 21
-13.084055
  0
LINE
  8
型材断面
  6
CONTINUOUS
 62
    47
 10
1.972745
 20
-11.08433
 11
10.27289
 21
-11.08433
  0
LINE
  8
型材断面
  6
CONTINUOUS
 62
    47
 10
-80.031498
 20
-65.0843
 11
-80.031498
 21
-57.084305
  0
LINE
  8
型材断面
  6
CONTINUOUS
 62
    47
 10
-81.531498
 20
-67.084303
 11
-81.531498
 21
-57.084305
  0
LINE
  8
St
  6
DASHDOT
 62
    47
 10
-80.031498
 20
-57.084305
 11
-81.531498
 21
-57.084305
  0
ENDBLK
  0
BLOCK
  2
*GRP_0060
 70
    65
 10
0.0
 20
0.0
  0
POLYLINE
  8
寸法
  6
BYBLOCK
 62
     0
 66
     1
  0
VERTEX
  8
寸法
 10
-79.03151
 20
17.415838
  0
VERTEX
  8
寸法
 10
-89.735885
 20
6.711463
  0
VERTEX
  8
寸法
 10
-94.923845
 20
6.711463
  0
SEQEND
  0
ENDBLK
  0
BLOCK
  2
*GRP_0061
 70
    65
 10
0.0
 20
0.0
  0
POLYLINE
  8
寸法
  6
BYBLOCK
 62
     0
 66
     1
  0
VERTEX
  8
寸法
 10
-79.03151
 20
-34.57996
  0
VERTEX
  8
寸法
 10
-89.735885
 20
-45.284335
  0
VERTEX
  8
寸法
 10
-94.923845
 20
-45.284335
  0
SEQEND
  0
ENDBLK
  0
BLOCK
  2
*GRP_0062
 70
    65
 10
0.0
 20
0.0
  0
LINE
  8
ボルト／ビス
  6
CONTINUOUS
 10
-64.531513
 20
19.91583
 11
-62.23151
 21
21.41583
  0
LINE
  8
ボルト／ビス
  6
CONTINUOUS
 10
-64.531513
 20
27.915825
 11
-62.23151
 21
26.415825
  0
LINE
  8
ボルト／ビス
  6
CONTINUOUS
 10
-64.531513
 20
19.91583
 11
-64.531513
 21
27.915825
  0
LINE
  8
ボルト／ビス
  6
CONTINUOUS
 10
-62.23151
 20
21.41583
 11
-62.23151
 21
26.415825
  0
LINE
  8
ボルト／ビス
  6
CONTINUOUS
 10
-66.916715
 20
23.915827
 11
-49.531513
 21
23.915827
  0
LINE
  8
ボルト／ビス
  6
CONTINUOUS
 10
-50.031515
 20
21.41583
 11
-49.531513
 21
21.915825
  0
LINE
  8
ボルト／ビス
  6
CONTINUOUS
 10
-50.031515
 20
26.415825
 11
-49.531513
 21
25.91583
  0
LINE
  8
ボルト／ビス
  6
CONTINUOUS
 10
-49.531513
 20
25.91583
 11
-49.531513
 21
21.915825
  0
LINE
  8
ボルト／ビス
  6
CONTINUOUS
 10
-50.031515
 20
26.415825
 11
-50.031515
 21
21.41583
  0
LINE
  8
ボルト／ビス
  6
CONTINUOUS
 10
-62.23151
 20
21.915825
 11
-49.531513
 21
21.915825
  0
LINE
  8
ボルト／ビス
  6
CONTINUOUS
 10
-62.23151
 20
25.91583
 11
-49.531513
 21
25.91583
  0
LINE
  8
ボルト／ビス
  6
CONTINUOUS
 10
-62.23151
 20
26.415825
 11
-50.031515
 21
26.415825
  0
LINE
  8
ボルト／ビス
  6
CONTINUOUS
 10
-62.23151
 20
21.41583
 11
-50.031515
 21
21.41583
  0
ENDBLK
  0
BLOCK
  2
*GRP_0063
 70
    65
 10
0.0
 20
0.0
  0
LINE
  8
ボルト／ビス
  6
CONTINUOUS
 10
-64.531513
 20
-0.08417
 11
-62.23151
 21
1.41583
  0
LINE
  8
ボルト／ビス
  6
CONTINUOUS
 10
-64.531513
 20
7.915825
 11
-62.23151
 21
6.415825
  0
LINE
  8
ボルト／ビス
  6
CONTINUOUS
 10
-64.531513
 20
-0.08417
 11
-64.531513
 21
7.915825
  0
LINE
  8
ボルト／ビス
  6
CONTINUOUS
 10
-62.23151
 20
1.41583
 11
-62.23151
 21
6.415825
  0
LINE
  8
ボルト／ビス
  6
CONTINUOUS
 10
-66.916715
 20
3.915827
 11
-49.531513
 21
3.915827
  0
LINE
  8
ボルト／ビス
  6
CONTINUOUS
 10
-50.031515
 20
1.41583
 11
-49.531513
 21
1.915825
  0
LINE
  8
ボルト／ビス
  6
CONTINUOUS
 10
-50.031515
 20
6.415825
 11
-49.531513
 21
5.91583
  0
LINE
  8
ボルト／ビス
  6
CONTINUOUS
 10
-49.531513
 20
5.91583
 11
-49.531513
 21
1.915825
  0
LINE
  8
ボルト／ビス
  6
CONTINUOUS
 10
-50.031515
 20
6.415825
 11
-50.031515
 21
1.41583
  0
LINE
  8
ボルト／ビス
  6
CONTINUOUS
 10
-62.23151
 20
1.915825
 11
-49.531513
 21
1.915825
  0
LINE
  8
ボルト／ビス
  6
CONTINUOUS
 10
-62.23151
 20
5.91583
 11
-49.531513
 21
5.91583
  0
LINE
  8
ボルト／ビス
  6
CONTINUOUS
 10
-62.23151
 20
6.415825
 11
-50.031515
 21
6.415825
  0
LINE
  8
ボルト／ビス
  6
CONTINUOUS
 10
-62.23151
 20
1.41583
 11
-50.031515
 21
1.41583
  0
ENDBLK
  0
BLOCK
  2
*GRP_0064
 70
    65
 10
0.0
 20
0.0
  0
LINE
  8
ボルト／ビス
  6
CONTINUOUS
 10
-64.531513
 20
-27.084295
 11
-62.23151
 21
-25.584295
  0
LINE
  8
ボルト／ビス
  6
CONTINUOUS
 10
-64.531513
 20
-19.0843
 11
-62.23151
 21
-20.5843
  0
LINE
  8
ボルト／ビス
  6
CONTINUOUS
 10
-64.531513
 20
-27.084295
 11
-64.531513
 21
-19.0843
  0
LINE
  8
ボルト／ビス
  6
CONTINUOUS
 10
-62.23151
 20
-25.584295
 11
-62.23151
 21
-20.5843
  0
LINE
  8
ボルト／ビス
  6
CONTINUOUS
 10
-66.916715
 20
-23.084297
 11
-49.531513
 21
-23.084297
  0
LINE
  8
ボルト／ビス
  6
CONTINUOUS
 10
-50.031515
 20
-25.584295
 11
-49.531513
 21
-25.0843
  0
LINE
  8
ボルト／ビス
  6
CONTINUOUS
 10
-50.031515
 20
-20.5843
 11
-49.531513
 21
-21.084295
  0
LINE
  8
ボルト／ビス
  6
CONTINUOUS
 10
-49.531513
 20
-21.084295
 11
-49.531513
 21
-25.0843
  0
LINE
  8
ボルト／ビス
  6
CONTINUOUS
 10
-50.031515
 20
-20.5843
 11
-50.031515
 21
-25.584295
  0
LINE
  8
ボルト／ビス
  6
CONTINUOUS
 10
-62.23151
 20
-25.0843
 11
-49.531513
 21
-25.0843
  0
LINE
  8
ボルト／ビス
  6
CONTINUOUS
 10
-62.23151
 20
-21.084295
 11
-49.531513
 21
-21.084295
  0
LINE
  8
ボルト／ビス
  6
CONTINUOUS
 10
-62.23151
 20
-20.5843
 11
-50.031515
 21
-20.5843
  0
LINE
  8
ボルト／ビス
  6
CONTINUOUS
 10
-62.23151
 20
-25.584295
 11
-50.031515
 21
-25.584295
  0
ENDBLK
  0
BLOCK
  2
*GRP_0065
 70
    65
 10
0.0
 20
0.0
  0
LINE
  8
ボルト／ビス
  6
CONTINUOUS
 10
-64.531513
 20
-47.084295
 11
-62.23151
 21
-45.584295
  0
LINE
  8
ボルト／ビス
  6
CONTINUOUS
 10
-64.531513
 20
-39.0843
 11
-62.23151
 21
-40.5843
  0
LINE
  8
ボルト／ビス
  6
CONTINUOUS
 10
-64.531513
 20
-47.084295
 11
-64.531513
 21
-39.0843
  0
LINE
  8
ボルト／ビス
  6
CONTINUOUS
 10
-62.23151
 20
-45.584295
 11
-62.23151
 21
-40.5843
  0
LINE
  8
ボルト／ビス
  6
CONTINUOUS
 10
-66.916715
 20
-43.084297
 11
-49.531513
 21
-43.084297
  0
LINE
  8
ボルト／ビス
  6
CONTINUOUS
 10
-50.031515
 20
-45.584295
 11
-49.531513
 21
-45.0843
  0
LINE
  8
ボルト／ビス
  6
CONTINUOUS
 10
-50.031515
 20
-40.5843
 11
-49.531513
 21
-41.084295
  0
LINE
  8
ボルト／ビス
  6
CONTINUOUS
 10
-49.531513
 20
-41.084295
 11
-49.531513
 21
-45.0843
  0
LINE
  8
ボルト／ビス
  6
CONTINUOUS
 10
-50.031515
 20
-40.5843
 11
-50.031515
 21
-45.584295
  0
LINE
  8
ボルト／ビス
  6
CONTINUOUS
 10
-62.23151
 20
-45.0843
 11
-49.531513
 21
-45.0843
  0
LINE
  8
ボルト／ビス
  6
CONTINUOUS
 10
-62.23151
 20
-41.084295
 11
-49.531513
 21
-41.084295
  0
LINE
  8
ボルト／ビス
  6
CONTINUOUS
 10
-62.23151
 20
-40.5843
 11
-50.031515
 21
-40.5843
  0
LINE
  8
ボルト／ビス
  6
CONTINUOUS
 10
-62.23151
 20
-45.584295
 11
-50.031515
 21
-45.584295
  0
ENDBLK
  0
BLOCK
  2
*GRP_0066
 70
    65
 10
0.0
 20
0.0
  0
LINE
  8
型材断面
  6
CONTINUOUS
 62
    47
 10
-76.128445
 20
72.813467
 11
-52.531502
 21
72.813467
  0
LINE
  8
型材断面
  6
CONTINUOUS
 62
    47
 10
-52.531502
 20
72.813467
 11
-52.531517
 21
56.81557
  0
LINE
  8
型材断面
  6
CONTINUOUS
 62
    47
 10
-76.128445
 20
72.113567
 11
-76.128445
 21
72.813467
  0
ARC
  8
型材断面
  6
CONTINUOUS
 62
    47
 10
-76.428405
 20
72.113587
 40
0.299961
 50
270.0
 51
360.0
  0
LINE
  8
型材断面
  6
CONTINUOUS
 62
    47
 10
-77.028325
 20
71.813628
 11
-76.428407
 21
71.81362
  0
ARC
  8
型材断面
  6
CONTINUOUS
 62
    47
 10
-77.028328
 20
72.113587
 40
0.299961
 50
180.0
 51
270.0
  0
LINE
  8
型材断面
  6
CONTINUOUS
 62
    47
 10
-77.32828
 20
74.51326
 11
-77.32828
 21
72.113575
  0
ARC
  8
型材断面
  6
CONTINUOUS
 62
    47
 10
-77.028328
 20
74.513277
 40
0.299961
 50
90.0
 51
180.0
  0
LINE
  8
型材断面
  6
CONTINUOUS
 62
    47
 10
-50.531747
 20
74.513275
 11
-50.531762
 21
70.313793
  0
LINE
  8
型材断面
  6
CONTINUOUS
 62
    47
 10
-50.831703
 20
74.813222
 11
-77.028333
 21
74.813222
  0
ARC
  8
型材断面
  6
CONTINUOUS
 62
    47
 10
-50.83172
 20
74.513277
 40
0.299961
 50
0.0
 51
90.0
  0
LINE
  8
型材断面
  6
CONTINUOUS
 62
    47
 10
-49.03195
 20
70.313793
 11
-50.531762
 21
70.313793
  0
ARC
  8
型材断面
  6
CONTINUOUS
 62
    47
 10
-49.031953
 20
70.013859
 40
0.299961
 50
0.0
 51
90.0
  0
LINE
  8
型材断面
  6
CONTINUOUS
 62
    47
 10
-49.03195
 20
68.813995
 11
-50.531755
 21
68.813995
  0
LINE
  8
型材断面
  6
CONTINUOUS
 62
    47
 10
-48.732003
 20
69.113973
 11
-48.731995
 21
70.013853
  0
ARC
  8
型材断面
  6
CONTINUOUS
 62
    47
 10
-49.031953
 20
69.113976
 40
0.299961
 50
270.0
 51
360.0
  0
LINE
  8
型材断面
  6
CONTINUOUS
 62
    47
 10
-50.531755
 20
55.115777
 11
-50.531755
 21
68.813995
  0
ARC
  8
型材断面
  6
CONTINUOUS
 62
    47
 10
-50.83172
 20
55.115788
 40
0.299961
 50
270.0
 51
360.0
  0
LINE
  8
型材断面
  6
CONTINUOUS
 62
    47
 10
-54.931172
 20
56.81557
 11
-52.531517
 21
56.81557
  0
ARC
  8
型材断面
  6
CONTINUOUS
 62
    47
 10
-54.931189
 20
56.515607
 40
0.299961
 50
90.0
 51
180.0
  0
ARC
  8
型材断面
  6
CONTINUOUS
 62
    47
 10
-54.931189
 20
55.115788
 40
0.299961
 50
180.0
 51
270.0
  0
LINE
  8
型材断面
  6
CONTINUOUS
 62
    47
 10
-55.231142
 20
56.515592
 11
-55.231157
 21
54.81583
  0
LINE
  8
型材断面
  6
CONTINUOUS
 62
    47
 10
-50.831703
 20
54.815822
 11
-55.231157
 21
54.81583
  0
ENDBLK
  0
BLOCK
  2
*GRP_0067
 70
    65
 10
0.0
 20
0.0
  0
LINE
  8
ゴム等
  6
CONTINUOUS
 10
-66.53149
 20
59.815825
 11
-66.53149
 21
54.81583
  0
LINE
  8
ゴム等
  6
CONTINUOUS
 10
-66.53149
 20
59.815825
 11
-56.531492
 21
59.815825
  0
LINE
  8
ゴム等
  6
CONTINUOUS
 10
-56.531492
 20
59.815825
 11
-56.531492
 21
54.81583
  0
LINE
  8
ゴム等
  6
CONTINUOUS
 10
-66.53149
 20
54.81583
 11
-56.531492
 21
54.81583
  0
LINE
  8
ゴム等
  6
CONTINUOUS
 10
-56.531492
 20
56.145947
 11
-57.86161
 21
54.81583
  0
LINE
  8
ゴム等
  6
CONTINUOUS
 10
-56.531492
 20
57.560162
 11
-59.275825
 21
54.81583
  0
LINE
  8
ゴム等
  6
CONTINUOUS
 10
-56.531492
 20
58.974378
 11
-60.69004
 21
54.81583
  0
LINE
  8
ゴム等
  6
CONTINUOUS
 10
-59.932683
 20
59.815825
 11
-64.932678
 21
54.81583
  0
LINE
  8
ゴム等
  6
CONTINUOUS
 10
-58.518468
 20
59.815825
 11
-63.51847
 21
54.81583
  0
LINE
  8
ゴム等
  6
CONTINUOUS
 10
-57.104252
 20
59.815825
 11
-62.104255
 21
54.81583
  0
LINE
  8
ゴム等
  6
CONTINUOUS
 10
-61.346897
 20
59.815825
 11
-66.346893
 21
54.81583
  0
LINE
  8
ゴム等
  6
CONTINUOUS
 10
-62.761113
 20
59.815825
 11
-66.53149
 21
56.045448
  0
LINE
  8
ゴム等
  6
CONTINUOUS
 10
-64.17532
 20
59.815825
 11
-66.53149
 21
57.459655
  0
LINE
  8
ゴム等
  6
CONTINUOUS
 10
-65.589535
 20
59.815825
 11
-66.53149
 21
58.87387
  0
ENDBLK
  0
BLOCK
  2
*GRP_0068
 70
    65
 10
0.0
 20
0.0
  0
LINE
  8
ゴム等
  6
CONTINUOUS
 10
-66.128448
 20
72.813467
 11
-76.128445
 21
72.813467
  0
LINE
  8
ゴム等
  6
CONTINUOUS
 10
-66.128448
 20
66.615827
 11
-76.128445
 21
66.615827
  0
LINE
  8
ゴム等
  6
CONTINUOUS
 10
-66.128448
 20
72.813467
 11
-66.128448
 21
66.615827
  0
LINE
  8
ゴム等
  6
CONTINUOUS
 10
-76.128445
 20
72.813467
 11
-76.128445
 21
66.615827
  0
LINE
  8
ゴム等
  6
CONTINUOUS
 10
-67.215212
 20
66.615827
 11
-66.128448
 21
67.702592
  0
LINE
  8
ゴム等
  6
CONTINUOUS
 10
-68.629428
 20
66.615827
 11
-66.128448
 21
69.116807
  0
LINE
  8
ゴム等
  6
CONTINUOUS
 10
-70.043642
 20
66.615827
 11
-66.128448
 21
70.531022
  0
LINE
  8
ゴム等
  6
CONTINUOUS
 10
-71.457857
 20
66.615827
 11
-66.128448
 21
71.94523
  0
LINE
  8
ゴム等
  6
CONTINUOUS
 10
-72.872073
 20
66.615827
 11
-66.674425
 21
72.813467
  0
LINE
  8
ゴム等
  6
CONTINUOUS
 10
-74.28628
 20
66.615827
 11
-68.08864
 21
72.813467
  0
LINE
  8
ゴム等
  6
CONTINUOUS
 10
-75.700495
 20
66.615827
 11
-69.502855
 21
72.813467
  0
LINE
  8
ゴム等
  6
CONTINUOUS
 10
-76.128445
 20
67.602093
 11
-70.91707
 21
72.813467
  0
LINE
  8
ゴム等
  6
CONTINUOUS
 10
-76.128445
 20
69.0163
 11
-72.331278
 21
72.813467
  0
LINE
  8
ゴム等
  6
CONTINUOUS
 10
-76.128445
 20
70.430515
 11
-73.745492
 21
72.813467
  0
LINE
  8
ゴム等
  6
CONTINUOUS
 10
-75.1597
 20
72.813467
 11
-76.128445
 21
71.844722
  0
ENDBLK
  0
BLOCK
  2
*DIM_0069
 70
    65
 10
0.0
 20
0.0
  0
LINE
  8
寸法
  6
CONTINUOUS
 10
-72.531495
 20
55.915825
 11
-141.446683
 21
55.915825
  0
LINE
  8
寸法
  6
CONTINUOUS
 10
-108.924193
 20
59.815825
 11
-141.446683
 21
59.815825
  0
LINE
  8
寸法
  6
CONTINUOUS
 10
-141.446683
 20
55.915825
 11
-141.446683
 21
59.815825
  0
POINT
  8
寸法
 10
-141.446683
 20
55.915825
  0
POINT
  8
寸法
 10
-141.446683
 20
59.815825
  0
TEXT
  7
TextStyle03
  8
寸法
  6
CONTINUOUS
 10
-141.825
 20
55.4125
  1
3.9
 40
3.0
 50
90.0
 72
     5
 11
-141.825
 21
60.2875
  0
ENDBLK
  0
BLOCK
  2
*DIM_0070
 70
    65
 10
0.0
 20
0.0
  0
LINE
  8
寸法
  6
CONTINUOUS
 10
-108.924193
 20
66.615825
 11
-141.446683
 21
66.615825
  0
LINE
  8
寸法
  6
CONTINUOUS
 10
-141.446683
 20
59.815825
 11
-141.446683
 21
66.615825
  0
POINT
  8
寸法
 10
-141.446683
 20
66.615825
  0
TEXT
  7
TextStyle03
  8
寸法
  6
CONTINUOUS
 10
-141.825
 20
60.7625
  1
6.8
 40
3.0
 50
90.0
 72
     5
 11
-141.825
 21
65.6375
  0
ENDBLK
  0
ENDSEC
  0
SECTION
  2
ENTITIES
  0
POLYLINE
  8
通り芯
  6
CONTINUOUS
 66
     1
 70
     1
  0
VERTEX
  8
通り芯
 10
-210.0
 20
-148.5
  0
VERTEX
  8
通り芯
 10
210.0
 20
-148.5
  0
VERTEX
  8
通り芯
 10
210.0
 20
148.5
  0
VERTEX
  8
通り芯
 10
-210.0
 20
148.5
  0
SEQEND
  0
INSERT
  2
*GRP_0001
  8
型材断面
  6
CONTINUOUS
 10
0.0
 20
0.0
  0
INSERT
  2
*GRP_0002
  8
型材断面
  6
CONTINUOUS
 62
    47
 10
0.0
 20
0.0
  0
LINE
  8
型材断面
  6
DASHDOT
 10
-66.53151
 20
91.919223
 11
-66.53151
 21
128.95056
  0
LINE
  8
型材断面
  6
DOT
 10
-34.527262
 20
-59.084297
 11
-32.527262
 21
-59.084297
  0
LINE
  8
型材断面
  6
DOT
 10
-34.527262
 20
-65.084297
 11
-32.527262
 21
-65.084297
  0
LINE
  8
型材断面
  6
DOT
 10
-33.027262
 20
-65.084297
 11
-33.027262
 21
-59.084297
  0
LINE
  8
型材断面
  6
DOT
 10
-33.527262
 20
-65.084297
 11
-33.527262
 21
-59.084297
  0
LINE
  8
型材断面
  6
DOT
 10
-34.027262
 20
-65.084297
 11
-34.027262
 21
-59.084297
  0
LINE
  8
型材断面
  6
DOT
 10
-56.53151
 20
-59.084297
 11
-54.53151
 21
-59.084297
  0
LINE
  8
型材断面
  6
DOT
 10
-56.53151
 20
-65.084297
 11
-54.53151
 21
-65.084297
  0
LINE
  8
型材断面
  6
DOT
 10
-55.03151
 20
-65.084297
 11
-55.03151
 21
-59.084297
  0
LINE
  8
型材断面
  6
DOT
 10
-55.53151
 20
-65.084297
 11
-55.53151
 21
-59.084297
  0
LINE
  8
型材断面
  6
DOT
 10
-56.03151
 20
-65.084297
 11
-56.03151
 21
-59.084297
  0
INSERT
  2
*GRP_0066
  8
型材断面
  6
CONTINUOUS
 10
0.0
 20
0.0
  0
INSERT
  2
*GRP_0003
  8
ガラス
  6
CONTINUOUS
 10
0.0
 20
0.0
  0
INSERT
  2
*GRP_0004
  8
ガラス
  6
CONTINUOUS
 10
0.0
 20
0.0
  0
INSERT
  2
*GRP_0005
  8
ガラス
  6
CONTINUOUS
 10
0.0
 20
0.0
  0
INSERT
  2
*GRP_0006
  8
ガラス
  6
CONTINUOUS
 10
0.0
 20
0.0
  0
INSERT
  2
*GRP_0007
  8
ゴム等
  6
CONTINUOUS
 10
0.0
 20
0.0
  0
INSERT
  2
*GRP_0008
  8
ゴム等
  6
CONTINUOUS
 10
0.0
 20
0.0
  0
INSERT
  2
*GRP_0009
  8
ゴム等
  6
CONTINUOUS
 10
0.0
 20
0.0
  0
INSERT
  2
*GRP_0067
  8
ゴム等
  6
CONTINUOUS
 10
0.0
 20
0.0
  0
INSERT
  2
*GRP_0010
  8
ボルト／ビス
  6
CONTINUOUS
 62
    64
 10
0.0
 20
0.0
  0
INSERT
  2
*GRP_0011
  8
ボルト／ビス
  6
CONTINUOUS
 62
    64
 10
0.0
 20
0.0
  0
INSERT
  2
*GRP_0012
  8
ボルト／ビス
  6
CONTINUOUS
 62
    64
 10
0.0
 20
0.0
  0
INSERT
  2
*GRP_0013
  8
ボルト／ビス
  6
CONTINUOUS
 62
    64
 10
0.0
 20
0.0
  0
INSERT
  2
*GRP_0014
  8
ボルト／ビス
  6
CONTINUOUS
 10
0.0
 20
0.0
  0
INSERT
  2
*GRP_0062
  8
ボルト／ビス
  6
CONTINUOUS
 10
0.0
 20
0.0
  0
INSERT
  2
*GRP_0063
  8
ボルト／ビス
  6
CONTINUOUS
 10
0.0
 20
0.0
  0
INSERT
  2
*GRP_0064
  8
ボルト／ビス
  6
CONTINUOUS
 10
0.0
 20
0.0
  0
INSERT
  2
*GRP_0065
  8
ボルト／ビス
  6
CONTINUOUS
 10
0.0
 20
0.0
  0
TEXT
  7
TextStyle03
  8
文字
  6
CONTINUOUS
 10
86.675
 20
85.425
  1
ＮＳコード：ＮＳＨＺ
 40
5.0
 72
     5
 11
142.3
 21
85.425
  0
TEXT
  7
TextStyle03
  8
文字
  6
CONTINUOUS
 10
-138.075
 20
128.95
  1
呼称寸法
 40
3.0
 72
     5
 11
-124.95
 21
128.95
  0
TEXT
  7
TextStyle03
  8
文字
  6
CONTINUOUS
 10
-139.825
 20
122.45
  1
有効開口寸法
 40
3.0
 72
     5
 11
-119.95
 21
122.45
  0
TEXT
  7
TextStyle03
  8
文字
  6
CONTINUOUS
 10
-106.9
 20
80.175
  1
TKR-1701
 40
4.0
 72
     5
 11
-89.15
 21
80.175
  0
TEXT
  7
TextStyle03
  8
文字
  6
CONTINUOUS
 10
-107.925
 20
71.025
  1
TKR-1303
 40
4.0
 72
     5
 11
-90.175
 21
71.025
  0
TEXT
  7
TextStyle03
  8
文字
  6
CONTINUOUS
 10
-8.475
 20
-57.425
  1
コーナーシール
 40
3.0
 72
     5
 11
14.775
 21
-57.425
  0
TEXT
  7
TextStyle03
  8
文字
  6
CONTINUOUS
 10
1.65
 20
-60.8
  1
（工場）
 40
3.0
 72
     5
 11
14.775
 21
-60.8
  0
TEXT
  7
TextStyle03
  8
文字
  6
CONTINUOUS
 10
-13.15
 20
-48.4
  1
コーナージョイント金物
 40
3.0
 72
     5
 11
23.6
 21
-48.4
  0
TEXT
  7
TextStyle03
  8
文字
  6
CONTINUOUS
 10
11.975
 20
-51.775
  1
St-1.6t
 40
3.0
 72
     5
 11
23.6
 21
-51.775
  0
TEXT
  7
TextStyle03
  8
文字
  6
CONTINUOUS
 10
-12.45
 20
-34.45
  1
滑車・ダンパー裏板
 40
4.0
 72
     5
 11
27.55
 21
-34.45
  0
TEXT
  7
TextStyle03
  8
文字
  6
CONTINUOUS
 10
12.05
 20
-38.95
  1
St-2.3t
 40
4.0
 72
     5
 11
27.55
 21
-38.95
  0
TEXT
  7
TextStyle03
  8
文字
  6
CONTINUOUS
 10
17.95
 20
-113.175
  1
KA-50C　末栄金属
 40
4.0
 72
     5
 11
53.45
 21
-113.175
  0
TEXT
  7
TextStyle03
  8
文字
  6
CONTINUOUS
 10
65.075
 20
96.525
  1
ドーム高さ
 40
3.0
 50
90.0
 72
     5
 11
65.075
 21
113.025
  0
TEXT
  7
TextStyle03
  8
文字
  6
CONTINUOUS
 10
10.5125
 20
-24.275
  1
St-2.3t（電気メッキ）
 40
3.0
 72
     5
 11
45.575
 21
-24.275
  0
TEXT
  7
TextStyle03
  8
文字
  6
CONTINUOUS
 10
35.6375
 20
-27.65
  1
Ｌ＝60
 40
3.0
 72
     5
 11
45.575
 21
-27.65
  0
TEXT
  7
TextStyle03
  8
文字
  6
CONTINUOUS
 10
-110.825
 20
5.125
  1
滑車(ZDC)
 40
3.0
 72
     5
 11
-95.825
 21
5.125
  0
TEXT
  7
TextStyle03
  8
文字
  6
CONTINUOUS
 10
-110.825
 20
-46.85
  1
滑車(ZDC)
 40
3.0
 72
     5
 11
-95.825
 21
-46.85
  0
TEXT
  7
TextStyle03
  8
文字
  6
CONTINUOUS
 10
-10.9
 20
21.6
  1
滑車・ダンパー裏板
 40
4.0
 72
     5
 11
29.1
 21
21.6
  0
TEXT
  7
TextStyle03
  8
文字
  6
CONTINUOUS
 10
13.6
 20
17.1
  1
St-3.2t
 40
4.0
 72
     5
 11
29.1
 21
17.1
  0
TEXT
  7
TextStyle03
  8
文字
  6
CONTINUOUS
 10
87.3
 20
106.45
  1
シリーズ：ＴＤ２Ｈ
 40
5.0
 72
     5
 11
137.3
 21
106.45
  0
TEXT
  7
TextStyle03
  8
文字
  6
CONTINUOUS
 10
87.3
 20
100.825
  1
　　　　　（片側開閉）　　
 40
5.0
 72
     5
 11
159.8
 21
100.825
  0
TEXT
  7
TextStyle03
  8
文字
  6
CONTINUOUS
 10
87.3
 20
95.2
  1
図面名　：下枠断面詳細図　滑車側
 40
5.0
 72
     5
 11
176.675
 21
95.2
  0
INSERT
  2
*DIM_0015
  8
寸法
  6
CONTINUOUS
 10
0.0
 20
0.0
  0
INSERT
  2
*DIM_0016
  8
寸法
  6
CONTINUOUS
 10
0.0
 20
0.0
  0
INSERT
  2
*DIM_0017
  8
寸法
  6
CONTINUOUS
 10
0.0
 20
0.0
  0
INSERT
  2
*DIM_0018
  8
寸法
  6
CONTINUOUS
 10
0.0
 20
0.0
  0
INSERT
  2
*DIM_0019
  8
寸法
  6
CONTINUOUS
 10
0.0
 20
0.0
  0
INSERT
  2
*DIM_0020
  8
寸法
  6
CONTINUOUS
 10
0.0
 20
0.0
  0
INSERT
  2
*DIM_0021
  8
寸法
  6
CONTINUOUS
 10
0.0
 20
0.0
  0
INSERT
  2
*DIM_0022
  8
寸法
  6
CONTINUOUS
 10
0.0
 20
0.0
  0
INSERT
  2
*DIM_0023
  8
寸法
  6
CONTINUOUS
 10
0.0
 20
0.0
  0
INSERT
  2
*DIM_0024
  8
寸法
  6
CONTINUOUS
 10
0.0
 20
0.0
  0
LINE
  8
寸法
  6
CONTINUOUS
 10
65.711227
 20
91.919223
 11
65.711227
 21
127.101507
  0
LINE
  8
寸法
  6
CONTINUOUS
 10
-66.53151
 20
128.95056
 11
-165.402695
 21
128.95056
  0
POLYLINE
  8
寸法
  6
CONTINUOUS
 66
     1
  0
VERTEX
  8
寸法
 10
-165.402695
 20
128.95056
  0
VERTEX
  8
寸法
 10
-156.812562
 20
126.382798
  0
VERTEX
  8
寸法
 10
-156.812562
 20
128.95056
  0
SEQEND
  0
POLYLINE
  8
寸法
  6
CONTINUOUS
 66
     1
  0
VERTEX
  8
寸法
 10
-163.81059
 20
128.95056
  0
VERTEX
  8
寸法
 10
-155.220457
 20
126.382798
  0
VERTEX
  8
寸法
 10
-155.220457
 20
128.95056
  0
SEQEND
  0
POLYLINE
  8
寸法
  6
CONTINUOUS
 66
     1
  0
VERTEX
  8
寸法
 10
-165.402695
 20
128.95056
  0
VERTEX
  8
寸法
 10
-156.812562
 20
131.518323
  0
VERTEX
  8
寸法
 10
-156.812562
 20
128.95056
  0
SEQEND
  0
POLYLINE
  8
寸法
  6
CONTINUOUS
 66
     1
  0
VERTEX
  8
寸法
 10
-163.81059
 20
128.95056
  0
VERTEX
  8
寸法
 10
-155.220457
 20
131.518323
  0
VERTEX
  8
寸法
 10
-155.220457
 20
128.95056
  0
SEQEND
  0
POLYLINE
  8
寸法
  6
CONTINUOUS
 66
     1
  0
VERTEX
  8
寸法
 10
-165.402695
 20
122.443323
  0
VERTEX
  8
寸法
 10
-156.812562
 20
125.011085
  0
VERTEX
  8
寸法
 10
-156.812562
 20
122.443323
  0
SEQEND
  0
POLYLINE
  8
寸法
  6
CONTINUOUS
 66
     1
  0
VERTEX
  8
寸法
 10
-163.81059
 20
122.443323
  0
VERTEX
  8
寸法
 10
-155.220457
 20
125.011085
  0
VERTEX
  8
寸法
 10
-155.220457
 20
122.443323
  0
SEQEND
  0
INSERT
  2
*DIM_0025
  8
寸法
  6
CONTINUOUS
 10
0.0
 20
0.0
  0
INSERT
  2
*DIM_0026
  8
寸法
  6
CONTINUOUS
 10
0.0
 20
0.0
  0
LINE
  8
寸法
  6
CONTINUOUS
 10
-165.402695
 20
122.443323
 11
-81.53151
 21
122.443323
  0
INSERT
  2
*DIM_0027
  8
寸法
  6
CONTINUOUS
 10
0.0
 20
0.0
  0
INSERT
  2
*DIM_0028
  8
寸法
  6
CONTINUOUS
 10
0.0
 20
0.0
  0
INSERT
  2
*DIM_0029
  8
寸法
  6
CONTINUOUS
 10
0.0
 20
0.0
  0
INSERT
  2
*DIM_0030
  8
寸法
  6
CONTINUOUS
 10
0.0
 20
0.0
  0
INSERT
  2
*DIM_0031
  8
寸法
  6
CONTINUOUS
 10
0.0
 20
0.0
  0
INSERT
  2
*DIM_0032
  8
寸法
  6
CONTINUOUS
 10
0.0
 20
0.0
  0
INSERT
  2
*DIM_0033
  8
寸法
  6
CONTINUOUS
 10
0.0
 20
0.0
  0
INSERT
  2
*DIM_0034
  8
寸法
  6
CONTINUOUS
 10
0.0
 20
0.0
  0
INSERT
  2
*DIM_0035
  8
寸法
  6
CONTINUOUS
 10
0.0
 20
0.0
  0
INSERT
  2
*GRP_0036
  8
寸法
  6
CONTINUOUS
 10
0.0
 20
0.0
  0
INSERT
  2
*GRP_0037
  8
寸法
  6
CONTINUOUS
 10
0.0
 20
0.0
  0
INSERT
  2
*GRP_0038
  8
寸法
  6
CONTINUOUS
 10
0.0
 20
0.0
  0
INSERT
  2
*GRP_0039
  8
寸法
  6
CONTINUOUS
 10
0.0
 20
0.0
  0
INSERT
  2
*GRP_0040
  8
寸法
  6
CONTINUOUS
 10
0.0
 20
0.0
  0
INSERT
  2
*GRP_0041
  8
寸法
  6
CONTINUOUS
 10
0.0
 20
0.0
  0
INSERT
  2
*DIM_0042
  8
寸法
  6
CONTINUOUS
 10
0.0
 20
0.0
  0
INSERT
  2
*DIM_0043
  8
寸法
  6
CONTINUOUS
 10
0.0
 20
0.0
  0
INSERT
  2
*DIM_0044
  8
寸法
  6
CONTINUOUS
 10
0.0
 20
0.0
  0
INSERT
  2
*DIM_0045
  8
寸法
  6
CONTINUOUS
 10
0.0
 20
0.0
  0
INSERT
  2
*DIM_0046
  8
寸法
  6
CONTINUOUS
 10
0.0
 20
0.0
  0
INSERT
  2
*DIM_0047
  8
寸法
  6
CONTINUOUS
 10
0.0
 20
0.0
  0
INSERT
  2
*GRP_0048
  8
寸法
  6
CONTINUOUS
 10
0.0
 20
0.0
  0
INSERT
  2
*DIM_0049
  8
寸法
  6
CONTINUOUS
 10
0.0
 20
0.0
  0
INSERT
  2
*DIM_0050
  8
寸法
  6
CONTINUOUS
 10
0.0
 20
0.0
  0
INSERT
  2
*DIM_0051
  8
寸法
  6
CONTINUOUS
 10
0.0
 20
0.0
  0
INSERT
  2
*DIM_0052
  8
寸法
  6
CONTINUOUS
 10
0.0
 20
0.0
  0
INSERT
  2
*GRP_0053
  8
寸法
  6
CONTINUOUS
 10
0.0
 20
0.0
  0
POLYLINE
  8
寸法
  6
CONTINUOUS
 66
     1
  0
VERTEX
  8
寸法
 10
65.711227
 20
127.101507
  0
VERTEX
  8
寸法
 10
63.143465
 20
118.511375
  0
VERTEX
  8
寸法
 10
65.711227
 20
118.511375
  0
SEQEND
  0
POLYLINE
  8
寸法
  6
CONTINUOUS
 66
     1
  0
VERTEX
  8
寸法
 10
65.711227
 20
125.509403
  0
VERTEX
  8
寸法
 10
63.143465
 20
116.91927
  0
VERTEX
  8
寸法
 10
65.711227
 20
116.91927
  0
SEQEND
  0
INSERT
  2
*GRP_0060
  8
寸法
  6
CONTINUOUS
 10
0.0
 20
0.0
  0
INSERT
  2
*GRP_0061
  8
寸法
  6
CONTINUOUS
 10
0.0
 20
0.0
  0
INSERT
  2
*DIM_0069
  8
寸法
  6
CONTINUOUS
 10
0.0
 20
0.0
  0
INSERT
  2
*DIM_0070
  8
寸法
  6
CONTINUOUS
 10
0.0
 20
0.0
  0
ARC
  8
別途部材
  6
CONTINUOUS
 62
    96
 10
-21.954287
 20
83.909731
 40
5.005952
 50
21.799008
 51
89.998627
  0
LINE
  8
別途部材
  6
CONTINUOUS
 62
    96
 10
-16.53151
 20
91.919223
 11
-66.53151
 21
91.919223
  0
LINE
  8
別途部材
  6
CONTINUOUS
 62
    96
 10
-4.531538
 20
61.919223
 11
-7.766488
 21
61.919223
  0
LINE
  8
別途部材
  6
CONTINUOUS
 62
    96
 10
-16.53151
 20
91.919223
 11
-4.531538
 21
61.919223
  0
LINE
  8
別途部材
  6
CONTINUOUS
 62
    96
 10
-17.306337
 20
85.768848
 11
-7.766488
 21
61.919223
  0
ARC
  8
別途部材
  6
CONTINUOUS
 62
    96
 10
-301.288575
 20
-47.072549
 40
272.817885
 50
30.628356
 51
39.119351
  0
ARC
  8
別途部材
  6
CONTINUOUS
 62
    96
 10
-301.288575
 20
-47.072549
 40
269.860905
 50
30.25966
 51
39.631784
  0
LINE
  8
別途部材
  6
CONTINUOUS
 62
    96
 10
-68.196068
 20
88.915647
 11
-21.971637
 21
88.915647
  0
INSERT
  2
*GRP_0054
  8
別途部材
  6
CONTINUOUS
 10
0.0
 20
0.0
  0
INSERT
  2
*GRP_0055
  8
別途部材
  6
CONTINUOUS
 10
0.0
 20
0.0
  0
INSERT
  2
*GRP_0056
  8
別途部材
  6
CONTINUOUS
 10
0.0
 20
0.0
  0
INSERT
  2
*GRP_0057
  8
別途部材
  6
CONTINUOUS
 10
0.0
 20
0.0
  0
INSERT
  2
*GRP_0068
  8
別途部材
  6
DASHDOT
 10
0.0
 20
0.0
  0
LINE
  8
曲げ物
  6
CONTINUOUS
 10
-58.53151
 20
66.615825
 11
-58.53151
 21
59.815825
  0
LINE
  8
曲げ物
  6
CONTINUOUS
 10
-103.924193
 20
65.615825
 11
-58.53151
 21
65.615825
  0
LINE
  8
曲げ物
  6
CONTINUOUS
 10
-103.924193
 20
66.615825
 11
-58.53151
 21
66.615825
  0
LINE
  8
曲げ物
  6
CONTINUOUS
 10
-103.924193
 20
59.815825
 11
-58.53151
 21
59.815825
  0
LINE
  8
曲げ物
  6
CONTINUOUS
 10
-103.924193
 20
60.815825
 11
-58.53151
 21
60.815825
  0
LINE
  8
St
  6
CONTINUOUS
 10
-36.631207
 20
70.113793
 11
-39.631207
 21
70.113793
  0
LINE
  8
St
  6
CONTINUOUS
 10
-39.631207
 20
54.815827
 11
-39.631207
 21
70.113793
  0
LINE
  8
St
  6
CONTINUOUS
 10
-51.33151
 20
-0.084173
 11
-54.53151
 21
-0.084173
  0
LINE
  8
St
  6
CONTINUOUS
 10
-51.33151
 20
-0.084173
 11
-51.33151
 21
45.915827
  0
LINE
  8
St
  6
CONTINUOUS
 10
-51.33151
 20
45.915827
 11
-54.53151
 21
45.915827
  0
LINE
  8
St
  6
CONTINUOUS
 10
-54.53151
 20
-0.084173
 11
-54.53151
 21
45.915827
  0
LINE
  8
St
  6
CONTINUOUS
 10
-51.33151
 20
35.657863
 11
-54.53151
 21
38.857865
  0
LINE
  8
St
  6
CONTINUOUS
 10
-51.33151
 20
34.950757
 11
-54.53151
 21
38.15076
  0
LINE
  8
St
  6
CONTINUOUS
 10
-51.33151
 20
8.00564
 11
-54.53151
 21
11.205643
  0
LINE
  8
St
  6
CONTINUOUS
 10
-51.33151
 20
7.298535
 11
-54.53151
 21
10.498538
  0
LINE
  8
St
  6
CONTINUOUS
 10
-35.03151
 20
-14.084297
 11
-35.03151
 21
-16.384297
  0
LINE
  8
St
  6
CONTINUOUS
 10
-35.03151
 20
-62.787242
 11
-35.03151
 21
-65.087242
  0
ARC
  8
St
  6
CONTINUOUS
 10
-52.231514
 20
-16.384295
 40
2.3
 50
90.0
 51
180.0
  0
LINE
  8
St
  6
CONTINUOUS
 10
-52.23151
 20
-25.717617
 11
-54.531495
 21
-28.017602
  0
LINE
  8
St
  6
CONTINUOUS
 10
-52.23151
 20
-25.010517
 11
-54.531495
 21
-27.310498
  0
ARC
  8
St
  6
CONTINUOUS
 10
-52.231514
 20
-62.78724
 40
2.3
 50
180.0
 51
270.0
  0
LINE
  8
St
  6
CONTINUOUS
 10
-52.23151
 20
-53.541727
 11
-54.531495
 21
-55.841712
  0
LINE
  8
St
  6
CONTINUOUS
 10
-52.23151
 20
-52.834627
 11
-54.531495
 21
-55.134608
  0
LINE
  8
St
  6
CONTINUOUS
 10
-52.23151
 20
-16.384297
 11
-52.23151
 21
-62.787242
  0
LINE
  8
St
  6
CONTINUOUS
 10
-54.53151
 20
-16.384297
 11
-54.53151
 21
-62.787242
  0
LINE
  8
St
  6
CONTINUOUS
 10
-35.03151
 20
-16.384297
 11
-52.23151
 21
-16.384297
  0
LINE
  8
St
  6
CONTINUOUS
 10
-35.03151
 20
-14.084297
 11
-52.23151
 21
-14.084297
  0
LINE
  8
St
  6
CONTINUOUS
 10
-35.03151
 20
-62.787242
 11
-52.23151
 21
-62.787242
  0
LINE
  8
St
  6
CONTINUOUS
 10
-35.03151
 20
-65.087242
 11
-52.23151
 21
-65.087242
  0
LINE
  8
St
  6
CONTINUOUS
 10
-48.302755
 20
-65.084297
 11
-46.005698
 21
-62.787242
  0
LINE
  8
St
  6
CONTINUOUS
 10
-47.595652
 20
-65.084297
 11
-45.298592
 21
-62.787242
  0
LINE
  8
St
  6
CONTINUOUS
 10
-41.692658
 20
-14.084297
 11
-43.99266
 21
-16.384297
  0
LINE
  8
St
  6
CONTINUOUS
 10
-42.399762
 20
-14.084297
 11
-44.699765
 21
-16.384297
  0
LINE
  8
St
  6
CONTINUOUS
 10
26.87274
 20
-81.484353
 11
-31.11984
 21
-81.484353
  0
ARC
  8
St
  6
CONTINUOUS
 10
-31.128268
 20
-81.484351
 40
1.6
 50
180.0
 51
270.0
  0
LINE
  8
St
  6
CONTINUOUS
 10
28.47274
 20
-83.084353
 11
-52.52726
 21
-83.084353
  0
LINE
  8
St
  6
DOT
 10
-31.11984
 20
-81.484353
 11
-52.52726
 21
-81.484353
  0
LINE
  8
St
  6
CONTINUOUS
 10
-0.094668
 20
-83.084353
 11
-1.694672
 21
-81.484353
  0
LINE
  8
St
  6
CONTINUOUS
 10
-0.801772
 20
-83.084353
 11
-2.401778
 21
-81.484353
  0
LINE
  8
St
  6
CONTINUOUS
 10
-27.115945
 20
-83.084353
 11
-28.71595
 21
-81.484353
  0
LINE
  8
St
  6
CONTINUOUS
 10
-27.82305
 20
-83.084353
 11
-29.423055
 21
-81.484353
  0
LINE
  8
St
  6
CONTINUOUS
 10
26.87274
 20
-83.084353
 11
26.87274
 21
-76.067713
  0
LINE
  8
St
  6
CONTINUOUS
 10
28.47274
 20
-83.084353
 11
28.47274
 21
-76.067715
  0
ARC
  8
St
  6
CONTINUOUS
 10
26.872739
 20
-76.067715
 40
1.6
 50
360.0
 51
445.667276
  0
LINE
  8
St
  6
CONTINUOUS
 10
26.993618
 20
-74.472288
 11
-52.52726
 21
-68.447405
  0
LINE
  8
St
  6
CONTINUOUS
 10
26.87274
 20
-76.067713
 11
-52.52726
 21
-70.051992
  0
LINE
  8
St
  6
CONTINUOUS
 10
-50.615375
 20
-68.592257
 11
-50.615375
 21
-70.196845
  0
LINE
  8
St
  6
CONTINUOUS
 10
-31.11984
 20
-81.484353
 11
-31.11984
 21
-71.67392
  0
LINE
  8
St
  6
CONTINUOUS
 10
-32.72827
 20
-83.084353
 11
-32.72827
 21
-71.552057
  0
LINE
  8
St
  6
CONTINUOUS
 10
-30.255065
 20
-70.134853
 11
-28.518937
 21
-71.870978
  0
LINE
  8
St
  6
CONTINUOUS
 10
-29.489995
 20
-70.192818
 11
-27.753865
 21
-71.928942
  0
LINE
  8
St
  6
CONTINUOUS
 10
-2.770453
 20
-72.21722
 11
-1.034322
 21
-73.95334
  0
LINE
  8
St
  6
CONTINUOUS
 10
-2.005378
 20
-72.275185
 11
-0.26925
 21
-74.011308
  0
INSERT
  2
*GRP_0058
  8
St
  6
DASHDOT
 62
    47
 10
0.0
 20
0.0
  0
INSERT
  2
*GRP_0059
  8
St
  6
DASHDOT
 62
    47
 10
0.0
 20
0.0
  0
LINE
  8
St
  6
CONTINUOUS
 62
   127
 10
11.46299
 20
-13.094525
 11
11.46299
 21
0.916427
  0
ARC
  8
St
  6
CONTINUOUS
 62
   127
 10
11.46299
 20
0.91642
 40
2.3
 50
0.0
 51
87.002981
  0
ARC
  8
St
  6
CONTINUOUS
 62
   127
 10
11.46299
 20
-13.09452
 40
2.3
 50
270.0
 51
360.0
  0
LINE
  8
St
  6
CONTINUOUS
 62
   127
 10
11.46299
 20
0.916427
 11
-1.336743
 21
1.586552
  0
LINE
  8
St
  6
CONTINUOUS
 62
   127
 10
-1.336743
 20
1.586552
 11
-1.216488
 21
3.883412
  0
LINE
  8
St
  6
CONTINUOUS
 62
   127
 10
13.762992
 20
3.099152
 11
-1.216488
 21
3.883412
  0
LINE
  8
St
  6
CONTINUOUS
 62
   127
 10
13.762992
 20
3.099152
 11
13.762992
 21
-15.394528
  0
LINE
  8
St
  6
CONTINUOUS
 62
   127
 10
-32.52727
 20
-15.394528
 11
13.762992
 21
-15.394528
  0
LINE
  8
St
  6
CONTINUOUS
 10
6.273252
 20
3.491282
 11
4.084685
 21
1.302715
  0
LINE
  8
St
  6
CONTINUOUS
 10
4.75661
 20
1.26754
 11
6.94517
 21
3.4561
  0
LINE
  8
St
  6
CONTINUOUS
 10
11.46299
 20
-10.03016
 11
13.762992
 21
-7.730158
  0
LINE
  8
St
  6
CONTINUOUS
 10
11.46299
 20
-9.32306
 11
13.762992
 21
-7.023057
  0
LINE
  8
St
  6
CONTINUOUS
 10
0.926915
 20
-13.084055
 11
-1.383558
 21
-15.394528
  0
LINE
  8
St
  6
CONTINUOUS
 10
1.634015
 20
-13.084055
 11
-0.676458
 21
-15.394528
  0
INSERT
  2
*HAT_0004
  8
その他部品等
 10
0.0
 20
0.0
  0
INSERT
  2
*HAT_0005
  8
その他部品等
 10
0.0
 20
0.0
  0
ENDSEC
  0
EOF
