  0
SECTION
  2
HEADER
  9
$EXTMIN
 10
-210.0
 20
-148.5
  9
$EXTMAX
 10
210.0
 20
148.5
  9
$PDMODE
 70
    32
  9
$PDSIZE
 40
1.5
  9
$LTSCALE
 40
10.0
  0
ENDSEC
  0
SECTION
  2
TABLES
  0
TABLE
  2
LTYPE
 70
    15
  0
LTYPE
  2
CONTINUOUS
 70
    64
  3
実線
 72
    65
 73
     0
 40
0.0
  0
LTYPE
  2
DASHED
 70
    64
  3
破線A
 72
    65
 73
     2
 40
0.6
 49
0.4
 49
-0.2
  0
LTYPE
  2
DASHEDX2
 70
    64
  3
破線B
 72
    65
 73
     2
 40
1.3
 49
0.9
 49
-0.4
  0
LTYPE
  2
DASHDOT
 70
    64
  3
１点鎖線A
 72
    65
 73
     4
 40
0.5375
 49
0.375
 49
-0.05
 49
0.0625
 49
-0.05
  0
LTYPE
  2
DASHDOTX2
 70
    64
  3
１点鎖線B
 72
    65
 73
     4
 40
1.075
 49
0.75
 49
-0.1
 49
0.125
 49
-0.1
  0
LTYPE
  2
DIVIDE2
 70
    64
  3
２点鎖線A
 72
    65
 73
     6
 40
0.5125
 49
0.3
 49
-0.0375
 49
0.05
 49
-0.0375
 49
0.05
 49
-0.0375
  0
LTYPE
  2
DIVIDE
 70
    64
  3
２点鎖線B
 72
    65
 73
     6
 40
1.05
 49
0.55
 49
-0.1
 49
0.1
 49
-0.1
 49
0.1
 49
-0.1
  0
LTYPE
  2
DOT
 70
    64
  3
点線A
 72
    65
 73
     2
 40
0.1125
 49
0.0625
 49
-0.05
  0
LTYPE
  2
DOTX2
 70
    64
  3
点線B
 72
    65
 73
     2
 40
0.275
 49
0.15
 49
-0.125
  0
LTYPE
  2
CONTINUOUS
 70
    64
  3
実線
 72
    65
 73
     0
 40
0.0
  0
LTYPE
  2
CONTINUOUS
 70
    64
  3
実線
 72
    65
 73
     0
 40
0.0
  0
LTYPE
  2
CONTINUOUS
 70
    64
  3
実線
 72
    65
 73
     0
 40
0.0
  0
LTYPE
  2
CONTINUOUS
 70
    64
  3
実線
 72
    65
 73
     0
 40
0.0
  0
LTYPE
  2
CONTINUOUS
 70
    64
  3
実線
 72
    65
 73
     0
 40
0.0
  0
LTYPE
  2
CONTINUOUS
 70
    64
  3
実線
 72
    65
 73
     0
 40
0.0
  0
ENDTAB
  0
TABLE
  2
LAYER
 70
    34
  0
LAYER
  2
通り芯
 70
     0
 62
    15
  6
CONTINUOUS
  0
LAYER
  2
補助線
 70
     0
 62
    16
  6
DOT
  0
LAYER
  2
躯体
 70
     0
 62
    31
  6
CONTINUOUS
  0
LAYER
  2
型材
 70
     0
 62
    32
  6
CONTINUOUS
  0
LAYER
  2
型材断面
 70
     0
 62
    47
  6
CONTINUOUS
  0
LAYER
  2
ガラス
 70
     0
 62
    48
  6
CONTINUOUS
  0
LAYER
  2
ゴム等
 70
     0
 62
    63
  6
CONTINUOUS
  0
LAYER
  2
ボルト／ビス
 70
     0
 62
    64
  6
CONTINUOUS
  0
LAYER
  2
文字
 70
     0
 62
    79
  6
CONTINUOUS
  0
LAYER
  2
寸法
 70
     0
 62
    80
  6
CONTINUOUS
  0
LAYER
  2
ﾊｯﾁﾝｸﾞ
 70
     0
 62
    95
  6
CONTINUOUS
  0
LAYER
  2
別途部材
 70
     0
 62
    96
  6
CONTINUOUS
  0
LAYER
  2
曲げ物
 70
     0
 62
   111
  6
CONTINUOUS
  0
LAYER
  2
鉄骨等
 70
     0
 62
   112
  6
CONTINUOUS
  0
LAYER
  2
St
 70
     0
 62
   127
  6
CONTINUOUS
  0
LAYER
  2
その他部品等
 70
     0
 62
   128
  6
CONTINUOUS
  0
LAYER
  2
ｶﾞｽｹｯﾄ
 70
     0
 62
   143
  6
CONTINUOUS
  0
LAYER
  2
ｽｹｯﾁ
 70
     0
 62
    14
  6
CONTINUOUS
  0
LAYER
  2
0
 70
     0
 62
    17
  6
CONTINUOUS
  0
LAYER
  2
1
 70
     0
 62
    30
  6
CONTINUOUS
  0
LAYER
  2
4
 70
     0
 62
    33
  6
CONTINUOUS
  0
LAYER
  2
ﾚｲﾔ3
 70
     0
 62
    46
  6
CONTINUOUS
  0
LAYER
  2
外形線
 70
     0
 62
    49
  6
CONTINUOUS
  0
LAYER
  2
部品
 70
     0
 62
    14
  6
CONTINUOUS
  0
LAYER
  2
サッシ芯
 70
     0
 62
    17
  6
DASHDOTX2
  0
LAYER
  2
寸法線
 70
     0
 62
    62
  6
CONTINUOUS
  0
LAYER
  2
姿図外形線
 70
     0
 62
    65
  6
CONTINUOUS
  0
LAYER
  2
姿補助線
 70
     0
 62
    30
  6
CONTINUOUS
  0
LAYER
  2
透視線
 70
     0
 62
    78
  6
DOT
  0
LAYER
  2
用紙
 70
     0
 62
    81
  6
CONTINUOUS
  0
LAYER
  2
実線図枠
 70
     0
 62
    94
  6
CONTINUOUS
  0
LAYER
  2
補助図枠
 70
     0
 62
    97
  6
CONTINUOUS
  0
LAYER
  2
建具記号
 70
     0
 62
   110
  6
CONTINUOUS
  0
LAYER
  2
補助文字
 70
     0
 62
   113
  6
CONTINUOUS
  0
ENDTAB
  0
TABLE
  2
STYLE
 70
    10
  0
STYLE
  2
STANDARD
 70
     0
 40
1.0
 41
1.0
 42
1.0
 50
0.0
 71
     0
  3
TXT
  4
BIGFONT
  0
STYLE
  2
TATE
 70
     4
 40
1.0
 41
1.0
 42
1.0
 50
0.0
 71
     0
  3
TXT
  4
BIGFONT
  0
STYLE
  2
TextStyle03
 70
     0
 40
1.0
 41
1.0
 42
1.0
 50
0.0
 71
     0
  3
MONOTXT
  4
BIGFONT
  0
STYLE
  2
TextStyle04
 70
     0
 40
1.0
 41
1.0
 42
1.0
 50
0.0
 71
     0
  3
MONOTXT
  4
BIGFONT
  0
STYLE
  2
TextStyle05
 70
     0
 40
1.0
 41
1.0
 42
1.0
 50
0.0
 71
     0
  3
MONOTXT
  4
BIGFONT
  0
STYLE
  2
TextStyle06
 70
     0
 40
1.0
 41
1.0
 42
1.0
 50
0.0
 71
     0
  3
MONOTXT
  4
BIGFONT
  0
STYLE
  2
TextStyle07
 70
     0
 40
1.0
 41
1.0
 42
1.0
 50
0.0
 71
     0
  3
MONOTXT
  4
BIGFONT
  0
STYLE
  2
TextStyle08
 70
     0
 40
1.0
 41
1.0
 42
1.0
 50
0.0
 71
     0
  3
MONOTXT
  4
BIGFONT
  0
STYLE
  2
TextStyle09
 70
     0
 40
1.0
 41
1.0
 42
1.0
 50
0.0
 71
     0
  3
MONOTXT
  4
BIGFONT
  0
STYLE
  2
TextStyle10
 70
     0
 40
1.0
 41
1.0
 42
1.0
 50
0.0
 71
     0
  3
MONOTXT
  4
BIGFONT
  0
ENDTAB
  0
ENDSEC
  0
SECTION
  2
BLOCKS
  0
BLOCK
  2
*GRP_0001
 70
    65
 10
0.0
 20
0.0
  0
LINE
  8
型材断面
  6
CONTINUOUS
 10
195.0
 20
133.5
 11
195.0
 21
-133.5
  0
LINE
  8
型材断面
  6
CONTINUOUS
 10
195.0
 20
-133.5
 11
-185.0
 21
-133.5
  0
LINE
  8
型材断面
  6
CONTINUOUS
 10
-185.0
 20
-133.5
 11
-185.0
 21
133.5
  0
LINE
  8
型材断面
  6
CONTINUOUS
 10
195.0
 20
133.5
 11
-185.0
 21
133.5
  0
LINE
  8
型材断面
  6
CONTINUOUS
 10
145.0
 20
-133.5
 11
145.0
 21
-118.5
  0
LINE
  8
型材断面
  6
CONTINUOUS
 10
195.0
 20
-118.5
 11
145.0
 21
-118.5
  0
ENDBLK
  0
BLOCK
  2
*DIM_0002
 70
    65
 10
0.0
 20
0.0
  0
LINE
  8
寸法
  6
BYBLOCK
 62
     0
 10
46.224393
 20
-13.121378
 11
-87.10894
 21
-13.121378
  0
POINT
  8
寸法
 62
     0
 10
46.224393
 20
-13.121378
  0
POINT
  8
寸法
 62
     0
 10
-87.10894
 20
-13.121378
  0
TEXT
  7
TextStyle03
  8
寸法
  6
CONTINUOUS
 62
     0
 10
-32.16875
 20
-12.75
  1
呼称寸法　4000
 40
3.0
 72
     5
 11
-8.73125
 21
-12.75
  0
ENDBLK
  0
BLOCK
  2
*DIM_0003
 70
    65
 10
0.0
 20
0.0
  0
LINE
  8
寸法
  6
BYBLOCK
 62
     0
 10
-70.442273
 20
19.183902
 11
-70.442273
 21
14.13158
  0
LINE
  8
寸法
  6
BYBLOCK
 62
     0
 10
29.557723
 20
19.183902
 11
29.557723
 21
14.13158
  0
LINE
  8
寸法
  6
BYBLOCK
 62
     0
 10
-70.442273
 20
14.13158
 11
29.557723
 21
14.13158
  0
POINT
  8
寸法
 62
     0
 10
-70.442273
 20
14.13158
  0
POINT
  8
寸法
 62
     0
 10
29.557723
 20
14.13158
  0
TEXT
  7
TextStyle03
  8
寸法
  6
CONTINUOUS
 62
     0
 10
-23.73125
 20
14.5
  1
3000
 40
3.0
 72
     5
 11
-17.16875
 21
14.5
  0
ENDBLK
  0
BLOCK
  2
*GRP_0004
 70
    65
 10
0.0
 20
0.0
  0
LINE
  8
別途部材
  6
CONTINUOUS
 62
    96
 10
-88.775608
 20
-70.209613
 11
-89.175608
 21
-71.209613
  0
LINE
  8
別途部材
  6
CONTINUOUS
 62
    96
 10
-88.775608
 20
-70.209613
 11
-20.442273
 21
-70.209613
  0
LINE
  8
別途部材
  6
CONTINUOUS
 10
-89.175608
 20
-71.209613
 11
-20.442273
 21
-71.209613
  0
LINE
  8
別途部材
  6
CONTINUOUS
 10
-20.942273
 20
-63.87628
 11
-21.942273
 21
-64.87628
  0
LINE
  8
別途部材
  6
CONTINUOUS
 10
-22.942273
 20
-64.87628
 11
-23.942273
 21
-63.87628
  0
LINE
  8
別途部材
  6
CONTINUOUS
 10
-24.942273
 20
-63.87628
 11
-25.942273
 21
-64.87628
  0
LINE
  8
別途部材
  6
CONTINUOUS
 10
-23.942273
 20
-63.87628
 11
-24.942273
 21
-63.87628
  0
LINE
  8
別途部材
  6
CONTINUOUS
 10
-20.942273
 20
-63.87628
 11
-20.442273
 21
-63.87628
  0
LINE
  8
別途部材
  6
CONTINUOUS
 10
-26.942273
 20
-64.87628
 11
-27.942273
 21
-63.87628
  0
LINE
  8
別途部材
  6
CONTINUOUS
 10
-28.942273
 20
-63.87628
 11
-29.942273
 21
-64.87628
  0
LINE
  8
別途部材
  6
CONTINUOUS
 10
-27.942273
 20
-63.87628
 11
-28.942273
 21
-63.87628
  0
LINE
  8
別途部材
  6
CONTINUOUS
 10
-30.942273
 20
-64.87628
 11
-31.942273
 21
-63.87628
  0
LINE
  8
別途部材
  6
CONTINUOUS
 10
-32.942273
 20
-63.87628
 11
-33.942273
 21
-64.87628
  0
LINE
  8
別途部材
  6
CONTINUOUS
 10
-31.942273
 20
-63.87628
 11
-32.942273
 21
-63.87628
  0
LINE
  8
別途部材
  6
CONTINUOUS
 10
-34.942273
 20
-64.87628
 11
-35.942273
 21
-63.87628
  0
LINE
  8
別途部材
  6
CONTINUOUS
 10
-36.942273
 20
-63.87628
 11
-37.942273
 21
-64.87628
  0
LINE
  8
別途部材
  6
CONTINUOUS
 10
-35.942273
 20
-63.87628
 11
-36.942273
 21
-63.87628
  0
LINE
  8
別途部材
  6
CONTINUOUS
 10
-38.942273
 20
-64.87628
 11
-39.942273
 21
-63.87628
  0
LINE
  8
別途部材
  6
CONTINUOUS
 10
-40.942273
 20
-63.87628
 11
-41.942273
 21
-64.87628
  0
LINE
  8
別途部材
  6
CONTINUOUS
 10
-39.942273
 20
-63.87628
 11
-40.942273
 21
-63.87628
  0
LINE
  8
別途部材
  6
CONTINUOUS
 10
-42.942273
 20
-64.87628
 11
-43.942273
 21
-63.87628
  0
LINE
  8
別途部材
  6
CONTINUOUS
 10
-44.942273
 20
-63.87628
 11
-45.942273
 21
-64.87628
  0
LINE
  8
別途部材
  6
CONTINUOUS
 10
-43.942273
 20
-63.87628
 11
-44.942273
 21
-63.87628
  0
LINE
  8
別途部材
  6
CONTINUOUS
 10
-46.942273
 20
-64.87628
 11
-47.942273
 21
-63.87628
  0
LINE
  8
別途部材
  6
CONTINUOUS
 10
-48.942273
 20
-63.87628
 11
-49.942273
 21
-64.87628
  0
LINE
  8
別途部材
  6
CONTINUOUS
 10
-47.942273
 20
-63.87628
 11
-48.942273
 21
-63.87628
  0
LINE
  8
別途部材
  6
CONTINUOUS
 10
-50.942273
 20
-64.87628
 11
-51.942273
 21
-63.87628
  0
LINE
  8
別途部材
  6
CONTINUOUS
 10
-52.942273
 20
-63.87628
 11
-53.942273
 21
-64.87628
  0
LINE
  8
別途部材
  6
CONTINUOUS
 10
-51.942273
 20
-63.87628
 11
-52.942273
 21
-63.87628
  0
LINE
  8
別途部材
  6
CONTINUOUS
 10
-54.942273
 20
-64.87628
 11
-55.942273
 21
-63.87628
  0
LINE
  8
別途部材
  6
CONTINUOUS
 10
-56.942273
 20
-63.87628
 11
-57.942273
 21
-64.87628
  0
LINE
  8
別途部材
  6
CONTINUOUS
 10
-55.942273
 20
-63.87628
 11
-56.942273
 21
-63.87628
  0
LINE
  8
別途部材
  6
CONTINUOUS
 10
-58.942273
 20
-64.87628
 11
-59.942273
 21
-63.87628
  0
LINE
  8
別途部材
  6
CONTINUOUS
 10
-60.942273
 20
-63.87628
 11
-61.942273
 21
-64.87628
  0
LINE
  8
別途部材
  6
CONTINUOUS
 10
-59.942273
 20
-63.87628
 11
-60.942273
 21
-63.87628
  0
LINE
  8
別途部材
  6
CONTINUOUS
 10
-62.942273
 20
-64.87628
 11
-63.942273
 21
-63.87628
  0
LINE
  8
別途部材
  6
CONTINUOUS
 10
-64.942273
 20
-63.87628
 11
-65.942273
 21
-64.87628
  0
LINE
  8
別途部材
  6
CONTINUOUS
 10
-63.942273
 20
-63.87628
 11
-64.942273
 21
-63.87628
  0
LINE
  8
別途部材
  6
CONTINUOUS
 10
-61.942273
 20
-64.87628
 11
-62.942273
 21
-64.87628
  0
LINE
  8
別途部材
  6
CONTINUOUS
 10
-57.942273
 20
-64.87628
 11
-58.942273
 21
-64.87628
  0
LINE
  8
別途部材
  6
CONTINUOUS
 10
-53.942273
 20
-64.87628
 11
-54.942273
 21
-64.87628
  0
LINE
  8
別途部材
  6
CONTINUOUS
 10
-49.942273
 20
-64.87628
 11
-50.942273
 21
-64.87628
  0
LINE
  8
別途部材
  6
CONTINUOUS
 10
-45.942273
 20
-64.87628
 11
-46.942273
 21
-64.87628
  0
LINE
  8
別途部材
  6
CONTINUOUS
 10
-41.942273
 20
-64.87628
 11
-42.942273
 21
-64.87628
  0
LINE
  8
別途部材
  6
CONTINUOUS
 10
-37.942273
 20
-64.87628
 11
-38.942273
 21
-64.87628
  0
LINE
  8
別途部材
  6
CONTINUOUS
 10
-33.942273
 20
-64.87628
 11
-34.942273
 21
-64.87628
  0
LINE
  8
別途部材
  6
CONTINUOUS
 10
-29.942273
 20
-64.87628
 11
-30.942273
 21
-64.87628
  0
LINE
  8
別途部材
  6
CONTINUOUS
 10
-25.942273
 20
-64.87628
 11
-26.942273
 21
-64.87628
  0
LINE
  8
別途部材
  6
CONTINUOUS
 10
-22.942273
 20
-64.87628
 11
-21.942273
 21
-64.87628
  0
LINE
  8
別途部材
  6
CONTINUOUS
 10
-66.942273
 20
-64.87628
 11
-67.942273
 21
-63.87628
  0
LINE
  8
別途部材
  6
CONTINUOUS
 10
-68.942273
 20
-63.87628
 11
-69.942273
 21
-64.87628
  0
LINE
  8
別途部材
  6
CONTINUOUS
 10
-67.942273
 20
-63.87628
 11
-68.942273
 21
-63.87628
  0
LINE
  8
別途部材
  6
CONTINUOUS
 10
-70.942273
 20
-64.87628
 11
-71.942273
 21
-63.87628
  0
LINE
  8
別途部材
  6
CONTINUOUS
 10
-72.942273
 20
-63.87628
 11
-73.942273
 21
-64.87628
  0
LINE
  8
別途部材
  6
CONTINUOUS
 10
-71.942273
 20
-63.87628
 11
-72.942273
 21
-63.87628
  0
LINE
  8
別途部材
  6
CONTINUOUS
 10
-74.942273
 20
-64.87628
 11
-75.942273
 21
-63.87628
  0
LINE
  8
別途部材
  6
CONTINUOUS
 10
-76.942273
 20
-63.87628
 11
-77.942273
 21
-64.87628
  0
LINE
  8
別途部材
  6
CONTINUOUS
 10
-75.942273
 20
-63.87628
 11
-76.942273
 21
-63.87628
  0
LINE
  8
別途部材
  6
CONTINUOUS
 10
-73.942273
 20
-64.87628
 11
-74.942273
 21
-64.87628
  0
LINE
  8
別途部材
  6
CONTINUOUS
 10
-69.942273
 20
-64.87628
 11
-70.942273
 21
-64.87628
  0
LINE
  8
別途部材
  6
CONTINUOUS
 10
-65.942273
 20
-64.87628
 11
-66.942273
 21
-64.87628
  0
LINE
  8
別途部材
  6
CONTINUOUS
 10
-77.942273
 20
-64.87628
 11
-77.942273
 21
-70.209613
  0
LINE
  8
別途部材
  6
CONTINUOUS
 10
-76.942273
 20
-63.87628
 11
-76.942273
 21
-70.209613
  0
LINE
  8
別途部材
  6
CONTINUOUS
 10
-75.942273
 20
-63.87628
 11
-75.942273
 21
-70.209613
  0
LINE
  8
別途部材
  6
CONTINUOUS
 10
-72.942273
 20
-63.87628
 11
-72.942273
 21
-70.209613
  0
LINE
  8
別途部材
  6
CONTINUOUS
 10
-70.942273
 20
-64.87628
 11
-70.942273
 21
-70.209613
  0
LINE
  8
別途部材
  6
CONTINUOUS
 10
-71.942273
 20
-63.87628
 11
-71.942273
 21
-70.209613
  0
LINE
  8
別途部材
  6
CONTINUOUS
 10
-73.942273
 20
-64.87628
 11
-73.942273
 21
-70.209613
  0
LINE
  8
別途部材
  6
CONTINUOUS
 10
-74.942273
 20
-64.87628
 11
-74.942273
 21
-70.209613
  0
LINE
  8
別途部材
  6
CONTINUOUS
 10
-69.942273
 20
-64.87628
 11
-69.942273
 21
-70.209613
  0
LINE
  8
別途部材
  6
CONTINUOUS
 10
-67.942273
 20
-63.87628
 11
-67.942273
 21
-70.209613
  0
LINE
  8
別途部材
  6
CONTINUOUS
 10
-68.942273
 20
-63.87628
 11
-68.942273
 21
-70.209613
  0
LINE
  8
別途部材
  6
CONTINUOUS
 10
-66.942273
 20
-64.87628
 11
-66.942273
 21
-70.209613
  0
LINE
  8
別途部材
  6
CONTINUOUS
 10
-64.942273
 20
-63.87628
 11
-64.942273
 21
-70.209613
  0
LINE
  8
別途部材
  6
CONTINUOUS
 10
-65.942273
 20
-64.87628
 11
-65.942273
 21
-70.209613
  0
LINE
  8
別途部材
  6
CONTINUOUS
 10
-63.942273
 20
-63.87628
 11
-63.942273
 21
-70.209613
  0
LINE
  8
別途部材
  6
CONTINUOUS
 10
-62.942273
 20
-64.87628
 11
-62.942273
 21
-70.209613
  0
LINE
  8
別途部材
  6
CONTINUOUS
 10
-60.942273
 20
-63.87628
 11
-60.942273
 21
-70.209613
  0
LINE
  8
別途部材
  6
CONTINUOUS
 10
-61.942273
 20
-64.87628
 11
-61.942273
 21
-70.209613
  0
LINE
  8
別途部材
  6
CONTINUOUS
 10
-57.942273
 20
-64.87628
 11
-57.942273
 21
-70.209613
  0
LINE
  8
別途部材
  6
CONTINUOUS
 10
-58.942273
 20
-64.87628
 11
-58.942273
 21
-70.209613
  0
LINE
  8
別途部材
  6
CONTINUOUS
 10
-59.942273
 20
-63.87628
 11
-59.942273
 21
-70.209613
  0
LINE
  8
別途部材
  6
CONTINUOUS
 10
-56.942273
 20
-63.87628
 11
-56.942273
 21
-70.209613
  0
LINE
  8
別途部材
  6
CONTINUOUS
 10
-55.942273
 20
-63.87628
 11
-55.942273
 21
-70.209613
  0
LINE
  8
別途部材
  6
CONTINUOUS
 10
-54.942273
 20
-64.87628
 11
-54.942273
 21
-70.209613
  0
LINE
  8
別途部材
  6
CONTINUOUS
 10
-52.942273
 20
-63.87628
 11
-52.942273
 21
-70.209613
  0
LINE
  8
別途部材
  6
CONTINUOUS
 10
-48.942273
 20
-63.87628
 11
-48.942273
 21
-70.209613
  0
LINE
  8
別途部材
  6
CONTINUOUS
 10
-49.942273
 20
-64.87628
 11
-49.942273
 21
-70.209613
  0
LINE
  8
別途部材
  6
CONTINUOUS
 10
-50.942273
 20
-64.87628
 11
-50.942273
 21
-70.209613
  0
LINE
  8
別途部材
  6
CONTINUOUS
 10
-51.942273
 20
-63.87628
 11
-51.942273
 21
-70.209613
  0
LINE
  8
別途部材
  6
CONTINUOUS
 10
-53.942273
 20
-64.87628
 11
-53.942273
 21
-70.209613
  0
LINE
  8
別途部材
  6
CONTINUOUS
 10
-46.942273
 20
-64.87628
 11
-46.942273
 21
-70.209613
  0
LINE
  8
別途部材
  6
CONTINUOUS
 10
-47.942273
 20
-63.87628
 11
-47.942273
 21
-70.209613
  0
LINE
  8
別途部材
  6
CONTINUOUS
 10
-45.942273
 20
-64.87628
 11
-45.942273
 21
-70.209613
  0
LINE
  8
別途部材
  6
CONTINUOUS
 10
-44.942273
 20
-63.87628
 11
-44.942273
 21
-70.209613
  0
LINE
  8
別途部材
  6
CONTINUOUS
 10
-40.942273
 20
-63.87628
 11
-40.942273
 21
-70.209613
  0
LINE
  8
別途部材
  6
CONTINUOUS
 10
-39.942273
 20
-63.87628
 11
-39.942273
 21
-70.209613
  0
LINE
  8
別途部材
  6
CONTINUOUS
 10
-41.942273
 20
-64.87628
 11
-41.942273
 21
-70.209613
  0
LINE
  8
別途部材
  6
CONTINUOUS
 10
-42.942273
 20
-64.87628
 11
-42.942273
 21
-70.209613
  0
LINE
  8
別途部材
  6
CONTINUOUS
 10
-43.942273
 20
-63.87628
 11
-43.942273
 21
-70.209613
  0
LINE
  8
別途部材
  6
CONTINUOUS
 10
-38.942273
 20
-64.87628
 11
-38.942273
 21
-70.209613
  0
LINE
  8
別途部材
  6
CONTINUOUS
 10
-36.942273
 20
-63.87628
 11
-36.942273
 21
-70.209613
  0
LINE
  8
別途部材
  6
CONTINUOUS
 10
-35.942273
 20
-63.87628
 11
-35.942273
 21
-70.209613
  0
LINE
  8
別途部材
  6
CONTINUOUS
 10
-34.942273
 20
-64.87628
 11
-34.942273
 21
-70.209613
  0
LINE
  8
別途部材
  6
CONTINUOUS
 10
-33.942273
 20
-64.87628
 11
-33.942273
 21
-70.209613
  0
LINE
  8
別途部材
  6
CONTINUOUS
 10
-32.942273
 20
-63.87628
 11
-32.942273
 21
-70.209613
  0
LINE
  8
別途部材
  6
CONTINUOUS
 10
-37.942273
 20
-64.87628
 11
-37.942273
 21
-70.209613
  0
LINE
  8
別途部材
  6
CONTINUOUS
 10
-31.942273
 20
-63.87628
 11
-31.942273
 21
-70.209613
  0
LINE
  8
別途部材
  6
CONTINUOUS
 10
-30.942273
 20
-64.87628
 11
-30.942273
 21
-70.209613
  0
LINE
  8
別途部材
  6
CONTINUOUS
 10
-29.942273
 20
-64.87628
 11
-29.942273
 21
-70.209613
  0
LINE
  8
別途部材
  6
CONTINUOUS
 10
-27.942273
 20
-63.87628
 11
-27.942273
 21
-70.209613
  0
LINE
  8
別途部材
  6
CONTINUOUS
 10
-25.942273
 20
-64.87628
 11
-25.942273
 21
-70.209613
  0
LINE
  8
別途部材
  6
CONTINUOUS
 10
-24.942273
 20
-63.87628
 11
-24.942273
 21
-70.209613
  0
LINE
  8
別途部材
  6
CONTINUOUS
 10
-22.942273
 20
-64.87628
 11
-22.942273
 21
-70.209613
  0
LINE
  8
別途部材
  6
CONTINUOUS
 10
-21.942273
 20
-64.87628
 11
-21.942273
 21
-70.209613
  0
LINE
  8
別途部材
  6
CONTINUOUS
 10
-20.942273
 20
-63.87628
 11
-20.942273
 21
-70.209613
  0
LINE
  8
別途部材
  6
CONTINUOUS
 10
-23.942273
 20
-63.87628
 11
-23.942273
 21
-70.209613
  0
LINE
  8
別途部材
  6
CONTINUOUS
 10
-26.942273
 20
-64.87628
 11
-26.942273
 21
-70.209613
  0
LINE
  8
別途部材
  6
CONTINUOUS
 10
-28.942273
 20
-63.87628
 11
-28.942273
 21
-70.209613
  0
ARC
  8
別途部材
  6
CONTINUOUS
 10
-77.108943
 20
-76.917952
 40
12.041668
 50
93.968265
 51
146.144967
  0
LINE
  8
別途部材
  6
CONTINUOUS
 62
    96
 10
47.89106
 20
-70.209613
 11
48.29106
 21
-71.209613
  0
LINE
  8
別途部材
  6
CONTINUOUS
 62
    96
 10
47.89106
 20
-70.209613
 11
-20.442273
 21
-70.209613
  0
LINE
  8
別途部材
  6
CONTINUOUS
 10
48.29106
 20
-71.209613
 11
-20.442273
 21
-71.209613
  0
LINE
  8
別途部材
  6
CONTINUOUS
 10
-19.942273
 20
-63.87628
 11
-18.942273
 21
-64.87628
  0
LINE
  8
別途部材
  6
CONTINUOUS
 10
-17.942273
 20
-64.87628
 11
-16.942273
 21
-63.87628
  0
LINE
  8
別途部材
  6
CONTINUOUS
 10
-15.942273
 20
-63.87628
 11
-14.942273
 21
-64.87628
  0
LINE
  8
別途部材
  6
CONTINUOUS
 10
-16.942273
 20
-63.87628
 11
-15.942273
 21
-63.87628
  0
LINE
  8
別途部材
  6
CONTINUOUS
 10
-19.942273
 20
-63.87628
 11
-20.442273
 21
-63.87628
  0
LINE
  8
別途部材
  6
CONTINUOUS
 10
-13.942273
 20
-64.87628
 11
-12.942273
 21
-63.87628
  0
LINE
  8
別途部材
  6
CONTINUOUS
 10
-11.942273
 20
-63.87628
 11
-10.942273
 21
-64.87628
  0
LINE
  8
別途部材
  6
CONTINUOUS
 10
-12.942273
 20
-63.87628
 11
-11.942273
 21
-63.87628
  0
LINE
  8
別途部材
  6
CONTINUOUS
 10
-9.942273
 20
-64.87628
 11
-8.942273
 21
-63.87628
  0
LINE
  8
別途部材
  6
CONTINUOUS
 10
-7.942273
 20
-63.87628
 11
-6.942273
 21
-64.87628
  0
LINE
  8
別途部材
  6
CONTINUOUS
 10
-8.942273
 20
-63.87628
 11
-7.942273
 21
-63.87628
  0
LINE
  8
別途部材
  6
CONTINUOUS
 10
-5.942273
 20
-64.87628
 11
-4.942273
 21
-63.87628
  0
LINE
  8
別途部材
  6
CONTINUOUS
 10
-3.942273
 20
-63.87628
 11
-2.942273
 21
-64.87628
  0
LINE
  8
別途部材
  6
CONTINUOUS
 10
-4.942273
 20
-63.87628
 11
-3.942273
 21
-63.87628
  0
LINE
  8
別途部材
  6
CONTINUOUS
 10
-1.942273
 20
-64.87628
 11
-0.942273
 21
-63.87628
  0
LINE
  8
別途部材
  6
CONTINUOUS
 10
0.057727
 20
-63.87628
 11
1.057727
 21
-64.87628
  0
LINE
  8
別途部材
  6
CONTINUOUS
 10
-0.942273
 20
-63.87628
 11
0.057727
 21
-63.87628
  0
LINE
  8
別途部材
  6
CONTINUOUS
 10
2.057727
 20
-64.87628
 11
3.057727
 21
-63.87628
  0
LINE
  8
別途部材
  6
CONTINUOUS
 10
4.057727
 20
-63.87628
 11
5.057727
 21
-64.87628
  0
LINE
  8
別途部材
  6
CONTINUOUS
 10
3.057727
 20
-63.87628
 11
4.057727
 21
-63.87628
  0
LINE
  8
別途部材
  6
CONTINUOUS
 10
6.057727
 20
-64.87628
 11
7.057727
 21
-63.87628
  0
LINE
  8
別途部材
  6
CONTINUOUS
 10
8.057727
 20
-63.87628
 11
9.057727
 21
-64.87628
  0
LINE
  8
別途部材
  6
CONTINUOUS
 10
7.057727
 20
-63.87628
 11
8.057727
 21
-63.87628
  0
LINE
  8
別途部材
  6
CONTINUOUS
 10
10.057727
 20
-64.87628
 11
11.057727
 21
-63.87628
  0
LINE
  8
別途部材
  6
CONTINUOUS
 10
12.057727
 20
-63.87628
 11
13.057727
 21
-64.87628
  0
LINE
  8
別途部材
  6
CONTINUOUS
 10
11.057727
 20
-63.87628
 11
12.057727
 21
-63.87628
  0
LINE
  8
別途部材
  6
CONTINUOUS
 10
14.057727
 20
-64.87628
 11
15.057727
 21
-63.87628
  0
LINE
  8
別途部材
  6
CONTINUOUS
 10
16.057727
 20
-63.87628
 11
17.057727
 21
-64.87628
  0
LINE
  8
別途部材
  6
CONTINUOUS
 10
15.057727
 20
-63.87628
 11
16.057727
 21
-63.87628
  0
LINE
  8
別途部材
  6
CONTINUOUS
 10
18.057727
 20
-64.87628
 11
19.057727
 21
-63.87628
  0
LINE
  8
別途部材
  6
CONTINUOUS
 10
20.057727
 20
-63.87628
 11
21.057727
 21
-64.87628
  0
LINE
  8
別途部材
  6
CONTINUOUS
 10
19.057727
 20
-63.87628
 11
20.057727
 21
-63.87628
  0
LINE
  8
別途部材
  6
CONTINUOUS
 10
22.057727
 20
-64.87628
 11
23.057727
 21
-63.87628
  0
LINE
  8
別途部材
  6
CONTINUOUS
 10
24.057727
 20
-63.87628
 11
25.057727
 21
-64.87628
  0
LINE
  8
別途部材
  6
CONTINUOUS
 10
23.057727
 20
-63.87628
 11
24.057727
 21
-63.87628
  0
LINE
  8
別途部材
  6
CONTINUOUS
 10
21.057727
 20
-64.87628
 11
22.057727
 21
-64.87628
  0
LINE
  8
別途部材
  6
CONTINUOUS
 10
17.057727
 20
-64.87628
 11
18.057727
 21
-64.87628
  0
LINE
  8
別途部材
  6
CONTINUOUS
 10
13.057727
 20
-64.87628
 11
14.057727
 21
-64.87628
  0
LINE
  8
別途部材
  6
CONTINUOUS
 10
9.057727
 20
-64.87628
 11
10.057727
 21
-64.87628
  0
LINE
  8
別途部材
  6
CONTINUOUS
 10
5.057727
 20
-64.87628
 11
6.057727
 21
-64.87628
  0
LINE
  8
別途部材
  6
CONTINUOUS
 10
1.057727
 20
-64.87628
 11
2.057727
 21
-64.87628
  0
LINE
  8
別途部材
  6
CONTINUOUS
 10
-2.942273
 20
-64.87628
 11
-1.942273
 21
-64.87628
  0
LINE
  8
別途部材
  6
CONTINUOUS
 10
-6.942273
 20
-64.87628
 11
-5.942273
 21
-64.87628
  0
LINE
  8
別途部材
  6
CONTINUOUS
 10
-10.942273
 20
-64.87628
 11
-9.942273
 21
-64.87628
  0
LINE
  8
別途部材
  6
CONTINUOUS
 10
-14.942273
 20
-64.87628
 11
-13.942273
 21
-64.87628
  0
LINE
  8
別途部材
  6
CONTINUOUS
 10
-17.942273
 20
-64.87628
 11
-18.942273
 21
-64.87628
  0
LINE
  8
別途部材
  6
CONTINUOUS
 10
26.057727
 20
-64.87628
 11
27.057727
 21
-63.87628
  0
LINE
  8
別途部材
  6
CONTINUOUS
 10
28.057727
 20
-63.87628
 11
29.057727
 21
-64.87628
  0
LINE
  8
別途部材
  6
CONTINUOUS
 10
27.057727
 20
-63.87628
 11
28.057727
 21
-63.87628
  0
LINE
  8
別途部材
  6
CONTINUOUS
 10
30.057727
 20
-64.87628
 11
31.057727
 21
-63.87628
  0
LINE
  8
別途部材
  6
CONTINUOUS
 10
32.057727
 20
-63.87628
 11
33.057727
 21
-64.87628
  0
LINE
  8
別途部材
  6
CONTINUOUS
 10
31.057727
 20
-63.87628
 11
32.057727
 21
-63.87628
  0
LINE
  8
別途部材
  6
CONTINUOUS
 10
34.057727
 20
-64.87628
 11
35.057727
 21
-63.87628
  0
LINE
  8
別途部材
  6
CONTINUOUS
 10
36.057727
 20
-63.87628
 11
37.057727
 21
-64.87628
  0
LINE
  8
別途部材
  6
CONTINUOUS
 10
35.057727
 20
-63.87628
 11
36.057727
 21
-63.87628
  0
LINE
  8
別途部材
  6
CONTINUOUS
 10
33.057727
 20
-64.87628
 11
34.057727
 21
-64.87628
  0
LINE
  8
別途部材
  6
CONTINUOUS
 10
29.057727
 20
-64.87628
 11
30.057727
 21
-64.87628
  0
LINE
  8
別途部材
  6
CONTINUOUS
 10
25.057727
 20
-64.87628
 11
26.057727
 21
-64.87628
  0
LINE
  8
別途部材
  6
CONTINUOUS
 10
37.057727
 20
-64.87628
 11
37.057727
 21
-70.209613
  0
LINE
  8
別途部材
  6
CONTINUOUS
 10
36.057727
 20
-63.87628
 11
36.057727
 21
-70.209613
  0
LINE
  8
別途部材
  6
CONTINUOUS
 10
35.057727
 20
-63.87628
 11
35.057727
 21
-70.209613
  0
LINE
  8
別途部材
  6
CONTINUOUS
 10
32.057727
 20
-63.87628
 11
32.057727
 21
-70.209613
  0
LINE
  8
別途部材
  6
CONTINUOUS
 10
30.057727
 20
-64.87628
 11
30.057727
 21
-70.209613
  0
LINE
  8
別途部材
  6
CONTINUOUS
 10
31.057727
 20
-63.87628
 11
31.057727
 21
-70.209613
  0
LINE
  8
別途部材
  6
CONTINUOUS
 10
33.057727
 20
-64.87628
 11
33.057727
 21
-70.209613
  0
LINE
  8
別途部材
  6
CONTINUOUS
 10
34.057727
 20
-64.87628
 11
34.057727
 21
-70.209613
  0
LINE
  8
別途部材
  6
CONTINUOUS
 10
29.057727
 20
-64.87628
 11
29.057727
 21
-70.209613
  0
LINE
  8
別途部材
  6
CONTINUOUS
 10
27.057727
 20
-63.87628
 11
27.057727
 21
-70.209613
  0
LINE
  8
別途部材
  6
CONTINUOUS
 10
28.057727
 20
-63.87628
 11
28.057727
 21
-70.209613
  0
LINE
  8
別途部材
  6
CONTINUOUS
 10
26.057727
 20
-64.87628
 11
26.057727
 21
-70.209613
  0
LINE
  8
別途部材
  6
CONTINUOUS
 10
24.057727
 20
-63.87628
 11
24.057727
 21
-70.209613
  0
LINE
  8
別途部材
  6
CONTINUOUS
 10
25.057727
 20
-64.87628
 11
25.057727
 21
-70.209613
  0
LINE
  8
別途部材
  6
CONTINUOUS
 10
23.057727
 20
-63.87628
 11
23.057727
 21
-70.209613
  0
LINE
  8
別途部材
  6
CONTINUOUS
 10
22.057727
 20
-64.87628
 11
22.057727
 21
-70.209613
  0
LINE
  8
別途部材
  6
CONTINUOUS
 10
20.057727
 20
-63.87628
 11
20.057727
 21
-70.209613
  0
LINE
  8
別途部材
  6
CONTINUOUS
 10
21.057727
 20
-64.87628
 11
21.057727
 21
-70.209613
  0
LINE
  8
別途部材
  6
CONTINUOUS
 10
17.057727
 20
-64.87628
 11
17.057727
 21
-70.209613
  0
LINE
  8
別途部材
  6
CONTINUOUS
 10
18.057727
 20
-64.87628
 11
18.057727
 21
-70.209613
  0
LINE
  8
別途部材
  6
CONTINUOUS
 10
19.057727
 20
-63.87628
 11
19.057727
 21
-70.209613
  0
LINE
  8
別途部材
  6
CONTINUOUS
 10
16.057727
 20
-63.87628
 11
16.057727
 21
-70.209613
  0
LINE
  8
別途部材
  6
CONTINUOUS
 10
15.057727
 20
-63.87628
 11
15.057727
 21
-70.209613
  0
LINE
  8
別途部材
  6
CONTINUOUS
 10
14.057727
 20
-64.87628
 11
14.057727
 21
-70.209613
  0
LINE
  8
別途部材
  6
CONTINUOUS
 10
12.057727
 20
-63.87628
 11
12.057727
 21
-70.209613
  0
LINE
  8
別途部材
  6
CONTINUOUS
 10
8.057727
 20
-63.87628
 11
8.057727
 21
-70.209613
  0
LINE
  8
別途部材
  6
CONTINUOUS
 10
9.057727
 20
-64.87628
 11
9.057727
 21
-70.209613
  0
LINE
  8
別途部材
  6
CONTINUOUS
 10
10.057727
 20
-64.87628
 11
10.057727
 21
-70.209613
  0
LINE
  8
別途部材
  6
CONTINUOUS
 10
11.057727
 20
-63.87628
 11
11.057727
 21
-70.209613
  0
LINE
  8
別途部材
  6
CONTINUOUS
 10
13.057727
 20
-64.87628
 11
13.057727
 21
-70.209613
  0
LINE
  8
別途部材
  6
CONTINUOUS
 10
6.057727
 20
-64.87628
 11
6.057727
 21
-70.209613
  0
LINE
  8
別途部材
  6
CONTINUOUS
 10
7.057727
 20
-63.87628
 11
7.057727
 21
-70.209613
  0
LINE
  8
別途部材
  6
CONTINUOUS
 10
5.057727
 20
-64.87628
 11
5.057727
 21
-70.209613
  0
LINE
  8
別途部材
  6
CONTINUOUS
 10
4.057727
 20
-63.87628
 11
4.057727
 21
-70.209613
  0
LINE
  8
別途部材
  6
CONTINUOUS
 10
0.057727
 20
-63.87628
 11
0.057727
 21
-70.209613
  0
LINE
  8
別途部材
  6
CONTINUOUS
 10
-0.942273
 20
-63.87628
 11
-0.942273
 21
-70.209613
  0
LINE
  8
別途部材
  6
CONTINUOUS
 10
1.057727
 20
-64.87628
 11
1.057727
 21
-70.209613
  0
LINE
  8
別途部材
  6
CONTINUOUS
 10
2.057727
 20
-64.87628
 11
2.057727
 21
-70.209613
  0
LINE
  8
別途部材
  6
CONTINUOUS
 10
3.057727
 20
-63.87628
 11
3.057727
 21
-70.209613
  0
LINE
  8
別途部材
  6
CONTINUOUS
 10
-1.942273
 20
-64.87628
 11
-1.942273
 21
-70.209613
  0
LINE
  8
別途部材
  6
CONTINUOUS
 10
-3.942273
 20
-63.87628
 11
-3.942273
 21
-70.209613
  0
LINE
  8
別途部材
  6
CONTINUOUS
 10
-4.942273
 20
-63.87628
 11
-4.942273
 21
-70.209613
  0
LINE
  8
別途部材
  6
CONTINUOUS
 10
-5.942273
 20
-64.87628
 11
-5.942273
 21
-70.209613
  0
LINE
  8
別途部材
  6
CONTINUOUS
 10
-6.942273
 20
-64.87628
 11
-6.942273
 21
-70.209613
  0
LINE
  8
別途部材
  6
CONTINUOUS
 10
-7.942273
 20
-63.87628
 11
-7.942273
 21
-70.209613
  0
LINE
  8
別途部材
  6
CONTINUOUS
 10
-2.942273
 20
-64.87628
 11
-2.942273
 21
-70.209613
  0
LINE
  8
別途部材
  6
CONTINUOUS
 10
-8.942273
 20
-63.87628
 11
-8.942273
 21
-70.209613
  0
LINE
  8
別途部材
  6
CONTINUOUS
 10
-9.942273
 20
-64.87628
 11
-9.942273
 21
-70.209613
  0
LINE
  8
別途部材
  6
CONTINUOUS
 10
-10.942273
 20
-64.87628
 11
-10.942273
 21
-70.209613
  0
LINE
  8
別途部材
  6
CONTINUOUS
 10
-12.942273
 20
-63.87628
 11
-12.942273
 21
-70.209613
  0
LINE
  8
別途部材
  6
CONTINUOUS
 10
-14.942273
 20
-64.87628
 11
-14.942273
 21
-70.209613
  0
LINE
  8
別途部材
  6
CONTINUOUS
 10
-15.942273
 20
-63.87628
 11
-15.942273
 21
-70.209613
  0
LINE
  8
別途部材
  6
CONTINUOUS
 10
-17.942273
 20
-64.87628
 11
-17.942273
 21
-70.209613
  0
LINE
  8
別途部材
  6
CONTINUOUS
 10
-18.942273
 20
-64.87628
 11
-18.942273
 21
-70.209613
  0
LINE
  8
別途部材
  6
CONTINUOUS
 10
-19.942273
 20
-63.87628
 11
-19.942273
 21
-70.209613
  0
LINE
  8
別途部材
  6
CONTINUOUS
 10
-16.942273
 20
-63.87628
 11
-16.942273
 21
-70.209613
  0
LINE
  8
別途部材
  6
CONTINUOUS
 10
-13.942273
 20
-64.87628
 11
-13.942273
 21
-70.209613
  0
LINE
  8
別途部材
  6
CONTINUOUS
 10
-11.942273
 20
-63.87628
 11
-11.942273
 21
-70.209613
  0
ARC
  8
別途部材
  6
CONTINUOUS
 10
36.224396
 20
-76.917952
 40
12.041668
 50
33.855033
 51
86.031735
  0
ENDBLK
  0
BLOCK
  2
*DIM_0005
 70
    65
 10
0.0
 20
0.0
  0
LINE
  8
寸法
  6
BYBLOCK
 62
     0
 10
44.224393
 20
17.20722
 11
44.224393
 21
14.182178
  0
LINE
  8
寸法
  6
BYBLOCK
 62
     0
 10
46.224393
 20
14.182178
 11
44.224393
 21
14.182178
  0
POINT
  8
寸法
 62
     0
 10
46.224393
 20
14.182178
  0
POINT
  8
寸法
 62
     0
 10
44.224393
 20
14.182178
  0
TEXT
  7
TextStyle03
  8
寸法
  6
CONTINUOUS
 62
     0
 10
42.33125
 20
10.4
  1
60
 40
3.0
 72
     5
 11
45.51875
 21
10.4
  0
ENDBLK
  0
BLOCK
  2
*DIM_0006
 70
    65
 10
0.0
 20
0.0
  0
LINE
  8
寸法
  6
BYBLOCK
 62
     0
 10
-85.108943
 20
17.20722
 11
-85.108943
 21
14.182178
  0
LINE
  8
寸法
  6
BYBLOCK
 62
     0
 10
-87.108943
 20
14.182178
 11
-85.108943
 21
14.182178
  0
POINT
  8
寸法
 62
     0
 10
-87.108943
 20
14.182178
  0
POINT
  8
寸法
 62
     0
 10
-85.108943
 20
14.182178
  0
TEXT
  7
TextStyle03
  8
寸法
  6
CONTINUOUS
 62
     0
 10
-86.41875
 20
10.4
  1
60
 40
3.0
 72
     5
 11
-83.23125
 21
10.4
  0
ENDBLK
  0
BLOCK
  2
*DIM_0007
 70
    65
 10
0.0
 20
0.0
  0
LINE
  8
寸法
  6
BYBLOCK
 62
     0
 10
80.244043
 20
22.814033
 11
80.244043
 21
42.814033
  0
POINT
  8
寸法
 62
     0
 10
80.244043
 20
22.814033
  0
POINT
  8
寸法
 62
     0
 10
80.244043
 20
42.814033
  0
TEXT
  7
TextStyle03
  8
寸法
  6
CONTINUOUS
 62
     0
 10
79.85
 20
21.925
  1
呼称寸法　600
 40
3.0
 50
90.0
 72
     5
 11
79.85
 21
43.675
  0
ENDBLK
  0
BLOCK
  2
*DIM_0008
 70
    65
 10
0.0
 20
0.0
  0
LINE
  8
寸法
  6
BYBLOCK
 62
     0
 10
130.424325
 20
33.814033
 11
130.424325
 21
60.666798
  0
LINE
  8
寸法
  6
BYBLOCK
 62
     0
 10
135.757657
 20
60.666798
 11
130.424325
 21
60.666798
  0
POINT
  8
寸法
 62
     0
 10
135.757657
 20
60.666798
  0
POINT
  8
寸法
 62
     0
 10
130.424325
 20
60.666798
  0
TEXT
  7
TextStyle03
  8
寸法
  6
CONTINUOUS
 62
     0
 10
130.6375
 20
61.025
  1
160
 40
3.0
 72
     5
 11
135.5125
 21
61.025
  0
ENDBLK
  0
BLOCK
  2
*GRP_0009
 70
    65
 10
0.0
 20
0.0
  0
LINE
  8
別途部材
  6
CONTINUOUS
 62
    96
 10
140.8411
 20
44.047688
 11
140.8411
 21
43.947688
  0
LINE
  8
別途部材
  6
CONTINUOUS
 62
    96
 10
138.74002
 20
44.147688
 11
138.809695
 21
45.478492
  0
LINE
  8
別途部材
  6
CONTINUOUS
 62
    96
 10
139.357768
 20
45.487687
 11
139.2411
 21
45.754355
  0
LINE
  8
別途部材
  6
CONTINUOUS
 62
    96
 10
139.257768
 20
45.466772
 11
139.190248
 21
45.621105
  0
LINE
  8
別途部材
  6
CONTINUOUS
 62
    96
 10
138.710925
 20
45.50461
 11
138.841375
 21
45.764812
  0
LINE
  8
別途部材
  6
CONTINUOUS
 62
    96
 10
138.809695
 20
45.478492
 11
138.941855
 21
45.742105
  0
LINE
  8
別途部材
  6
CONTINUOUS
 62
    96
 10
138.977455
 20
45.677223
 11
138.91381
 21
45.600093
  0
LINE
  8
別途部材
  6
DASHDOTX2
 62
    96
 10
139.0411
 20
45.754355
 11
138.727615
 21
45.754355
  0
LINE
  8
別途部材
  6
DASHDOTX2
 62
    96
 10
139.0411
 20
45.754355
 11
139.37156
 21
45.754355
  0
LINE
  8
別途部材
  6
DASHDOTX2
 62
    96
 10
139.0411
 20
45.754355
 11
139.0411
 21
45.490883
  0
LINE
  8
別途部材
  6
DASHDOTX2
 62
    96
 10
139.0411
 20
45.754355
 11
139.0411
 21
46.032665
  0
LINE
  8
別途部材
  6
CONTINUOUS
 62
    96
 10
139.257768
 20
43.947688
 11
139.257768
 21
45.466772
  0
LINE
  8
別途部材
  6
CONTINUOUS
 62
    96
 10
139.357768
 20
44.047688
 11
139.357768
 21
45.487687
  0
LINE
  8
別途部材
  6
CONTINUOUS
 62
    96
 10
137.506688
 20
44.24769
 11
138.64512
 21
44.24769
  0
LINE
  8
別途部材
  6
CONTINUOUS
 62
    96
 10
137.506688
 20
44.147688
 11
137.506688
 21
44.24769
  0
LINE
  8
別途部材
  6
CONTINUOUS
 62
    96
 10
137.506688
 20
44.147688
 11
138.74002
 21
44.147688
  0
CIRCLE
  8
別途部材
  6
CONTINUOUS
 62
    96
 10
139.0411
 20
45.754355
 40
0.1
  0
ARC
  8
別途部材
  6
CONTINUOUS
 62
    96
 10
139.0411
 20
45.754355
 40
0.2
 50
218.780606
 51
537.001556
  0
LINE
  8
別途部材
  6
CONTINUOUS
 62
    96
 10
139.257768
 20
43.947688
 11
140.8411
 21
43.947688
  0
LINE
  8
別途部材
  6
CONTINUOUS
 62
    96
 10
139.357768
 20
44.047688
 11
140.8411
 21
44.047688
  0
LINE
  8
別途部材
  6
CONTINUOUS
 62
    96
 10
138.710925
 20
45.50461
 11
138.64512
 21
44.24769
  0
ENDBLK
  0
BLOCK
  2
*DIM_0010
 70
    65
 10
0.0
 20
0.0
  0
LINE
  8
寸法
  6
BYBLOCK
 62
     0
 10
135.757657
 20
47.4807
 11
135.757657
 21
60.666798
  0
LINE
  8
寸法
  6
BYBLOCK
 62
     0
 10
141.657777
 20
49.147505
 11
141.657777
 21
60.666798
  0
LINE
  8
寸法
  6
BYBLOCK
 62
     0
 10
135.757657
 20
60.666798
 11
141.657777
 21
60.666798
  0
POINT
  8
寸法
 62
     0
 10
135.757657
 20
60.666798
  0
POINT
  8
寸法
 62
     0
 10
141.657777
 20
60.666798
  0
TEXT
  7
TextStyle03
  8
寸法
  6
CONTINUOUS
 62
     0
 10
136.2375
 20
61.025
  1
177
 40
3.0
 72
     5
 11
141.1125
 21
61.025
  0
ENDBLK
  0
BLOCK
  2
*DIM_0011
 70
    65
 10
0.0
 20
0.0
  0
LINE
  8
寸法
  6
BYBLOCK
 62
     0
 10
138.157775
 20
46.147505
 11
80.244043
 21
46.147505
  0
LINE
  8
寸法
  6
BYBLOCK
 62
     0
 10
80.244043
 20
42.814033
 11
80.244043
 21
46.147505
  0
POINT
  8
寸法
 62
     0
 10
80.244043
 20
42.814033
  0
POINT
  8
寸法
 62
     0
 10
80.244043
 20
46.147505
  0
TEXT
  7
TextStyle03
  8
寸法
  6
CONTINUOUS
 62
     0
 10
83.225
 20
46.9625
  1
100
 40
3.0
 50
90.0
 72
     5
 11
83.225
 21
51.8375
  0
ENDBLK
  0
BLOCK
  2
*DIM_0012
 70
    65
 10
0.0
 20
0.0
  0
LINE
  8
寸法
  6
BYBLOCK
 62
     0
 10
138.157775
 20
19.48056
 11
80.244043
 21
19.48056
  0
LINE
  8
寸法
  6
BYBLOCK
 62
     0
 10
80.244043
 20
22.814033
 11
80.244043
 21
19.48056
  0
POINT
  8
寸法
 62
     0
 10
80.244043
 20
22.814033
  0
POINT
  8
寸法
 62
     0
 10
80.244043
 20
19.48056
  0
TEXT
  7
TextStyle03
  8
寸法
  6
CONTINUOUS
 62
     0
 10
83.225
 20
13.7875
  1
100
 40
3.0
 50
90.0
 72
     5
 11
83.225
 21
18.6625
  0
ENDBLK
  0
BLOCK
  2
*DIM_0013
 70
    65
 10
0.0
 20
0.0
  0
LINE
  8
寸法
  6
BYBLOCK
 62
     0
 10
37.224393
 20
-64.87628
 11
62.194043
 21
-64.87628
  0
LINE
  8
寸法
  6
BYBLOCK
 62
     0
 10
62.194043
 20
-70.209613
 11
62.194043
 21
-64.87628
  0
POINT
  8
寸法
 62
     0
 10
62.194043
 20
-70.209613
  0
POINT
  8
寸法
 62
     0
 10
62.194043
 20
-64.87628
  0
TEXT
  7
TextStyle03
  8
寸法
  6
CONTINUOUS
 62
     0
 10
61.8
 20
-69.9875
  1
160
 40
3.0
 50
90.0
 72
     5
 11
61.8
 21
-65.1125
  0
ENDBLK
  0
BLOCK
  2
*DIM_0014
 70
    65
 10
0.0
 20
0.0
  0
LINE
  8
寸法
  6
BYBLOCK
 62
     0
 10
50.89106
 20
-70.209613
 11
62.194043
 21
-70.209613
  0
LINE
  8
寸法
  6
BYBLOCK
 62
     0
 10
52.557868
 20
-76.109732
 11
62.194043
 21
-76.109732
  0
LINE
  8
寸法
  6
BYBLOCK
 62
     0
 10
62.194043
 20
-70.209613
 11
62.194043
 21
-76.109732
  0
POINT
  8
寸法
 62
     0
 10
62.194043
 20
-70.209613
  0
POINT
  8
寸法
 62
     0
 10
62.194043
 20
-76.109732
  0
TEXT
  7
TextStyle03
  8
寸法
  6
CONTINUOUS
 62
     0
 10
61.8
 20
-75.6125
  1
177
 40
3.0
 50
90.0
 72
     5
 11
61.8
 21
-70.7375
  0
ENDBLK
  0
BLOCK
  2
*DIM_0015
 70
    65
 10
0.0
 20
0.0
  0
LINE
  8
寸法
  6
BYBLOCK
 62
     0
 10
49.557868
 20
-72.60973
 11
49.557868
 21
-13.121378
  0
LINE
  8
寸法
  6
BYBLOCK
 62
     0
 10
46.224393
 20
-13.121378
 11
49.557868
 21
-13.121378
  0
POINT
  8
寸法
 62
     0
 10
46.224393
 20
-13.121378
  0
POINT
  8
寸法
 62
     0
 10
49.557868
 20
-13.121378
  0
TEXT
  7
TextStyle03
  8
寸法
  6
CONTINUOUS
 62
     0
 10
50.6625
 20
-15.85
  1
100
 40
3.0
 72
     5
 11
55.5375
 21
-15.85
  0
ENDBLK
  0
BLOCK
  2
*DIM_0016
 70
    65
 10
0.0
 20
0.0
  0
LINE
  8
寸法
  6
BYBLOCK
 62
     0
 10
-90.442418
 20
-72.60973
 11
-90.442418
 21
-13.121378
  0
LINE
  8
寸法
  6
BYBLOCK
 62
     0
 10
-87.108943
 20
-13.121378
 11
-90.442418
 21
-13.121378
  0
POINT
  8
寸法
 62
     0
 10
-87.108943
 20
-13.121378
  0
POINT
  8
寸法
 62
     0
 10
-90.442418
 20
-13.121378
  0
TEXT
  7
TextStyle03
  8
寸法
  6
CONTINUOUS
 62
     0
 10
-96.4375
 20
-15.85
  1
100
 40
3.0
 72
     5
 11
-91.5625
 21
-15.85
  0
ENDBLK
  0
BLOCK
  2
*DIM_0017
 70
    65
 10
0.0
 20
0.0
  0
LINE
  8
寸法
  6
BYBLOCK
 62
     0
 10
136.58817
 20
-53.448973
 11
143.321257
 21
-53.448973
  0
LINE
  8
寸法
  6
BYBLOCK
 62
     0
 10
136.58817
 20
-73.982308
 11
143.321257
 21
-73.982308
  0
LINE
  8
寸法
  6
BYBLOCK
 62
     0
 10
143.321257
 20
-53.448973
 11
143.321257
 21
-73.982308
  0
POINT
  8
寸法
 62
     0
 10
143.321257
 20
-53.448973
  0
POINT
  8
寸法
 62
     0
 10
143.321257
 20
-73.982308
  0
TEXT
  7
TextStyle03
  8
寸法
  6
CONTINUOUS
 62
     0
 10
142.925
 20
-66.1375
  1
616
 40
3.0
 50
90.0
 72
     5
 11
142.925
 21
-61.2625
  0
ENDBLK
  0
BLOCK
  2
*GRP_0018
 70
    65
 10
0.0
 20
0.0
  0
LINE
  8
型材断面
  6
DOT
 62
    47
 10
136.947853
 20
45.560835
 11
136.947853
 21
45.574975
  0
LINE
  8
型材断面
  6
DOT
 62
    47
 10
136.947853
 20
45.560835
 11
136.961995
 21
45.560835
  0
LINE
  8
型材断面
  6
DOT
 62
    47
 10
137.401978
 20
45.10671
 11
137.401978
 21
45.12085
  0
LINE
  8
型材断面
  6
DOT
 62
    47
 10
137.401978
 20
45.10671
 11
137.41612
 21
45.10671
  0
LINE
  8
型材断面
  6
DOT
 62
    47
 10
137.704455
 20
44.818373
 11
137.41612
 21
45.10671
  0
LINE
  8
型材断面
  6
DOT
 62
    47
 10
137.401978
 20
45.12085
 11
136.961995
 21
45.560835
  0
LINE
  8
型材断面
  6
DOT
 62
    47
 10
136.947853
 20
45.574975
 11
136.45522
 21
46.067607
  0
LINE
  8
型材断面
  6
DOT
 62
    47
 10
136.45522
 20
46.067607
 11
128.441343
 21
38.05373
  0
LINE
  8
型材断面
  6
DOT
 10
137.704455
 20
44.818373
 11
129.690577
 21
36.804495
  0
LINE
  8
型材断面
  6
DOT
 10
129.737478
 20
36.757595
 11
138.647122
 21
45.66724
  0
LINE
  8
型材断面
  6
DOT
 62
    47
 10
138.647122
 20
45.66724
 11
138.764948
 21
45.549417
  0
LINE
  8
型材断面
  6
DOT
 62
    47
 10
129.8553
 20
36.639773
 11
138.764948
 21
45.549417
  0
LINE
  8
型材断面
  6
DOT
 62
    47
 10
137.704455
 20
44.818373
 11
138.647122
 21
45.66724
  0
LINE
  8
型材断面
  6
DOT
 62
    47
 10
136.26431
 20
45.876695
 11
136.099237
 21
46.041768
  0
LINE
  8
型材断面
  6
DOT
 62
    47
 10
120.93424
 20
29.547222
 11
120.920097
 21
29.547222
  0
LINE
  8
型材断面
  6
DOT
 62
    47
 10
120.93424
 20
29.547222
 11
120.93424
 21
29.53308
  0
LINE
  8
型材断面
  6
DOT
 62
    47
 10
121.388365
 20
29.093097
 11
121.374223
 21
29.093097
  0
LINE
  8
型材断面
  6
DOT
 62
    47
 10
121.388365
 20
29.093097
 11
121.388365
 21
29.078955
  0
LINE
  8
型材断面
  6
DOT
 62
    47
 10
121.676702
 20
28.790618
 11
121.388365
 21
29.078955
  0
LINE
  8
型材断面
  6
DOT
 62
    47
 10
121.374223
 20
29.093097
 11
120.93424
 21
29.53308
  0
LINE
  8
型材断面
  6
DOT
 62
    47
 10
120.920097
 20
29.547222
 11
120.427468
 21
30.039853
  0
LINE
  8
型材断面
  6
DOT
 62
    47
 10
120.427468
 20
30.039853
 11
128.441345
 21
38.05373
  0
LINE
  8
型材断面
  6
DOT
 10
121.676702
 20
28.790618
 11
129.69058
 21
36.804495
  0
LINE
  8
型材断面
  6
DOT
 10
129.737478
 20
36.757597
 11
120.827832
 21
27.84795
  0
LINE
  8
型材断面
  6
DOT
 62
    47
 10
120.827832
 20
27.84795
 11
120.945655
 21
27.730127
  0
LINE
  8
型材断面
  6
DOT
 62
    47
 10
129.855302
 20
36.639773
 11
120.945655
 21
27.730127
  0
LINE
  8
型材断面
  6
DOT
 62
    47
 10
121.676702
 20
28.790618
 11
120.827832
 21
27.84795
  0
LINE
  8
型材断面
  6
DOT
 62
    47
 10
120.618377
 20
30.230765
 11
120.453307
 21
30.395838
  0
LINE
  8
別途部材
  6
DOT
 62
    96
 10
135.818745
 20
47.17549
 11
136.808695
 21
46.751225
  0
LINE
  8
別途部材
  6
DOT
 62
    96
 10
135.818745
 20
47.17549
 11
127.569165
 21
38.92591
  0
LINE
  8
別途部材
  6
DOT
 10
136.808695
 20
46.751225
 11
128.276273
 21
38.218802
  0
LINE
  8
別途部材
  6
DOT
 62
    96
 10
119.319585
 20
30.67633
 11
119.74385
 21
29.68638
  0
LINE
  8
別途部材
  6
DOT
 62
    96
 10
119.319585
 20
30.67633
 11
127.569165
 21
38.92591
  0
LINE
  8
別途部材
  6
DOT
 10
119.74385
 20
29.68638
 11
128.276273
 21
38.218802
  0
ARC
  8
別途部材
  6
DOT
 10
132.312675
 20
34.1824
 40
12.041667
 50
78.855033
 51
191.144967
  0
ENDBLK
  0
BLOCK
  2
*DIM_0019
 70
    65
 10
0.0
 20
0.0
  0
LINE
  8
寸法
  6
BYBLOCK
 62
     0
 10
100.754838
 20
-50.448973
 11
100.754838
 21
-43.883047
  0
LINE
  8
寸法
  6
BYBLOCK
 62
     0
 10
133.58817
 20
-50.448973
 11
133.58817
 21
-43.883047
  0
LINE
  8
寸法
  6
BYBLOCK
 62
     0
 10
100.754838
 20
-43.883047
 11
133.58817
 21
-43.883047
  0
POINT
  8
寸法
 62
     0
 10
100.754838
 20
-43.883047
  0
POINT
  8
寸法
 62
     0
 10
133.58817
 20
-43.883047
  0
TEXT
  7
TextStyle03
  8
寸法
  6
CONTINUOUS
 62
     0
 10
114.7125
 20
-43.525
  1
985
 40
3.0
 72
     5
 11
119.5875
 21
-43.525
  0
ENDBLK
  0
BLOCK
  2
*DIM_0020
 70
    65
 10
0.0
 20
0.0
  0
LINE
  8
寸法
  6
BYBLOCK
 62
     0
 10
-90.10894
 20
39.4807
 11
-103.401778
 21
39.4807
  0
LINE
  8
寸法
  6
BYBLOCK
 62
     0
 10
-90.10894
 20
26.147365
 11
-103.401778
 21
26.147365
  0
LINE
  8
寸法
  6
BYBLOCK
 62
     0
 10
-103.401778
 20
39.4807
 11
-103.401778
 21
26.147365
  0
POINT
  8
寸法
 62
     0
 10
-103.401778
 20
39.4807
  0
POINT
  8
寸法
 62
     0
 10
-103.401778
 20
26.147365
  0
TEXT
  7
TextStyle03
  8
寸法
  6
CONTINUOUS
 62
     0
 10
-103.825
 20
30.3625
  1
400
 40
3.0
 50
90.0
 72
     5
 11
-103.825
 21
35.2375
  0
ENDBLK
  0
BLOCK
  2
*DIM_0021
 70
    65
 10
0.0
 20
0.0
  0
LINE
  8
寸法
  6
BYBLOCK
 62
     0
 10
-78.775608
 20
45.814033
 11
-78.775608
 21
74.922105
  0
LINE
  8
寸法
  6
BYBLOCK
 62
     0
 10
-55.442275
 20
45.814033
 11
-55.442275
 21
74.922105
  0
LINE
  8
寸法
  6
BYBLOCK
 62
     0
 10
-78.775608
 20
74.922105
 11
-55.442275
 21
74.922105
  0
POINT
  8
寸法
 62
     0
 10
-78.775608
 20
74.922105
  0
POINT
  8
寸法
 62
     0
 10
-55.442275
 20
74.922105
  0
TEXT
  7
TextStyle03
  8
寸法
  6
CONTINUOUS
 62
     0
 10
-69.5625
 20
75.275
  1
700
 40
3.0
 72
     5
 11
-64.6875
 21
75.275
  0
ENDBLK
  0
BLOCK
  2
*DIM_0022
 70
    65
 10
0.0
 20
0.0
  0
LINE
  8
寸法
  6
BYBLOCK
 62
     0
 10
-32.108943
 20
45.814033
 11
-32.108943
 21
74.922105
  0
LINE
  8
寸法
  6
BYBLOCK
 62
     0
 10
-55.442275
 20
74.922105
 11
-32.108943
 21
74.922105
  0
POINT
  8
寸法
 62
     0
 10
-32.108943
 20
74.922105
  0
TEXT
  7
TextStyle03
  8
寸法
  6
CONTINUOUS
 62
     0
 10
-46.2375
 20
75.275
  1
700
 40
3.0
 72
     5
 11
-41.3625
 21
75.275
  0
ENDBLK
  0
BLOCK
  2
*DIM_0023
 70
    65
 10
0.0
 20
0.0
  0
LINE
  8
寸法
  6
BYBLOCK
 62
     0
 10
-8.775608
 20
45.814033
 11
-8.775608
 21
74.922105
  0
LINE
  8
寸法
  6
BYBLOCK
 62
     0
 10
-32.108943
 20
74.922105
 11
-8.775608
 21
74.922105
  0
POINT
  8
寸法
 62
     0
 10
-8.775608
 20
74.922105
  0
TEXT
  7
TextStyle03
  8
寸法
  6
CONTINUOUS
 62
     0
 10
-22.9125
 20
75.275
  1
700
 40
3.0
 72
     5
 11
-18.0375
 21
75.275
  0
ENDBLK
  0
BLOCK
  2
*DIM_0024
 70
    65
 10
0.0
 20
0.0
  0
LINE
  8
寸法
  6
BYBLOCK
 62
     0
 10
14.557725
 20
45.814033
 11
14.557725
 21
74.922105
  0
LINE
  8
寸法
  6
BYBLOCK
 62
     0
 10
-8.775608
 20
74.922105
 11
14.557725
 21
74.922105
  0
POINT
  8
寸法
 62
     0
 10
14.557725
 20
74.922105
  0
TEXT
  7
TextStyle03
  8
寸法
  6
CONTINUOUS
 62
     0
 10
0.4375
 20
75.275
  1
700
 40
3.0
 72
     5
 11
5.3125
 21
75.275
  0
ENDBLK
  0
BLOCK
  2
*DIM_0025
 70
    65
 10
0.0
 20
0.0
  0
LINE
  8
寸法
  6
BYBLOCK
 62
     0
 10
37.891057
 20
45.814033
 11
37.891057
 21
74.922105
  0
LINE
  8
寸法
  6
BYBLOCK
 62
     0
 10
14.557725
 20
74.922105
 11
37.891057
 21
74.922105
  0
POINT
  8
寸法
 62
     0
 10
37.891057
 20
74.922105
  0
TEXT
  7
TextStyle03
  8
寸法
  6
CONTINUOUS
 62
     0
 10
23.7625
 20
75.275
  1
700
 40
3.0
 72
     5
 11
28.6375
 21
75.275
  0
ENDBLK
  0
BLOCK
  2
*GRP_0026
 70
    65
 10
0.0
 20
0.0
  0
LINE
  8
ボルト／ビス
  6
CONTINUOUS
 10
-87.77561
 20
-70.209613
 11
-87.77561
 21
-69.742945
  0
LINE
  8
ボルト／ビス
  6
CONTINUOUS
 10
-87.408943
 20
-70.209613
 11
-87.408943
 21
-70.142945
  0
LINE
  8
ボルト／ビス
  6
CONTINUOUS
 10
-87.408943
 20
-70.142945
 11
-88.142278
 21
-70.142945
  0
LINE
  8
ボルト／ビス
  6
CONTINUOUS
 10
-88.142278
 20
-70.142945
 11
-88.142278
 21
-70.209613
  0
LINE
  8
ボルト／ビス
  6
CONTINUOUS
 10
-87.408943
 20
-70.209613
 11
-88.142278
 21
-70.209613
  0
LINE
  8
ボルト／ビス
  6
CONTINUOUS
 10
-87.47561
 20
-70.109612
 11
-87.47561
 21
-70.142945
  0
LINE
  8
ボルト／ビス
  6
CONTINUOUS
 10
-87.47561
 20
-70.109612
 11
-88.07561
 21
-70.109612
  0
LINE
  8
ボルト／ビス
  6
CONTINUOUS
 10
-88.07561
 20
-70.109612
 11
-88.07561
 21
-70.142945
  0
LINE
  8
ボルト／ビス
  6
CONTINUOUS
 62
    64
 10
-87.615235
 20
-69.909613
 11
-87.58316
 21
-69.921288
  0
ARC
  8
ボルト／ビス
  6
CONTINUOUS
 62
    64
 10
-87.631273
 20
-70.014593
 40
0.104978
 50
90.0
 51
117.278033
  0
ARC
  8
ボルト／ビス
  6
CONTINUOUS
 62
    64
 10
-87.77561
 20
-70.312017
 40
0.402402
 50
76.165015
 51
103.834998
  0
LINE
  8
ボルト／ビス
  6
CONTINUOUS
 62
    64
 10
-87.935985
 20
-69.909613
 11
-87.96806
 21
-69.921288
  0
ARC
  8
ボルト／ビス
  6
CONTINUOUS
 62
    64
 10
-87.919948
 20
-70.014593
 40
0.104978
 50
62.721967
 51
90.0
  0
LINE
  8
ボルト／ビス
  6
CONTINUOUS
 62
    64
 10
-87.615235
 20
-69.909613
 11
-87.935985
 21
-69.909613
  0
LINE
  8
ボルト／ビス
  6
CONTINUOUS
 62
    64
 10
-87.96806
 20
-69.921288
 11
-87.96806
 21
-70.042945
  0
LINE
  8
ボルト／ビス
  6
CONTINUOUS
 62
    64
 10
-87.871835
 20
-69.921288
 11
-87.871835
 21
-70.042945
  0
LINE
  8
ボルト／ビス
  6
CONTINUOUS
 62
    64
 10
-87.58316
 20
-69.921288
 11
-87.58316
 21
-70.042945
  0
LINE
  8
ボルト／ビス
  6
CONTINUOUS
 62
    64
 10
-87.679385
 20
-69.921288
 11
-87.679385
 21
-70.042945
  0
LINE
  8
ボルト／ビス
  6
CONTINUOUS
 10
-87.58316
 20
-70.042945
 11
-87.96806
 21
-70.042945
  0
LINE
  8
ボルト／ビス
  6
CONTINUOUS
 10
-87.57561
 20
-70.042945
 11
-87.57561
 21
-70.109612
  0
LINE
  8
ボルト／ビス
  6
CONTINUOUS
 10
-87.57561
 20
-70.042945
 11
-87.97561
 21
-70.042945
  0
LINE
  8
ボルト／ビス
  6
CONTINUOUS
 10
-87.97561
 20
-70.042945
 11
-87.97561
 21
-70.109612
  0
ENDBLK
  0
BLOCK
  2
*GRP_0027
 70
    65
 10
0.0
 20
0.0
  0
LINE
  8
ボルト／ビス
  6
CONTINUOUS
 10
46.89106
 20
-70.209613
 11
46.89106
 21
-69.742945
  0
LINE
  8
ボルト／ビス
  6
CONTINUOUS
 10
47.257727
 20
-70.209613
 11
47.257727
 21
-70.142945
  0
LINE
  8
ボルト／ビス
  6
CONTINUOUS
 10
47.257727
 20
-70.142945
 11
46.524393
 21
-70.142945
  0
LINE
  8
ボルト／ビス
  6
CONTINUOUS
 10
46.524393
 20
-70.142945
 11
46.524393
 21
-70.209613
  0
LINE
  8
ボルト／ビス
  6
CONTINUOUS
 10
47.257727
 20
-70.209613
 11
46.524393
 21
-70.209613
  0
LINE
  8
ボルト／ビス
  6
CONTINUOUS
 10
47.19106
 20
-70.109612
 11
47.19106
 21
-70.142945
  0
LINE
  8
ボルト／ビス
  6
CONTINUOUS
 10
47.19106
 20
-70.109612
 11
46.59106
 21
-70.109612
  0
LINE
  8
ボルト／ビス
  6
CONTINUOUS
 10
46.59106
 20
-70.109612
 11
46.59106
 21
-70.142945
  0
LINE
  8
ボルト／ビス
  6
CONTINUOUS
 62
    64
 10
47.051435
 20
-69.909613
 11
47.08351
 21
-69.921288
  0
ARC
  8
ボルト／ビス
  6
CONTINUOUS
 62
    64
 10
47.035398
 20
-70.014592
 40
0.104978
 50
90.0
 51
117.278033
  0
ARC
  8
ボルト／ビス
  6
CONTINUOUS
 62
    64
 10
46.891061
 20
-70.312016
 40
0.402402
 50
76.165015
 51
103.834998
  0
LINE
  8
ボルト／ビス
  6
CONTINUOUS
 62
    64
 10
46.730685
 20
-69.909613
 11
46.69861
 21
-69.921288
  0
ARC
  8
ボルト／ビス
  6
CONTINUOUS
 62
    64
 10
46.746723
 20
-70.014592
 40
0.104978
 50
62.721967
 51
90.0
  0
LINE
  8
ボルト／ビス
  6
CONTINUOUS
 62
    64
 10
47.051435
 20
-69.909613
 11
46.730685
 21
-69.909613
  0
LINE
  8
ボルト／ビス
  6
CONTINUOUS
 62
    64
 10
46.69861
 20
-69.921288
 11
46.69861
 21
-70.042945
  0
LINE
  8
ボルト／ビス
  6
CONTINUOUS
 62
    64
 10
46.794835
 20
-69.921288
 11
46.794835
 21
-70.042945
  0
LINE
  8
ボルト／ビス
  6
CONTINUOUS
 62
    64
 10
47.08351
 20
-69.921288
 11
47.08351
 21
-70.042945
  0
LINE
  8
ボルト／ビス
  6
CONTINUOUS
 62
    64
 10
46.987285
 20
-69.921288
 11
46.987285
 21
-70.042945
  0
LINE
  8
ボルト／ビス
  6
CONTINUOUS
 10
47.08351
 20
-70.042945
 11
46.69861
 21
-70.042945
  0
LINE
  8
ボルト／ビス
  6
CONTINUOUS
 10
47.09106
 20
-70.042945
 11
47.09106
 21
-70.109612
  0
LINE
  8
ボルト／ビス
  6
CONTINUOUS
 10
47.09106
 20
-70.042945
 11
46.69106
 21
-70.042945
  0
LINE
  8
ボルト／ビス
  6
CONTINUOUS
 10
46.69106
 20
-70.042945
 11
46.69106
 21
-70.109612
  0
ENDBLK
  0
BLOCK
  2
*GRP_0028
 70
    65
 10
0.0
 20
0.0
  0
LINE
  8
ボルト／ビス
  6
CONTINUOUS
 10
135.757657
 20
22.147365
 11
135.29099
 21
22.147365
  0
LINE
  8
ボルト／ビス
  6
CONTINUOUS
 10
135.757657
 20
22.514033
 11
135.69099
 21
22.514033
  0
LINE
  8
ボルト／ビス
  6
CONTINUOUS
 10
135.69099
 20
22.514033
 11
135.69099
 21
21.780697
  0
LINE
  8
ボルト／ビス
  6
CONTINUOUS
 10
135.69099
 20
21.780697
 11
135.757657
 21
21.780697
  0
LINE
  8
ボルト／ビス
  6
CONTINUOUS
 10
135.757657
 20
22.514033
 11
135.757657
 21
21.780697
  0
LINE
  8
ボルト／ビス
  6
CONTINUOUS
 10
135.657657
 20
22.447365
 11
135.69099
 21
22.447365
  0
LINE
  8
ボルト／ビス
  6
CONTINUOUS
 10
135.657657
 20
22.447365
 11
135.657657
 21
21.847365
  0
LINE
  8
ボルト／ビス
  6
CONTINUOUS
 10
135.657657
 20
21.847365
 11
135.69099
 21
21.847365
  0
LINE
  8
ボルト／ビス
  6
CONTINUOUS
 62
    64
 10
135.457657
 20
22.30774
 11
135.469333
 21
22.339815
  0
ARC
  8
ボルト／ビス
  6
CONTINUOUS
 62
    64
 10
135.562637
 20
22.291702
 40
0.104978
 50
180.0
 51
207.278033
  0
ARC
  8
ボルト／ビス
  6
CONTINUOUS
 62
    64
 10
135.860061
 20
22.147364
 40
0.402402
 50
166.165015
 51
193.834998
  0
LINE
  8
ボルト／ビス
  6
CONTINUOUS
 62
    64
 10
135.457657
 20
21.98699
 11
135.469333
 21
21.954915
  0
ARC
  8
ボルト／ビス
  6
CONTINUOUS
 62
    64
 10
135.562637
 20
22.003027
 40
0.104978
 50
152.721967
 51
180.0
  0
LINE
  8
ボルト／ビス
  6
CONTINUOUS
 62
    64
 10
135.457657
 20
22.30774
 11
135.457657
 21
21.98699
  0
LINE
  8
ボルト／ビス
  6
CONTINUOUS
 62
    64
 10
135.469333
 20
21.954915
 11
135.59099
 21
21.954915
  0
LINE
  8
ボルト／ビス
  6
CONTINUOUS
 62
    64
 10
135.469333
 20
22.05114
 11
135.59099
 21
22.05114
  0
LINE
  8
ボルト／ビス
  6
CONTINUOUS
 62
    64
 10
135.469333
 20
22.339815
 11
135.59099
 21
22.339815
  0
LINE
  8
ボルト／ビス
  6
CONTINUOUS
 62
    64
 10
135.469333
 20
22.24359
 11
135.59099
 21
22.24359
  0
LINE
  8
ボルト／ビス
  6
CONTINUOUS
 10
135.59099
 20
22.339815
 11
135.59099
 21
21.954915
  0
LINE
  8
ボルト／ビス
  6
CONTINUOUS
 10
135.59099
 20
22.347365
 11
135.657657
 21
22.347365
  0
LINE
  8
ボルト／ビス
  6
CONTINUOUS
 10
135.59099
 20
22.347365
 11
135.59099
 21
21.947365
  0
LINE
  8
ボルト／ビス
  6
CONTINUOUS
 10
135.59099
 20
21.947365
 11
135.657657
 21
21.947365
  0
ENDBLK
  0
BLOCK
  2
*GRP_0029
 70
    65
 10
0.0
 20
0.0
  0
LINE
  8
ボルト／ビス
  6
CONTINUOUS
 10
135.757657
 20
43.4807
 11
135.29099
 21
43.4807
  0
LINE
  8
ボルト／ビス
  6
CONTINUOUS
 10
135.757657
 20
43.847367
 11
135.69099
 21
43.847367
  0
LINE
  8
ボルト／ビス
  6
CONTINUOUS
 10
135.69099
 20
43.847367
 11
135.69099
 21
43.114033
  0
LINE
  8
ボルト／ビス
  6
CONTINUOUS
 10
135.69099
 20
43.114033
 11
135.757657
 21
43.114033
  0
LINE
  8
ボルト／ビス
  6
CONTINUOUS
 10
135.757657
 20
43.847367
 11
135.757657
 21
43.114033
  0
LINE
  8
ボルト／ビス
  6
CONTINUOUS
 10
135.657657
 20
43.7807
 11
135.69099
 21
43.7807
  0
LINE
  8
ボルト／ビス
  6
CONTINUOUS
 10
135.657657
 20
43.7807
 11
135.657657
 21
43.1807
  0
LINE
  8
ボルト／ビス
  6
CONTINUOUS
 10
135.657657
 20
43.1807
 11
135.69099
 21
43.1807
  0
LINE
  8
ボルト／ビス
  6
CONTINUOUS
 62
    64
 10
135.457657
 20
43.641075
 11
135.469333
 21
43.67315
  0
ARC
  8
ボルト／ビス
  6
CONTINUOUS
 62
    64
 10
135.562637
 20
43.625037
 40
0.104978
 50
180.0
 51
207.278033
  0
ARC
  8
ボルト／ビス
  6
CONTINUOUS
 62
    64
 10
135.860061
 20
43.480699
 40
0.402402
 50
166.165015
 51
193.834998
  0
LINE
  8
ボルト／ビス
  6
CONTINUOUS
 62
    64
 10
135.457657
 20
43.320325
 11
135.469333
 21
43.28825
  0
ARC
  8
ボルト／ビス
  6
CONTINUOUS
 62
    64
 10
135.562637
 20
43.336362
 40
0.104978
 50
152.721967
 51
180.0
  0
LINE
  8
ボルト／ビス
  6
CONTINUOUS
 62
    64
 10
135.457657
 20
43.641075
 11
135.457657
 21
43.320325
  0
LINE
  8
ボルト／ビス
  6
CONTINUOUS
 62
    64
 10
135.469333
 20
43.28825
 11
135.59099
 21
43.28825
  0
LINE
  8
ボルト／ビス
  6
CONTINUOUS
 62
    64
 10
135.469333
 20
43.384475
 11
135.59099
 21
43.384475
  0
LINE
  8
ボルト／ビス
  6
CONTINUOUS
 62
    64
 10
135.469333
 20
43.67315
 11
135.59099
 21
43.67315
  0
LINE
  8
ボルト／ビス
  6
CONTINUOUS
 62
    64
 10
135.469333
 20
43.576925
 11
135.59099
 21
43.576925
  0
LINE
  8
ボルト／ビス
  6
CONTINUOUS
 10
135.59099
 20
43.67315
 11
135.59099
 21
43.28825
  0
LINE
  8
ボルト／ビス
  6
CONTINUOUS
 10
135.59099
 20
43.6807
 11
135.657657
 21
43.6807
  0
LINE
  8
ボルト／ビス
  6
CONTINUOUS
 10
135.59099
 20
43.6807
 11
135.59099
 21
43.2807
  0
LINE
  8
ボルト／ビス
  6
CONTINUOUS
 10
135.59099
 20
43.2807
 11
135.657657
 21
43.2807
  0
ENDBLK
  0
BLOCK
  2
*GRP_0030
 70
    65
 10
0.0
 20
0.0
  0
LINE
  8
ボルト／ビス
  6
DOT
 10
135.11164
 20
46.468383
 11
134.781658
 21
46.798367
  0
LINE
  8
ボルト／ビス
  6
DOT
 10
135.370915
 20
46.727655
 11
135.323773
 21
46.774798
  0
LINE
  8
ボルト／ビス
  6
DOT
 10
135.323773
 20
46.774798
 11
134.805228
 21
46.25625
  0
LINE
  8
ボルト／ビス
  6
DOT
 10
134.805228
 20
46.25625
 11
134.852368
 21
46.20911
  0
LINE
  8
ボルト／ビス
  6
DOT
 10
135.370915
 20
46.727655
 11
134.852368
 21
46.20911
  0
LINE
  8
ボルト／ビス
  6
DOT
 10
135.253062
 20
46.751225
 11
135.276633
 21
46.727655
  0
LINE
  8
ボルト／ビス
  6
DOT
 10
135.253062
 20
46.751225
 11
134.828797
 21
46.326963
  0
LINE
  8
ボルト／ビス
  6
DOT
 10
134.828797
 20
46.326963
 11
134.852368
 21
46.303392
  0
LINE
  8
ボルト／ビス
  6
DOT
 62
    64
 10
135.01291
 20
46.793917
 11
135.043848
 21
46.808343
  0
ARC
  8
ボルト／ビス
  6
DOT
 62
    64
 10
135.075802
 20
46.708344
 40
0.104978
 50
135.0
 51
162.278033
  0
ARC
  8
ボルト／ビス
  6
DOT
 62
    64
 10
135.18405
 20
46.395971
 40
0.402402
 50
121.165015
 51
148.834998
  0
LINE
  8
ボルト／ビス
  6
DOT
 62
    64
 10
134.786108
 20
46.567113
 11
134.771682
 21
46.536177
  0
ARC
  8
ボルト／ビス
  6
DOT
 62
    64
 10
134.871677
 20
46.50422
 40
0.104978
 50
107.721967
 51
135.0
  0
LINE
  8
ボルト／ビス
  6
DOT
 62
    64
 10
135.01291
 20
46.793917
 11
134.786108
 21
46.567113
  0
LINE
  8
ボルト／ビス
  6
DOT
 62
    64
 10
134.771682
 20
46.536177
 11
134.857707
 21
46.450152
  0
LINE
  8
ボルト／ビス
  6
DOT
 62
    64
 10
134.839723
 20
46.604218
 11
134.925748
 21
46.518193
  0
LINE
  8
ボルト／ビス
  6
DOT
 62
    64
 10
135.043848
 20
46.808343
 11
135.129873
 21
46.722317
  0
LINE
  8
ボルト／ビス
  6
DOT
 62
    64
 10
134.975805
 20
46.7403
 11
135.06183
 21
46.654275
  0
LINE
  8
ボルト／ビス
  6
DOT
 10
135.129873
 20
46.722317
 11
134.857707
 21
46.450152
  0
LINE
  8
ボルト／ビス
  6
DOT
 10
135.13521
 20
46.727655
 11
135.182352
 21
46.680515
  0
LINE
  8
ボルト／ビス
  6
DOT
 10
135.13521
 20
46.727655
 11
134.852368
 21
46.444813
  0
LINE
  8
ボルト／ビス
  6
DOT
 10
134.852368
 20
46.444813
 11
134.899508
 21
46.397673
  0
ENDBLK
  0
BLOCK
  2
*GRP_0031
 70
    65
 10
0.0
 20
0.0
  0
LINE
  8
ボルト／ビス
  6
DOT
 10
120.02669
 20
31.383438
 11
119.696708
 21
31.713422
  0
LINE
  8
ボルト／ビス
  6
DOT
 10
120.285965
 20
31.64271
 11
120.238823
 21
31.689853
  0
LINE
  8
ボルト／ビス
  6
DOT
 10
120.238823
 20
31.689853
 11
119.720277
 21
31.171305
  0
LINE
  8
ボルト／ビス
  6
DOT
 10
119.720277
 20
31.171305
 11
119.767418
 21
31.124165
  0
LINE
  8
ボルト／ビス
  6
DOT
 10
120.285965
 20
31.64271
 11
119.767418
 21
31.124165
  0
LINE
  8
ボルト／ビス
  6
DOT
 10
120.168112
 20
31.66628
 11
120.191683
 21
31.64271
  0
LINE
  8
ボルト／ビス
  6
DOT
 10
120.168112
 20
31.66628
 11
119.743848
 21
31.242017
  0
LINE
  8
ボルト／ビス
  6
DOT
 10
119.743848
 20
31.242017
 11
119.767418
 21
31.218448
  0
LINE
  8
ボルト／ビス
  6
DOT
 62
    64
 10
119.92796
 20
31.708972
 11
119.958898
 21
31.723397
  0
ARC
  8
ボルト／ビス
  6
DOT
 62
    64
 10
119.990852
 20
31.623398
 40
0.104978
 50
135.0
 51
162.278033
  0
ARC
  8
ボルト／ビス
  6
DOT
 62
    64
 10
120.0991
 20
31.311026
 40
0.402402
 50
121.165015
 51
148.834998
  0
LINE
  8
ボルト／ビス
  6
DOT
 62
    64
 10
119.701158
 20
31.482167
 11
119.686732
 21
31.451232
  0
ARC
  8
ボルト／ビス
  6
DOT
 62
    64
 10
119.786728
 20
31.419274
 40
0.104978
 50
107.721967
 51
135.0
  0
LINE
  8
ボルト／ビス
  6
DOT
 62
    64
 10
119.92796
 20
31.708972
 11
119.701158
 21
31.482167
  0
LINE
  8
ボルト／ビス
  6
DOT
 62
    64
 10
119.686732
 20
31.451232
 11
119.772758
 21
31.365207
  0
LINE
  8
ボルト／ビス
  6
DOT
 62
    64
 10
119.754773
 20
31.519273
 11
119.840798
 21
31.433247
  0
LINE
  8
ボルト／ビス
  6
DOT
 62
    64
 10
119.958898
 20
31.723397
 11
120.044923
 21
31.637372
  0
LINE
  8
ボルト／ビス
  6
DOT
 62
    64
 10
119.890855
 20
31.655355
 11
119.97688
 21
31.56933
  0
LINE
  8
ボルト／ビス
  6
DOT
 10
120.044923
 20
31.637372
 11
119.772758
 21
31.365207
  0
LINE
  8
ボルト／ビス
  6
DOT
 10
120.05026
 20
31.64271
 11
120.097402
 21
31.59557
  0
LINE
  8
ボルト／ビス
  6
DOT
 10
120.05026
 20
31.64271
 11
119.767418
 21
31.359867
  0
LINE
  8
ボルト／ビス
  6
DOT
 10
119.767418
 20
31.359867
 11
119.814558
 21
31.312728
  0
ENDBLK
  0
ENDSEC
  0
SECTION
  2
ENTITIES
  0
POLYLINE
  8
通り芯
  6
CONTINUOUS
 66
     1
 70
     1
  0
VERTEX
  8
通り芯
 10
-210.0
 20
-148.5
  0
VERTEX
  8
通り芯
 10
210.0
 20
-148.5
  0
VERTEX
  8
通り芯
 10
210.0
 20
148.5
  0
VERTEX
  8
通り芯
 10
-210.0
 20
148.5
  0
SEQEND
  0
INSERT
  2
*GRP_0001
  8
型材断面
  6
CONTINUOUS
 10
0.0
 20
0.0
  0
LINE
  8
型材断面
  6
DASHDOT
 10
46.224393
 20
-77.836442
 11
46.224393
 21
42.814033
  0
LINE
  8
型材断面
  6
DASHDOT
 10
-20.442275
 20
-77.836442
 11
-20.442275
 21
42.814033
  0
LINE
  8
型材断面
  6
DASHDOT
 10
-87.10894
 20
-77.836442
 11
-87.10894
 21
42.814033
  0
LINE
  8
型材断面
  6
DASHDOT
 10
143.901155
 20
22.814033
 11
-87.10894
 21
22.814033
  0
LINE
  8
型材断面
  6
DASHDOT
 10
143.901155
 20
32.814033
 11
-87.10894
 21
32.814033
  0
LINE
  8
型材断面
  6
DASHDOT
 10
143.901155
 20
42.814033
 11
-87.10894
 21
42.814033
  0
LINE
  8
型材断面
  6
DOT
 10
-21.692275
 20
22.814033
 11
-21.692275
 21
42.814033
  0
LINE
  8
型材断面
  6
DASHDOT
 10
-20.442275
 20
22.814033
 11
-20.442275
 21
42.814033
  0
LINE
  8
型材断面
  6
DOT
 10
-19.192275
 20
22.814033
 11
-19.192275
 21
42.814033
  0
LINE
  8
型材断面
  6
CONTINUOUS
 10
-70.442273
 20
45.444162
 11
-71.937903
 21
48.03467
  0
LINE
  8
型材断面
  6
CONTINUOUS
 10
-70.442273
 20
45.444162
 11
-68.946642
 21
48.03467
  0
LINE
  8
型材断面
  6
CONTINUOUS
 10
-68.946642
 20
48.03467
 11
-71.937903
 21
48.03467
  0
LINE
  8
型材断面
  6
CONTINUOUS
 10
-127.961147
 20
80.791505
 11
-127.365092
 21
78.200998
  0
LINE
  8
型材断面
  6
CONTINUOUS
 10
-127.961147
 20
80.791505
 11
-128.557205
 21
78.200998
  0
LINE
  8
型材断面
  6
CONTINUOUS
 10
-128.557205
 20
78.200998
 11
-127.365092
 21
78.200998
  0
LINE
  8
型材断面
  6
CONTINUOUS
 10
-133.983735
 20
74.922105
 11
-87.741957
 21
74.922105
  0
LINE
  8
型材断面
  6
CONTINUOUS
 10
-127.961147
 20
87.32138
 11
-129.456778
 21
84.730873
  0
LINE
  8
型材断面
  6
CONTINUOUS
 10
-127.961147
 20
87.32138
 11
-126.465517
 21
84.730873
  0
LINE
  8
型材断面
  6
CONTINUOUS
 10
-126.465517
 20
84.730873
 11
-129.456778
 21
84.730873
  0
LINE
  8
型材断面
  6
CONTINUOUS
 10
-133.983735
 20
83.792277
 11
-87.741957
 21
83.792277
  0
LINE
  8
型材断面
  6
CONTINUOUS
 10
-133.983735
 20
69.134073
 11
-87.741957
 21
69.134073
  0
LINE
  8
型材断面
  6
CONTINUOUS
 10
-89.73907
 20
32.814033
 11
-92.329577
 21
34.309663
  0
LINE
  8
型材断面
  6
CONTINUOUS
 10
-89.73907
 20
32.814033
 11
-92.329577
 21
31.318403
  0
LINE
  8
型材断面
  6
CONTINUOUS
 10
-92.329577
 20
31.318403
 11
-92.329577
 21
34.309663
  0
LINE
  8
型材断面
  6
CONTINUOUS
 10
-70.442273
 20
20.183902
 11
-71.937903
 21
17.593395
  0
LINE
  8
型材断面
  6
CONTINUOUS
 10
-70.442273
 20
20.183902
 11
-68.946642
 21
17.593395
  0
LINE
  8
型材断面
  6
CONTINUOUS
 10
-68.946642
 20
17.593395
 11
-71.937903
 21
17.593395
  0
LINE
  8
型材断面
  6
CONTINUOUS
 10
29.557723
 20
45.444162
 11
31.053353
 21
48.03467
  0
LINE
  8
型材断面
  6
CONTINUOUS
 10
29.557723
 20
45.444162
 11
28.062092
 21
48.03467
  0
LINE
  8
型材断面
  6
CONTINUOUS
 10
28.062092
 20
48.03467
 11
31.053353
 21
48.03467
  0
LINE
  8
型材断面
  6
CONTINUOUS
 10
48.85452
 20
32.814033
 11
51.445027
 21
34.309663
  0
LINE
  8
型材断面
  6
CONTINUOUS
 10
48.85452
 20
32.814033
 11
51.445027
 21
31.318403
  0
LINE
  8
型材断面
  6
CONTINUOUS
 10
51.445027
 20
31.318403
 11
51.445027
 21
34.309663
  0
LINE
  8
型材断面
  6
CONTINUOUS
 10
29.557723
 20
20.183902
 11
31.053353
 21
17.593395
  0
LINE
  8
型材断面
  6
CONTINUOUS
 10
29.557723
 20
20.183902
 11
28.062092
 21
17.593395
  0
LINE
  8
型材断面
  6
CONTINUOUS
 10
28.062092
 20
17.593395
 11
31.053353
 21
17.593395
  0
POLYLINE
  8
型材断面
  6
DASHDOT
 66
     1
  0
VERTEX
  8
型材断面
 10
-87.10894
 20
22.814033
  0
VERTEX
  8
型材断面
 10
-20.442275
 20
42.814033
  0
VERTEX
  8
型材断面
 10
46.224393
 20
22.814033
  0
SEQEND
  0
LINE
  8
型材断面
  6
CONTINUOUS
 10
44.224393
 20
20.20722
 11
43.628335
 21
17.616715
  0
LINE
  8
型材断面
  6
CONTINUOUS
 10
44.224393
 20
20.20722
 11
44.82045
 21
17.616715
  0
LINE
  8
型材断面
  6
CONTINUOUS
 10
44.82045
 20
17.616715
 11
43.628335
 21
17.616715
  0
LINE
  8
型材断面
  6
CONTINUOUS
 10
-85.108943
 20
20.20722
 11
-84.512885
 21
17.616715
  0
LINE
  8
型材断面
  6
CONTINUOUS
 10
-85.108943
 20
20.20722
 11
-85.705
 21
17.616715
  0
LINE
  8
型材断面
  6
CONTINUOUS
 10
-85.705
 20
17.616715
 11
-84.512885
 21
17.616715
  0
LINE
  8
型材断面
  6
CONTINUOUS
 62
    47
 10
137.69779
 20
44.137365
 11
137.68779
 21
44.147365
  0
LINE
  8
型材断面
  6
CONTINUOUS
 62
    47
 10
137.69779
 20
44.137365
 11
137.70779
 21
44.147365
  0
LINE
  8
型材断面
  6
CONTINUOUS
 62
    47
 10
138.34002
 20
44.137365
 11
138.33002
 21
44.147365
  0
LINE
  8
型材断面
  6
CONTINUOUS
 62
    47
 10
138.34002
 20
44.137365
 11
138.35002
 21
44.147365
  0
LINE
  8
型材断面
  6
CONTINUOUS
 62
    47
 10
138.75779
 20
44.147365
 11
138.35002
 21
44.147365
  0
LINE
  8
型材断面
  6
CONTINUOUS
 62
    47
 10
138.33002
 20
44.147365
 11
137.70779
 21
44.147365
  0
LINE
  8
型材断面
  6
CONTINUOUS
 62
    47
 10
137.68779
 20
44.147365
 11
136.991105
 21
44.147365
  0
LINE
  8
型材断面
  6
CONTINUOUS
 62
    47
 10
136.991105
 20
44.147365
 11
136.991105
 21
32.81403
  0
LINE
  8
型材断面
  6
CONTINUOUS
 10
138.75779
 20
44.147365
 11
138.75779
 21
32.81403
  0
LINE
  8
型材断面
  6
CONTINUOUS
 10
138.824115
 20
32.81403
 11
138.824115
 21
45.414172
  0
LINE
  8
型材断面
  6
CONTINUOUS
 62
    47
 10
138.824115
 20
45.414172
 11
138.990742
 21
45.414172
  0
LINE
  8
型材断面
  6
CONTINUOUS
 62
    47
 10
138.990742
 20
32.81403
 11
138.990742
 21
45.414172
  0
LINE
  8
型材断面
  6
CONTINUOUS
 62
    47
 10
139.89112
 20
43.937505
 11
139.88112
 21
43.947505
  0
LINE
  8
型材断面
  6
CONTINUOUS
 62
    47
 10
139.89112
 20
43.937505
 11
139.90112
 21
43.947505
  0
LINE
  8
型材断面
  6
CONTINUOUS
 62
    47
 10
140.357792
 20
43.937505
 11
140.347792
 21
43.947505
  0
LINE
  8
型材断面
  6
CONTINUOUS
 62
    47
 10
140.357792
 20
43.937505
 11
140.367793
 21
43.947505
  0
LINE
  8
型材断面
  6
CONTINUOUS
 62
    47
 10
139.257768
 20
43.947505
 11
139.88112
 21
43.947505
  0
LINE
  8
型材断面
  6
CONTINUOUS
 62
    47
 10
139.90112
 20
43.947505
 11
140.347792
 21
43.947505
  0
LINE
  8
型材断面
  6
CONTINUOUS
 62
    47
 10
141.157775
 20
46.147505
 11
141.657777
 21
46.147505
  0
LINE
  8
型材断面
  6
CONTINUOUS
 62
    47
 10
141.99111
 20
45.647513
 11
141.657777
 21
45.647513
  0
LINE
  8
型材断面
  6
CONTINUOUS
 62
    47
 10
141.157775
 20
46.147505
 11
140.99111
 21
43.947505
  0
LINE
  8
型材断面
  6
CONTINUOUS
 62
    47
 10
140.99111
 20
43.21403
 11
140.99111
 21
43.880838
  0
LINE
  8
型材断面
  6
CONTINUOUS
 62
    47
 10
140.89111
 20
43.937505
 11
140.88111
 21
43.947505
  0
LINE
  8
型材断面
  6
CONTINUOUS
 62
    47
 10
140.89111
 20
43.937505
 11
140.90111
 21
43.947505
  0
LINE
  8
型材断面
  6
CONTINUOUS
 62
    47
 10
140.99111
 20
43.947505
 11
140.90111
 21
43.947505
  0
LINE
  8
型材断面
  6
CONTINUOUS
 62
    47
 10
140.367793
 20
43.947505
 11
140.88111
 21
43.947505
  0
LINE
  8
型材断面
  6
CONTINUOUS
 62
    47
 10
139.12445
 20
32.81403
 11
139.12445
 21
45.414172
  0
LINE
  8
型材断面
  6
CONTINUOUS
 62
    47
 10
139.257768
 20
45.414172
 11
139.12445
 21
45.414172
  0
LINE
  8
型材断面
  6
CONTINUOUS
 62
    47
 10
139.257768
 20
45.414172
 11
139.257768
 21
32.81403
  0
LINE
  8
型材断面
  6
CONTINUOUS
 10
140.99111
 20
32.81403
 11
140.99111
 21
43.947505
  0
LINE
  8
型材断面
  6
CONTINUOUS
 10
141.157775
 20
32.81403
 11
141.157775
 21
46.147505
  0
LINE
  8
型材断面
  6
CONTINUOUS
 62
    47
 10
141.657777
 20
46.147505
 11
141.657777
 21
32.81403
  0
LINE
  8
型材断面
  6
CONTINUOUS
 62
    47
 10
141.99111
 20
45.647513
 11
141.99111
 21
32.81403
  0
LINE
  8
型材断面
  6
CONTINUOUS
 62
    47
 10
138.75779
 20
44.147365
 11
138.824115
 21
45.414172
  0
LINE
  8
型材断面
  6
CONTINUOUS
 62
    47
 10
136.991105
 20
43.877375
 11
136.757657
 21
43.877375
  0
LINE
  8
型材断面
  6
CONTINUOUS
 62
    47
 10
137.69779
 20
21.490697
 11
137.68779
 21
21.480697
  0
LINE
  8
型材断面
  6
CONTINUOUS
 62
    47
 10
137.69779
 20
21.490697
 11
137.70779
 21
21.480697
  0
LINE
  8
型材断面
  6
CONTINUOUS
 62
    47
 10
138.34002
 20
21.490697
 11
138.33002
 21
21.480697
  0
LINE
  8
型材断面
  6
CONTINUOUS
 62
    47
 10
138.34002
 20
21.490697
 11
138.35002
 21
21.480697
  0
LINE
  8
型材断面
  6
CONTINUOUS
 62
    47
 10
138.75779
 20
21.480697
 11
138.35002
 21
21.480697
  0
LINE
  8
型材断面
  6
CONTINUOUS
 62
    47
 10
138.33002
 20
21.480697
 11
137.70779
 21
21.480697
  0
LINE
  8
型材断面
  6
CONTINUOUS
 62
    47
 10
137.68779
 20
21.480697
 11
136.991105
 21
21.480697
  0
LINE
  8
型材断面
  6
CONTINUOUS
 62
    47
 10
136.991105
 20
21.480697
 11
136.991105
 21
32.814033
  0
LINE
  8
型材断面
  6
CONTINUOUS
 10
138.75779
 20
21.480697
 11
138.75779
 21
32.814033
  0
LINE
  8
型材断面
  6
CONTINUOUS
 10
138.824115
 20
32.814033
 11
138.824115
 21
20.21389
  0
LINE
  8
型材断面
  6
CONTINUOUS
 62
    47
 10
138.824115
 20
20.21389
 11
138.990742
 21
20.21389
  0
LINE
  8
型材断面
  6
CONTINUOUS
 62
    47
 10
138.990742
 20
32.814033
 11
138.990742
 21
20.21389
  0
LINE
  8
型材断面
  6
CONTINUOUS
 62
    47
 10
139.89112
 20
21.690558
 11
139.88112
 21
21.680558
  0
LINE
  8
型材断面
  6
CONTINUOUS
 62
    47
 10
139.89112
 20
21.690558
 11
139.90112
 21
21.680558
  0
LINE
  8
型材断面
  6
CONTINUOUS
 62
    47
 10
140.357792
 20
21.690558
 11
140.347792
 21
21.680558
  0
LINE
  8
型材断面
  6
CONTINUOUS
 62
    47
 10
140.357792
 20
21.690558
 11
140.367793
 21
21.680558
  0
LINE
  8
型材断面
  6
CONTINUOUS
 62
    47
 10
139.257768
 20
21.680558
 11
139.88112
 21
21.680558
  0
LINE
  8
型材断面
  6
CONTINUOUS
 62
    47
 10
139.90112
 20
21.680558
 11
140.347792
 21
21.680558
  0
LINE
  8
型材断面
  6
CONTINUOUS
 62
    47
 10
141.157775
 20
19.480558
 11
141.657777
 21
19.480558
  0
LINE
  8
型材断面
  6
CONTINUOUS
 62
    47
 10
141.99111
 20
19.98055
 11
141.657777
 21
19.98055
  0
LINE
  8
型材断面
  6
CONTINUOUS
 62
    47
 10
141.157775
 20
19.480558
 11
140.99111
 21
21.680558
  0
LINE
  8
型材断面
  6
CONTINUOUS
 62
    47
 10
140.99111
 20
22.414033
 11
140.99111
 21
21.747225
  0
LINE
  8
型材断面
  6
CONTINUOUS
 62
    47
 10
140.89111
 20
21.690558
 11
140.88111
 21
21.680558
  0
LINE
  8
型材断面
  6
CONTINUOUS
 62
    47
 10
140.89111
 20
21.690558
 11
140.90111
 21
21.680558
  0
LINE
  8
型材断面
  6
CONTINUOUS
 62
    47
 10
140.99111
 20
21.680558
 11
140.90111
 21
21.680558
  0
LINE
  8
型材断面
  6
CONTINUOUS
 62
    47
 10
140.367793
 20
21.680558
 11
140.88111
 21
21.680558
  0
LINE
  8
型材断面
  6
CONTINUOUS
 62
    47
 10
139.12445
 20
32.814033
 11
139.12445
 21
20.213892
  0
LINE
  8
型材断面
  6
CONTINUOUS
 62
    47
 10
139.257768
 20
20.213892
 11
139.12445
 21
20.213892
  0
LINE
  8
型材断面
  6
CONTINUOUS
 62
    47
 10
139.257768
 20
20.213892
 11
139.257768
 21
32.814033
  0
LINE
  8
型材断面
  6
CONTINUOUS
 10
140.99111
 20
32.814033
 11
140.99111
 21
21.680558
  0
LINE
  8
型材断面
  6
CONTINUOUS
 10
141.157775
 20
32.814033
 11
141.157775
 21
19.480558
  0
LINE
  8
型材断面
  6
CONTINUOUS
 62
    47
 10
141.657777
 20
19.480558
 11
141.657777
 21
32.814033
  0
LINE
  8
型材断面
  6
CONTINUOUS
 62
    47
 10
141.99111
 20
19.98055
 11
141.99111
 21
32.814033
  0
LINE
  8
型材断面
  6
CONTINUOUS
 62
    47
 10
138.75779
 20
21.480697
 11
138.824115
 21
20.21389
  0
LINE
  8
型材断面
  6
CONTINUOUS
 62
    47
 10
136.991105
 20
21.750687
 11
136.757657
 21
21.750687
  0
LINE
  8
型材断面
  6
DOT
 62
    47
 10
138.647122
 20
45.667243
 11
138.764948
 21
45.549417
  0
LINE
  8
型材断面
  6
CONTINUOUS
 62
    47
 10
47.547727
 20
-72.149745
 11
47.557727
 21
-72.139745
  0
LINE
  8
型材断面
  6
CONTINUOUS
 62
    47
 10
47.547727
 20
-72.149745
 11
47.557727
 21
-72.159745
  0
LINE
  8
型材断面
  6
CONTINUOUS
 62
    47
 10
47.547727
 20
-72.791975
 11
47.557727
 21
-72.781975
  0
LINE
  8
型材断面
  6
CONTINUOUS
 62
    47
 10
47.547727
 20
-72.791975
 11
47.557727
 21
-72.801975
  0
LINE
  8
型材断面
  6
CONTINUOUS
 62
    47
 10
47.557727
 20
-73.209745
 11
47.557727
 21
-72.801975
  0
LINE
  8
型材断面
  6
CONTINUOUS
 62
    47
 10
47.557727
 20
-72.781975
 11
47.557727
 21
-72.159745
  0
LINE
  8
型材断面
  6
CONTINUOUS
 62
    47
 10
47.557727
 20
-72.139745
 11
47.557727
 21
-71.44306
  0
LINE
  8
型材断面
  6
CONTINUOUS
 62
    47
 10
48.824535
 20
-73.27607
 11
48.824535
 21
-73.442698
  0
LINE
  8
型材断面
  6
CONTINUOUS
 62
    47
 10
47.347868
 20
-74.343075
 11
47.357868
 21
-74.333075
  0
LINE
  8
型材断面
  6
CONTINUOUS
 62
    47
 10
47.347868
 20
-74.343075
 11
47.357868
 21
-74.353075
  0
LINE
  8
型材断面
  6
CONTINUOUS
 62
    47
 10
47.347868
 20
-74.809747
 11
47.357868
 21
-74.799748
  0
LINE
  8
型材断面
  6
CONTINUOUS
 62
    47
 10
47.347868
 20
-74.809747
 11
47.357868
 21
-74.819747
  0
LINE
  8
型材断面
  6
CONTINUOUS
 62
    47
 10
47.357868
 20
-73.709723
 11
47.357868
 21
-74.333075
  0
LINE
  8
型材断面
  6
CONTINUOUS
 62
    47
 10
47.357868
 20
-74.353075
 11
47.357868
 21
-74.799748
  0
LINE
  8
型材断面
  6
CONTINUOUS
 62
    47
 10
49.557868
 20
-75.60973
 11
49.557868
 21
-76.109732
  0
LINE
  8
型材断面
  6
CONTINUOUS
 62
    47
 10
49.057875
 20
-76.443065
 11
49.057875
 21
-76.109732
  0
LINE
  8
型材断面
  6
CONTINUOUS
 62
    47
 10
49.557868
 20
-75.60973
 11
47.357868
 21
-75.443065
  0
LINE
  8
型材断面
  6
CONTINUOUS
 62
    47
 10
46.624393
 20
-75.443065
 11
47.2912
 21
-75.443065
  0
LINE
  8
型材断面
  6
CONTINUOUS
 62
    47
 10
47.347868
 20
-75.343065
 11
47.357868
 21
-75.333065
  0
LINE
  8
型材断面
  6
CONTINUOUS
 62
    47
 10
47.347868
 20
-75.343065
 11
47.357868
 21
-75.353065
  0
LINE
  8
型材断面
  6
CONTINUOUS
 62
    47
 10
47.357868
 20
-75.443065
 11
47.357868
 21
-75.353065
  0
LINE
  8
型材断面
  6
CONTINUOUS
 62
    47
 10
47.357868
 20
-74.819747
 11
47.357868
 21
-75.333065
  0
LINE
  8
型材断面
  6
CONTINUOUS
 62
    47
 10
48.824532
 20
-73.709723
 11
48.824532
 21
-73.576405
  0
LINE
  8
型材断面
  6
CONTINUOUS
 62
    47
 10
47.557727
 20
-73.209745
 11
48.824535
 21
-73.27607
  0
LINE
  8
型材断面
  6
CONTINUOUS
 62
    47
 10
47.287738
 20
-71.44306
 11
47.287738
 21
-71.209613
  0
LINE
  8
型材断面
  6
CONTINUOUS
 62
    47
 10
49.557868
 20
-76.109732
 11
-20.442275
 21
-76.109732
  0
LINE
  8
型材断面
  6
CONTINUOUS
 62
    47
 10
49.057875
 20
-76.443065
 11
-20.442275
 21
-76.443065
  0
LINE
  8
型材断面
  6
CONTINUOUS
 10
47.357868
 20
-75.443065
 11
-20.442275
 21
-75.443065
  0
LINE
  8
型材断面
  6
CONTINUOUS
 10
49.557868
 20
-75.60973
 11
-20.442275
 21
-75.60973
  0
LINE
  8
型材断面
  6
CONTINUOUS
 62
    47
 10
48.824535
 20
-73.442698
 11
-20.442275
 21
-73.442698
  0
LINE
  8
型材断面
  6
CONTINUOUS
 62
    47
 10
48.824532
 20
-73.709723
 11
-20.442275
 21
-73.709723
  0
LINE
  8
型材断面
  6
CONTINUOUS
 10
48.824535
 20
-73.27607
 11
-20.442275
 21
-73.27607
  0
LINE
  8
型材断面
  6
CONTINUOUS
 62
    47
 10
48.824532
 20
-73.576405
 11
-20.442275
 21
-73.576405
  0
LINE
  8
型材断面
  6
CONTINUOUS
 10
47.557727
 20
-73.209745
 11
-20.442275
 21
-73.209745
  0
LINE
  8
型材断面
  6
CONTINUOUS
 62
    47
 10
47.557727
 20
-71.44306
 11
-20.442275
 21
-71.44306
  0
LINE
  8
型材断面
  6
CONTINUOUS
 62
    47
 10
-88.432277
 20
-72.149745
 11
-88.442278
 21
-72.139745
  0
LINE
  8
型材断面
  6
CONTINUOUS
 62
    47
 10
-88.432277
 20
-72.149745
 11
-88.442278
 21
-72.159745
  0
LINE
  8
型材断面
  6
CONTINUOUS
 62
    47
 10
-88.432277
 20
-72.791975
 11
-88.442278
 21
-72.781975
  0
LINE
  8
型材断面
  6
CONTINUOUS
 62
    47
 10
-88.432277
 20
-72.791975
 11
-88.442278
 21
-72.801975
  0
LINE
  8
型材断面
  6
CONTINUOUS
 62
    47
 10
-88.442278
 20
-73.209745
 11
-88.442278
 21
-72.801975
  0
LINE
  8
型材断面
  6
CONTINUOUS
 62
    47
 10
-88.442278
 20
-72.781975
 11
-88.442278
 21
-72.159745
  0
LINE
  8
型材断面
  6
CONTINUOUS
 62
    47
 10
-88.442278
 20
-72.139745
 11
-88.442278
 21
-71.44306
  0
LINE
  8
型材断面
  6
CONTINUOUS
 62
    47
 10
-89.709085
 20
-73.27607
 11
-89.709085
 21
-73.442698
  0
LINE
  8
型材断面
  6
CONTINUOUS
 62
    47
 10
-88.232417
 20
-74.343075
 11
-88.242418
 21
-74.333075
  0
LINE
  8
型材断面
  6
CONTINUOUS
 62
    47
 10
-88.232417
 20
-74.343075
 11
-88.242418
 21
-74.353075
  0
LINE
  8
型材断面
  6
CONTINUOUS
 62
    47
 10
-88.232417
 20
-74.809747
 11
-88.242418
 21
-74.799748
  0
LINE
  8
型材断面
  6
CONTINUOUS
 62
    47
 10
-88.232417
 20
-74.809747
 11
-88.242418
 21
-74.819747
  0
LINE
  8
型材断面
  6
CONTINUOUS
 62
    47
 10
-88.242418
 20
-73.709723
 11
-88.242418
 21
-74.333075
  0
LINE
  8
型材断面
  6
CONTINUOUS
 62
    47
 10
-88.242418
 20
-74.353075
 11
-88.242418
 21
-74.799748
  0
LINE
  8
型材断面
  6
CONTINUOUS
 62
    47
 10
-90.442418
 20
-75.60973
 11
-90.442418
 21
-76.109732
  0
LINE
  8
型材断面
  6
CONTINUOUS
 62
    47
 10
-89.942425
 20
-76.443065
 11
-89.942425
 21
-76.109732
  0
LINE
  8
型材断面
  6
CONTINUOUS
 62
    47
 10
-90.442418
 20
-75.60973
 11
-88.242418
 21
-75.443065
  0
LINE
  8
型材断面
  6
CONTINUOUS
 62
    47
 10
-87.508943
 20
-75.443065
 11
-88.17575
 21
-75.443065
  0
LINE
  8
型材断面
  6
CONTINUOUS
 62
    47
 10
-88.232417
 20
-75.343065
 11
-88.242418
 21
-75.333065
  0
LINE
  8
型材断面
  6
CONTINUOUS
 62
    47
 10
-88.232417
 20
-75.343065
 11
-88.242418
 21
-75.353065
  0
LINE
  8
型材断面
  6
CONTINUOUS
 62
    47
 10
-88.242418
 20
-75.443065
 11
-88.242418
 21
-75.353065
  0
LINE
  8
型材断面
  6
CONTINUOUS
 62
    47
 10
-88.242418
 20
-74.819747
 11
-88.242418
 21
-75.333065
  0
LINE
  8
型材断面
  6
CONTINUOUS
 62
    47
 10
-89.709083
 20
-73.709723
 11
-89.709083
 21
-73.576405
  0
LINE
  8
型材断面
  6
CONTINUOUS
 62
    47
 10
-88.442278
 20
-73.209745
 11
-89.709085
 21
-73.27607
  0
LINE
  8
型材断面
  6
CONTINUOUS
 62
    47
 10
-88.172288
 20
-71.44306
 11
-88.172288
 21
-71.209613
  0
LINE
  8
型材断面
  6
CONTINUOUS
 62
    47
 10
-90.442418
 20
-76.109732
 11
-20.442275
 21
-76.109732
  0
LINE
  8
型材断面
  6
CONTINUOUS
 62
    47
 10
-89.942425
 20
-76.443065
 11
-20.442275
 21
-76.443065
  0
LINE
  8
型材断面
  6
CONTINUOUS
 10
-88.242418
 20
-75.443065
 11
-20.442275
 21
-75.443065
  0
LINE
  8
型材断面
  6
CONTINUOUS
 10
-90.442418
 20
-75.60973
 11
-20.442275
 21
-75.60973
  0
LINE
  8
型材断面
  6
CONTINUOUS
 62
    47
 10
-89.709085
 20
-73.442698
 11
-20.442275
 21
-73.442698
  0
LINE
  8
型材断面
  6
CONTINUOUS
 62
    47
 10
-89.709083
 20
-73.709723
 11
-20.442275
 21
-73.709723
  0
LINE
  8
型材断面
  6
CONTINUOUS
 10
-89.709085
 20
-73.27607
 11
-20.442275
 21
-73.27607
  0
LINE
  8
型材断面
  6
CONTINUOUS
 62
    47
 10
-89.709083
 20
-73.576405
 11
-20.442275
 21
-73.576405
  0
LINE
  8
型材断面
  6
CONTINUOUS
 10
-88.442278
 20
-73.209745
 11
-20.442275
 21
-73.209745
  0
LINE
  8
型材断面
  6
CONTINUOUS
 62
    47
 10
-88.442278
 20
-71.44306
 11
-20.442275
 21
-71.44306
  0
LINE
  8
型材断面
  6
CONTINUOUS
 10
48.29106
 20
20.747365
 11
49.557868
 21
19.48056
  0
LINE
  8
型材断面
  6
CONTINUOUS
 10
49.557868
 20
19.48056
 11
49.557868
 21
32.814033
  0
LINE
  8
型材断面
  6
CONTINUOUS
 10
49.557868
 20
19.48056
 11
-20.442275
 21
19.48056
  0
LINE
  8
型材断面
  6
CONTINUOUS
 10
48.29106
 20
44.8807
 11
49.557868
 21
46.147505
  0
LINE
  8
型材断面
  6
CONTINUOUS
 10
49.557868
 20
46.147505
 11
49.557868
 21
32.814033
  0
LINE
  8
型材断面
  6
CONTINUOUS
 10
49.557868
 20
46.147505
 11
-20.442275
 21
46.147505
  0
LINE
  8
型材断面
  6
CONTINUOUS
 10
-89.17561
 20
44.8807
 11
-90.442418
 21
46.147505
  0
LINE
  8
型材断面
  6
CONTINUOUS
 10
-90.442418
 20
46.147505
 11
-90.442418
 21
32.814033
  0
LINE
  8
型材断面
  6
CONTINUOUS
 10
-90.442418
 20
46.147505
 11
-20.442275
 21
46.147505
  0
LINE
  8
型材断面
  6
CONTINUOUS
 10
-89.17561
 20
20.747365
 11
-90.442418
 21
19.48056
  0
LINE
  8
型材断面
  6
CONTINUOUS
 10
-90.442418
 20
19.48056
 11
-90.442418
 21
32.814033
  0
LINE
  8
型材断面
  6
CONTINUOUS
 10
-90.442418
 20
19.48056
 11
-20.442275
 21
19.48056
  0
ARC
  8
型材断面
  6
DOT
 10
139.0411
 20
45.754355
 40
25.541387
 50
224.513243
 51
269.513242
  0
LINE
  8
型材断面
  6
DOT
 10
-52.86894
 20
22.814033
 11
-52.86894
 21
42.814033
  0
LINE
  8
型材断面
  6
DASHDOT
 10
-54.11894
 20
22.814033
 11
-54.11894
 21
42.814033
  0
LINE
  8
型材断面
  6
DOT
 10
-55.36894
 20
22.814033
 11
-55.36894
 21
42.814033
  0
LINE
  8
型材断面
  6
DOT
 10
11.98439
 20
22.814033
 11
11.98439
 21
42.814033
  0
LINE
  8
型材断面
  6
DASHDOT
 10
13.23439
 20
22.814033
 11
13.23439
 21
42.814033
  0
LINE
  8
型材断面
  6
DOT
 10
14.48439
 20
22.814033
 11
14.48439
 21
42.814033
  0
LINE
  8
ガラス
  6
CONTINUOUS
 10
133.58817
 20
-53.448973
 11
133.58817
 21
-73.982308
  0
LINE
  8
ガラス
  6
CONTINUOUS
 10
133.58817
 20
-53.448973
 11
100.754838
 21
-53.448973
  0
LINE
  8
ガラス
  6
CONTINUOUS
 10
100.754838
 20
-53.448973
 11
100.754838
 21
-73.982308
  0
LINE
  8
ガラス
  6
CONTINUOUS
 10
133.58817
 20
-73.982308
 11
100.754838
 21
-73.982308
  0
TEXT
  7
TextStyle03
  8
文字
  6
CONTINUOUS
 10
-125.15
 20
84.95
  1
は排水穴位置を示す
 40
3.0
 72
     5
 11
-95.15
 21
84.95
  0
TEXT
  7
TextStyle03
  8
文字
  6
CONTINUOUS
 10
-125.15
 20
79.425
  1
はケーシング位置を示す
 40
3.0
 72
     5
 11
-88.4
 21
79.425
  0
TEXT
  7
TextStyle03
  8
文字
  6
CONTINUOUS
 10
-125.15
 20
76.05
  1
２ヶ所中1ヶ所に設定
 40
3.0
 72
     5
 11
-93.4625
 21
76.05
  0
TEXT
  7
TextStyle03
  8
文字
  6
CONTINUOUS
 10
115.425
 20
-67.575
  1
網入り6.8t
 40
3.0
 72
     5
 11
132.1125
 21
-67.575
  0
TEXT
  7
TextStyle03
  8
文字
  6
CONTINUOUS
 10
122.1
 20
-72.25
  1
×４枚
 40
3.0
 72
     5
 11
131.85
 21
-72.25
  0
TEXT
  7
TextStyle03
  8
文字
  6
CONTINUOUS
 10
116.325
 20
23.375
  1
45°
 40
3.0
 72
     5
 11
122.7
 21
23.375
  0
TEXT
  7
TextStyle03
  8
文字
  6
CONTINUOUS
 10
-108.175
 20
11.275
  1
アンカーピッチ
 40
3.0
 50
90.0
 72
     5
 11
-108.175
 21
34.525
  0
TEXT
  7
TextStyle03
  8
文字
  6
CONTINUOUS
 10
-79.025
 20
80.825
  1
アンカーピッチ
 40
3.0
 72
     5
 11
-55.775
 21
80.825
  0
TEXT
  7
TextStyle03
  8
文字
  6
CONTINUOUS
 10
-128.875
 20
70.075
  1
アンカー数量　１６ヶ所
 40
3.0
 72
     5
 11
-92.125
 21
70.075
  0
TEXT
  7
TextStyle03
  8
文字
  6
CONTINUOUS
 10
78.1
 20
125.25
  1
シリーズ：ＴＤ２ＨＬ
 40
5.0
 72
     5
 11
133.725
 21
125.25
  0
TEXT
  7
TextStyle03
  8
文字
  6
CONTINUOUS
 10
78.1
 20
119.625
  1
　　　　　（片側開閉）600×4000タイプ
 40
5.0
 72
     5
 11
181.5375
 21
119.625
  0
TEXT
  7
TextStyle03
  8
文字
  6
CONTINUOUS
 10
78.1
 20
114.0
  1
図面名　：外観姿図
 40
5.0
 72
     5
 11
128.1
 21
114.0
  0
TEXT
  7
TextStyle03
  8
文字
  6
CONTINUOUS
 10
78.1
 20
108.375
  1
　　　　　　
 40
5.0
 72
     5
 11
111.225
 21
108.375
  0
TEXT
  7
TextStyle03
  8
文字
  6
CONTINUOUS
 10
77.425
 20
103.975
  1
ＮＳコード：ＮＳＨＺＬ
 40
5.0
 72
     5
 11
138.675
 21
103.975
  0
INSERT
  2
*DIM_0002
  8
寸法
  6
CONTINUOUS
 10
0.0
 20
0.0
  0
INSERT
  2
*DIM_0003
  8
寸法
  6
CONTINUOUS
 10
0.0
 20
0.0
  0
INSERT
  2
*DIM_0005
  8
寸法
  6
CONTINUOUS
 10
0.0
 20
0.0
  0
INSERT
  2
*DIM_0006
  8
寸法
  6
CONTINUOUS
 10
0.0
 20
0.0
  0
INSERT
  2
*DIM_0007
  8
寸法
  6
CONTINUOUS
 10
0.0
 20
0.0
  0
INSERT
  2
*DIM_0008
  8
寸法
  6
CONTINUOUS
 10
0.0
 20
0.0
  0
INSERT
  2
*DIM_0010
  8
寸法
  6
CONTINUOUS
 10
0.0
 20
0.0
  0
INSERT
  2
*DIM_0011
  8
寸法
  6
CONTINUOUS
 10
0.0
 20
0.0
  0
INSERT
  2
*DIM_0012
  8
寸法
  6
CONTINUOUS
 10
0.0
 20
0.0
  0
INSERT
  2
*DIM_0013
  8
寸法
  6
CONTINUOUS
 10
0.0
 20
0.0
  0
INSERT
  2
*DIM_0014
  8
寸法
  6
CONTINUOUS
 10
0.0
 20
0.0
  0
INSERT
  2
*DIM_0015
  8
寸法
  6
CONTINUOUS
 10
0.0
 20
0.0
  0
INSERT
  2
*DIM_0016
  8
寸法
  6
CONTINUOUS
 10
0.0
 20
0.0
  0
INSERT
  2
*DIM_0017
  8
寸法
  6
CONTINUOUS
 10
0.0
 20
0.0
  0
INSERT
  2
*DIM_0019
  8
寸法
  6
CONTINUOUS
 10
0.0
 20
0.0
  0
INSERT
  2
*DIM_0020
  8
寸法
  6
CONTINUOUS
 10
0.0
 20
0.0
  0
INSERT
  2
*DIM_0021
  8
寸法
  6
CONTINUOUS
 10
0.0
 20
0.0
  0
INSERT
  2
*DIM_0022
  8
寸法
  6
CONTINUOUS
 10
0.0
 20
0.0
  0
INSERT
  2
*DIM_0023
  8
寸法
  6
CONTINUOUS
 10
0.0
 20
0.0
  0
INSERT
  2
*DIM_0024
  8
寸法
  6
CONTINUOUS
 10
0.0
 20
0.0
  0
INSERT
  2
*DIM_0025
  8
寸法
  6
CONTINUOUS
 10
0.0
 20
0.0
  0
LINE
  8
別途部材
  6
CONTINUOUS
 10
48.29106
 20
20.747365
 11
47.89106
 21
21.147365
  0
LINE
  8
別途部材
  6
CONTINUOUS
 10
46.224393
 20
22.814033
 11
38.165137
 21
30.87329
  0
LINE
  8
別途部材
  6
CONTINUOUS
 10
47.89106
 20
21.147365
 11
47.89106
 21
32.814033
  0
LINE
  8
別途部材
  6
CONTINUOUS
 10
48.29106
 20
20.747365
 11
48.29106
 21
32.814033
  0
LINE
  8
別途部材
  6
CONTINUOUS
 10
48.29106
 20
44.8807
 11
47.89106
 21
44.4807
  0
LINE
  8
別途部材
  6
CONTINUOUS
 10
46.224393
 20
42.814033
 11
38.165137
 21
34.754775
  0
LINE
  8
別途部材
  6
CONTINUOUS
 10
47.89106
 20
44.4807
 11
47.89106
 21
32.814033
  0
LINE
  8
別途部材
  6
CONTINUOUS
 10
48.29106
 20
44.8807
 11
48.29106
 21
32.814033
  0
LINE
  8
別途部材
  6
CONTINUOUS
 10
47.89106
 20
44.4807
 11
-20.442275
 21
44.4807
  0
LINE
  8
別途部材
  6
CONTINUOUS
 10
48.29106
 20
44.8807
 11
-20.442275
 21
44.8807
  0
LINE
  8
別途部材
  6
CONTINUOUS
 10
48.29106
 20
20.747365
 11
-20.442275
 21
20.747365
  0
LINE
  8
別途部材
  6
CONTINUOUS
 10
47.89106
 20
21.147365
 11
-20.442275
 21
21.147365
  0
LINE
  8
別途部材
  6
CONTINUOUS
 10
-89.17561
 20
20.747365
 11
-88.77561
 21
21.147365
  0
LINE
  8
別途部材
  6
CONTINUOUS
 10
-87.108943
 20
22.814033
 11
-79.049687
 21
30.87329
  0
LINE
  8
別途部材
  6
CONTINUOUS
 10
-88.77561
 20
21.147365
 11
-88.77561
 21
32.814033
  0
LINE
  8
別途部材
  6
CONTINUOUS
 10
-89.17561
 20
20.747365
 11
-89.17561
 21
32.814033
  0
LINE
  8
別途部材
  6
CONTINUOUS
 10
-89.17561
 20
44.8807
 11
-88.77561
 21
44.4807
  0
LINE
  8
別途部材
  6
CONTINUOUS
 10
-87.108943
 20
42.814033
 11
-79.049687
 21
34.754775
  0
LINE
  8
別途部材
  6
CONTINUOUS
 10
-88.77561
 20
44.4807
 11
-88.77561
 21
32.814033
  0
LINE
  8
別途部材
  6
CONTINUOUS
 10
-89.17561
 20
44.8807
 11
-89.17561
 21
32.814033
  0
LINE
  8
別途部材
  6
CONTINUOUS
 10
-88.77561
 20
44.4807
 11
-20.442275
 21
44.4807
  0
LINE
  8
別途部材
  6
CONTINUOUS
 10
-89.17561
 20
44.8807
 11
-20.442275
 21
44.8807
  0
LINE
  8
別途部材
  6
CONTINUOUS
 10
-89.17561
 20
20.747365
 11
-20.442275
 21
20.747365
  0
LINE
  8
別途部材
  6
CONTINUOUS
 10
-88.77561
 20
21.147365
 11
-20.442275
 21
21.147365
  0
INSERT
  2
*GRP_0004
  8
別途部材
  6
CONTINUOUS
 10
0.0
 20
0.0
  0
LINE
  8
別途部材
  6
CONTINUOUS
 62
    96
 10
135.757657
 20
44.4807
 11
136.757657
 21
44.8807
  0
LINE
  8
別途部材
  6
CONTINUOUS
 62
    96
 10
135.757657
 20
44.4807
 11
135.757657
 21
32.814033
  0
LINE
  8
別途部材
  6
CONTINUOUS
 10
136.757657
 20
44.8807
 11
136.757657
 21
32.814033
  0
LINE
  8
別途部材
  6
CONTINUOUS
 62
    96
 10
135.757657
 20
21.147365
 11
136.757657
 21
20.747365
  0
LINE
  8
別途部材
  6
CONTINUOUS
 62
    96
 10
135.757657
 20
21.147365
 11
135.757657
 21
32.814033
  0
LINE
  8
別途部材
  6
CONTINUOUS
 10
136.757657
 20
20.747365
 11
136.757657
 21
32.814033
  0
ARC
  8
別途部材
  6
CONTINUOUS
 10
142.465993
 20
32.814033
 40
12.041667
 50
123.855033
 51
236.144967
  0
INSERT
  2
*GRP_0009
  8
別途部材
  6
CONTINUOUS
 10
0.0
 20
0.0
  0
INSERT
  2
*GRP_0018
  8
別途部材
  6
CONTINUOUS
 10
0.0
 20
0.0
  0
INSERT
  2
*GRP_0026
  8
別途部材
  6
DOT
 10
0.0
 20
0.0
  0
INSERT
  2
*GRP_0027
  8
別途部材
  6
DOT
 10
0.0
 20
0.0
  0
INSERT
  2
*GRP_0028
  8
別途部材
  6
DOT
 10
0.0
 20
0.0
  0
INSERT
  2
*GRP_0029
  8
別途部材
  6
DOT
 10
0.0
 20
0.0
  0
INSERT
  2
*GRP_0030
  8
別途部材
  6
DOT
 10
0.0
 20
0.0
  0
INSERT
  2
*GRP_0031
  8
別途部材
  6
DOT
 10
0.0
 20
0.0
  0
ENDSEC
  0
EOF
