  0
SECTION
  2
HEADER
  9
$EXTMIN
 10
-210.0
 20
-148.5
  9
$EXTMAX
 10
210.0
 20
148.5
  9
$PDMODE
 70
    32
  9
$PDSIZE
 40
1.5
  9
$LTSCALE
 40
10.0
  0
ENDSEC
  0
SECTION
  2
TABLES
  0
TABLE
  2
LTYPE
 70
    15
  0
LTYPE
  2
CONTINUOUS
 70
    64
  3
実線
 72
    65
 73
     0
 40
0.0
  0
LTYPE
  2
DASHED
 70
    64
  3
破線A
 72
    65
 73
     2
 40
0.6
 49
0.4
 49
-0.2
  0
LTYPE
  2
DASHEDX2
 70
    64
  3
破線B
 72
    65
 73
     2
 40
1.3
 49
0.9
 49
-0.4
  0
LTYPE
  2
DASHDOT
 70
    64
  3
１点鎖線A
 72
    65
 73
     4
 40
0.5375
 49
0.375
 49
-0.05
 49
0.0625
 49
-0.05
  0
LTYPE
  2
DASHDOTX2
 70
    64
  3
１点鎖線B
 72
    65
 73
     4
 40
1.075
 49
0.75
 49
-0.1
 49
0.125
 49
-0.1
  0
LTYPE
  2
DIVIDE2
 70
    64
  3
２点鎖線A
 72
    65
 73
     6
 40
0.5125
 49
0.3
 49
-0.0375
 49
0.05
 49
-0.0375
 49
0.05
 49
-0.0375
  0
LTYPE
  2
DIVIDE
 70
    64
  3
２点鎖線B
 72
    65
 73
     6
 40
1.05
 49
0.55
 49
-0.1
 49
0.1
 49
-0.1
 49
0.1
 49
-0.1
  0
LTYPE
  2
DOT
 70
    64
  3
点線A
 72
    65
 73
     2
 40
0.1125
 49
0.0625
 49
-0.05
  0
LTYPE
  2
DOTX2
 70
    64
  3
点線B
 72
    65
 73
     2
 40
0.275
 49
0.15
 49
-0.125
  0
LTYPE
  2
CONTINUOUS
 70
    64
  3
実線
 72
    65
 73
     0
 40
0.0
  0
LTYPE
  2
CONTINUOUS
 70
    64
  3
実線
 72
    65
 73
     0
 40
0.0
  0
LTYPE
  2
CONTINUOUS
 70
    64
  3
実線
 72
    65
 73
     0
 40
0.0
  0
LTYPE
  2
CONTINUOUS
 70
    64
  3
実線
 72
    65
 73
     0
 40
0.0
  0
LTYPE
  2
CONTINUOUS
 70
    64
  3
実線
 72
    65
 73
     0
 40
0.0
  0
LTYPE
  2
CONTINUOUS
 70
    64
  3
実線
 72
    65
 73
     0
 40
0.0
  0
ENDTAB
  0
TABLE
  2
LAYER
 70
    34
  0
LAYER
  2
通り芯
 70
     0
 62
    15
  6
CONTINUOUS
  0
LAYER
  2
補助線
 70
     0
 62
    16
  6
DOT
  0
LAYER
  2
躯体
 70
     0
 62
    31
  6
CONTINUOUS
  0
LAYER
  2
型材
 70
     0
 62
    32
  6
CONTINUOUS
  0
LAYER
  2
型材断面
 70
     0
 62
    47
  6
CONTINUOUS
  0
LAYER
  2
ガラス
 70
     0
 62
    48
  6
CONTINUOUS
  0
LAYER
  2
ゴム等
 70
     0
 62
    63
  6
CONTINUOUS
  0
LAYER
  2
ボルト／ビス
 70
     0
 62
    64
  6
CONTINUOUS
  0
LAYER
  2
文字
 70
     0
 62
    79
  6
CONTINUOUS
  0
LAYER
  2
寸法
 70
     0
 62
    80
  6
CONTINUOUS
  0
LAYER
  2
ﾊｯﾁﾝｸﾞ
 70
     0
 62
    95
  6
CONTINUOUS
  0
LAYER
  2
別途部材
 70
     0
 62
    96
  6
CONTINUOUS
  0
LAYER
  2
曲げ物
 70
     0
 62
   111
  6
CONTINUOUS
  0
LAYER
  2
鉄骨等
 70
     0
 62
   112
  6
CONTINUOUS
  0
LAYER
  2
St
 70
     0
 62
   127
  6
CONTINUOUS
  0
LAYER
  2
その他部品等
 70
     0
 62
   128
  6
CONTINUOUS
  0
LAYER
  2
ｶﾞｽｹｯﾄ
 70
     0
 62
   143
  6
CONTINUOUS
  0
LAYER
  2
ｽｹｯﾁ
 70
     0
 62
    14
  6
CONTINUOUS
  0
LAYER
  2
0
 70
     0
 62
    17
  6
CONTINUOUS
  0
LAYER
  2
1
 70
     0
 62
    30
  6
CONTINUOUS
  0
LAYER
  2
4
 70
     0
 62
    33
  6
CONTINUOUS
  0
LAYER
  2
ﾚｲﾔ3
 70
     0
 62
    46
  6
CONTINUOUS
  0
LAYER
  2
外形線
 70
     0
 62
    49
  6
CONTINUOUS
  0
LAYER
  2
部品
 70
     0
 62
    14
  6
CONTINUOUS
  0
LAYER
  2
サッシ芯
 70
     0
 62
    17
  6
DASHDOTX2
  0
LAYER
  2
寸法線
 70
     0
 62
    62
  6
CONTINUOUS
  0
LAYER
  2
姿図外形線
 70
     0
 62
    65
  6
CONTINUOUS
  0
LAYER
  2
姿補助線
 70
     0
 62
    30
  6
CONTINUOUS
  0
LAYER
  2
透視線
 70
     0
 62
    78
  6
DOT
  0
LAYER
  2
用紙
 70
     0
 62
    81
  6
CONTINUOUS
  0
LAYER
  2
実線図枠
 70
     0
 62
    94
  6
CONTINUOUS
  0
LAYER
  2
補助図枠
 70
     0
 62
    97
  6
CONTINUOUS
  0
LAYER
  2
建具記号
 70
     0
 62
   110
  6
CONTINUOUS
  0
LAYER
  2
補助文字
 70
     0
 62
   113
  6
CONTINUOUS
  0
ENDTAB
  0
TABLE
  2
STYLE
 70
    10
  0
STYLE
  2
STANDARD
 70
     0
 40
1.0
 41
1.0
 42
1.0
 50
0.0
 71
     0
  3
TXT
  4
BIGFONT
  0
STYLE
  2
TATE
 70
     4
 40
1.0
 41
1.0
 42
1.0
 50
0.0
 71
     0
  3
TXT
  4
BIGFONT
  0
STYLE
  2
TextStyle03
 70
     0
 40
1.0
 41
1.0
 42
1.0
 50
0.0
 71
     0
  3
MONOTXT
  4
BIGFONT
  0
STYLE
  2
TextStyle04
 70
     0
 40
1.0
 41
1.0
 42
1.0
 50
0.0
 71
     0
  3
MONOTXT
  4
BIGFONT
  0
STYLE
  2
TextStyle05
 70
     0
 40
1.0
 41
1.0
 42
1.0
 50
0.0
 71
     0
  3
MONOTXT
  4
BIGFONT
  0
STYLE
  2
TextStyle06
 70
     0
 40
1.0
 41
1.0
 42
1.0
 50
0.0
 71
     0
  3
MONOTXT
  4
BIGFONT
  0
STYLE
  2
TextStyle07
 70
     0
 40
1.0
 41
1.0
 42
1.0
 50
0.0
 71
     0
  3
MONOTXT
  4
BIGFONT
  0
STYLE
  2
TextStyle08
 70
     0
 40
1.0
 41
1.0
 42
1.0
 50
0.0
 71
     0
  3
MONOTXT
  4
BIGFONT
  0
STYLE
  2
TextStyle09
 70
     0
 40
1.0
 41
1.0
 42
1.0
 50
0.0
 71
     0
  3
MONOTXT
  4
BIGFONT
  0
STYLE
  2
TextStyle10
 70
     0
 40
1.0
 41
1.0
 42
1.0
 50
0.0
 71
     0
  3
MONOTXT
  4
BIGFONT
  0
ENDTAB
  0
ENDSEC
  0
SECTION
  2
BLOCKS
  0
BLOCK
  2
*GRP_0001
 70
    65
 10
0.0
 20
0.0
  0
LINE
  8
型材断面
  6
CONTINUOUS
 10
195.0
 20
133.5
 11
195.0
 21
-133.5
  0
LINE
  8
型材断面
  6
CONTINUOUS
 10
195.0
 20
-133.5
 11
-185.0
 21
-133.5
  0
LINE
  8
型材断面
  6
CONTINUOUS
 10
-185.0
 20
-133.5
 11
-185.0
 21
133.5
  0
LINE
  8
型材断面
  6
CONTINUOUS
 10
195.0
 20
133.5
 11
-185.0
 21
133.5
  0
LINE
  8
型材断面
  6
CONTINUOUS
 10
145.0
 20
-133.5
 11
145.0
 21
-118.5
  0
LINE
  8
型材断面
  6
CONTINUOUS
 10
195.0
 20
-118.5
 11
145.0
 21
-118.5
  0
ENDBLK
  0
BLOCK
  2
*DIM_0002
 70
    65
 10
0.0
 20
0.0
  0
LINE
  8
寸法
  6
BYBLOCK
 62
     0
 10
-76.650292
 20
-13.511205
 11
-76.650292
 21
-13.121378
  0
LINE
  8
寸法
  6
BYBLOCK
 62
     0
 10
40.016375
 20
-13.121378
 11
-76.650292
 21
-13.121378
  0
POINT
  8
寸法
 62
     0
 10
40.016375
 20
-13.121378
  0
POINT
  8
寸法
 62
     0
 10
-76.650292
 20
-13.121378
  0
TEXT
  7
TextStyle03
  8
寸法
  6
CONTINUOUS
 62
     0
 10
-30.01875
 20
-12.75
  1
呼称寸法　3500
 40
3.0
 72
     5
 11
-6.58125
 21
-12.75
  0
ENDBLK
  0
BLOCK
  2
*DIM_0003
 70
    65
 10
0.0
 20
0.0
  0
LINE
  8
寸法
  6
BYBLOCK
 62
     0
 10
-59.983625
 20
19.183902
 11
-59.983625
 21
14.000657
  0
LINE
  8
寸法
  6
BYBLOCK
 62
     0
 10
23.34971
 20
19.183902
 11
23.34971
 21
14.000657
  0
LINE
  8
寸法
  6
BYBLOCK
 62
     0
 10
-59.983625
 20
14.000657
 11
23.34971
 21
14.000657
  0
POINT
  8
寸法
 62
     0
 10
-59.983625
 20
14.000657
  0
POINT
  8
寸法
 62
     0
 10
23.34971
 20
14.000657
  0
TEXT
  7
TextStyle03
  8
寸法
  6
CONTINUOUS
 62
     0
 10
-21.60625
 20
14.375
  1
2500
 40
3.0
 72
     5
 11
-15.04375
 21
14.375
  0
ENDBLK
  0
BLOCK
  2
*GRP_0004
 70
    65
 10
0.0
 20
0.0
  0
LINE
  8
別途部材
  6
CONTINUOUS
 62
    96
 10
-78.316957
 20
-70.209613
 11
-78.716957
 21
-71.209613
  0
ARC
  8
別途部材
  6
CONTINUOUS
 10
-61.650294
 20
-79.542948
 40
17.666667
 50
90.0
 51
148.109204
  0
LINE
  8
別途部材
  6
CONTINUOUS
 62
    96
 10
-78.316957
 20
-70.209613
 11
-18.316957
 21
-70.209613
  0
LINE
  8
別途部材
  6
CONTINUOUS
 10
-78.716957
 20
-71.209613
 11
-18.316957
 21
-71.209613
  0
LINE
  8
別途部材
  6
CONTINUOUS
 10
-18.816957
 20
-60.87628
 11
-19.816957
 21
-61.87628
  0
LINE
  8
別途部材
  6
CONTINUOUS
 10
-20.816957
 20
-61.87628
 11
-21.816957
 21
-60.87628
  0
LINE
  8
別途部材
  6
CONTINUOUS
 10
-22.816957
 20
-60.87628
 11
-23.816957
 21
-61.87628
  0
LINE
  8
別途部材
  6
CONTINUOUS
 10
-21.816957
 20
-60.87628
 11
-22.816957
 21
-60.87628
  0
LINE
  8
別途部材
  6
CONTINUOUS
 10
-18.816957
 20
-60.87628
 11
-18.316957
 21
-60.87628
  0
LINE
  8
別途部材
  6
CONTINUOUS
 10
-24.816957
 20
-61.87628
 11
-25.816957
 21
-60.87628
  0
LINE
  8
別途部材
  6
CONTINUOUS
 10
-26.816957
 20
-60.87628
 11
-27.816957
 21
-61.87628
  0
LINE
  8
別途部材
  6
CONTINUOUS
 10
-25.816957
 20
-60.87628
 11
-26.816957
 21
-60.87628
  0
LINE
  8
別途部材
  6
CONTINUOUS
 10
-28.816957
 20
-61.87628
 11
-29.816957
 21
-60.87628
  0
LINE
  8
別途部材
  6
CONTINUOUS
 10
-30.816957
 20
-60.87628
 11
-31.816957
 21
-61.87628
  0
LINE
  8
別途部材
  6
CONTINUOUS
 10
-29.816957
 20
-60.87628
 11
-30.816957
 21
-60.87628
  0
LINE
  8
別途部材
  6
CONTINUOUS
 10
-32.816957
 20
-61.87628
 11
-33.816957
 21
-60.87628
  0
LINE
  8
別途部材
  6
CONTINUOUS
 10
-34.816957
 20
-60.87628
 11
-35.816957
 21
-61.87628
  0
LINE
  8
別途部材
  6
CONTINUOUS
 10
-33.816957
 20
-60.87628
 11
-34.816957
 21
-60.87628
  0
LINE
  8
別途部材
  6
CONTINUOUS
 10
-36.816957
 20
-61.87628
 11
-37.816957
 21
-60.87628
  0
LINE
  8
別途部材
  6
CONTINUOUS
 10
-38.816957
 20
-60.87628
 11
-39.816957
 21
-61.87628
  0
LINE
  8
別途部材
  6
CONTINUOUS
 10
-37.816957
 20
-60.87628
 11
-38.816957
 21
-60.87628
  0
LINE
  8
別途部材
  6
CONTINUOUS
 10
-40.816957
 20
-61.87628
 11
-41.816957
 21
-60.87628
  0
LINE
  8
別途部材
  6
CONTINUOUS
 10
-42.816957
 20
-60.87628
 11
-43.816957
 21
-61.87628
  0
LINE
  8
別途部材
  6
CONTINUOUS
 10
-41.816957
 20
-60.87628
 11
-42.816957
 21
-60.87628
  0
LINE
  8
別途部材
  6
CONTINUOUS
 10
-44.816957
 20
-61.87628
 11
-45.816957
 21
-60.87628
  0
LINE
  8
別途部材
  6
CONTINUOUS
 10
-46.816957
 20
-60.87628
 11
-47.816957
 21
-61.87628
  0
LINE
  8
別途部材
  6
CONTINUOUS
 10
-45.816957
 20
-60.87628
 11
-46.816957
 21
-60.87628
  0
LINE
  8
別途部材
  6
CONTINUOUS
 10
-48.816957
 20
-61.87628
 11
-49.816957
 21
-60.87628
  0
LINE
  8
別途部材
  6
CONTINUOUS
 10
-50.816957
 20
-60.87628
 11
-51.816957
 21
-61.87628
  0
LINE
  8
別途部材
  6
CONTINUOUS
 10
-49.816957
 20
-60.87628
 11
-50.816957
 21
-60.87628
  0
LINE
  8
別途部材
  6
CONTINUOUS
 10
-52.816957
 20
-61.87628
 11
-53.816957
 21
-60.87628
  0
LINE
  8
別途部材
  6
CONTINUOUS
 10
-54.816957
 20
-60.87628
 11
-55.816957
 21
-61.87628
  0
LINE
  8
別途部材
  6
CONTINUOUS
 10
-53.816957
 20
-60.87628
 11
-54.816957
 21
-60.87628
  0
LINE
  8
別途部材
  6
CONTINUOUS
 10
-56.816957
 20
-61.87628
 11
-57.816957
 21
-60.87628
  0
LINE
  8
別途部材
  6
CONTINUOUS
 10
-58.816957
 20
-60.87628
 11
-59.816957
 21
-61.87628
  0
LINE
  8
別途部材
  6
CONTINUOUS
 10
-57.816957
 20
-60.87628
 11
-58.816957
 21
-60.87628
  0
LINE
  8
別途部材
  6
CONTINUOUS
 10
-55.816957
 20
-61.87628
 11
-56.816957
 21
-61.87628
  0
LINE
  8
別途部材
  6
CONTINUOUS
 10
-51.816957
 20
-61.87628
 11
-52.816957
 21
-61.87628
  0
LINE
  8
別途部材
  6
CONTINUOUS
 10
-47.816957
 20
-61.87628
 11
-48.816957
 21
-61.87628
  0
LINE
  8
別途部材
  6
CONTINUOUS
 10
-43.816957
 20
-61.87628
 11
-44.816957
 21
-61.87628
  0
LINE
  8
別途部材
  6
CONTINUOUS
 10
-39.816957
 20
-61.87628
 11
-40.816957
 21
-61.87628
  0
LINE
  8
別途部材
  6
CONTINUOUS
 10
-35.816957
 20
-61.87628
 11
-36.816957
 21
-61.87628
  0
LINE
  8
別途部材
  6
CONTINUOUS
 10
-31.816957
 20
-61.87628
 11
-32.816957
 21
-61.87628
  0
LINE
  8
別途部材
  6
CONTINUOUS
 10
-27.816957
 20
-61.87628
 11
-28.816957
 21
-61.87628
  0
LINE
  8
別途部材
  6
CONTINUOUS
 10
-23.816957
 20
-61.87628
 11
-24.816957
 21
-61.87628
  0
LINE
  8
別途部材
  6
CONTINUOUS
 10
-20.816957
 20
-61.87628
 11
-19.816957
 21
-61.87628
  0
LINE
  8
別途部材
  6
CONTINUOUS
 10
-58.816957
 20
-60.87628
 11
-58.816957
 21
-70.209613
  0
LINE
  8
別途部材
  6
CONTINUOUS
 10
-56.816957
 20
-61.87628
 11
-56.816957
 21
-70.209613
  0
LINE
  8
別途部材
  6
CONTINUOUS
 10
-59.816957
 20
-61.87628
 11
-59.816957
 21
-70.209613
  0
LINE
  8
別途部材
  6
CONTINUOUS
 10
-57.816957
 20
-60.87628
 11
-57.816957
 21
-70.209613
  0
LINE
  8
別途部材
  6
CONTINUOUS
 10
-54.816957
 20
-60.87628
 11
-54.816957
 21
-70.209613
  0
LINE
  8
別途部材
  6
CONTINUOUS
 10
-55.816957
 20
-61.87628
 11
-55.816957
 21
-70.209613
  0
LINE
  8
別途部材
  6
CONTINUOUS
 10
-53.816957
 20
-60.87628
 11
-53.816957
 21
-70.209613
  0
LINE
  8
別途部材
  6
CONTINUOUS
 10
-52.816957
 20
-61.87628
 11
-52.816957
 21
-70.209613
  0
LINE
  8
別途部材
  6
CONTINUOUS
 10
-51.816957
 20
-61.87628
 11
-51.816957
 21
-70.209613
  0
LINE
  8
別途部材
  6
CONTINUOUS
 10
-50.816957
 20
-60.87628
 11
-50.816957
 21
-70.209613
  0
LINE
  8
別途部材
  6
CONTINUOUS
 10
-48.816957
 20
-61.87628
 11
-48.816957
 21
-70.209613
  0
LINE
  8
別途部材
  6
CONTINUOUS
 10
-49.816957
 20
-60.87628
 11
-49.816957
 21
-70.209613
  0
LINE
  8
別途部材
  6
CONTINUOUS
 10
-46.816957
 20
-60.87628
 11
-46.816957
 21
-70.209613
  0
LINE
  8
別途部材
  6
CONTINUOUS
 10
-47.816957
 20
-61.87628
 11
-47.816957
 21
-70.209613
  0
LINE
  8
別途部材
  6
CONTINUOUS
 10
-43.816957
 20
-61.87628
 11
-43.816957
 21
-70.209613
  0
LINE
  8
別途部材
  6
CONTINUOUS
 10
-42.816957
 20
-60.87628
 11
-42.816957
 21
-70.209613
  0
LINE
  8
別途部材
  6
CONTINUOUS
 10
-41.816957
 20
-60.87628
 11
-41.816957
 21
-70.209613
  0
LINE
  8
別途部材
  6
CONTINUOUS
 10
-44.816957
 20
-61.87628
 11
-44.816957
 21
-70.209613
  0
LINE
  8
別途部材
  6
CONTINUOUS
 10
-45.816957
 20
-60.87628
 11
-45.816957
 21
-70.209613
  0
LINE
  8
別途部材
  6
CONTINUOUS
 10
-37.816957
 20
-60.87628
 11
-37.816957
 21
-70.209613
  0
LINE
  8
別途部材
  6
CONTINUOUS
 10
-39.816957
 20
-61.87628
 11
-39.816957
 21
-70.209613
  0
LINE
  8
別途部材
  6
CONTINUOUS
 10
-40.816957
 20
-61.87628
 11
-40.816957
 21
-70.209613
  0
LINE
  8
別途部材
  6
CONTINUOUS
 10
-38.816957
 20
-60.87628
 11
-38.816957
 21
-70.209613
  0
LINE
  8
別途部材
  6
CONTINUOUS
 10
-36.816957
 20
-61.87628
 11
-36.816957
 21
-70.209613
  0
LINE
  8
別途部材
  6
CONTINUOUS
 10
-34.816957
 20
-60.87628
 11
-34.816957
 21
-70.209613
  0
LINE
  8
別途部材
  6
CONTINUOUS
 10
-33.816957
 20
-60.87628
 11
-33.816957
 21
-70.209613
  0
LINE
  8
別途部材
  6
CONTINUOUS
 10
-31.816957
 20
-61.87628
 11
-31.816957
 21
-70.209613
  0
LINE
  8
別途部材
  6
CONTINUOUS
 10
-32.816957
 20
-61.87628
 11
-32.816957
 21
-70.209613
  0
LINE
  8
別途部材
  6
CONTINUOUS
 10
-35.816957
 20
-61.87628
 11
-35.816957
 21
-70.209613
  0
LINE
  8
別途部材
  6
CONTINUOUS
 10
-30.816957
 20
-60.87628
 11
-30.816957
 21
-70.209613
  0
LINE
  8
別途部材
  6
CONTINUOUS
 10
-28.816957
 20
-61.87628
 11
-28.816957
 21
-70.209613
  0
LINE
  8
別途部材
  6
CONTINUOUS
 10
-29.816957
 20
-60.87628
 11
-29.816957
 21
-70.209613
  0
LINE
  8
別途部材
  6
CONTINUOUS
 10
-27.816957
 20
-61.87628
 11
-27.816957
 21
-70.209613
  0
LINE
  8
別途部材
  6
CONTINUOUS
 10
-26.816957
 20
-60.87628
 11
-26.816957
 21
-70.209613
  0
LINE
  8
別途部材
  6
CONTINUOUS
 10
-24.816957
 20
-61.87628
 11
-24.816957
 21
-70.209613
  0
LINE
  8
別途部材
  6
CONTINUOUS
 10
-25.816957
 20
-60.87628
 11
-25.816957
 21
-70.209613
  0
LINE
  8
別途部材
  6
CONTINUOUS
 10
-23.816957
 20
-61.87628
 11
-23.816957
 21
-70.209613
  0
LINE
  8
別途部材
  6
CONTINUOUS
 10
-22.816957
 20
-60.87628
 11
-22.816957
 21
-70.209613
  0
LINE
  8
別途部材
  6
CONTINUOUS
 10
-20.816957
 20
-61.87628
 11
-20.816957
 21
-70.209613
  0
LINE
  8
別途部材
  6
CONTINUOUS
 10
-21.816957
 20
-60.87628
 11
-21.816957
 21
-70.209613
  0
LINE
  8
別途部材
  6
CONTINUOUS
 10
-19.816957
 20
-61.87628
 11
-19.816957
 21
-70.209613
  0
LINE
  8
別途部材
  6
CONTINUOUS
 10
-18.816957
 20
-60.87628
 11
-18.816957
 21
-70.209613
  0
LINE
  8
別途部材
  6
CONTINUOUS
 10
-59.816957
 20
-61.87628
 11
-61.65029
 21
-61.87628
  0
LINE
  8
別途部材
  6
CONTINUOUS
 62
    96
 10
41.683043
 20
-70.209613
 11
42.083043
 21
-71.209613
  0
ARC
  8
別途部材
  6
CONTINUOUS
 10
25.016379
 20
-79.542948
 40
17.666667
 50
31.890796
 51
90.0
  0
LINE
  8
別途部材
  6
CONTINUOUS
 62
    96
 10
41.683043
 20
-70.209613
 11
-18.316957
 21
-70.209613
  0
LINE
  8
別途部材
  6
CONTINUOUS
 10
42.083043
 20
-71.209613
 11
-18.316957
 21
-71.209613
  0
LINE
  8
別途部材
  6
CONTINUOUS
 10
-17.816957
 20
-60.87628
 11
-16.816957
 21
-61.87628
  0
LINE
  8
別途部材
  6
CONTINUOUS
 10
-15.816957
 20
-61.87628
 11
-14.816957
 21
-60.87628
  0
LINE
  8
別途部材
  6
CONTINUOUS
 10
-13.816957
 20
-60.87628
 11
-12.816957
 21
-61.87628
  0
LINE
  8
別途部材
  6
CONTINUOUS
 10
-14.816957
 20
-60.87628
 11
-13.816957
 21
-60.87628
  0
LINE
  8
別途部材
  6
CONTINUOUS
 10
-17.816957
 20
-60.87628
 11
-18.316957
 21
-60.87628
  0
LINE
  8
別途部材
  6
CONTINUOUS
 10
-11.816957
 20
-61.87628
 11
-10.816957
 21
-60.87628
  0
LINE
  8
別途部材
  6
CONTINUOUS
 10
-9.816957
 20
-60.87628
 11
-8.816957
 21
-61.87628
  0
LINE
  8
別途部材
  6
CONTINUOUS
 10
-10.816957
 20
-60.87628
 11
-9.816957
 21
-60.87628
  0
LINE
  8
別途部材
  6
CONTINUOUS
 10
-7.816957
 20
-61.87628
 11
-6.816957
 21
-60.87628
  0
LINE
  8
別途部材
  6
CONTINUOUS
 10
-5.816957
 20
-60.87628
 11
-4.816957
 21
-61.87628
  0
LINE
  8
別途部材
  6
CONTINUOUS
 10
-6.816957
 20
-60.87628
 11
-5.816957
 21
-60.87628
  0
LINE
  8
別途部材
  6
CONTINUOUS
 10
-3.816957
 20
-61.87628
 11
-2.816957
 21
-60.87628
  0
LINE
  8
別途部材
  6
CONTINUOUS
 10
-1.816957
 20
-60.87628
 11
-0.816957
 21
-61.87628
  0
LINE
  8
別途部材
  6
CONTINUOUS
 10
-2.816957
 20
-60.87628
 11
-1.816957
 21
-60.87628
  0
LINE
  8
別途部材
  6
CONTINUOUS
 10
0.183043
 20
-61.87628
 11
1.183043
 21
-60.87628
  0
LINE
  8
別途部材
  6
CONTINUOUS
 10
2.183043
 20
-60.87628
 11
3.183043
 21
-61.87628
  0
LINE
  8
別途部材
  6
CONTINUOUS
 10
1.183043
 20
-60.87628
 11
2.183043
 21
-60.87628
  0
LINE
  8
別途部材
  6
CONTINUOUS
 10
4.183043
 20
-61.87628
 11
5.183043
 21
-60.87628
  0
LINE
  8
別途部材
  6
CONTINUOUS
 10
6.183043
 20
-60.87628
 11
7.183043
 21
-61.87628
  0
LINE
  8
別途部材
  6
CONTINUOUS
 10
5.183043
 20
-60.87628
 11
6.183043
 21
-60.87628
  0
LINE
  8
別途部材
  6
CONTINUOUS
 10
8.183043
 20
-61.87628
 11
9.183043
 21
-60.87628
  0
LINE
  8
別途部材
  6
CONTINUOUS
 10
10.183043
 20
-60.87628
 11
11.183043
 21
-61.87628
  0
LINE
  8
別途部材
  6
CONTINUOUS
 10
9.183043
 20
-60.87628
 11
10.183043
 21
-60.87628
  0
LINE
  8
別途部材
  6
CONTINUOUS
 10
12.183043
 20
-61.87628
 11
13.183043
 21
-60.87628
  0
LINE
  8
別途部材
  6
CONTINUOUS
 10
14.183043
 20
-60.87628
 11
15.183043
 21
-61.87628
  0
LINE
  8
別途部材
  6
CONTINUOUS
 10
13.183043
 20
-60.87628
 11
14.183043
 21
-60.87628
  0
LINE
  8
別途部材
  6
CONTINUOUS
 10
16.183043
 20
-61.87628
 11
17.183043
 21
-60.87628
  0
LINE
  8
別途部材
  6
CONTINUOUS
 10
18.183043
 20
-60.87628
 11
19.183043
 21
-61.87628
  0
LINE
  8
別途部材
  6
CONTINUOUS
 10
17.183043
 20
-60.87628
 11
18.183043
 21
-60.87628
  0
LINE
  8
別途部材
  6
CONTINUOUS
 10
20.183043
 20
-61.87628
 11
21.183043
 21
-60.87628
  0
LINE
  8
別途部材
  6
CONTINUOUS
 10
22.183043
 20
-60.87628
 11
23.183043
 21
-61.87628
  0
LINE
  8
別途部材
  6
CONTINUOUS
 10
21.183043
 20
-60.87628
 11
22.183043
 21
-60.87628
  0
LINE
  8
別途部材
  6
CONTINUOUS
 10
19.183043
 20
-61.87628
 11
20.183043
 21
-61.87628
  0
LINE
  8
別途部材
  6
CONTINUOUS
 10
15.183043
 20
-61.87628
 11
16.183043
 21
-61.87628
  0
LINE
  8
別途部材
  6
CONTINUOUS
 10
11.183043
 20
-61.87628
 11
12.183043
 21
-61.87628
  0
LINE
  8
別途部材
  6
CONTINUOUS
 10
7.183043
 20
-61.87628
 11
8.183043
 21
-61.87628
  0
LINE
  8
別途部材
  6
CONTINUOUS
 10
3.183043
 20
-61.87628
 11
4.183043
 21
-61.87628
  0
LINE
  8
別途部材
  6
CONTINUOUS
 10
-0.816957
 20
-61.87628
 11
0.183043
 21
-61.87628
  0
LINE
  8
別途部材
  6
CONTINUOUS
 10
-4.816957
 20
-61.87628
 11
-3.816957
 21
-61.87628
  0
LINE
  8
別途部材
  6
CONTINUOUS
 10
-8.816957
 20
-61.87628
 11
-7.816957
 21
-61.87628
  0
LINE
  8
別途部材
  6
CONTINUOUS
 10
-12.816957
 20
-61.87628
 11
-11.816957
 21
-61.87628
  0
LINE
  8
別途部材
  6
CONTINUOUS
 10
-15.816957
 20
-61.87628
 11
-16.816957
 21
-61.87628
  0
LINE
  8
別途部材
  6
CONTINUOUS
 10
22.183043
 20
-60.87628
 11
22.183043
 21
-70.209613
  0
LINE
  8
別途部材
  6
CONTINUOUS
 10
20.183043
 20
-61.87628
 11
20.183043
 21
-70.209613
  0
LINE
  8
別途部材
  6
CONTINUOUS
 10
23.183043
 20
-61.87628
 11
23.183043
 21
-70.209613
  0
LINE
  8
別途部材
  6
CONTINUOUS
 10
21.183043
 20
-60.87628
 11
21.183043
 21
-70.209613
  0
LINE
  8
別途部材
  6
CONTINUOUS
 10
18.183043
 20
-60.87628
 11
18.183043
 21
-70.209613
  0
LINE
  8
別途部材
  6
CONTINUOUS
 10
19.183043
 20
-61.87628
 11
19.183043
 21
-70.209613
  0
LINE
  8
別途部材
  6
CONTINUOUS
 10
17.183043
 20
-60.87628
 11
17.183043
 21
-70.209613
  0
LINE
  8
別途部材
  6
CONTINUOUS
 10
16.183043
 20
-61.87628
 11
16.183043
 21
-70.209613
  0
LINE
  8
別途部材
  6
CONTINUOUS
 10
15.183043
 20
-61.87628
 11
15.183043
 21
-70.209613
  0
LINE
  8
別途部材
  6
CONTINUOUS
 10
14.183043
 20
-60.87628
 11
14.183043
 21
-70.209613
  0
LINE
  8
別途部材
  6
CONTINUOUS
 10
12.183043
 20
-61.87628
 11
12.183043
 21
-70.209613
  0
LINE
  8
別途部材
  6
CONTINUOUS
 10
13.183043
 20
-60.87628
 11
13.183043
 21
-70.209613
  0
LINE
  8
別途部材
  6
CONTINUOUS
 10
10.183043
 20
-60.87628
 11
10.183043
 21
-70.209613
  0
LINE
  8
別途部材
  6
CONTINUOUS
 10
11.183043
 20
-61.87628
 11
11.183043
 21
-70.209613
  0
LINE
  8
別途部材
  6
CONTINUOUS
 10
7.183043
 20
-61.87628
 11
7.183043
 21
-70.209613
  0
LINE
  8
別途部材
  6
CONTINUOUS
 10
6.183043
 20
-60.87628
 11
6.183043
 21
-70.209613
  0
LINE
  8
別途部材
  6
CONTINUOUS
 10
5.183043
 20
-60.87628
 11
5.183043
 21
-70.209613
  0
LINE
  8
別途部材
  6
CONTINUOUS
 10
8.183043
 20
-61.87628
 11
8.183043
 21
-70.209613
  0
LINE
  8
別途部材
  6
CONTINUOUS
 10
9.183043
 20
-60.87628
 11
9.183043
 21
-70.209613
  0
LINE
  8
別途部材
  6
CONTINUOUS
 10
1.183043
 20
-60.87628
 11
1.183043
 21
-70.209613
  0
LINE
  8
別途部材
  6
CONTINUOUS
 10
3.183043
 20
-61.87628
 11
3.183043
 21
-70.209613
  0
LINE
  8
別途部材
  6
CONTINUOUS
 10
4.183043
 20
-61.87628
 11
4.183043
 21
-70.209613
  0
LINE
  8
別途部材
  6
CONTINUOUS
 10
2.183043
 20
-60.87628
 11
2.183043
 21
-70.209613
  0
LINE
  8
別途部材
  6
CONTINUOUS
 10
0.183043
 20
-61.87628
 11
0.183043
 21
-70.209613
  0
LINE
  8
別途部材
  6
CONTINUOUS
 10
-1.816957
 20
-60.87628
 11
-1.816957
 21
-70.209613
  0
LINE
  8
別途部材
  6
CONTINUOUS
 10
-2.816957
 20
-60.87628
 11
-2.816957
 21
-70.209613
  0
LINE
  8
別途部材
  6
CONTINUOUS
 10
-4.816957
 20
-61.87628
 11
-4.816957
 21
-70.209613
  0
LINE
  8
別途部材
  6
CONTINUOUS
 10
-3.816957
 20
-61.87628
 11
-3.816957
 21
-70.209613
  0
LINE
  8
別途部材
  6
CONTINUOUS
 10
-0.816957
 20
-61.87628
 11
-0.816957
 21
-70.209613
  0
LINE
  8
別途部材
  6
CONTINUOUS
 10
-5.816957
 20
-60.87628
 11
-5.816957
 21
-70.209613
  0
LINE
  8
別途部材
  6
CONTINUOUS
 10
-7.816957
 20
-61.87628
 11
-7.816957
 21
-70.209613
  0
LINE
  8
別途部材
  6
CONTINUOUS
 10
-6.816957
 20
-60.87628
 11
-6.816957
 21
-70.209613
  0
LINE
  8
別途部材
  6
CONTINUOUS
 10
-8.816957
 20
-61.87628
 11
-8.816957
 21
-70.209613
  0
LINE
  8
別途部材
  6
CONTINUOUS
 10
-9.816957
 20
-60.87628
 11
-9.816957
 21
-70.209613
  0
LINE
  8
別途部材
  6
CONTINUOUS
 10
-11.816957
 20
-61.87628
 11
-11.816957
 21
-70.209613
  0
LINE
  8
別途部材
  6
CONTINUOUS
 10
-10.816957
 20
-60.87628
 11
-10.816957
 21
-70.209613
  0
LINE
  8
別途部材
  6
CONTINUOUS
 10
-12.816957
 20
-61.87628
 11
-12.816957
 21
-70.209613
  0
LINE
  8
別途部材
  6
CONTINUOUS
 10
-13.816957
 20
-60.87628
 11
-13.816957
 21
-70.209613
  0
LINE
  8
別途部材
  6
CONTINUOUS
 10
-15.816957
 20
-61.87628
 11
-15.816957
 21
-70.209613
  0
LINE
  8
別途部材
  6
CONTINUOUS
 10
-14.816957
 20
-60.87628
 11
-14.816957
 21
-70.209613
  0
LINE
  8
別途部材
  6
CONTINUOUS
 10
-16.816957
 20
-61.87628
 11
-16.816957
 21
-70.209613
  0
LINE
  8
別途部材
  6
CONTINUOUS
 10
-17.816957
 20
-60.87628
 11
-17.816957
 21
-70.209613
  0
LINE
  8
別途部材
  6
CONTINUOUS
 10
23.183043
 20
-61.87628
 11
25.016375
 21
-61.87628
  0
ENDBLK
  0
BLOCK
  2
*DIM_0005
 70
    65
 10
0.0
 20
0.0
  0
LINE
  8
寸法
  6
BYBLOCK
 62
     0
 10
38.016375
 20
17.20722
 11
38.016375
 21
14.182178
  0
LINE
  8
寸法
  6
BYBLOCK
 62
     0
 10
40.016375
 20
14.182178
 11
38.016375
 21
14.182178
  0
POINT
  8
寸法
 62
     0
 10
40.016375
 20
14.182178
  0
POINT
  8
寸法
 62
     0
 10
38.016375
 20
14.182178
  0
TEXT
  7
TextStyle03
  8
寸法
  6
CONTINUOUS
 62
     0
 10
36.13125
 20
10.4
  1
60
 40
3.0
 72
     5
 11
39.31875
 21
10.4
  0
ENDBLK
  0
BLOCK
  2
*DIM_0006
 70
    65
 10
0.0
 20
0.0
  0
LINE
  8
寸法
  6
BYBLOCK
 62
     0
 10
-74.65029
 20
17.20722
 11
-74.65029
 21
14.182178
  0
LINE
  8
寸法
  6
BYBLOCK
 62
     0
 10
-76.65029
 20
14.182178
 11
-74.65029
 21
14.182178
  0
POINT
  8
寸法
 62
     0
 10
-76.65029
 20
14.182178
  0
POINT
  8
寸法
 62
     0
 10
-74.65029
 20
14.182178
  0
TEXT
  7
TextStyle03
  8
寸法
  6
CONTINUOUS
 62
     0
 10
-75.94375
 20
10.4
  1
60
 40
3.0
 72
     5
 11
-72.75625
 21
10.4
  0
ENDBLK
  0
BLOCK
  2
*DIM_0007
 70
    65
 10
0.0
 20
0.0
  0
LINE
  8
寸法
  6
BYBLOCK
 62
     0
 10
75.49296
 20
22.814033
 11
75.49296
 21
52.814033
  0
POINT
  8
寸法
 62
     0
 10
75.49296
 20
22.814033
  0
POINT
  8
寸法
 62
     0
 10
75.49296
 20
52.814033
  0
TEXT
  7
TextStyle03
  8
寸法
  6
CONTINUOUS
 62
     0
 10
75.15
 20
26.9
  1
呼称寸法　900
 40
3.0
 50
90.0
 72
     5
 11
75.15
 21
48.65
  0
ENDBLK
  0
BLOCK
  2
*GRP_0008
 70
    65
 10
0.0
 20
0.0
  0
LINE
  8
別途部材
  6
CONTINUOUS
 62
    96
 10
134.58554
 20
54.04769
 11
134.58554
 21
53.94769
  0
LINE
  8
別途部材
  6
CONTINUOUS
 62
    96
 10
132.48446
 20
54.14769
 11
132.554133
 21
55.478495
  0
LINE
  8
別途部材
  6
CONTINUOUS
 62
    96
 10
133.102208
 20
55.48769
 11
132.98554
 21
55.754357
  0
LINE
  8
別途部材
  6
CONTINUOUS
 62
    96
 10
133.002208
 20
55.466772
 11
132.934687
 21
55.621107
  0
LINE
  8
別途部材
  6
CONTINUOUS
 62
    96
 10
132.455363
 20
55.504613
 11
132.585813
 21
55.764812
  0
LINE
  8
別途部材
  6
CONTINUOUS
 62
    96
 10
132.554133
 20
55.478495
 11
132.686292
 21
55.742108
  0
LINE
  8
別途部材
  6
CONTINUOUS
 62
    96
 10
132.721895
 20
55.677225
 11
132.658247
 21
55.600095
  0
LINE
  8
別途部材
  6
DASHDOTX2
 62
    96
 10
132.78554
 20
55.754357
 11
132.472055
 21
55.754357
  0
LINE
  8
別途部材
  6
DASHDOTX2
 62
    96
 10
132.78554
 20
55.754357
 11
133.116
 21
55.754357
  0
LINE
  8
別途部材
  6
DASHDOTX2
 62
    96
 10
132.78554
 20
55.754357
 11
132.78554
 21
55.490885
  0
LINE
  8
別途部材
  6
DASHDOTX2
 62
    96
 10
132.78554
 20
55.754357
 11
132.78554
 21
56.032668
  0
LINE
  8
別途部材
  6
CONTINUOUS
 62
    96
 10
133.002208
 20
53.94769
 11
133.002208
 21
55.466772
  0
LINE
  8
別途部材
  6
CONTINUOUS
 62
    96
 10
133.102208
 20
54.04769
 11
133.102208
 21
55.48769
  0
LINE
  8
別途部材
  6
CONTINUOUS
 62
    96
 10
131.251128
 20
54.247693
 11
132.389558
 21
54.247693
  0
LINE
  8
別途部材
  6
CONTINUOUS
 62
    96
 10
131.251128
 20
54.14769
 11
131.251128
 21
54.247693
  0
LINE
  8
別途部材
  6
CONTINUOUS
 62
    96
 10
131.251128
 20
54.14769
 11
132.48446
 21
54.14769
  0
CIRCLE
  8
別途部材
  6
CONTINUOUS
 62
    96
 10
132.78554
 20
55.754357
 40
0.1
  0
ARC
  8
別途部材
  6
CONTINUOUS
 62
    96
 10
132.785539
 20
55.754357
 40
0.2
 50
218.780606
 51
537.001556
  0
LINE
  8
別途部材
  6
CONTINUOUS
 62
    96
 10
133.002208
 20
53.94769
 11
134.58554
 21
53.94769
  0
LINE
  8
別途部材
  6
CONTINUOUS
 62
    96
 10
133.102208
 20
54.04769
 11
134.58554
 21
54.04769
  0
LINE
  8
別途部材
  6
CONTINUOUS
 62
    96
 10
132.455363
 20
55.504613
 11
132.389558
 21
54.247693
  0
ENDBLK
  0
BLOCK
  2
*DIM_0009
 70
    65
 10
0.0
 20
0.0
  0
LINE
  8
寸法
  6
BYBLOCK
 62
     0
 10
121.168765
 20
40.814033
 11
121.168765
 21
64.521242
  0
LINE
  8
寸法
  6
BYBLOCK
 62
     0
 10
129.502097
 20
57.4807
 11
129.502097
 21
64.521242
  0
LINE
  8
寸法
  6
BYBLOCK
 62
     0
 10
121.168765
 20
64.521242
 11
129.502097
 21
64.521242
  0
POINT
  8
寸法
 62
     0
 10
121.168765
 20
64.521242
  0
POINT
  8
寸法
 62
     0
 10
129.502097
 20
64.521242
  0
TEXT
  7
TextStyle03
  8
寸法
  6
CONTINUOUS
 62
     0
 10
122.8625
 20
64.875
  1
250
 40
3.0
 72
     5
 11
127.7375
 21
64.875
  0
ENDBLK
  0
BLOCK
  2
*DIM_0010
 70
    65
 10
0.0
 20
0.0
  0
LINE
  8
寸法
  6
BYBLOCK
 62
     0
 10
135.402218
 20
59.147508
 11
135.402218
 21
64.521242
  0
LINE
  8
寸法
  6
BYBLOCK
 62
     0
 10
129.502097
 20
64.521242
 11
135.402218
 21
64.521242
  0
POINT
  8
寸法
 62
     0
 10
135.402218
 20
64.521242
  0
TEXT
  7
TextStyle03
  8
寸法
  6
CONTINUOUS
 62
     0
 10
129.9875
 20
64.875
  1
177
 40
3.0
 72
     5
 11
134.8625
 21
64.875
  0
ENDBLK
  0
BLOCK
  2
*DIM_0011
 70
    65
 10
0.0
 20
0.0
  0
LINE
  8
寸法
  6
BYBLOCK
 62
     0
 10
131.902215
 20
56.147508
 11
75.49296
 21
56.147508
  0
LINE
  8
寸法
  6
BYBLOCK
 62
     0
 10
75.49296
 20
52.814033
 11
75.49296
 21
56.147508
  0
POINT
  8
寸法
 62
     0
 10
75.49296
 20
52.814033
  0
POINT
  8
寸法
 62
     0
 10
75.49296
 20
56.147508
  0
TEXT
  7
TextStyle03
  8
寸法
  6
CONTINUOUS
 62
     0
 10
78.45
 20
57.2375
  1
100
 40
3.0
 50
90.0
 72
     5
 11
78.45
 21
62.1125
  0
ENDBLK
  0
BLOCK
  2
*DIM_0012
 70
    65
 10
0.0
 20
0.0
  0
LINE
  8
寸法
  6
BYBLOCK
 62
     0
 10
131.902215
 20
19.480558
 11
75.49296
 21
19.480558
  0
LINE
  8
寸法
  6
BYBLOCK
 62
     0
 10
75.49296
 20
22.814033
 11
75.49296
 21
19.480558
  0
POINT
  8
寸法
 62
     0
 10
75.49296
 20
22.814033
  0
POINT
  8
寸法
 62
     0
 10
75.49296
 20
19.480558
  0
TEXT
  7
TextStyle03
  8
寸法
  6
CONTINUOUS
 62
     0
 10
78.45
 20
13.5125
  1
100
 40
3.0
 50
90.0
 72
     5
 11
78.45
 21
18.3875
  0
ENDBLK
  0
BLOCK
  2
*DIM_0013
 70
    65
 10
0.0
 20
0.0
  0
LINE
  8
寸法
  6
BYBLOCK
 62
     0
 10
44.683043
 20
-70.209613
 11
55.085173
 21
-70.209613
  0
LINE
  8
寸法
  6
BYBLOCK
 62
     0
 10
46.34985
 20
-76.109732
 11
55.085173
 21
-76.109732
  0
LINE
  8
寸法
  6
BYBLOCK
 62
     0
 10
55.085173
 20
-70.209613
 11
55.085173
 21
-76.109732
  0
POINT
  8
寸法
 62
     0
 10
55.085173
 20
-70.209613
  0
POINT
  8
寸法
 62
     0
 10
55.085173
 20
-76.109732
  0
TEXT
  7
TextStyle03
  8
寸法
  6
CONTINUOUS
 62
     0
 10
54.675
 20
-75.6125
  1
177
 40
3.0
 50
90.0
 72
     5
 11
54.675
 21
-70.7375
  0
ENDBLK
  0
BLOCK
  2
*DIM_0014
 70
    65
 10
0.0
 20
0.0
  0
LINE
  8
寸法
  6
BYBLOCK
 62
     0
 10
27.183043
 20
-61.87628
 11
55.085173
 21
-61.87628
  0
LINE
  8
寸法
  6
BYBLOCK
 62
     0
 10
55.085173
 20
-70.209613
 11
55.085173
 21
-61.87628
  0
POINT
  8
寸法
 62
     0
 10
55.085173
 20
-70.209613
  0
POINT
  8
寸法
 62
     0
 10
55.085173
 20
-61.87628
  0
TEXT
  7
TextStyle03
  8
寸法
  6
CONTINUOUS
 62
     0
 10
54.675
 20
-68.4875
  1
250
 40
3.0
 50
90.0
 72
     5
 11
54.675
 21
-63.6125
  0
ENDBLK
  0
BLOCK
  2
*DIM_0015
 70
    65
 10
0.0
 20
0.0
  0
LINE
  8
寸法
  6
BYBLOCK
 62
     0
 10
43.34985
 20
-72.60973
 11
43.34985
 21
-13.121378
  0
LINE
  8
寸法
  6
BYBLOCK
 62
     0
 10
40.016375
 20
-13.121378
 11
43.34985
 21
-13.121378
  0
POINT
  8
寸法
 62
     0
 10
40.016375
 20
-13.121378
  0
POINT
  8
寸法
 62
     0
 10
43.34985
 20
-13.121378
  0
TEXT
  7
TextStyle03
  8
寸法
  6
CONTINUOUS
 62
     0
 10
44.4125
 20
-16.025
  1
100
 40
3.0
 72
     5
 11
49.2875
 21
-16.025
  0
ENDBLK
  0
BLOCK
  2
*DIM_0016
 70
    65
 10
0.0
 20
0.0
  0
LINE
  8
寸法
  6
BYBLOCK
 62
     0
 10
-79.983765
 20
-72.60973
 11
-79.983765
 21
-13.121378
  0
LINE
  8
寸法
  6
BYBLOCK
 62
     0
 10
-76.65029
 20
-13.121378
 11
-79.983765
 21
-13.121378
  0
POINT
  8
寸法
 62
     0
 10
-76.65029
 20
-13.121378
  0
POINT
  8
寸法
 62
     0
 10
-79.983765
 20
-13.121378
  0
TEXT
  7
TextStyle03
  8
寸法
  6
CONTINUOUS
 62
     0
 10
-85.9375
 20
-16.025
  1
100
 40
3.0
 72
     5
 11
-81.0625
 21
-16.025
  0
ENDBLK
  0
BLOCK
  2
*DIM_0017
 70
    65
 10
0.0
 20
0.0
  0
LINE
  8
寸法
  6
BYBLOCK
 62
     0
 10
132.681053
 20
-74.146497
 11
138.898942
 21
-74.146497
  0
LINE
  8
寸法
  6
BYBLOCK
 62
     0
 10
132.681053
 20
-43.613163
 11
138.898942
 21
-43.613163
  0
LINE
  8
寸法
  6
BYBLOCK
 62
     0
 10
138.898942
 20
-74.146497
 11
138.898942
 21
-43.613163
  0
POINT
  8
寸法
 62
     0
 10
138.898942
 20
-74.146497
  0
POINT
  8
寸法
 62
     0
 10
138.898942
 20
-43.613163
  0
TEXT
  7
TextStyle03
  8
寸法
  6
CONTINUOUS
 62
     0
 10
138.5
 20
-61.3375
  1
916
 40
3.0
 50
90.0
 72
     5
 11
138.5
 21
-56.4625
  0
ENDBLK
  0
BLOCK
  2
*DIM_0018
 70
    65
 10
0.0
 20
0.0
  0
LINE
  8
寸法
  6
BYBLOCK
 62
     0
 10
91.181053
 20
-40.613163
 11
91.181053
 21
-35.111467
  0
LINE
  8
寸法
  6
BYBLOCK
 62
     0
 10
129.681053
 20
-40.613163
 11
129.681053
 21
-35.111467
  0
LINE
  8
寸法
  6
BYBLOCK
 62
     0
 10
91.181053
 20
-35.111467
 11
129.681053
 21
-35.111467
  0
POINT
  8
寸法
 62
     0
 10
91.181053
 20
-35.111467
  0
POINT
  8
寸法
 62
     0
 10
129.681053
 20
-35.111467
  0
TEXT
  7
TextStyle03
  8
寸法
  6
CONTINUOUS
 62
     0
 10
107.14375
 20
-34.75
  1
1155
 40
3.0
 72
     5
 11
113.70625
 21
-34.75
  0
ENDBLK
  0
BLOCK
  2
*DIM_0019
 70
    65
 10
0.0
 20
0.0
  0
LINE
  8
寸法
  6
BYBLOCK
 62
     0
 10
-79.650292
 20
47.814033
 11
-92.94313
 21
47.814033
  0
LINE
  8
寸法
  6
BYBLOCK
 62
     0
 10
-79.650292
 20
27.814033
 11
-92.94313
 21
27.814033
  0
LINE
  8
寸法
  6
BYBLOCK
 62
     0
 10
-92.94313
 20
47.814033
 11
-92.94313
 21
27.814033
  0
POINT
  8
寸法
 62
     0
 10
-92.94313
 20
47.814033
  0
POINT
  8
寸法
 62
     0
 10
-92.94313
 20
27.814033
  0
TEXT
  7
TextStyle03
  8
寸法
  6
CONTINUOUS
 62
     0
 10
-93.3
 20
35.3625
  1
600
 40
3.0
 50
90.0
 72
     5
 11
-93.3
 21
40.2375
  0
ENDBLK
  0
BLOCK
  2
*DIM_0020
 70
    65
 10
0.0
 20
0.0
  0
LINE
  8
寸法
  6
BYBLOCK
 62
     0
 10
-71.65029
 20
55.814033
 11
-71.65029
 21
84.922105
  0
LINE
  8
寸法
  6
BYBLOCK
 62
     0
 10
-44.983625
 20
55.814033
 11
-44.983625
 21
84.922105
  0
LINE
  8
寸法
  6
BYBLOCK
 62
     0
 10
-71.65029
 20
84.922105
 11
-44.983625
 21
84.922105
  0
POINT
  8
寸法
 62
     0
 10
-71.65029
 20
84.922105
  0
POINT
  8
寸法
 62
     0
 10
-44.983625
 20
84.922105
  0
TEXT
  7
TextStyle03
  8
寸法
  6
CONTINUOUS
 62
     0
 10
-60.7625
 20
85.275
  1
800
 40
3.0
 72
     5
 11
-55.8875
 21
85.275
  0
ENDBLK
  0
BLOCK
  2
*DIM_0021
 70
    65
 10
0.0
 20
0.0
  0
LINE
  8
寸法
  6
BYBLOCK
 62
     0
 10
-18.316957
 20
55.814033
 11
-18.316957
 21
84.922105
  0
LINE
  8
寸法
  6
BYBLOCK
 62
     0
 10
-44.983625
 20
84.922105
 11
-18.316957
 21
84.922105
  0
POINT
  8
寸法
 62
     0
 10
-18.316957
 20
84.922105
  0
TEXT
  7
TextStyle03
  8
寸法
  6
CONTINUOUS
 62
     0
 10
-34.1125
 20
85.275
  1
800
 40
3.0
 72
     5
 11
-29.2375
 21
85.275
  0
ENDBLK
  0
BLOCK
  2
*DIM_0022
 70
    65
 10
0.0
 20
0.0
  0
LINE
  8
寸法
  6
BYBLOCK
 62
     0
 10
8.34971
 20
55.814033
 11
8.34971
 21
84.922105
  0
LINE
  8
寸法
  6
BYBLOCK
 62
     0
 10
-18.316957
 20
84.922105
 11
8.34971
 21
84.922105
  0
POINT
  8
寸法
 62
     0
 10
8.34971
 20
84.922105
  0
TEXT
  7
TextStyle03
  8
寸法
  6
CONTINUOUS
 62
     0
 10
-7.4375
 20
85.275
  1
800
 40
3.0
 72
     5
 11
-2.5625
 21
85.275
  0
ENDBLK
  0
BLOCK
  2
*DIM_0023
 70
    65
 10
0.0
 20
0.0
  0
LINE
  8
寸法
  6
BYBLOCK
 62
     0
 10
35.016375
 20
55.814033
 11
35.016375
 21
84.922105
  0
LINE
  8
寸法
  6
BYBLOCK
 62
     0
 10
8.34971
 20
84.922105
 11
35.016375
 21
84.922105
  0
POINT
  8
寸法
 62
     0
 10
35.016375
 20
84.922105
  0
TEXT
  7
TextStyle03
  8
寸法
  6
CONTINUOUS
 62
     0
 10
19.2375
 20
85.275
  1
800
 40
3.0
 72
     5
 11
24.1125
 21
85.275
  0
ENDBLK
  0
BLOCK
  2
*GRP_0024
 70
    65
 10
0.0
 20
0.0
  0
LINE
  8
ボルト／ビス
  6
CONTINUOUS
 10
-77.316957
 20
-70.209613
 11
-77.316957
 21
-69.742945
  0
LINE
  8
ボルト／ビス
  6
CONTINUOUS
 10
-76.95029
 20
-70.209613
 11
-76.95029
 21
-70.142945
  0
LINE
  8
ボルト／ビス
  6
CONTINUOUS
 10
-76.95029
 20
-70.142945
 11
-77.683625
 21
-70.142945
  0
LINE
  8
ボルト／ビス
  6
CONTINUOUS
 10
-77.683625
 20
-70.142945
 11
-77.683625
 21
-70.209613
  0
LINE
  8
ボルト／ビス
  6
CONTINUOUS
 10
-76.95029
 20
-70.209613
 11
-77.683625
 21
-70.209613
  0
LINE
  8
ボルト／ビス
  6
CONTINUOUS
 10
-77.016957
 20
-70.109612
 11
-77.016957
 21
-70.142945
  0
LINE
  8
ボルト／ビス
  6
CONTINUOUS
 10
-77.016957
 20
-70.109612
 11
-77.616957
 21
-70.109612
  0
LINE
  8
ボルト／ビス
  6
CONTINUOUS
 10
-77.616957
 20
-70.109612
 11
-77.616957
 21
-70.142945
  0
LINE
  8
ボルト／ビス
  6
CONTINUOUS
 62
    64
 10
-77.156582
 20
-69.909613
 11
-77.124507
 21
-69.921288
  0
ARC
  8
ボルト／ビス
  6
CONTINUOUS
 62
    64
 10
-77.172621
 20
-70.014593
 40
0.104978
 50
90.0
 51
117.278033
  0
ARC
  8
ボルト／ビス
  6
CONTINUOUS
 62
    64
 10
-77.316958
 20
-70.312017
 40
0.402402
 50
76.165015
 51
103.834998
  0
LINE
  8
ボルト／ビス
  6
CONTINUOUS
 62
    64
 10
-77.477333
 20
-69.909613
 11
-77.509407
 21
-69.921288
  0
ARC
  8
ボルト／ビス
  6
CONTINUOUS
 62
    64
 10
-77.461296
 20
-70.014593
 40
0.104978
 50
62.721967
 51
90.0
  0
LINE
  8
ボルト／ビス
  6
CONTINUOUS
 62
    64
 10
-77.156582
 20
-69.909613
 11
-77.477333
 21
-69.909613
  0
LINE
  8
ボルト／ビス
  6
CONTINUOUS
 62
    64
 10
-77.509407
 20
-69.921288
 11
-77.509407
 21
-70.042945
  0
LINE
  8
ボルト／ビス
  6
CONTINUOUS
 62
    64
 10
-77.413183
 20
-69.921288
 11
-77.413183
 21
-70.042945
  0
LINE
  8
ボルト／ビス
  6
CONTINUOUS
 62
    64
 10
-77.124507
 20
-69.921288
 11
-77.124507
 21
-70.042945
  0
LINE
  8
ボルト／ビス
  6
CONTINUOUS
 62
    64
 10
-77.220733
 20
-69.921288
 11
-77.220733
 21
-70.042945
  0
LINE
  8
ボルト／ビス
  6
CONTINUOUS
 10
-77.124507
 20
-70.042945
 11
-77.509407
 21
-70.042945
  0
LINE
  8
ボルト／ビス
  6
CONTINUOUS
 10
-77.116957
 20
-70.042945
 11
-77.116957
 21
-70.109612
  0
LINE
  8
ボルト／ビス
  6
CONTINUOUS
 10
-77.116957
 20
-70.042945
 11
-77.516957
 21
-70.042945
  0
LINE
  8
ボルト／ビス
  6
CONTINUOUS
 10
-77.516957
 20
-70.042945
 11
-77.516957
 21
-70.109612
  0
ENDBLK
  0
BLOCK
  2
*GRP_0025
 70
    65
 10
0.0
 20
0.0
  0
LINE
  8
ボルト／ビス
  6
CONTINUOUS
 10
40.683043
 20
-70.209613
 11
40.683043
 21
-69.742945
  0
LINE
  8
ボルト／ビス
  6
CONTINUOUS
 10
41.04971
 20
-70.209613
 11
41.04971
 21
-70.142945
  0
LINE
  8
ボルト／ビス
  6
CONTINUOUS
 10
41.04971
 20
-70.142945
 11
40.316375
 21
-70.142945
  0
LINE
  8
ボルト／ビス
  6
CONTINUOUS
 10
40.316375
 20
-70.142945
 11
40.316375
 21
-70.209613
  0
LINE
  8
ボルト／ビス
  6
CONTINUOUS
 10
41.04971
 20
-70.209613
 11
40.316375
 21
-70.209613
  0
LINE
  8
ボルト／ビス
  6
CONTINUOUS
 10
40.983043
 20
-70.109612
 11
40.983043
 21
-70.142945
  0
LINE
  8
ボルト／ビス
  6
CONTINUOUS
 10
40.983043
 20
-70.109612
 11
40.383043
 21
-70.109612
  0
LINE
  8
ボルト／ビス
  6
CONTINUOUS
 10
40.383043
 20
-70.109612
 11
40.383043
 21
-70.142945
  0
LINE
  8
ボルト／ビス
  6
CONTINUOUS
 62
    64
 10
40.843418
 20
-69.909613
 11
40.875492
 21
-69.921288
  0
ARC
  8
ボルト／ビス
  6
CONTINUOUS
 62
    64
 10
40.827379
 20
-70.014593
 40
0.104978
 50
90.0
 51
117.278033
  0
ARC
  8
ボルト／ビス
  6
CONTINUOUS
 62
    64
 10
40.683042
 20
-70.312017
 40
0.402402
 50
76.165015
 51
103.834998
  0
LINE
  8
ボルト／ビス
  6
CONTINUOUS
 62
    64
 10
40.522667
 20
-69.909613
 11
40.490592
 21
-69.921288
  0
ARC
  8
ボルト／ビス
  6
CONTINUOUS
 62
    64
 10
40.538704
 20
-70.014593
 40
0.104978
 50
62.721967
 51
90.0
  0
LINE
  8
ボルト／ビス
  6
CONTINUOUS
 62
    64
 10
40.843418
 20
-69.909613
 11
40.522667
 21
-69.909613
  0
LINE
  8
ボルト／ビス
  6
CONTINUOUS
 62
    64
 10
40.490592
 20
-69.921288
 11
40.490592
 21
-70.042945
  0
LINE
  8
ボルト／ビス
  6
CONTINUOUS
 62
    64
 10
40.586817
 20
-69.921288
 11
40.586817
 21
-70.042945
  0
LINE
  8
ボルト／ビス
  6
CONTINUOUS
 62
    64
 10
40.875492
 20
-69.921288
 11
40.875492
 21
-70.042945
  0
LINE
  8
ボルト／ビス
  6
CONTINUOUS
 62
    64
 10
40.779268
 20
-69.921288
 11
40.779268
 21
-70.042945
  0
LINE
  8
ボルト／ビス
  6
CONTINUOUS
 10
40.875492
 20
-70.042945
 11
40.490592
 21
-70.042945
  0
LINE
  8
ボルト／ビス
  6
CONTINUOUS
 10
40.883043
 20
-70.042945
 11
40.883043
 21
-70.109612
  0
LINE
  8
ボルト／ビス
  6
CONTINUOUS
 10
40.883043
 20
-70.042945
 11
40.483043
 21
-70.042945
  0
LINE
  8
ボルト／ビス
  6
CONTINUOUS
 10
40.483043
 20
-70.042945
 11
40.483043
 21
-70.109612
  0
ENDBLK
  0
BLOCK
  2
*GRP_0026
 70
    65
 10
0.0
 20
0.0
  0
LINE
  8
ボルト／ビス
  6
CONTINUOUS
 10
129.502097
 20
22.147367
 11
129.03543
 21
22.147367
  0
LINE
  8
ボルト／ビス
  6
CONTINUOUS
 10
129.502097
 20
22.514035
 11
129.43543
 21
22.514035
  0
LINE
  8
ボルト／ビス
  6
CONTINUOUS
 10
129.43543
 20
22.514035
 11
129.43543
 21
21.7807
  0
LINE
  8
ボルト／ビス
  6
CONTINUOUS
 10
129.43543
 20
21.7807
 11
129.502097
 21
21.7807
  0
LINE
  8
ボルト／ビス
  6
CONTINUOUS
 10
129.502097
 20
22.514035
 11
129.502097
 21
21.7807
  0
LINE
  8
ボルト／ビス
  6
CONTINUOUS
 10
129.402097
 20
22.447367
 11
129.43543
 21
22.447367
  0
LINE
  8
ボルト／ビス
  6
CONTINUOUS
 10
129.402097
 20
22.447367
 11
129.402097
 21
21.847367
  0
LINE
  8
ボルト／ビス
  6
CONTINUOUS
 10
129.402097
 20
21.847367
 11
129.43543
 21
21.847367
  0
LINE
  8
ボルト／ビス
  6
CONTINUOUS
 62
    64
 10
129.202097
 20
22.307742
 11
129.213773
 21
22.339818
  0
ARC
  8
ボルト／ビス
  6
CONTINUOUS
 62
    64
 10
129.307076
 20
22.291704
 40
0.104978
 50
180.0
 51
207.278033
  0
ARC
  8
ボルト／ビス
  6
CONTINUOUS
 62
    64
 10
129.6045
 20
22.147367
 40
0.402402
 50
166.165015
 51
193.834998
  0
LINE
  8
ボルト／ビス
  6
CONTINUOUS
 62
    64
 10
129.202097
 20
21.986993
 11
129.213773
 21
21.954918
  0
ARC
  8
ボルト／ビス
  6
CONTINUOUS
 62
    64
 10
129.307076
 20
22.003029
 40
0.104978
 50
152.721967
 51
180.0
  0
LINE
  8
ボルト／ビス
  6
CONTINUOUS
 62
    64
 10
129.202097
 20
22.307742
 11
129.202097
 21
21.986993
  0
LINE
  8
ボルト／ビス
  6
CONTINUOUS
 62
    64
 10
129.213773
 20
21.954918
 11
129.33543
 21
21.954918
  0
LINE
  8
ボルト／ビス
  6
CONTINUOUS
 62
    64
 10
129.213773
 20
22.051143
 11
129.33543
 21
22.051143
  0
LINE
  8
ボルト／ビス
  6
CONTINUOUS
 62
    64
 10
129.213773
 20
22.339818
 11
129.33543
 21
22.339818
  0
LINE
  8
ボルト／ビス
  6
CONTINUOUS
 62
    64
 10
129.213773
 20
22.243592
 11
129.33543
 21
22.243592
  0
LINE
  8
ボルト／ビス
  6
CONTINUOUS
 10
129.33543
 20
22.339818
 11
129.33543
 21
21.954918
  0
LINE
  8
ボルト／ビス
  6
CONTINUOUS
 10
129.33543
 20
22.347367
 11
129.402097
 21
22.347367
  0
LINE
  8
ボルト／ビス
  6
CONTINUOUS
 10
129.33543
 20
22.347367
 11
129.33543
 21
21.947367
  0
LINE
  8
ボルト／ビス
  6
CONTINUOUS
 10
129.33543
 20
21.947367
 11
129.402097
 21
21.947367
  0
ENDBLK
  0
BLOCK
  2
*GRP_0027
 70
    65
 10
0.0
 20
0.0
  0
LINE
  8
ボルト／ビス
  6
CONTINUOUS
 10
129.502097
 20
53.4807
 11
129.03543
 21
53.4807
  0
LINE
  8
ボルト／ビス
  6
CONTINUOUS
 10
129.502097
 20
53.847367
 11
129.43543
 21
53.847367
  0
LINE
  8
ボルト／ビス
  6
CONTINUOUS
 10
129.43543
 20
53.847367
 11
129.43543
 21
53.114033
  0
LINE
  8
ボルト／ビス
  6
CONTINUOUS
 10
129.43543
 20
53.114033
 11
129.502097
 21
53.114033
  0
LINE
  8
ボルト／ビス
  6
CONTINUOUS
 10
129.502097
 20
53.847367
 11
129.502097
 21
53.114033
  0
LINE
  8
ボルト／ビス
  6
CONTINUOUS
 10
129.402097
 20
53.7807
 11
129.43543
 21
53.7807
  0
LINE
  8
ボルト／ビス
  6
CONTINUOUS
 10
129.402097
 20
53.7807
 11
129.402097
 21
53.1807
  0
LINE
  8
ボルト／ビス
  6
CONTINUOUS
 10
129.402097
 20
53.1807
 11
129.43543
 21
53.1807
  0
LINE
  8
ボルト／ビス
  6
CONTINUOUS
 62
    64
 10
129.202097
 20
53.641075
 11
129.213773
 21
53.67315
  0
ARC
  8
ボルト／ビス
  6
CONTINUOUS
 62
    64
 10
129.307076
 20
53.625037
 40
0.104978
 50
180.0
 51
207.278033
  0
ARC
  8
ボルト／ビス
  6
CONTINUOUS
 62
    64
 10
129.6045
 20
53.480699
 40
0.402402
 50
166.165015
 51
193.834998
  0
LINE
  8
ボルト／ビス
  6
CONTINUOUS
 62
    64
 10
129.202097
 20
53.320325
 11
129.213773
 21
53.28825
  0
ARC
  8
ボルト／ビス
  6
CONTINUOUS
 62
    64
 10
129.307076
 20
53.336362
 40
0.104978
 50
152.721967
 51
180.0
  0
LINE
  8
ボルト／ビス
  6
CONTINUOUS
 62
    64
 10
129.202097
 20
53.641075
 11
129.202097
 21
53.320325
  0
LINE
  8
ボルト／ビス
  6
CONTINUOUS
 62
    64
 10
129.213773
 20
53.28825
 11
129.33543
 21
53.28825
  0
LINE
  8
ボルト／ビス
  6
CONTINUOUS
 62
    64
 10
129.213773
 20
53.384475
 11
129.33543
 21
53.384475
  0
LINE
  8
ボルト／ビス
  6
CONTINUOUS
 62
    64
 10
129.213773
 20
53.67315
 11
129.33543
 21
53.67315
  0
LINE
  8
ボルト／ビス
  6
CONTINUOUS
 62
    64
 10
129.213773
 20
53.576925
 11
129.33543
 21
53.576925
  0
LINE
  8
ボルト／ビス
  6
CONTINUOUS
 10
129.33543
 20
53.67315
 11
129.33543
 21
53.28825
  0
LINE
  8
ボルト／ビス
  6
CONTINUOUS
 10
129.33543
 20
53.6807
 11
129.402097
 21
53.6807
  0
LINE
  8
ボルト／ビス
  6
CONTINUOUS
 10
129.33543
 20
53.6807
 11
129.33543
 21
53.2807
  0
LINE
  8
ボルト／ビス
  6
CONTINUOUS
 10
129.33543
 20
53.2807
 11
129.402097
 21
53.2807
  0
ENDBLK
  0
BLOCK
  2
*GRP_0028
 70
    65
 10
0.0
 20
0.0
  0
LINE
  8
ボルト／ビス
  6
DOT
 10
128.856078
 20
56.468383
 11
128.526095
 21
56.798367
  0
LINE
  8
ボルト／ビス
  6
DOT
 10
129.115352
 20
56.727655
 11
129.06821
 21
56.774798
  0
LINE
  8
ボルト／ビス
  6
DOT
 10
129.06821
 20
56.774798
 11
128.549665
 21
56.25625
  0
LINE
  8
ボルト／ビス
  6
DOT
 10
128.549665
 20
56.25625
 11
128.596805
 21
56.20911
  0
LINE
  8
ボルト／ビス
  6
DOT
 10
129.115352
 20
56.727655
 11
128.596805
 21
56.20911
  0
LINE
  8
ボルト／ビス
  6
DOT
 10
128.9975
 20
56.751225
 11
129.02107
 21
56.727655
  0
LINE
  8
ボルト／ビス
  6
DOT
 10
128.9975
 20
56.751225
 11
128.573235
 21
56.326963
  0
LINE
  8
ボルト／ビス
  6
DOT
 10
128.573235
 20
56.326963
 11
128.596805
 21
56.303392
  0
LINE
  8
ボルト／ビス
  6
DOT
 62
    64
 10
128.757347
 20
56.793917
 11
128.788285
 21
56.808343
  0
ARC
  8
ボルト／ビス
  6
DOT
 62
    64
 10
128.82024
 20
56.708344
 40
0.104978
 50
135.0
 51
162.278033
  0
ARC
  8
ボルト／ビス
  6
DOT
 62
    64
 10
128.928488
 20
56.395972
 40
0.402402
 50
121.165015
 51
148.834998
  0
LINE
  8
ボルト／ビス
  6
DOT
 62
    64
 10
128.530545
 20
56.567113
 11
128.51612
 21
56.536177
  0
ARC
  8
ボルト／ビス
  6
DOT
 62
    64
 10
128.616115
 20
56.50422
 40
0.104978
 50
107.721967
 51
135.0
  0
LINE
  8
ボルト／ビス
  6
DOT
 62
    64
 10
128.757347
 20
56.793917
 11
128.530545
 21
56.567113
  0
LINE
  8
ボルト／ビス
  6
DOT
 62
    64
 10
128.51612
 20
56.536177
 11
128.602145
 21
56.450152
  0
LINE
  8
ボルト／ビス
  6
DOT
 62
    64
 10
128.58416
 20
56.604218
 11
128.670185
 21
56.518193
  0
LINE
  8
ボルト／ビス
  6
DOT
 62
    64
 10
128.788285
 20
56.808343
 11
128.87431
 21
56.722317
  0
LINE
  8
ボルト／ビス
  6
DOT
 62
    64
 10
128.720242
 20
56.7403
 11
128.806267
 21
56.654275
  0
LINE
  8
ボルト／ビス
  6
DOT
 10
128.87431
 20
56.722317
 11
128.602145
 21
56.450152
  0
LINE
  8
ボルト／ビス
  6
DOT
 10
128.879647
 20
56.727655
 11
128.92679
 21
56.680515
  0
LINE
  8
ボルト／ビス
  6
DOT
 10
128.879647
 20
56.727655
 11
128.596805
 21
56.444813
  0
LINE
  8
ボルト／ビス
  6
DOT
 10
128.596805
 20
56.444813
 11
128.643945
 21
56.397673
  0
ENDBLK
  0
BLOCK
  2
*GRP_0029
 70
    65
 10
0.0
 20
0.0
  0
LINE
  8
ボルト／ビス
  6
DOT
 10
106.700065
 20
34.31237
 11
106.370083
 21
34.642355
  0
LINE
  8
ボルト／ビス
  6
DOT
 10
106.95934
 20
34.571643
 11
106.912198
 21
34.618785
  0
LINE
  8
ボルト／ビス
  6
DOT
 10
106.912198
 20
34.618785
 11
106.393652
 21
34.100238
  0
LINE
  8
ボルト／ビス
  6
DOT
 10
106.393652
 20
34.100238
 11
106.440792
 21
34.053097
  0
LINE
  8
ボルト／ビス
  6
DOT
 10
106.95934
 20
34.571643
 11
106.440792
 21
34.053097
  0
LINE
  8
ボルト／ビス
  6
DOT
 10
106.841488
 20
34.595212
 11
106.865057
 21
34.571643
  0
LINE
  8
ボルト／ビス
  6
DOT
 10
106.841488
 20
34.595212
 11
106.417223
 21
34.17095
  0
LINE
  8
ボルト／ビス
  6
DOT
 10
106.417223
 20
34.17095
 11
106.440792
 21
34.14738
  0
LINE
  8
ボルト／ビス
  6
DOT
 62
    64
 10
106.601335
 20
34.637905
 11
106.632273
 21
34.65233
  0
ARC
  8
ボルト／ビス
  6
DOT
 62
    64
 10
106.664227
 20
34.552332
 40
0.104978
 50
135.0
 51
162.278033
  0
ARC
  8
ボルト／ビス
  6
DOT
 62
    64
 10
106.772475
 20
34.239959
 40
0.402402
 50
121.165015
 51
148.834998
  0
LINE
  8
ボルト／ビス
  6
DOT
 62
    64
 10
106.374532
 20
34.4111
 11
106.360108
 21
34.380165
  0
ARC
  8
ボルト／ビス
  6
DOT
 62
    64
 10
106.460103
 20
34.348208
 40
0.104978
 50
107.721967
 51
135.0
  0
LINE
  8
ボルト／ビス
  6
DOT
 62
    64
 10
106.601335
 20
34.637905
 11
106.374532
 21
34.4111
  0
LINE
  8
ボルト／ビス
  6
DOT
 62
    64
 10
106.360108
 20
34.380165
 11
106.446133
 21
34.29414
  0
LINE
  8
ボルト／ビス
  6
DOT
 62
    64
 10
106.428147
 20
34.448205
 11
106.514172
 21
34.36218
  0
LINE
  8
ボルト／ビス
  6
DOT
 62
    64
 10
106.632273
 20
34.65233
 11
106.718297
 21
34.566305
  0
LINE
  8
ボルト／ビス
  6
DOT
 62
    64
 10
106.56423
 20
34.584288
 11
106.650255
 21
34.498263
  0
LINE
  8
ボルト／ビス
  6
DOT
 10
106.718297
 20
34.566305
 11
106.446133
 21
34.29414
  0
LINE
  8
ボルト／ビス
  6
DOT
 10
106.723635
 20
34.571643
 11
106.770778
 21
34.524503
  0
LINE
  8
ボルト／ビス
  6
DOT
 10
106.723635
 20
34.571643
 11
106.440792
 21
34.2888
  0
LINE
  8
ボルト／ビス
  6
DOT
 10
106.440792
 20
34.2888
 11
106.487932
 21
34.24166
  0
ENDBLK
  0
ENDSEC
  0
SECTION
  2
ENTITIES
  0
POLYLINE
  8
通り芯
  6
CONTINUOUS
 66
     1
 70
     1
  0
VERTEX
  8
通り芯
 10
-210.0
 20
-148.5
  0
VERTEX
  8
通り芯
 10
210.0
 20
-148.5
  0
VERTEX
  8
通り芯
 10
210.0
 20
148.5
  0
VERTEX
  8
通り芯
 10
-210.0
 20
148.5
  0
SEQEND
  0
INSERT
  2
*GRP_0001
  8
型材断面
  6
CONTINUOUS
 10
0.0
 20
0.0
  0
LINE
  8
型材断面
  6
DASHDOT
 10
40.016375
 20
-77.836442
 11
40.016375
 21
52.814033
  0
LINE
  8
型材断面
  6
DASHDOT
 10
-18.316957
 20
-77.836442
 11
-18.316957
 21
52.814033
  0
LINE
  8
型材断面
  6
DASHDOT
 10
-76.650292
 20
-77.836442
 11
-76.650292
 21
52.814033
  0
LINE
  8
型材断面
  6
DASHDOT
 10
137.693138
 20
22.814033
 11
-76.650292
 21
22.814033
  0
LINE
  8
型材断面
  6
DASHDOT
 10
137.693138
 20
37.814033
 11
-76.650292
 21
37.814033
  0
LINE
  8
型材断面
  6
DASHDOT
 10
137.693138
 20
52.814033
 11
-76.650292
 21
52.814033
  0
LINE
  8
型材断面
  6
CONTINUOUS
 10
-59.983625
 20
55.444162
 11
-61.479255
 21
58.03467
  0
LINE
  8
型材断面
  6
CONTINUOUS
 10
-59.983625
 20
55.444162
 11
-58.487995
 21
58.03467
  0
LINE
  8
型材断面
  6
CONTINUOUS
 10
-58.487995
 20
58.03467
 11
-61.479255
 21
58.03467
  0
LINE
  8
型材断面
  6
CONTINUOUS
 10
-79.280422
 20
37.814033
 11
-81.87093
 21
39.309663
  0
LINE
  8
型材断面
  6
CONTINUOUS
 10
-79.280422
 20
37.814033
 11
-81.87093
 21
36.318403
  0
LINE
  8
型材断面
  6
CONTINUOUS
 10
-81.87093
 20
36.318403
 11
-81.87093
 21
39.309663
  0
LINE
  8
型材断面
  6
CONTINUOUS
 10
-59.983625
 20
20.183902
 11
-61.479255
 21
17.593395
  0
LINE
  8
型材断面
  6
CONTINUOUS
 10
-59.983625
 20
20.183902
 11
-58.487995
 21
17.593395
  0
LINE
  8
型材断面
  6
CONTINUOUS
 10
-58.487995
 20
17.593395
 11
-61.479255
 21
17.593395
  0
LINE
  8
型材断面
  6
CONTINUOUS
 10
-130.528815
 20
90.791505
 11
-129.93276
 21
88.200998
  0
LINE
  8
型材断面
  6
CONTINUOUS
 10
-130.528815
 20
90.791505
 11
-131.124873
 21
88.200998
  0
LINE
  8
型材断面
  6
CONTINUOUS
 10
-131.124873
 20
88.200998
 11
-129.93276
 21
88.200998
  0
LINE
  8
型材断面
  6
CONTINUOUS
 10
-136.551403
 20
84.922105
 11
-90.309625
 21
84.922105
  0
LINE
  8
型材断面
  6
CONTINUOUS
 10
-130.528815
 20
97.32138
 11
-132.024445
 21
94.730873
  0
LINE
  8
型材断面
  6
CONTINUOUS
 10
-130.528815
 20
97.32138
 11
-129.033185
 21
94.730873
  0
LINE
  8
型材断面
  6
CONTINUOUS
 10
-129.033185
 20
94.730873
 11
-132.024445
 21
94.730873
  0
LINE
  8
型材断面
  6
CONTINUOUS
 10
-136.551403
 20
93.792277
 11
-90.309625
 21
93.792277
  0
LINE
  8
型材断面
  6
CONTINUOUS
 10
-136.551403
 20
79.134073
 11
-90.309625
 21
79.134073
  0
LINE
  8
型材断面
  6
CONTINUOUS
 10
23.34971
 20
55.444162
 11
24.84534
 21
58.03467
  0
LINE
  8
型材断面
  6
CONTINUOUS
 10
23.34971
 20
55.444162
 11
21.85408
 21
58.03467
  0
LINE
  8
型材断面
  6
CONTINUOUS
 10
21.85408
 20
58.03467
 11
24.84534
 21
58.03467
  0
LINE
  8
型材断面
  6
CONTINUOUS
 10
42.646508
 20
37.814033
 11
45.237015
 21
39.309663
  0
LINE
  8
型材断面
  6
CONTINUOUS
 10
42.646508
 20
37.814033
 11
45.237015
 21
36.318403
  0
LINE
  8
型材断面
  6
CONTINUOUS
 10
45.237015
 20
36.318403
 11
45.237015
 21
39.309663
  0
LINE
  8
型材断面
  6
CONTINUOUS
 10
23.34971
 20
20.183902
 11
24.84534
 21
17.593395
  0
LINE
  8
型材断面
  6
CONTINUOUS
 10
23.34971
 20
20.183902
 11
21.85408
 21
17.593395
  0
LINE
  8
型材断面
  6
CONTINUOUS
 10
21.85408
 20
17.593395
 11
24.84534
 21
17.593395
  0
POLYLINE
  8
型材断面
  6
DASHDOT
 66
     1
  0
VERTEX
  8
型材断面
 10
-76.650292
 20
22.814033
  0
VERTEX
  8
型材断面
 10
-18.316957
 20
52.814033
  0
VERTEX
  8
型材断面
 10
40.016375
 20
22.814033
  0
SEQEND
  0
LINE
  8
型材断面
  6
CONTINUOUS
 10
38.016375
 20
20.20722
 11
37.420318
 21
17.616715
  0
LINE
  8
型材断面
  6
CONTINUOUS
 10
38.016375
 20
20.20722
 11
38.612433
 21
17.616715
  0
LINE
  8
型材断面
  6
CONTINUOUS
 10
38.612433
 20
17.616715
 11
37.420318
 21
17.616715
  0
LINE
  8
型材断面
  6
CONTINUOUS
 10
-74.65029
 20
20.20722
 11
-74.054233
 21
17.616715
  0
LINE
  8
型材断面
  6
CONTINUOUS
 10
-74.65029
 20
20.20722
 11
-75.246347
 21
17.616715
  0
LINE
  8
型材断面
  6
CONTINUOUS
 10
-75.246347
 20
17.616715
 11
-74.054233
 21
17.616715
  0
LINE
  8
型材断面
  6
CONTINUOUS
 62
    47
 10
131.442228
 20
54.137368
 11
131.432228
 21
54.147367
  0
LINE
  8
型材断面
  6
CONTINUOUS
 62
    47
 10
131.442228
 20
54.137368
 11
131.452227
 21
54.147367
  0
LINE
  8
型材断面
  6
CONTINUOUS
 62
    47
 10
132.08446
 20
54.137368
 11
132.07446
 21
54.147367
  0
LINE
  8
型材断面
  6
CONTINUOUS
 62
    47
 10
132.08446
 20
54.137368
 11
132.09446
 21
54.147367
  0
LINE
  8
型材断面
  6
CONTINUOUS
 62
    47
 10
132.502227
 20
54.147367
 11
132.09446
 21
54.147367
  0
LINE
  8
型材断面
  6
CONTINUOUS
 62
    47
 10
132.07446
 20
54.147367
 11
131.452227
 21
54.147367
  0
LINE
  8
型材断面
  6
CONTINUOUS
 62
    47
 10
131.432228
 20
54.147367
 11
130.735542
 21
54.147367
  0
LINE
  8
型材断面
  6
CONTINUOUS
 62
    47
 10
132.568553
 20
55.414175
 11
132.735182
 21
55.414175
  0
LINE
  8
型材断面
  6
CONTINUOUS
 62
    47
 10
133.635557
 20
53.937507
 11
133.625557
 21
53.947508
  0
LINE
  8
型材断面
  6
CONTINUOUS
 62
    47
 10
133.635557
 20
53.937507
 11
133.645558
 21
53.947508
  0
LINE
  8
型材断面
  6
CONTINUOUS
 62
    47
 10
134.102232
 20
53.937507
 11
134.092232
 21
53.947508
  0
LINE
  8
型材断面
  6
CONTINUOUS
 62
    47
 10
134.102232
 20
53.937507
 11
134.112233
 21
53.947508
  0
LINE
  8
型材断面
  6
CONTINUOUS
 62
    47
 10
133.002208
 20
53.947508
 11
133.625557
 21
53.947508
  0
LINE
  8
型材断面
  6
CONTINUOUS
 62
    47
 10
133.645558
 20
53.947508
 11
134.092232
 21
53.947508
  0
LINE
  8
型材断面
  6
CONTINUOUS
 62
    47
 10
134.902215
 20
56.147508
 11
135.402218
 21
56.147508
  0
LINE
  8
型材断面
  6
CONTINUOUS
 62
    47
 10
135.735548
 20
55.647515
 11
135.402218
 21
55.647515
  0
LINE
  8
型材断面
  6
CONTINUOUS
 62
    47
 10
134.902215
 20
56.147508
 11
134.735548
 21
53.947508
  0
LINE
  8
型材断面
  6
CONTINUOUS
 62
    47
 10
134.735548
 20
53.214033
 11
134.735548
 21
53.88084
  0
LINE
  8
型材断面
  6
CONTINUOUS
 62
    47
 10
134.635548
 20
53.937507
 11
134.625547
 21
53.947508
  0
LINE
  8
型材断面
  6
CONTINUOUS
 62
    47
 10
134.635548
 20
53.937507
 11
134.645548
 21
53.947508
  0
LINE
  8
型材断面
  6
CONTINUOUS
 62
    47
 10
134.735548
 20
53.947508
 11
134.645548
 21
53.947508
  0
LINE
  8
型材断面
  6
CONTINUOUS
 62
    47
 10
134.112233
 20
53.947508
 11
134.625547
 21
53.947508
  0
LINE
  8
型材断面
  6
CONTINUOUS
 62
    47
 10
133.002208
 20
55.414172
 11
132.86889
 21
55.414172
  0
LINE
  8
型材断面
  6
CONTINUOUS
 62
    47
 10
132.502227
 20
54.147367
 11
132.568553
 21
55.414175
  0
LINE
  8
型材断面
  6
CONTINUOUS
 62
    47
 10
130.735542
 20
53.877377
 11
130.502097
 21
53.877377
  0
LINE
  8
型材断面
  6
CONTINUOUS
 62
    47
 10
130.735542
 20
54.147367
 11
130.735542
 21
37.814033
  0
LINE
  8
型材断面
  6
CONTINUOUS
 62
    47
 10
132.86889
 20
55.414172
 11
132.86889
 21
37.814033
  0
LINE
  8
型材断面
  6
CONTINUOUS
 62
    47
 10
133.002208
 20
55.414172
 11
133.002208
 21
37.814033
  0
LINE
  8
型材断面
  6
CONTINUOUS
 62
    47
 10
132.735182
 20
55.414175
 11
132.735182
 21
37.814033
  0
LINE
  8
型材断面
  6
CONTINUOUS
 10
132.502227
 20
54.147367
 11
132.502227
 21
37.814033
  0
LINE
  8
型材断面
  6
CONTINUOUS
 10
132.568553
 20
55.414175
 11
132.568553
 21
37.814033
  0
LINE
  8
型材断面
  6
CONTINUOUS
 10
134.735548
 20
53.947508
 11
134.735548
 21
37.814033
  0
LINE
  8
型材断面
  6
CONTINUOUS
 10
134.902215
 20
56.147508
 11
134.902215
 21
37.814033
  0
LINE
  8
型材断面
  6
CONTINUOUS
 62
    47
 10
135.402218
 20
56.147508
 11
135.402218
 21
37.814033
  0
LINE
  8
型材断面
  6
CONTINUOUS
 62
    47
 10
135.735548
 20
55.647515
 11
135.735548
 21
37.814033
  0
LINE
  8
型材断面
  6
CONTINUOUS
 62
    47
 10
131.442228
 20
21.4907
 11
131.432228
 21
21.4807
  0
LINE
  8
型材断面
  6
CONTINUOUS
 62
    47
 10
131.442228
 20
21.4907
 11
131.452227
 21
21.4807
  0
LINE
  8
型材断面
  6
CONTINUOUS
 62
    47
 10
132.08446
 20
21.4907
 11
132.07446
 21
21.4807
  0
LINE
  8
型材断面
  6
CONTINUOUS
 62
    47
 10
132.08446
 20
21.4907
 11
132.09446
 21
21.4807
  0
LINE
  8
型材断面
  6
CONTINUOUS
 62
    47
 10
132.502227
 20
21.4807
 11
132.09446
 21
21.4807
  0
LINE
  8
型材断面
  6
CONTINUOUS
 62
    47
 10
132.07446
 20
21.4807
 11
131.452227
 21
21.4807
  0
LINE
  8
型材断面
  6
CONTINUOUS
 62
    47
 10
131.432228
 20
21.4807
 11
130.735542
 21
21.4807
  0
LINE
  8
型材断面
  6
CONTINUOUS
 62
    47
 10
132.568553
 20
20.213892
 11
132.735182
 21
20.213892
  0
LINE
  8
型材断面
  6
CONTINUOUS
 62
    47
 10
133.635557
 20
21.69056
 11
133.625557
 21
21.68056
  0
LINE
  8
型材断面
  6
CONTINUOUS
 62
    47
 10
133.635557
 20
21.69056
 11
133.645558
 21
21.68056
  0
LINE
  8
型材断面
  6
CONTINUOUS
 62
    47
 10
134.102232
 20
21.69056
 11
134.092232
 21
21.68056
  0
LINE
  8
型材断面
  6
CONTINUOUS
 62
    47
 10
134.102232
 20
21.69056
 11
134.112233
 21
21.68056
  0
LINE
  8
型材断面
  6
CONTINUOUS
 62
    47
 10
133.002208
 20
21.68056
 11
133.625557
 21
21.68056
  0
LINE
  8
型材断面
  6
CONTINUOUS
 62
    47
 10
133.645558
 20
21.68056
 11
134.092232
 21
21.68056
  0
LINE
  8
型材断面
  6
CONTINUOUS
 62
    47
 10
134.902215
 20
19.48056
 11
135.402218
 21
19.48056
  0
LINE
  8
型材断面
  6
CONTINUOUS
 62
    47
 10
135.735548
 20
19.980552
 11
135.402218
 21
19.980552
  0
LINE
  8
型材断面
  6
CONTINUOUS
 62
    47
 10
134.902215
 20
19.48056
 11
134.735548
 21
21.68056
  0
LINE
  8
型材断面
  6
CONTINUOUS
 62
    47
 10
134.735548
 20
22.414035
 11
134.735548
 21
21.747228
  0
LINE
  8
型材断面
  6
CONTINUOUS
 62
    47
 10
134.635548
 20
21.69056
 11
134.625547
 21
21.68056
  0
LINE
  8
型材断面
  6
CONTINUOUS
 62
    47
 10
134.635548
 20
21.69056
 11
134.645548
 21
21.68056
  0
LINE
  8
型材断面
  6
CONTINUOUS
 62
    47
 10
134.735548
 20
21.68056
 11
134.645548
 21
21.68056
  0
LINE
  8
型材断面
  6
CONTINUOUS
 62
    47
 10
134.112233
 20
21.68056
 11
134.625547
 21
21.68056
  0
LINE
  8
型材断面
  6
CONTINUOUS
 62
    47
 10
133.002208
 20
20.213892
 11
132.86889
 21
20.213892
  0
LINE
  8
型材断面
  6
CONTINUOUS
 62
    47
 10
132.502227
 20
21.4807
 11
132.568553
 21
20.213892
  0
LINE
  8
型材断面
  6
CONTINUOUS
 62
    47
 10
130.735542
 20
21.75069
 11
130.502097
 21
21.75069
  0
LINE
  8
型材断面
  6
CONTINUOUS
 62
    47
 10
130.735542
 20
21.4807
 11
130.735542
 21
37.814033
  0
LINE
  8
型材断面
  6
CONTINUOUS
 62
    47
 10
132.86889
 20
20.213892
 11
132.86889
 21
37.814033
  0
LINE
  8
型材断面
  6
CONTINUOUS
 62
    47
 10
133.002208
 20
20.213892
 11
133.002208
 21
37.814033
  0
LINE
  8
型材断面
  6
CONTINUOUS
 62
    47
 10
132.735182
 20
20.213892
 11
132.735182
 21
37.814033
  0
LINE
  8
型材断面
  6
CONTINUOUS
 10
132.502227
 20
21.4807
 11
132.502227
 21
37.814033
  0
LINE
  8
型材断面
  6
CONTINUOUS
 10
132.568553
 20
20.213892
 11
132.568553
 21
37.814033
  0
LINE
  8
型材断面
  6
CONTINUOUS
 10
134.735548
 20
21.68056
 11
134.735548
 21
37.814033
  0
LINE
  8
型材断面
  6
CONTINUOUS
 10
134.902215
 20
19.48056
 11
134.902215
 21
37.814033
  0
LINE
  8
型材断面
  6
CONTINUOUS
 62
    47
 10
135.402218
 20
19.48056
 11
135.402218
 21
37.814033
  0
LINE
  8
型材断面
  6
CONTINUOUS
 62
    47
 10
135.735548
 20
19.980552
 11
135.735548
 21
37.814033
  0
LINE
  8
型材断面
  6
DOT
 62
    47
 10
130.69229
 20
55.560837
 11
130.69229
 21
55.574978
  0
LINE
  8
型材断面
  6
DOT
 62
    47
 10
130.69229
 20
55.560837
 11
130.706432
 21
55.560837
  0
LINE
  8
型材断面
  6
DOT
 62
    47
 10
131.146417
 20
55.10671
 11
131.146417
 21
55.120852
  0
LINE
  8
型材断面
  6
DOT
 62
    47
 10
131.146417
 20
55.10671
 11
131.160557
 21
55.10671
  0
LINE
  8
型材断面
  6
DOT
 62
    47
 10
131.448895
 20
54.818375
 11
131.160557
 21
55.10671
  0
LINE
  8
型材断面
  6
DOT
 62
    47
 10
131.146417
 20
55.120852
 11
130.706432
 21
55.560837
  0
LINE
  8
型材断面
  6
DOT
 62
    47
 10
130.69229
 20
55.574978
 11
130.19966
 21
56.06761
  0
LINE
  8
型材断面
  6
DOT
 62
    47
 10
132.391562
 20
55.667245
 11
132.509388
 21
55.54942
  0
LINE
  8
型材断面
  6
DOT
 62
    47
 10
131.448895
 20
54.818375
 11
132.391562
 21
55.667245
  0
LINE
  8
型材断面
  6
DOT
 62
    47
 10
130.008748
 20
55.876698
 11
129.843678
 21
56.04177
  0
LINE
  8
型材断面
  6
DOT
 62
    47
 10
130.19966
 20
56.06761
 11
118.65025
 21
44.518197
  0
LINE
  8
型材断面
  6
DOT
 62
    47
 10
132.509388
 20
55.54942
 11
120.064207
 21
43.104242
  0
LINE
  8
型材断面
  6
DOT
 10
131.448895
 20
54.818375
 11
119.899482
 21
43.268963
  0
LINE
  8
型材断面
  6
DOT
 10
132.391562
 20
55.667245
 11
119.946383
 21
43.222065
  0
LINE
  8
型材断面
  6
DOT
 62
    47
 10
107.607612
 20
32.476158
 11
107.593468
 21
32.476158
  0
LINE
  8
型材断面
  6
DOT
 62
    47
 10
107.607612
 20
32.476158
 11
107.607612
 21
32.462015
  0
LINE
  8
型材断面
  6
DOT
 62
    47
 10
108.061737
 20
32.022033
 11
108.047595
 21
32.022033
  0
LINE
  8
型材断面
  6
DOT
 62
    47
 10
108.061737
 20
32.022033
 11
108.061737
 21
32.007887
  0
LINE
  8
型材断面
  6
DOT
 62
    47
 10
108.350072
 20
31.719552
 11
108.061737
 21
32.007887
  0
LINE
  8
型材断面
  6
DOT
 62
    47
 10
108.047595
 20
32.022033
 11
107.607612
 21
32.462015
  0
LINE
  8
型材断面
  6
DOT
 62
    47
 10
107.593468
 20
32.476158
 11
107.100837
 21
32.968787
  0
LINE
  8
型材断面
  6
DOT
 62
    47
 10
107.501203
 20
30.776885
 11
107.619028
 21
30.659063
  0
LINE
  8
型材断面
  6
DOT
 62
    47
 10
108.350072
 20
31.719552
 11
107.501203
 21
30.776885
  0
LINE
  8
型材断面
  6
DOT
 62
    47
 10
107.29175
 20
33.1597
 11
107.126678
 21
33.324772
  0
LINE
  8
型材断面
  6
DOT
 62
    47
 10
107.100837
 20
32.968787
 11
118.65025
 21
44.518197
  0
LINE
  8
型材断面
  6
DOT
 62
    47
 10
107.619028
 20
30.659063
 11
120.064207
 21
43.104242
  0
LINE
  8
型材断面
  6
DOT
 10
108.350072
 20
31.719552
 11
119.899482
 21
43.268963
  0
LINE
  8
型材断面
  6
DOT
 10
107.501203
 20
30.776885
 11
119.946383
 21
43.222065
  0
ARC
  8
型材断面
  6
DOT
 10
132.785541
 20
55.754357
 40
35.540502
 50
225.0
 51
269.918816
  0
LINE
  8
型材断面
  6
CONTINUOUS
 62
    47
 10
41.33971
 20
-72.149742
 11
41.34971
 21
-72.139743
  0
LINE
  8
型材断面
  6
CONTINUOUS
 62
    47
 10
41.33971
 20
-72.149742
 11
41.34971
 21
-72.159742
  0
LINE
  8
型材断面
  6
CONTINUOUS
 62
    47
 10
41.33971
 20
-72.791975
 11
41.34971
 21
-72.781975
  0
LINE
  8
型材断面
  6
CONTINUOUS
 62
    47
 10
41.33971
 20
-72.791975
 11
41.34971
 21
-72.801975
  0
LINE
  8
型材断面
  6
CONTINUOUS
 62
    47
 10
41.34971
 20
-73.209742
 11
41.34971
 21
-72.801975
  0
LINE
  8
型材断面
  6
CONTINUOUS
 62
    47
 10
41.34971
 20
-72.781975
 11
41.34971
 21
-72.159742
  0
LINE
  8
型材断面
  6
CONTINUOUS
 62
    47
 10
41.34971
 20
-72.139743
 11
41.34971
 21
-71.443058
  0
LINE
  8
型材断面
  6
CONTINUOUS
 62
    47
 10
42.616518
 20
-73.276068
 11
42.616518
 21
-73.442698
  0
LINE
  8
型材断面
  6
CONTINUOUS
 62
    47
 10
41.13985
 20
-74.343073
 11
41.14985
 21
-74.333072
  0
LINE
  8
型材断面
  6
CONTINUOUS
 62
    47
 10
41.13985
 20
-74.343073
 11
41.14985
 21
-74.353072
  0
LINE
  8
型材断面
  6
CONTINUOUS
 62
    47
 10
41.13985
 20
-74.809747
 11
41.14985
 21
-74.799748
  0
LINE
  8
型材断面
  6
CONTINUOUS
 62
    47
 10
41.13985
 20
-74.809747
 11
41.14985
 21
-74.819747
  0
LINE
  8
型材断面
  6
CONTINUOUS
 62
    47
 10
41.14985
 20
-73.709723
 11
41.14985
 21
-74.333072
  0
LINE
  8
型材断面
  6
CONTINUOUS
 62
    47
 10
41.14985
 20
-74.353072
 11
41.14985
 21
-74.799748
  0
LINE
  8
型材断面
  6
CONTINUOUS
 62
    47
 10
43.34985
 20
-75.60973
 11
43.34985
 21
-76.109732
  0
LINE
  8
型材断面
  6
CONTINUOUS
 62
    47
 10
42.849857
 20
-76.443062
 11
42.849857
 21
-76.109732
  0
LINE
  8
型材断面
  6
CONTINUOUS
 62
    47
 10
43.34985
 20
-75.60973
 11
41.14985
 21
-75.443062
  0
LINE
  8
型材断面
  6
CONTINUOUS
 62
    47
 10
40.416375
 20
-75.443062
 11
41.083182
 21
-75.443062
  0
LINE
  8
型材断面
  6
CONTINUOUS
 62
    47
 10
41.13985
 20
-75.343063
 11
41.14985
 21
-75.333062
  0
LINE
  8
型材断面
  6
CONTINUOUS
 62
    47
 10
41.13985
 20
-75.343063
 11
41.14985
 21
-75.353063
  0
LINE
  8
型材断面
  6
CONTINUOUS
 62
    47
 10
41.14985
 20
-75.443062
 11
41.14985
 21
-75.353063
  0
LINE
  8
型材断面
  6
CONTINUOUS
 62
    47
 10
41.14985
 20
-74.819747
 11
41.14985
 21
-75.333062
  0
LINE
  8
型材断面
  6
CONTINUOUS
 62
    47
 10
42.616518
 20
-73.709723
 11
42.616518
 21
-73.576405
  0
LINE
  8
型材断面
  6
CONTINUOUS
 62
    47
 10
41.34971
 20
-73.209742
 11
42.616518
 21
-73.276068
  0
LINE
  8
型材断面
  6
CONTINUOUS
 62
    47
 10
41.07972
 20
-71.443058
 11
41.07972
 21
-71.209613
  0
LINE
  8
型材断面
  6
CONTINUOUS
 62
    47
 10
42.849857
 20
-76.443062
 11
-18.316957
 21
-76.443062
  0
LINE
  8
型材断面
  6
CONTINUOUS
 10
41.14985
 20
-75.443062
 11
-18.316957
 21
-75.443062
  0
LINE
  8
型材断面
  6
CONTINUOUS
 62
    47
 10
43.34985
 20
-76.109732
 11
-18.316957
 21
-76.109732
  0
LINE
  8
型材断面
  6
CONTINUOUS
 10
43.34985
 20
-75.60973
 11
-18.316957
 21
-75.60973
  0
LINE
  8
型材断面
  6
CONTINUOUS
 10
42.616518
 20
-73.276068
 11
-18.316957
 21
-73.276068
  0
LINE
  8
型材断面
  6
CONTINUOUS
 62
    47
 10
42.616518
 20
-73.576405
 11
-18.316957
 21
-73.576405
  0
LINE
  8
型材断面
  6
CONTINUOUS
 62
    47
 10
42.616518
 20
-73.442698
 11
-18.316957
 21
-73.442698
  0
LINE
  8
型材断面
  6
CONTINUOUS
 62
    47
 10
42.616518
 20
-73.709723
 11
-18.316957
 21
-73.709723
  0
LINE
  8
型材断面
  6
CONTINUOUS
 10
41.34971
 20
-73.209742
 11
-18.316957
 21
-73.209742
  0
LINE
  8
型材断面
  6
CONTINUOUS
 62
    47
 10
41.34971
 20
-71.443058
 11
-18.316957
 21
-71.443058
  0
LINE
  8
型材断面
  6
CONTINUOUS
 62
    47
 10
-77.973625
 20
-72.149742
 11
-77.983625
 21
-72.139743
  0
LINE
  8
型材断面
  6
CONTINUOUS
 62
    47
 10
-77.973625
 20
-72.149742
 11
-77.983625
 21
-72.159742
  0
LINE
  8
型材断面
  6
CONTINUOUS
 62
    47
 10
-77.973625
 20
-72.791975
 11
-77.983625
 21
-72.781975
  0
LINE
  8
型材断面
  6
CONTINUOUS
 62
    47
 10
-77.973625
 20
-72.791975
 11
-77.983625
 21
-72.801975
  0
LINE
  8
型材断面
  6
CONTINUOUS
 62
    47
 10
-77.983625
 20
-73.209742
 11
-77.983625
 21
-72.801975
  0
LINE
  8
型材断面
  6
CONTINUOUS
 62
    47
 10
-77.983625
 20
-72.781975
 11
-77.983625
 21
-72.159742
  0
LINE
  8
型材断面
  6
CONTINUOUS
 62
    47
 10
-77.983625
 20
-72.139743
 11
-77.983625
 21
-71.443058
  0
LINE
  8
型材断面
  6
CONTINUOUS
 62
    47
 10
-79.250432
 20
-73.276068
 11
-79.250432
 21
-73.442698
  0
LINE
  8
型材断面
  6
CONTINUOUS
 62
    47
 10
-77.773765
 20
-74.343073
 11
-77.783765
 21
-74.333072
  0
LINE
  8
型材断面
  6
CONTINUOUS
 62
    47
 10
-77.773765
 20
-74.343073
 11
-77.783765
 21
-74.353072
  0
LINE
  8
型材断面
  6
CONTINUOUS
 62
    47
 10
-77.773765
 20
-74.809747
 11
-77.783765
 21
-74.799748
  0
LINE
  8
型材断面
  6
CONTINUOUS
 62
    47
 10
-77.773765
 20
-74.809747
 11
-77.783765
 21
-74.819747
  0
LINE
  8
型材断面
  6
CONTINUOUS
 62
    47
 10
-77.783765
 20
-73.709723
 11
-77.783765
 21
-74.333072
  0
LINE
  8
型材断面
  6
CONTINUOUS
 62
    47
 10
-77.783765
 20
-74.353072
 11
-77.783765
 21
-74.799748
  0
LINE
  8
型材断面
  6
CONTINUOUS
 62
    47
 10
-79.983765
 20
-75.60973
 11
-79.983765
 21
-76.109732
  0
LINE
  8
型材断面
  6
CONTINUOUS
 62
    47
 10
-79.483773
 20
-76.443062
 11
-79.483773
 21
-76.109732
  0
LINE
  8
型材断面
  6
CONTINUOUS
 62
    47
 10
-79.983765
 20
-75.60973
 11
-77.783765
 21
-75.443062
  0
LINE
  8
型材断面
  6
CONTINUOUS
 62
    47
 10
-77.05029
 20
-75.443062
 11
-77.717097
 21
-75.443062
  0
LINE
  8
型材断面
  6
CONTINUOUS
 62
    47
 10
-77.773765
 20
-75.343063
 11
-77.783765
 21
-75.333062
  0
LINE
  8
型材断面
  6
CONTINUOUS
 62
    47
 10
-77.773765
 20
-75.343063
 11
-77.783765
 21
-75.353063
  0
LINE
  8
型材断面
  6
CONTINUOUS
 62
    47
 10
-77.783765
 20
-75.443062
 11
-77.783765
 21
-75.353063
  0
LINE
  8
型材断面
  6
CONTINUOUS
 62
    47
 10
-77.783765
 20
-74.819747
 11
-77.783765
 21
-75.333062
  0
LINE
  8
型材断面
  6
CONTINUOUS
 62
    47
 10
-79.250432
 20
-73.709723
 11
-79.250432
 21
-73.576405
  0
LINE
  8
型材断面
  6
CONTINUOUS
 62
    47
 10
-77.983625
 20
-73.209742
 11
-79.250432
 21
-73.276068
  0
LINE
  8
型材断面
  6
CONTINUOUS
 62
    47
 10
-77.713635
 20
-71.443058
 11
-77.713635
 21
-71.209613
  0
LINE
  8
型材断面
  6
CONTINUOUS
 62
    47
 10
-79.483773
 20
-76.443062
 11
-18.316957
 21
-76.443062
  0
LINE
  8
型材断面
  6
CONTINUOUS
 10
-77.783765
 20
-75.443062
 11
-18.316957
 21
-75.443062
  0
LINE
  8
型材断面
  6
CONTINUOUS
 62
    47
 10
-79.983765
 20
-76.109732
 11
-18.316957
 21
-76.109732
  0
LINE
  8
型材断面
  6
CONTINUOUS
 10
-79.983765
 20
-75.60973
 11
-18.316957
 21
-75.60973
  0
LINE
  8
型材断面
  6
CONTINUOUS
 10
-79.250432
 20
-73.276068
 11
-18.316957
 21
-73.276068
  0
LINE
  8
型材断面
  6
CONTINUOUS
 62
    47
 10
-79.250432
 20
-73.576405
 11
-18.316957
 21
-73.576405
  0
LINE
  8
型材断面
  6
CONTINUOUS
 62
    47
 10
-79.250432
 20
-73.442698
 11
-18.316957
 21
-73.442698
  0
LINE
  8
型材断面
  6
CONTINUOUS
 62
    47
 10
-79.250432
 20
-73.709723
 11
-18.316957
 21
-73.709723
  0
LINE
  8
型材断面
  6
CONTINUOUS
 10
-77.983625
 20
-73.209742
 11
-18.316957
 21
-73.209742
  0
LINE
  8
型材断面
  6
CONTINUOUS
 62
    47
 10
-77.983625
 20
-71.443058
 11
-18.316957
 21
-71.443058
  0
LINE
  8
型材断面
  6
CONTINUOUS
 10
43.34985
 20
19.480558
 11
43.34985
 21
37.814033
  0
LINE
  8
型材断面
  6
CONTINUOUS
 10
42.083043
 20
20.747365
 11
43.34985
 21
19.480558
  0
LINE
  8
型材断面
  6
CONTINUOUS
 10
43.34985
 20
19.480558
 11
-18.316957
 21
19.480558
  0
LINE
  8
型材断面
  6
CONTINUOUS
 10
43.34985
 20
56.147508
 11
43.34985
 21
37.814033
  0
LINE
  8
型材断面
  6
CONTINUOUS
 10
42.083043
 20
54.8807
 11
43.34985
 21
56.147508
  0
LINE
  8
型材断面
  6
CONTINUOUS
 10
43.34985
 20
56.147508
 11
-18.316957
 21
56.147508
  0
LINE
  8
型材断面
  6
CONTINUOUS
 10
-79.983765
 20
56.147508
 11
-79.983765
 21
37.814033
  0
LINE
  8
型材断面
  6
CONTINUOUS
 10
-78.716957
 20
54.8807
 11
-79.983765
 21
56.147508
  0
LINE
  8
型材断面
  6
CONTINUOUS
 10
-79.983765
 20
56.147508
 11
-18.316957
 21
56.147508
  0
LINE
  8
型材断面
  6
CONTINUOUS
 10
-79.983765
 20
19.480558
 11
-79.983765
 21
37.814033
  0
LINE
  8
型材断面
  6
CONTINUOUS
 10
-78.716957
 20
20.747365
 11
-79.983765
 21
19.480558
  0
LINE
  8
型材断面
  6
CONTINUOUS
 10
-79.983765
 20
19.480558
 11
-18.316957
 21
19.480558
  0
LINE
  8
型材断面
  6
DOT
 10
-39.240293
 20
22.814033
 11
-39.240293
 21
52.814033
  0
LINE
  8
型材断面
  6
DOT
 10
-36.740293
 20
22.814033
 11
-36.740293
 21
52.814033
  0
LINE
  8
型材断面
  6
DASHDOT
 10
-37.990293
 20
22.814033
 11
-37.990293
 21
52.814033
  0
LINE
  8
型材断面
  6
DOT
 10
2.606378
 20
22.814033
 11
2.606378
 21
52.814033
  0
LINE
  8
型材断面
  6
DOT
 10
0.106378
 20
22.814033
 11
0.106378
 21
52.814033
  0
LINE
  8
型材断面
  6
DASHDOT
 10
1.356378
 20
22.814033
 11
1.356378
 21
52.814033
  0
LINE
  8
ガラス
  6
CONTINUOUS
 10
129.681053
 20
-74.146497
 11
129.681053
 21
-43.613163
  0
LINE
  8
ガラス
  6
CONTINUOUS
 10
129.681053
 20
-43.613163
 11
91.181053
 21
-43.613163
  0
LINE
  8
ガラス
  6
CONTINUOUS
 10
91.181053
 20
-43.613163
 11
91.181053
 21
-74.146497
  0
LINE
  8
ガラス
  6
CONTINUOUS
 10
129.681053
 20
-74.146497
 11
91.181053
 21
-74.146497
  0
TEXT
  7
TextStyle03
  8
文字
  6
CONTINUOUS
 10
-127.75
 20
94.925
  1
は排水穴位置を示す
 40
3.0
 72
     5
 11
-97.75
 21
94.925
  0
TEXT
  7
TextStyle03
  8
文字
  6
CONTINUOUS
 10
-127.75
 20
89.4
  1
はケーシング位置を示す
 40
3.0
 72
     5
 11
-91.0
 21
89.4
  0
TEXT
  7
TextStyle03
  8
文字
  6
CONTINUOUS
 10
-127.75
 20
86.025
  1
２ヶ所中1ヶ所に設定
 40
3.0
 72
     5
 11
-96.0625
 21
86.025
  0
TEXT
  7
TextStyle03
  8
文字
  6
CONTINUOUS
 10
107.05
 20
23.375
  1
45°
 40
3.0
 72
     5
 11
113.425
 21
23.375
  0
TEXT
  7
TextStyle03
  8
文字
  6
CONTINUOUS
 10
111.9
 20
-68.125
  1
網入り6.8t
 40
3.0
 72
     5
 11
128.5875
 21
-68.125
  0
TEXT
  7
TextStyle03
  8
文字
  6
CONTINUOUS
 10
118.575
 20
-72.8
  1
×３枚
 40
3.0
 72
     5
 11
128.325
 21
-72.8
  0
TEXT
  7
TextStyle03
  8
文字
  6
CONTINUOUS
 10
-97.625
 20
16.275
  1
アンカーピッチ
 40
3.0
 50
90.0
 72
     5
 11
-97.625
 21
39.525
  0
TEXT
  7
TextStyle03
  8
文字
  6
CONTINUOUS
 10
-65.5
 20
89.75
  1
アンカーピッチ
 40
3.0
 72
     5
 11
-42.25
 21
89.75
  0
TEXT
  7
TextStyle03
  8
文字
  6
CONTINUOUS
 10
-131.475
 20
80.05
  1
アンカー数量　１４ヶ所
 40
3.0
 72
     5
 11
-94.725
 21
80.05
  0
TEXT
  7
TextStyle03
  8
文字
  6
CONTINUOUS
 10
78.1
 20
125.25
  1
シリーズ：ＴＤ２ＨＬ
 40
5.0
 72
     5
 11
133.725
 21
125.25
  0
TEXT
  7
TextStyle03
  8
文字
  6
CONTINUOUS
 10
78.1
 20
119.625
  1
　　　　　（片側開閉）900×3500タイプ
 40
5.0
 72
     5
 11
181.5375
 21
119.625
  0
TEXT
  7
TextStyle03
  8
文字
  6
CONTINUOUS
 10
78.1
 20
114.0
  1
図面名　：外観姿図
 40
5.0
 72
     5
 11
128.1
 21
114.0
  0
TEXT
  7
TextStyle03
  8
文字
  6
CONTINUOUS
 10
78.1
 20
108.375
  1
　　　　　　
 40
5.0
 72
     5
 11
111.225
 21
108.375
  0
TEXT
  7
TextStyle03
  8
文字
  6
CONTINUOUS
 10
77.425
 20
103.975
  1
ＮＳコード：ＮＳＨＺＬ
 40
5.0
 72
     5
 11
138.675
 21
103.975
  0
INSERT
  2
*DIM_0002
  8
寸法
  6
CONTINUOUS
 10
0.0
 20
0.0
  0
INSERT
  2
*DIM_0003
  8
寸法
  6
CONTINUOUS
 10
0.0
 20
0.0
  0
INSERT
  2
*DIM_0005
  8
寸法
  6
CONTINUOUS
 10
0.0
 20
0.0
  0
INSERT
  2
*DIM_0006
  8
寸法
  6
CONTINUOUS
 10
0.0
 20
0.0
  0
INSERT
  2
*DIM_0007
  8
寸法
  6
CONTINUOUS
 10
0.0
 20
0.0
  0
INSERT
  2
*DIM_0009
  8
寸法
  6
CONTINUOUS
 10
0.0
 20
0.0
  0
INSERT
  2
*DIM_0010
  8
寸法
  6
CONTINUOUS
 10
0.0
 20
0.0
  0
INSERT
  2
*DIM_0011
  8
寸法
  6
CONTINUOUS
 10
0.0
 20
0.0
  0
INSERT
  2
*DIM_0012
  8
寸法
  6
CONTINUOUS
 10
0.0
 20
0.0
  0
INSERT
  2
*DIM_0013
  8
寸法
  6
CONTINUOUS
 10
0.0
 20
0.0
  0
INSERT
  2
*DIM_0014
  8
寸法
  6
CONTINUOUS
 10
0.0
 20
0.0
  0
INSERT
  2
*DIM_0015
  8
寸法
  6
CONTINUOUS
 10
0.0
 20
0.0
  0
INSERT
  2
*DIM_0016
  8
寸法
  6
CONTINUOUS
 10
0.0
 20
0.0
  0
INSERT
  2
*DIM_0017
  8
寸法
  6
CONTINUOUS
 10
0.0
 20
0.0
  0
INSERT
  2
*DIM_0018
  8
寸法
  6
CONTINUOUS
 10
0.0
 20
0.0
  0
INSERT
  2
*DIM_0019
  8
寸法
  6
CONTINUOUS
 10
0.0
 20
0.0
  0
INSERT
  2
*DIM_0020
  8
寸法
  6
CONTINUOUS
 10
0.0
 20
0.0
  0
INSERT
  2
*DIM_0021
  8
寸法
  6
CONTINUOUS
 10
0.0
 20
0.0
  0
INSERT
  2
*DIM_0022
  8
寸法
  6
CONTINUOUS
 10
0.0
 20
0.0
  0
INSERT
  2
*DIM_0023
  8
寸法
  6
CONTINUOUS
 10
0.0
 20
0.0
  0
LINE
  8
別途部材
  6
CONTINUOUS
 10
42.083043
 20
20.747365
 11
41.683043
 21
21.147365
  0
LINE
  8
別途部材
  6
CONTINUOUS
 10
40.016375
 20
22.814033
 11
31.95712
 21
30.87329
  0
LINE
  8
別途部材
  6
CONTINUOUS
 10
41.683043
 20
21.147365
 11
41.683043
 21
37.814033
  0
LINE
  8
別途部材
  6
CONTINUOUS
 10
42.083043
 20
20.747365
 11
42.083043
 21
37.814033
  0
LINE
  8
別途部材
  6
CONTINUOUS
 10
42.083043
 20
54.8807
 11
41.683043
 21
54.4807
  0
LINE
  8
別途部材
  6
CONTINUOUS
 10
40.016375
 20
52.814033
 11
31.95712
 21
44.754775
  0
LINE
  8
別途部材
  6
CONTINUOUS
 10
41.683043
 20
54.4807
 11
41.683043
 21
37.814033
  0
LINE
  8
別途部材
  6
CONTINUOUS
 10
42.083043
 20
54.8807
 11
42.083043
 21
37.814033
  0
LINE
  8
別途部材
  6
CONTINUOUS
 10
41.683043
 20
54.4807
 11
-18.316957
 21
54.4807
  0
LINE
  8
別途部材
  6
CONTINUOUS
 10
42.083043
 20
54.8807
 11
-18.316957
 21
54.8807
  0
LINE
  8
別途部材
  6
CONTINUOUS
 10
41.683043
 20
21.147365
 11
-18.316957
 21
21.147365
  0
LINE
  8
別途部材
  6
CONTINUOUS
 10
42.083043
 20
20.747365
 11
-18.316957
 21
20.747365
  0
LINE
  8
別途部材
  6
CONTINUOUS
 10
-78.716957
 20
20.747365
 11
-78.316957
 21
21.147365
  0
LINE
  8
別途部材
  6
CONTINUOUS
 10
-76.65029
 20
22.814033
 11
-68.591035
 21
30.87329
  0
LINE
  8
別途部材
  6
CONTINUOUS
 10
-78.316957
 20
21.147365
 11
-78.316957
 21
37.814033
  0
LINE
  8
別途部材
  6
CONTINUOUS
 10
-78.716957
 20
20.747365
 11
-78.716957
 21
37.814033
  0
LINE
  8
別途部材
  6
CONTINUOUS
 10
-78.716957
 20
54.8807
 11
-78.316957
 21
54.4807
  0
LINE
  8
別途部材
  6
CONTINUOUS
 10
-76.65029
 20
52.814033
 11
-68.591035
 21
44.754775
  0
LINE
  8
別途部材
  6
CONTINUOUS
 10
-78.316957
 20
54.4807
 11
-78.316957
 21
37.814033
  0
LINE
  8
別途部材
  6
CONTINUOUS
 10
-78.716957
 20
54.8807
 11
-78.716957
 21
37.814033
  0
LINE
  8
別途部材
  6
CONTINUOUS
 10
-78.316957
 20
54.4807
 11
-18.316957
 21
54.4807
  0
LINE
  8
別途部材
  6
CONTINUOUS
 10
-78.716957
 20
54.8807
 11
-18.316957
 21
54.8807
  0
LINE
  8
別途部材
  6
CONTINUOUS
 10
-78.316957
 20
21.147365
 11
-18.316957
 21
21.147365
  0
LINE
  8
別途部材
  6
CONTINUOUS
 10
-78.716957
 20
20.747365
 11
-18.316957
 21
20.747365
  0
INSERT
  2
*GRP_0004
  8
別途部材
  6
CONTINUOUS
 10
0.0
 20
0.0
  0
LINE
  8
別途部材
  6
CONTINUOUS
 62
    96
 10
129.502097
 20
54.4807
 11
130.502097
 21
54.8807
  0
LINE
  8
別途部材
  6
CONTINUOUS
 62
    96
 10
129.502097
 20
54.4807
 11
129.502097
 21
37.814033
  0
LINE
  8
別途部材
  6
CONTINUOUS
 10
130.502097
 20
54.8807
 11
130.502097
 21
37.814033
  0
LINE
  8
別途部材
  6
CONTINUOUS
 62
    96
 10
129.502097
 20
21.147367
 11
130.502097
 21
20.747367
  0
LINE
  8
別途部材
  6
CONTINUOUS
 62
    96
 10
129.502097
 20
21.147367
 11
129.502097
 21
37.814033
  0
LINE
  8
別途部材
  6
CONTINUOUS
 10
130.502097
 20
20.747367
 11
130.502097
 21
37.814033
  0
ARC
  8
別途部材
  6
CONTINUOUS
 10
138.835431
 20
37.814032
 40
17.666667
 50
121.890792
 51
238.109208
  0
INSERT
  2
*GRP_0008
  8
別途部材
  6
CONTINUOUS
 10
0.0
 20
0.0
  0
LINE
  8
別途部材
  6
DOT
 62
    96
 10
129.563183
 20
57.17549
 11
130.553133
 21
56.751227
  0
LINE
  8
別途部材
  6
DOT
 62
    96
 10
129.563183
 20
57.17549
 11
117.77807
 21
45.390378
  0
LINE
  8
別途部材
  6
DOT
 10
130.553133
 20
56.751227
 11
118.485177
 21
44.68327
  0
LINE
  8
別途部材
  6
DOT
 62
    96
 10
105.992958
 20
33.605265
 11
106.417223
 21
32.615315
  0
LINE
  8
別途部材
  6
DOT
 62
    96
 10
105.992958
 20
33.605265
 11
117.77807
 21
45.390378
  0
LINE
  8
別途部材
  6
DOT
 10
106.417223
 20
32.615315
 11
118.485177
 21
44.68327
  0
ARC
  8
別途部材
  6
DOT
 10
124.377734
 20
38.790713
 40
17.666667
 50
76.890792
 51
193.109208
  0
INSERT
  2
*GRP_0024
  8
別途部材
  6
DOT
 10
0.0
 20
0.0
  0
INSERT
  2
*GRP_0025
  8
別途部材
  6
DOT
 10
0.0
 20
0.0
  0
INSERT
  2
*GRP_0026
  8
別途部材
  6
DOT
 10
0.0
 20
0.0
  0
INSERT
  2
*GRP_0027
  8
別途部材
  6
DOT
 10
0.0
 20
0.0
  0
INSERT
  2
*GRP_0028
  8
別途部材
  6
DOT
 10
0.0
 20
0.0
  0
INSERT
  2
*GRP_0029
  8
別途部材
  6
DOT
 10
0.0
 20
0.0
  0
ENDSEC
  0
EOF
