  0
SECTION
  2
HEADER
  9
$EXTMIN
 10
-210.0
 20
-148.5
  9
$EXTMAX
 10
210.0
 20
148.5
  9
$PDMODE
 70
    32
  9
$PDSIZE
 40
1.5
  9
$LTSCALE
 40
10.0
  0
ENDSEC
  0
SECTION
  2
TABLES
  0
TABLE
  2
LTYPE
 70
    15
  0
LTYPE
  2
CONTINUOUS
 70
    64
  3
実線
 72
    65
 73
     0
 40
0.0
  0
LTYPE
  2
DASHED
 70
    64
  3
破線A
 72
    65
 73
     2
 40
0.6
 49
0.4
 49
-0.2
  0
LTYPE
  2
DASHEDX2
 70
    64
  3
破線B
 72
    65
 73
     2
 40
1.3
 49
0.9
 49
-0.4
  0
LTYPE
  2
DASHDOT
 70
    64
  3
１点鎖線A
 72
    65
 73
     4
 40
0.5375
 49
0.375
 49
-0.05
 49
0.0625
 49
-0.05
  0
LTYPE
  2
DASHDOTX2
 70
    64
  3
１点鎖線B
 72
    65
 73
     4
 40
1.075
 49
0.75
 49
-0.1
 49
0.125
 49
-0.1
  0
LTYPE
  2
DIVIDE2
 70
    64
  3
２点鎖線A
 72
    65
 73
     6
 40
0.5125
 49
0.3
 49
-0.0375
 49
0.05
 49
-0.0375
 49
0.05
 49
-0.0375
  0
LTYPE
  2
DIVIDE
 70
    64
  3
２点鎖線B
 72
    65
 73
     6
 40
1.05
 49
0.55
 49
-0.1
 49
0.1
 49
-0.1
 49
0.1
 49
-0.1
  0
LTYPE
  2
DOT
 70
    64
  3
点線A
 72
    65
 73
     2
 40
0.1125
 49
0.0625
 49
-0.05
  0
LTYPE
  2
DOTX2
 70
    64
  3
点線B
 72
    65
 73
     2
 40
0.275
 49
0.15
 49
-0.125
  0
LTYPE
  2
CONTINUOUS
 70
    64
  3
実線
 72
    65
 73
     0
 40
0.0
  0
LTYPE
  2
CONTINUOUS
 70
    64
  3
実線
 72
    65
 73
     0
 40
0.0
  0
LTYPE
  2
CONTINUOUS
 70
    64
  3
実線
 72
    65
 73
     0
 40
0.0
  0
LTYPE
  2
CONTINUOUS
 70
    64
  3
実線
 72
    65
 73
     0
 40
0.0
  0
LTYPE
  2
CONTINUOUS
 70
    64
  3
実線
 72
    65
 73
     0
 40
0.0
  0
LTYPE
  2
CONTINUOUS
 70
    64
  3
実線
 72
    65
 73
     0
 40
0.0
  0
ENDTAB
  0
TABLE
  2
LAYER
 70
    34
  0
LAYER
  2
通り芯
 70
     0
 62
    15
  6
CONTINUOUS
  0
LAYER
  2
補助線
 70
     0
 62
    16
  6
DOT
  0
LAYER
  2
躯体
 70
     0
 62
    31
  6
CONTINUOUS
  0
LAYER
  2
型材
 70
     0
 62
    32
  6
CONTINUOUS
  0
LAYER
  2
型材断面
 70
     0
 62
    47
  6
CONTINUOUS
  0
LAYER
  2
ガラス
 70
     0
 62
    48
  6
CONTINUOUS
  0
LAYER
  2
ゴム等
 70
     0
 62
    63
  6
CONTINUOUS
  0
LAYER
  2
ボルト／ビス
 70
     0
 62
    64
  6
CONTINUOUS
  0
LAYER
  2
文字
 70
     0
 62
    79
  6
CONTINUOUS
  0
LAYER
  2
寸法
 70
     0
 62
    80
  6
CONTINUOUS
  0
LAYER
  2
ﾊｯﾁﾝｸﾞ
 70
     0
 62
    95
  6
CONTINUOUS
  0
LAYER
  2
別途部材
 70
     0
 62
    96
  6
CONTINUOUS
  0
LAYER
  2
曲げ物
 70
     0
 62
   111
  6
CONTINUOUS
  0
LAYER
  2
鉄骨等
 70
     0
 62
   112
  6
CONTINUOUS
  0
LAYER
  2
St
 70
     0
 62
   127
  6
CONTINUOUS
  0
LAYER
  2
その他部品等
 70
     0
 62
   128
  6
CONTINUOUS
  0
LAYER
  2
ｶﾞｽｹｯﾄ
 70
     0
 62
   143
  6
CONTINUOUS
  0
LAYER
  2
ｽｹｯﾁ
 70
     0
 62
    14
  6
CONTINUOUS
  0
LAYER
  2
0
 70
     0
 62
    17
  6
CONTINUOUS
  0
LAYER
  2
1
 70
     0
 62
    30
  6
CONTINUOUS
  0
LAYER
  2
4
 70
     0
 62
    33
  6
CONTINUOUS
  0
LAYER
  2
ﾚｲﾔ3
 70
     0
 62
    46
  6
CONTINUOUS
  0
LAYER
  2
外形線
 70
     0
 62
    49
  6
CONTINUOUS
  0
LAYER
  2
部品
 70
     0
 62
    14
  6
CONTINUOUS
  0
LAYER
  2
サッシ芯
 70
     0
 62
    17
  6
DASHDOTX2
  0
LAYER
  2
寸法線
 70
     0
 62
    62
  6
CONTINUOUS
  0
LAYER
  2
姿図外形線
 70
     0
 62
    65
  6
CONTINUOUS
  0
LAYER
  2
姿補助線
 70
     0
 62
    30
  6
CONTINUOUS
  0
LAYER
  2
透視線
 70
     0
 62
    78
  6
DOT
  0
LAYER
  2
用紙
 70
     0
 62
    81
  6
CONTINUOUS
  0
LAYER
  2
実線図枠
 70
     0
 62
    94
  6
CONTINUOUS
  0
LAYER
  2
補助図枠
 70
     0
 62
    97
  6
CONTINUOUS
  0
LAYER
  2
建具記号
 70
     0
 62
   110
  6
CONTINUOUS
  0
LAYER
  2
補助文字
 70
     0
 62
   113
  6
CONTINUOUS
  0
ENDTAB
  0
TABLE
  2
STYLE
 70
    10
  0
STYLE
  2
STANDARD
 70
     0
 40
1.0
 41
1.0
 42
1.0
 50
0.0
 71
     0
  3
TXT
  4
BIGFONT
  0
STYLE
  2
TATE
 70
     4
 40
1.0
 41
1.0
 42
1.0
 50
0.0
 71
     0
  3
TXT
  4
BIGFONT
  0
STYLE
  2
TextStyle03
 70
     0
 40
1.0
 41
1.0
 42
1.0
 50
0.0
 71
     0
  3
MONOTXT
  4
BIGFONT
  0
STYLE
  2
TextStyle04
 70
     0
 40
1.0
 41
1.0
 42
1.0
 50
0.0
 71
     0
  3
MONOTXT
  4
BIGFONT
  0
STYLE
  2
TextStyle05
 70
     0
 40
1.0
 41
1.0
 42
1.0
 50
0.0
 71
     0
  3
MONOTXT
  4
BIGFONT
  0
STYLE
  2
TextStyle06
 70
     0
 40
1.0
 41
1.0
 42
1.0
 50
0.0
 71
     0
  3
MONOTXT
  4
BIGFONT
  0
STYLE
  2
TextStyle07
 70
     0
 40
1.0
 41
1.0
 42
1.0
 50
0.0
 71
     0
  3
MONOTXT
  4
BIGFONT
  0
STYLE
  2
TextStyle08
 70
     0
 40
1.0
 41
1.0
 42
1.0
 50
0.0
 71
     0
  3
MONOTXT
  4
BIGFONT
  0
STYLE
  2
TextStyle09
 70
     0
 40
1.0
 41
1.0
 42
1.0
 50
0.0
 71
     0
  3
MONOTXT
  4
BIGFONT
  0
STYLE
  2
TextStyle10
 70
     0
 40
1.0
 41
1.0
 42
1.0
 50
0.0
 71
     0
  3
MONOTXT
  4
BIGFONT
  0
ENDTAB
  0
ENDSEC
  0
SECTION
  2
BLOCKS
  0
BLOCK
  2
*GRP_0001
 70
    65
 10
0.0
 20
0.0
  0
LINE
  8
型材断面
  6
CONTINUOUS
 10
195.0
 20
133.5
 11
195.0
 21
-133.5
  0
LINE
  8
型材断面
  6
CONTINUOUS
 10
195.0
 20
-133.5
 11
-185.0
 21
-133.5
  0
LINE
  8
型材断面
  6
CONTINUOUS
 10
-185.0
 20
-133.5
 11
-185.0
 21
133.5
  0
LINE
  8
型材断面
  6
CONTINUOUS
 10
195.0
 20
133.5
 11
-185.0
 21
133.5
  0
LINE
  8
型材断面
  6
CONTINUOUS
 10
145.0
 20
-133.5
 11
145.0
 21
-118.5
  0
LINE
  8
型材断面
  6
CONTINUOUS
 10
195.0
 20
-118.5
 11
145.0
 21
-118.5
  0
ENDBLK
  0
BLOCK
  2
*DIM_0002
 70
    65
 10
0.0
 20
0.0
  0
LINE
  8
寸法
  6
BYBLOCK
 62
     0
 10
-75.342895
 20
-13.511205
 11
-75.342895
 21
-13.121378
  0
LINE
  8
寸法
  6
BYBLOCK
 62
     0
 10
57.990438
 20
-13.121378
 11
-75.342895
 21
-13.121378
  0
POINT
  8
寸法
 62
     0
 10
57.990438
 20
-13.121378
  0
POINT
  8
寸法
 62
     0
 10
-75.342895
 20
-13.121378
  0
TEXT
  7
TextStyle03
  8
寸法
  6
CONTINUOUS
 62
     0
 10
-20.41875
 20
-12.75
  1
呼称寸法　4000
 40
3.0
 72
     5
 11
3.01875
 21
-12.75
  0
ENDBLK
  0
BLOCK
  2
*DIM_0003
 70
    65
 10
0.0
 20
0.0
  0
LINE
  8
寸法
  6
BYBLOCK
 62
     0
 10
-58.676228
 20
19.183902
 11
-58.676228
 21
14.132895
  0
LINE
  8
寸法
  6
BYBLOCK
 62
     0
 10
41.323768
 20
19.183902
 11
41.323768
 21
14.132895
  0
LINE
  8
寸法
  6
BYBLOCK
 62
     0
 10
-58.676228
 20
14.132895
 11
41.323768
 21
14.132895
  0
POINT
  8
寸法
 62
     0
 10
-58.676228
 20
14.132895
  0
POINT
  8
寸法
 62
     0
 10
41.323768
 20
14.132895
  0
TEXT
  7
TextStyle03
  8
寸法
  6
CONTINUOUS
 62
     0
 10
-11.98125
 20
14.5
  1
3000
 40
3.0
 72
     5
 11
-5.41875
 21
14.5
  0
ENDBLK
  0
BLOCK
  2
*GRP_0004
 70
    65
 10
0.0
 20
0.0
  0
LINE
  8
別途部材
  6
CONTINUOUS
 62
    96
 10
-77.009562
 20
-70.209613
 11
-77.409562
 21
-71.209613
  0
ARC
  8
別途部材
  6
CONTINUOUS
 10
-60.342897
 20
-79.542947
 40
17.666667
 50
90.0
 51
148.109204
  0
LINE
  8
別途部材
  6
CONTINUOUS
 62
    96
 10
-77.009562
 20
-70.209613
 11
-8.676228
 21
-70.209613
  0
LINE
  8
別途部材
  6
CONTINUOUS
 10
-77.409562
 20
-71.209613
 11
-8.676228
 21
-71.209613
  0
LINE
  8
別途部材
  6
CONTINUOUS
 10
-9.176228
 20
-60.87628
 11
-10.176228
 21
-61.87628
  0
LINE
  8
別途部材
  6
CONTINUOUS
 10
-11.176228
 20
-61.87628
 11
-12.176228
 21
-60.87628
  0
LINE
  8
別途部材
  6
CONTINUOUS
 10
-13.176228
 20
-60.87628
 11
-14.176228
 21
-61.87628
  0
LINE
  8
別途部材
  6
CONTINUOUS
 10
-12.176228
 20
-60.87628
 11
-13.176228
 21
-60.87628
  0
LINE
  8
別途部材
  6
CONTINUOUS
 10
-9.176228
 20
-60.87628
 11
-8.676228
 21
-60.87628
  0
LINE
  8
別途部材
  6
CONTINUOUS
 10
-15.176228
 20
-61.87628
 11
-16.176228
 21
-60.87628
  0
LINE
  8
別途部材
  6
CONTINUOUS
 10
-17.176228
 20
-60.87628
 11
-18.176228
 21
-61.87628
  0
LINE
  8
別途部材
  6
CONTINUOUS
 10
-16.176228
 20
-60.87628
 11
-17.176228
 21
-60.87628
  0
LINE
  8
別途部材
  6
CONTINUOUS
 10
-19.176228
 20
-61.87628
 11
-20.176228
 21
-60.87628
  0
LINE
  8
別途部材
  6
CONTINUOUS
 10
-21.176228
 20
-60.87628
 11
-22.176228
 21
-61.87628
  0
LINE
  8
別途部材
  6
CONTINUOUS
 10
-20.176228
 20
-60.87628
 11
-21.176228
 21
-60.87628
  0
LINE
  8
別途部材
  6
CONTINUOUS
 10
-23.176228
 20
-61.87628
 11
-24.176228
 21
-60.87628
  0
LINE
  8
別途部材
  6
CONTINUOUS
 10
-25.176228
 20
-60.87628
 11
-26.176228
 21
-61.87628
  0
LINE
  8
別途部材
  6
CONTINUOUS
 10
-24.176228
 20
-60.87628
 11
-25.176228
 21
-60.87628
  0
LINE
  8
別途部材
  6
CONTINUOUS
 10
-27.176228
 20
-61.87628
 11
-28.176228
 21
-60.87628
  0
LINE
  8
別途部材
  6
CONTINUOUS
 10
-29.176228
 20
-60.87628
 11
-30.176228
 21
-61.87628
  0
LINE
  8
別途部材
  6
CONTINUOUS
 10
-28.176228
 20
-60.87628
 11
-29.176228
 21
-60.87628
  0
LINE
  8
別途部材
  6
CONTINUOUS
 10
-31.176228
 20
-61.87628
 11
-32.176228
 21
-60.87628
  0
LINE
  8
別途部材
  6
CONTINUOUS
 10
-33.176228
 20
-60.87628
 11
-34.176228
 21
-61.87628
  0
LINE
  8
別途部材
  6
CONTINUOUS
 10
-32.176228
 20
-60.87628
 11
-33.176228
 21
-60.87628
  0
LINE
  8
別途部材
  6
CONTINUOUS
 10
-35.176228
 20
-61.87628
 11
-36.176228
 21
-60.87628
  0
LINE
  8
別途部材
  6
CONTINUOUS
 10
-37.176228
 20
-60.87628
 11
-38.176228
 21
-61.87628
  0
LINE
  8
別途部材
  6
CONTINUOUS
 10
-36.176228
 20
-60.87628
 11
-37.176228
 21
-60.87628
  0
LINE
  8
別途部材
  6
CONTINUOUS
 10
-39.176228
 20
-61.87628
 11
-40.176228
 21
-60.87628
  0
LINE
  8
別途部材
  6
CONTINUOUS
 10
-41.176228
 20
-60.87628
 11
-42.176228
 21
-61.87628
  0
LINE
  8
別途部材
  6
CONTINUOUS
 10
-40.176228
 20
-60.87628
 11
-41.176228
 21
-60.87628
  0
LINE
  8
別途部材
  6
CONTINUOUS
 10
-43.176228
 20
-61.87628
 11
-44.176228
 21
-60.87628
  0
LINE
  8
別途部材
  6
CONTINUOUS
 10
-45.176228
 20
-60.87628
 11
-46.176228
 21
-61.87628
  0
LINE
  8
別途部材
  6
CONTINUOUS
 10
-44.176228
 20
-60.87628
 11
-45.176228
 21
-60.87628
  0
LINE
  8
別途部材
  6
CONTINUOUS
 10
-47.176228
 20
-61.87628
 11
-48.176228
 21
-60.87628
  0
LINE
  8
別途部材
  6
CONTINUOUS
 10
-49.176228
 20
-60.87628
 11
-50.176228
 21
-61.87628
  0
LINE
  8
別途部材
  6
CONTINUOUS
 10
-48.176228
 20
-60.87628
 11
-49.176228
 21
-60.87628
  0
LINE
  8
別途部材
  6
CONTINUOUS
 10
-51.176228
 20
-61.87628
 11
-52.176228
 21
-60.87628
  0
LINE
  8
別途部材
  6
CONTINUOUS
 10
-53.176228
 20
-60.87628
 11
-54.176228
 21
-61.87628
  0
LINE
  8
別途部材
  6
CONTINUOUS
 10
-52.176228
 20
-60.87628
 11
-53.176228
 21
-60.87628
  0
LINE
  8
別途部材
  6
CONTINUOUS
 10
-50.176228
 20
-61.87628
 11
-51.176228
 21
-61.87628
  0
LINE
  8
別途部材
  6
CONTINUOUS
 10
-46.176228
 20
-61.87628
 11
-47.176228
 21
-61.87628
  0
LINE
  8
別途部材
  6
CONTINUOUS
 10
-42.176228
 20
-61.87628
 11
-43.176228
 21
-61.87628
  0
LINE
  8
別途部材
  6
CONTINUOUS
 10
-38.176228
 20
-61.87628
 11
-39.176228
 21
-61.87628
  0
LINE
  8
別途部材
  6
CONTINUOUS
 10
-34.176228
 20
-61.87628
 11
-35.176228
 21
-61.87628
  0
LINE
  8
別途部材
  6
CONTINUOUS
 10
-30.176228
 20
-61.87628
 11
-31.176228
 21
-61.87628
  0
LINE
  8
別途部材
  6
CONTINUOUS
 10
-26.176228
 20
-61.87628
 11
-27.176228
 21
-61.87628
  0
LINE
  8
別途部材
  6
CONTINUOUS
 10
-22.176228
 20
-61.87628
 11
-23.176228
 21
-61.87628
  0
LINE
  8
別途部材
  6
CONTINUOUS
 10
-18.176228
 20
-61.87628
 11
-19.176228
 21
-61.87628
  0
LINE
  8
別途部材
  6
CONTINUOUS
 10
-14.176228
 20
-61.87628
 11
-15.176228
 21
-61.87628
  0
LINE
  8
別途部材
  6
CONTINUOUS
 10
-11.176228
 20
-61.87628
 11
-10.176228
 21
-61.87628
  0
LINE
  8
別途部材
  6
CONTINUOUS
 10
-55.176228
 20
-61.87628
 11
-56.176228
 21
-60.87628
  0
LINE
  8
別途部材
  6
CONTINUOUS
 10
-57.176228
 20
-60.87628
 11
-58.176228
 21
-61.87628
  0
LINE
  8
別途部材
  6
CONTINUOUS
 10
-56.176228
 20
-60.87628
 11
-57.176228
 21
-60.87628
  0
LINE
  8
別途部材
  6
CONTINUOUS
 10
-54.176228
 20
-61.87628
 11
-55.176228
 21
-61.87628
  0
LINE
  8
別途部材
  6
CONTINUOUS
 10
-53.176228
 20
-60.87628
 11
-53.176228
 21
-70.209613
  0
LINE
  8
別途部材
  6
CONTINUOUS
 10
-49.176228
 20
-60.87628
 11
-49.176228
 21
-70.209613
  0
LINE
  8
別途部材
  6
CONTINUOUS
 10
-47.176228
 20
-61.87628
 11
-47.176228
 21
-70.209613
  0
LINE
  8
別途部材
  6
CONTINUOUS
 10
-52.176228
 20
-60.87628
 11
-52.176228
 21
-70.209613
  0
LINE
  8
別途部材
  6
CONTINUOUS
 10
-56.176228
 20
-60.87628
 11
-56.176228
 21
-70.209613
  0
LINE
  8
別途部材
  6
CONTINUOUS
 10
-58.176228
 20
-61.87628
 11
-58.176228
 21
-70.209613
  0
LINE
  8
別途部材
  6
CONTINUOUS
 10
-57.176228
 20
-60.87628
 11
-57.176228
 21
-70.209613
  0
LINE
  8
別途部材
  6
CONTINUOUS
 10
-55.176228
 20
-61.87628
 11
-55.176228
 21
-70.209613
  0
LINE
  8
別途部材
  6
CONTINUOUS
 10
-54.176228
 20
-61.87628
 11
-54.176228
 21
-70.209613
  0
LINE
  8
別途部材
  6
CONTINUOUS
 10
-51.176228
 20
-61.87628
 11
-51.176228
 21
-70.209613
  0
LINE
  8
別途部材
  6
CONTINUOUS
 10
-50.176228
 20
-61.87628
 11
-50.176228
 21
-70.209613
  0
LINE
  8
別途部材
  6
CONTINUOUS
 10
-48.176228
 20
-60.87628
 11
-48.176228
 21
-70.209613
  0
LINE
  8
別途部材
  6
CONTINUOUS
 10
-45.176228
 20
-60.87628
 11
-45.176228
 21
-70.209613
  0
LINE
  8
別途部材
  6
CONTINUOUS
 10
-46.176228
 20
-61.87628
 11
-46.176228
 21
-70.209613
  0
LINE
  8
別途部材
  6
CONTINUOUS
 10
-44.176228
 20
-60.87628
 11
-44.176228
 21
-70.209613
  0
LINE
  8
別途部材
  6
CONTINUOUS
 10
-43.176228
 20
-61.87628
 11
-43.176228
 21
-70.209613
  0
LINE
  8
別途部材
  6
CONTINUOUS
 10
-42.176228
 20
-61.87628
 11
-42.176228
 21
-70.209613
  0
LINE
  8
別途部材
  6
CONTINUOUS
 10
-41.176228
 20
-60.87628
 11
-41.176228
 21
-70.209613
  0
LINE
  8
別途部材
  6
CONTINUOUS
 10
-39.176228
 20
-61.87628
 11
-39.176228
 21
-70.209613
  0
LINE
  8
別途部材
  6
CONTINUOUS
 10
-40.176228
 20
-60.87628
 11
-40.176228
 21
-70.209613
  0
LINE
  8
別途部材
  6
CONTINUOUS
 10
-37.176228
 20
-60.87628
 11
-37.176228
 21
-70.209613
  0
LINE
  8
別途部材
  6
CONTINUOUS
 10
-38.176228
 20
-61.87628
 11
-38.176228
 21
-70.209613
  0
LINE
  8
別途部材
  6
CONTINUOUS
 10
-34.176228
 20
-61.87628
 11
-34.176228
 21
-70.209613
  0
LINE
  8
別途部材
  6
CONTINUOUS
 10
-33.176228
 20
-60.87628
 11
-33.176228
 21
-70.209613
  0
LINE
  8
別途部材
  6
CONTINUOUS
 10
-32.176228
 20
-60.87628
 11
-32.176228
 21
-70.209613
  0
LINE
  8
別途部材
  6
CONTINUOUS
 10
-35.176228
 20
-61.87628
 11
-35.176228
 21
-70.209613
  0
LINE
  8
別途部材
  6
CONTINUOUS
 10
-36.176228
 20
-60.87628
 11
-36.176228
 21
-70.209613
  0
LINE
  8
別途部材
  6
CONTINUOUS
 10
-28.176228
 20
-60.87628
 11
-28.176228
 21
-70.209613
  0
LINE
  8
別途部材
  6
CONTINUOUS
 10
-30.176228
 20
-61.87628
 11
-30.176228
 21
-70.209613
  0
LINE
  8
別途部材
  6
CONTINUOUS
 10
-31.176228
 20
-61.87628
 11
-31.176228
 21
-70.209613
  0
LINE
  8
別途部材
  6
CONTINUOUS
 10
-29.176228
 20
-60.87628
 11
-29.176228
 21
-70.209613
  0
LINE
  8
別途部材
  6
CONTINUOUS
 10
-27.176228
 20
-61.87628
 11
-27.176228
 21
-70.209613
  0
LINE
  8
別途部材
  6
CONTINUOUS
 10
-25.176228
 20
-60.87628
 11
-25.176228
 21
-70.209613
  0
LINE
  8
別途部材
  6
CONTINUOUS
 10
-24.176228
 20
-60.87628
 11
-24.176228
 21
-70.209613
  0
LINE
  8
別途部材
  6
CONTINUOUS
 10
-22.176228
 20
-61.87628
 11
-22.176228
 21
-70.209613
  0
LINE
  8
別途部材
  6
CONTINUOUS
 10
-23.176228
 20
-61.87628
 11
-23.176228
 21
-70.209613
  0
LINE
  8
別途部材
  6
CONTINUOUS
 10
-26.176228
 20
-61.87628
 11
-26.176228
 21
-70.209613
  0
LINE
  8
別途部材
  6
CONTINUOUS
 10
-21.176228
 20
-60.87628
 11
-21.176228
 21
-70.209613
  0
LINE
  8
別途部材
  6
CONTINUOUS
 10
-19.176228
 20
-61.87628
 11
-19.176228
 21
-70.209613
  0
LINE
  8
別途部材
  6
CONTINUOUS
 10
-20.176228
 20
-60.87628
 11
-20.176228
 21
-70.209613
  0
LINE
  8
別途部材
  6
CONTINUOUS
 10
-18.176228
 20
-61.87628
 11
-18.176228
 21
-70.209613
  0
LINE
  8
別途部材
  6
CONTINUOUS
 10
-17.176228
 20
-60.87628
 11
-17.176228
 21
-70.209613
  0
LINE
  8
別途部材
  6
CONTINUOUS
 10
-15.176228
 20
-61.87628
 11
-15.176228
 21
-70.209613
  0
LINE
  8
別途部材
  6
CONTINUOUS
 10
-16.176228
 20
-60.87628
 11
-16.176228
 21
-70.209613
  0
LINE
  8
別途部材
  6
CONTINUOUS
 10
-14.176228
 20
-61.87628
 11
-14.176228
 21
-70.209613
  0
LINE
  8
別途部材
  6
CONTINUOUS
 10
-13.176228
 20
-60.87628
 11
-13.176228
 21
-70.209613
  0
LINE
  8
別途部材
  6
CONTINUOUS
 10
-11.176228
 20
-61.87628
 11
-11.176228
 21
-70.209613
  0
LINE
  8
別途部材
  6
CONTINUOUS
 10
-12.176228
 20
-60.87628
 11
-12.176228
 21
-70.209613
  0
LINE
  8
別途部材
  6
CONTINUOUS
 10
-10.176228
 20
-61.87628
 11
-10.176228
 21
-70.209613
  0
LINE
  8
別途部材
  6
CONTINUOUS
 10
-9.176228
 20
-60.87628
 11
-9.176228
 21
-70.209613
  0
LINE
  8
別途部材
  6
CONTINUOUS
 10
-58.176228
 20
-61.87628
 11
-60.342895
 21
-61.87628
  0
LINE
  8
別途部材
  6
CONTINUOUS
 62
    96
 10
59.657105
 20
-70.209613
 11
60.057105
 21
-71.209613
  0
ARC
  8
別途部材
  6
CONTINUOUS
 10
42.99044
 20
-79.542947
 40
17.666667
 50
31.890796
 51
90.0
  0
LINE
  8
別途部材
  6
CONTINUOUS
 62
    96
 10
59.657105
 20
-70.209613
 11
-8.676228
 21
-70.209613
  0
LINE
  8
別途部材
  6
CONTINUOUS
 10
60.057105
 20
-71.209613
 11
-8.676228
 21
-71.209613
  0
LINE
  8
別途部材
  6
CONTINUOUS
 10
-8.176228
 20
-60.87628
 11
-7.176228
 21
-61.87628
  0
LINE
  8
別途部材
  6
CONTINUOUS
 10
-6.176228
 20
-61.87628
 11
-5.176228
 21
-60.87628
  0
LINE
  8
別途部材
  6
CONTINUOUS
 10
-4.176228
 20
-60.87628
 11
-3.176228
 21
-61.87628
  0
LINE
  8
別途部材
  6
CONTINUOUS
 10
-5.176228
 20
-60.87628
 11
-4.176228
 21
-60.87628
  0
LINE
  8
別途部材
  6
CONTINUOUS
 10
-8.176228
 20
-60.87628
 11
-8.676228
 21
-60.87628
  0
LINE
  8
別途部材
  6
CONTINUOUS
 10
-2.176228
 20
-61.87628
 11
-1.176228
 21
-60.87628
  0
LINE
  8
別途部材
  6
CONTINUOUS
 10
-0.176228
 20
-60.87628
 11
0.823773
 21
-61.87628
  0
LINE
  8
別途部材
  6
CONTINUOUS
 10
-1.176228
 20
-60.87628
 11
-0.176228
 21
-60.87628
  0
LINE
  8
別途部材
  6
CONTINUOUS
 10
1.823773
 20
-61.87628
 11
2.823773
 21
-60.87628
  0
LINE
  8
別途部材
  6
CONTINUOUS
 10
3.823773
 20
-60.87628
 11
4.823773
 21
-61.87628
  0
LINE
  8
別途部材
  6
CONTINUOUS
 10
2.823773
 20
-60.87628
 11
3.823773
 21
-60.87628
  0
LINE
  8
別途部材
  6
CONTINUOUS
 10
5.823773
 20
-61.87628
 11
6.823773
 21
-60.87628
  0
LINE
  8
別途部材
  6
CONTINUOUS
 10
7.823773
 20
-60.87628
 11
8.823773
 21
-61.87628
  0
LINE
  8
別途部材
  6
CONTINUOUS
 10
6.823773
 20
-60.87628
 11
7.823773
 21
-60.87628
  0
LINE
  8
別途部材
  6
CONTINUOUS
 10
9.823773
 20
-61.87628
 11
10.823773
 21
-60.87628
  0
LINE
  8
別途部材
  6
CONTINUOUS
 10
11.823773
 20
-60.87628
 11
12.823773
 21
-61.87628
  0
LINE
  8
別途部材
  6
CONTINUOUS
 10
10.823773
 20
-60.87628
 11
11.823773
 21
-60.87628
  0
LINE
  8
別途部材
  6
CONTINUOUS
 10
13.823773
 20
-61.87628
 11
14.823773
 21
-60.87628
  0
LINE
  8
別途部材
  6
CONTINUOUS
 10
15.823773
 20
-60.87628
 11
16.823773
 21
-61.87628
  0
LINE
  8
別途部材
  6
CONTINUOUS
 10
14.823773
 20
-60.87628
 11
15.823773
 21
-60.87628
  0
LINE
  8
別途部材
  6
CONTINUOUS
 10
17.823773
 20
-61.87628
 11
18.823773
 21
-60.87628
  0
LINE
  8
別途部材
  6
CONTINUOUS
 10
19.823773
 20
-60.87628
 11
20.823773
 21
-61.87628
  0
LINE
  8
別途部材
  6
CONTINUOUS
 10
18.823773
 20
-60.87628
 11
19.823773
 21
-60.87628
  0
LINE
  8
別途部材
  6
CONTINUOUS
 10
21.823773
 20
-61.87628
 11
22.823773
 21
-60.87628
  0
LINE
  8
別途部材
  6
CONTINUOUS
 10
23.823773
 20
-60.87628
 11
24.823773
 21
-61.87628
  0
LINE
  8
別途部材
  6
CONTINUOUS
 10
22.823773
 20
-60.87628
 11
23.823773
 21
-60.87628
  0
LINE
  8
別途部材
  6
CONTINUOUS
 10
25.823773
 20
-61.87628
 11
26.823773
 21
-60.87628
  0
LINE
  8
別途部材
  6
CONTINUOUS
 10
27.823773
 20
-60.87628
 11
28.823773
 21
-61.87628
  0
LINE
  8
別途部材
  6
CONTINUOUS
 10
26.823773
 20
-60.87628
 11
27.823773
 21
-60.87628
  0
LINE
  8
別途部材
  6
CONTINUOUS
 10
29.823773
 20
-61.87628
 11
30.823773
 21
-60.87628
  0
LINE
  8
別途部材
  6
CONTINUOUS
 10
31.823773
 20
-60.87628
 11
32.823773
 21
-61.87628
  0
LINE
  8
別途部材
  6
CONTINUOUS
 10
30.823773
 20
-60.87628
 11
31.823773
 21
-60.87628
  0
LINE
  8
別途部材
  6
CONTINUOUS
 10
33.823773
 20
-61.87628
 11
34.823773
 21
-60.87628
  0
LINE
  8
別途部材
  6
CONTINUOUS
 10
35.823773
 20
-60.87628
 11
36.823773
 21
-61.87628
  0
LINE
  8
別途部材
  6
CONTINUOUS
 10
34.823773
 20
-60.87628
 11
35.823773
 21
-60.87628
  0
LINE
  8
別途部材
  6
CONTINUOUS
 10
32.823773
 20
-61.87628
 11
33.823773
 21
-61.87628
  0
LINE
  8
別途部材
  6
CONTINUOUS
 10
28.823773
 20
-61.87628
 11
29.823773
 21
-61.87628
  0
LINE
  8
別途部材
  6
CONTINUOUS
 10
24.823773
 20
-61.87628
 11
25.823773
 21
-61.87628
  0
LINE
  8
別途部材
  6
CONTINUOUS
 10
20.823773
 20
-61.87628
 11
21.823773
 21
-61.87628
  0
LINE
  8
別途部材
  6
CONTINUOUS
 10
16.823773
 20
-61.87628
 11
17.823773
 21
-61.87628
  0
LINE
  8
別途部材
  6
CONTINUOUS
 10
12.823773
 20
-61.87628
 11
13.823773
 21
-61.87628
  0
LINE
  8
別途部材
  6
CONTINUOUS
 10
8.823773
 20
-61.87628
 11
9.823773
 21
-61.87628
  0
LINE
  8
別途部材
  6
CONTINUOUS
 10
4.823773
 20
-61.87628
 11
5.823773
 21
-61.87628
  0
LINE
  8
別途部材
  6
CONTINUOUS
 10
0.823773
 20
-61.87628
 11
1.823773
 21
-61.87628
  0
LINE
  8
別途部材
  6
CONTINUOUS
 10
-3.176228
 20
-61.87628
 11
-2.176228
 21
-61.87628
  0
LINE
  8
別途部材
  6
CONTINUOUS
 10
-6.176228
 20
-61.87628
 11
-7.176228
 21
-61.87628
  0
LINE
  8
別途部材
  6
CONTINUOUS
 10
37.823773
 20
-61.87628
 11
38.823773
 21
-60.87628
  0
LINE
  8
別途部材
  6
CONTINUOUS
 10
39.823773
 20
-60.87628
 11
40.823773
 21
-61.87628
  0
LINE
  8
別途部材
  6
CONTINUOUS
 10
38.823773
 20
-60.87628
 11
39.823773
 21
-60.87628
  0
LINE
  8
別途部材
  6
CONTINUOUS
 10
36.823773
 20
-61.87628
 11
37.823773
 21
-61.87628
  0
LINE
  8
別途部材
  6
CONTINUOUS
 10
35.823773
 20
-60.87628
 11
35.823773
 21
-70.209613
  0
LINE
  8
別途部材
  6
CONTINUOUS
 10
31.823773
 20
-60.87628
 11
31.823773
 21
-70.209613
  0
LINE
  8
別途部材
  6
CONTINUOUS
 10
29.823773
 20
-61.87628
 11
29.823773
 21
-70.209613
  0
LINE
  8
別途部材
  6
CONTINUOUS
 10
34.823773
 20
-60.87628
 11
34.823773
 21
-70.209613
  0
LINE
  8
別途部材
  6
CONTINUOUS
 10
38.823773
 20
-60.87628
 11
38.823773
 21
-70.209613
  0
LINE
  8
別途部材
  6
CONTINUOUS
 10
40.823773
 20
-61.87628
 11
40.823773
 21
-70.209613
  0
LINE
  8
別途部材
  6
CONTINUOUS
 10
39.823773
 20
-60.87628
 11
39.823773
 21
-70.209613
  0
LINE
  8
別途部材
  6
CONTINUOUS
 10
37.823773
 20
-61.87628
 11
37.823773
 21
-70.209613
  0
LINE
  8
別途部材
  6
CONTINUOUS
 10
36.823773
 20
-61.87628
 11
36.823773
 21
-70.209613
  0
LINE
  8
別途部材
  6
CONTINUOUS
 10
33.823773
 20
-61.87628
 11
33.823773
 21
-70.209613
  0
LINE
  8
別途部材
  6
CONTINUOUS
 10
32.823773
 20
-61.87628
 11
32.823773
 21
-70.209613
  0
LINE
  8
別途部材
  6
CONTINUOUS
 10
30.823773
 20
-60.87628
 11
30.823773
 21
-70.209613
  0
LINE
  8
別途部材
  6
CONTINUOUS
 10
27.823773
 20
-60.87628
 11
27.823773
 21
-70.209613
  0
LINE
  8
別途部材
  6
CONTINUOUS
 10
28.823773
 20
-61.87628
 11
28.823773
 21
-70.209613
  0
LINE
  8
別途部材
  6
CONTINUOUS
 10
26.823773
 20
-60.87628
 11
26.823773
 21
-70.209613
  0
LINE
  8
別途部材
  6
CONTINUOUS
 10
25.823773
 20
-61.87628
 11
25.823773
 21
-70.209613
  0
LINE
  8
別途部材
  6
CONTINUOUS
 10
24.823773
 20
-61.87628
 11
24.823773
 21
-70.209613
  0
LINE
  8
別途部材
  6
CONTINUOUS
 10
23.823773
 20
-60.87628
 11
23.823773
 21
-70.209613
  0
LINE
  8
別途部材
  6
CONTINUOUS
 10
21.823773
 20
-61.87628
 11
21.823773
 21
-70.209613
  0
LINE
  8
別途部材
  6
CONTINUOUS
 10
22.823773
 20
-60.87628
 11
22.823773
 21
-70.209613
  0
LINE
  8
別途部材
  6
CONTINUOUS
 10
19.823773
 20
-60.87628
 11
19.823773
 21
-70.209613
  0
LINE
  8
別途部材
  6
CONTINUOUS
 10
20.823773
 20
-61.87628
 11
20.823773
 21
-70.209613
  0
LINE
  8
別途部材
  6
CONTINUOUS
 10
16.823773
 20
-61.87628
 11
16.823773
 21
-70.209613
  0
LINE
  8
別途部材
  6
CONTINUOUS
 10
15.823773
 20
-60.87628
 11
15.823773
 21
-70.209613
  0
LINE
  8
別途部材
  6
CONTINUOUS
 10
14.823773
 20
-60.87628
 11
14.823773
 21
-70.209613
  0
LINE
  8
別途部材
  6
CONTINUOUS
 10
17.823773
 20
-61.87628
 11
17.823773
 21
-70.209613
  0
LINE
  8
別途部材
  6
CONTINUOUS
 10
18.823773
 20
-60.87628
 11
18.823773
 21
-70.209613
  0
LINE
  8
別途部材
  6
CONTINUOUS
 10
10.823773
 20
-60.87628
 11
10.823773
 21
-70.209613
  0
LINE
  8
別途部材
  6
CONTINUOUS
 10
12.823773
 20
-61.87628
 11
12.823773
 21
-70.209613
  0
LINE
  8
別途部材
  6
CONTINUOUS
 10
13.823773
 20
-61.87628
 11
13.823773
 21
-70.209613
  0
LINE
  8
別途部材
  6
CONTINUOUS
 10
11.823773
 20
-60.87628
 11
11.823773
 21
-70.209613
  0
LINE
  8
別途部材
  6
CONTINUOUS
 10
9.823773
 20
-61.87628
 11
9.823773
 21
-70.209613
  0
LINE
  8
別途部材
  6
CONTINUOUS
 10
7.823773
 20
-60.87628
 11
7.823773
 21
-70.209613
  0
LINE
  8
別途部材
  6
CONTINUOUS
 10
6.823773
 20
-60.87628
 11
6.823773
 21
-70.209613
  0
LINE
  8
別途部材
  6
CONTINUOUS
 10
4.823773
 20
-61.87628
 11
4.823773
 21
-70.209613
  0
LINE
  8
別途部材
  6
CONTINUOUS
 10
5.823773
 20
-61.87628
 11
5.823773
 21
-70.209613
  0
LINE
  8
別途部材
  6
CONTINUOUS
 10
8.823773
 20
-61.87628
 11
8.823773
 21
-70.209613
  0
LINE
  8
別途部材
  6
CONTINUOUS
 10
3.823773
 20
-60.87628
 11
3.823773
 21
-70.209613
  0
LINE
  8
別途部材
  6
CONTINUOUS
 10
1.823773
 20
-61.87628
 11
1.823773
 21
-70.209613
  0
LINE
  8
別途部材
  6
CONTINUOUS
 10
2.823773
 20
-60.87628
 11
2.823773
 21
-70.209613
  0
LINE
  8
別途部材
  6
CONTINUOUS
 10
0.823773
 20
-61.87628
 11
0.823773
 21
-70.209613
  0
LINE
  8
別途部材
  6
CONTINUOUS
 10
-0.176228
 20
-60.87628
 11
-0.176228
 21
-70.209613
  0
LINE
  8
別途部材
  6
CONTINUOUS
 10
-2.176228
 20
-61.87628
 11
-2.176228
 21
-70.209613
  0
LINE
  8
別途部材
  6
CONTINUOUS
 10
-1.176228
 20
-60.87628
 11
-1.176228
 21
-70.209613
  0
LINE
  8
別途部材
  6
CONTINUOUS
 10
-3.176228
 20
-61.87628
 11
-3.176228
 21
-70.209613
  0
LINE
  8
別途部材
  6
CONTINUOUS
 10
-4.176228
 20
-60.87628
 11
-4.176228
 21
-70.209613
  0
LINE
  8
別途部材
  6
CONTINUOUS
 10
-6.176228
 20
-61.87628
 11
-6.176228
 21
-70.209613
  0
LINE
  8
別途部材
  6
CONTINUOUS
 10
-5.176228
 20
-60.87628
 11
-5.176228
 21
-70.209613
  0
LINE
  8
別途部材
  6
CONTINUOUS
 10
-7.176228
 20
-61.87628
 11
-7.176228
 21
-70.209613
  0
LINE
  8
別途部材
  6
CONTINUOUS
 10
-8.176228
 20
-60.87628
 11
-8.176228
 21
-70.209613
  0
LINE
  8
別途部材
  6
CONTINUOUS
 10
40.823773
 20
-61.87628
 11
42.990438
 21
-61.87628
  0
ENDBLK
  0
BLOCK
  2
*DIM_0005
 70
    65
 10
0.0
 20
0.0
  0
LINE
  8
寸法
  6
BYBLOCK
 62
     0
 10
55.990438
 20
17.20722
 11
55.990438
 21
14.182178
  0
LINE
  8
寸法
  6
BYBLOCK
 62
     0
 10
57.990438
 20
14.182178
 11
55.990438
 21
14.182178
  0
POINT
  8
寸法
 62
     0
 10
57.990438
 20
14.182178
  0
POINT
  8
寸法
 62
     0
 10
55.990438
 20
14.182178
  0
TEXT
  7
TextStyle03
  8
寸法
  6
CONTINUOUS
 62
     0
 10
54.08125
 20
10.4
  1
60
 40
3.0
 72
     5
 11
57.26875
 21
10.4
  0
ENDBLK
  0
BLOCK
  2
*DIM_0006
 70
    65
 10
0.0
 20
0.0
  0
LINE
  8
寸法
  6
BYBLOCK
 62
     0
 10
-73.342897
 20
17.20722
 11
-73.342897
 21
14.182178
  0
LINE
  8
寸法
  6
BYBLOCK
 62
     0
 10
-75.342897
 20
14.182178
 11
-73.342897
 21
14.182178
  0
POINT
  8
寸法
 62
     0
 10
-75.342897
 20
14.182178
  0
POINT
  8
寸法
 62
     0
 10
-73.342897
 20
14.182178
  0
TEXT
  7
TextStyle03
  8
寸法
  6
CONTINUOUS
 62
     0
 10
-74.61875
 20
10.4
  1
60
 40
3.0
 72
     5
 11
-71.43125
 21
10.4
  0
ENDBLK
  0
BLOCK
  2
*DIM_0007
 70
    65
 10
0.0
 20
0.0
  0
LINE
  8
寸法
  6
BYBLOCK
 62
     0
 10
93.467022
 20
22.814033
 11
93.467022
 21
52.814033
  0
POINT
  8
寸法
 62
     0
 10
93.467022
 20
22.814033
  0
POINT
  8
寸法
 62
     0
 10
93.467022
 20
52.814033
  0
TEXT
  7
TextStyle03
  8
寸法
  6
CONTINUOUS
 62
     0
 10
93.1
 20
26.9
  1
呼称寸法　900
 40
3.0
 50
90.0
 72
     5
 11
93.1
 21
48.65
  0
ENDBLK
  0
BLOCK
  2
*GRP_0008
 70
    65
 10
0.0
 20
0.0
  0
LINE
  8
別途部材
  6
CONTINUOUS
 62
    96
 10
152.559603
 20
54.04769
 11
152.559603
 21
53.94769
  0
LINE
  8
別途部材
  6
CONTINUOUS
 62
    96
 10
150.458523
 20
54.14769
 11
150.528195
 21
55.478495
  0
LINE
  8
別途部材
  6
CONTINUOUS
 62
    96
 10
151.07627
 20
55.48769
 11
150.959603
 21
55.754357
  0
LINE
  8
別途部材
  6
CONTINUOUS
 62
    96
 10
150.97627
 20
55.466772
 11
150.90875
 21
55.621107
  0
LINE
  8
別途部材
  6
CONTINUOUS
 62
    96
 10
150.429425
 20
55.504613
 11
150.559875
 21
55.764812
  0
LINE
  8
別途部材
  6
CONTINUOUS
 62
    96
 10
150.528195
 20
55.478495
 11
150.660355
 21
55.742108
  0
LINE
  8
別途部材
  6
CONTINUOUS
 62
    96
 10
150.695958
 20
55.677225
 11
150.63231
 21
55.600095
  0
LINE
  8
別途部材
  6
DASHDOTX2
 62
    96
 10
150.759603
 20
55.754357
 11
150.446118
 21
55.754357
  0
LINE
  8
別途部材
  6
DASHDOTX2
 62
    96
 10
150.759603
 20
55.754357
 11
151.090063
 21
55.754357
  0
LINE
  8
別途部材
  6
DASHDOTX2
 62
    96
 10
150.759603
 20
55.754357
 11
150.759603
 21
55.490885
  0
LINE
  8
別途部材
  6
DASHDOTX2
 62
    96
 10
150.759603
 20
55.754357
 11
150.759603
 21
56.032668
  0
LINE
  8
別途部材
  6
CONTINUOUS
 62
    96
 10
150.97627
 20
53.94769
 11
150.97627
 21
55.466772
  0
LINE
  8
別途部材
  6
CONTINUOUS
 62
    96
 10
151.07627
 20
54.04769
 11
151.07627
 21
55.48769
  0
LINE
  8
別途部材
  6
CONTINUOUS
 62
    96
 10
149.22519
 20
54.247693
 11
150.36362
 21
54.247693
  0
LINE
  8
別途部材
  6
CONTINUOUS
 62
    96
 10
149.22519
 20
54.14769
 11
149.22519
 21
54.247693
  0
LINE
  8
別途部材
  6
CONTINUOUS
 62
    96
 10
149.22519
 20
54.14769
 11
150.458523
 21
54.14769
  0
CIRCLE
  8
別途部材
  6
CONTINUOUS
 62
    96
 10
150.759603
 20
55.754357
 40
0.1
  0
ARC
  8
別途部材
  6
CONTINUOUS
 62
    96
 10
150.759602
 20
55.754357
 40
0.2
 50
218.780606
 51
537.001556
  0
LINE
  8
別途部材
  6
CONTINUOUS
 62
    96
 10
150.97627
 20
53.94769
 11
152.559603
 21
53.94769
  0
LINE
  8
別途部材
  6
CONTINUOUS
 62
    96
 10
151.07627
 20
54.04769
 11
152.559603
 21
54.04769
  0
LINE
  8
別途部材
  6
CONTINUOUS
 62
    96
 10
150.429425
 20
55.504613
 11
150.36362
 21
54.247693
  0
ENDBLK
  0
BLOCK
  2
*DIM_0009
 70
    65
 10
0.0
 20
0.0
  0
LINE
  8
寸法
  6
BYBLOCK
 62
     0
 10
139.142828
 20
40.814033
 11
139.142828
 21
64.521242
  0
LINE
  8
寸法
  6
BYBLOCK
 62
     0
 10
147.47616
 20
57.4807
 11
147.47616
 21
64.521242
  0
LINE
  8
寸法
  6
BYBLOCK
 62
     0
 10
139.142828
 20
64.521242
 11
147.47616
 21
64.521242
  0
POINT
  8
寸法
 62
     0
 10
139.142828
 20
64.521242
  0
POINT
  8
寸法
 62
     0
 10
147.47616
 20
64.521242
  0
TEXT
  7
TextStyle03
  8
寸法
  6
CONTINUOUS
 62
     0
 10
140.8125
 20
64.875
  1
250
 40
3.0
 72
     5
 11
145.6875
 21
64.875
  0
ENDBLK
  0
BLOCK
  2
*DIM_0010
 70
    65
 10
0.0
 20
0.0
  0
LINE
  8
寸法
  6
BYBLOCK
 62
     0
 10
153.37628
 20
59.147508
 11
153.37628
 21
64.521242
  0
LINE
  8
寸法
  6
BYBLOCK
 62
     0
 10
147.47616
 20
64.521242
 11
153.37628
 21
64.521242
  0
POINT
  8
寸法
 62
     0
 10
153.37628
 20
64.521242
  0
TEXT
  7
TextStyle03
  8
寸法
  6
CONTINUOUS
 62
     0
 10
147.9375
 20
64.875
  1
177
 40
3.0
 72
     5
 11
152.8125
 21
64.875
  0
ENDBLK
  0
BLOCK
  2
*DIM_0011
 70
    65
 10
0.0
 20
0.0
  0
LINE
  8
寸法
  6
BYBLOCK
 62
     0
 10
149.876277
 20
56.147508
 11
93.467022
 21
56.147508
  0
LINE
  8
寸法
  6
BYBLOCK
 62
     0
 10
93.467022
 20
52.814033
 11
93.467022
 21
56.147508
  0
POINT
  8
寸法
 62
     0
 10
93.467022
 20
52.814033
  0
POINT
  8
寸法
 62
     0
 10
93.467022
 20
56.147508
  0
TEXT
  7
TextStyle03
  8
寸法
  6
CONTINUOUS
 62
     0
 10
96.4
 20
57.2375
  1
100
 40
3.0
 50
90.0
 72
     5
 11
96.4
 21
62.1125
  0
ENDBLK
  0
BLOCK
  2
*DIM_0012
 70
    65
 10
0.0
 20
0.0
  0
LINE
  8
寸法
  6
BYBLOCK
 62
     0
 10
149.876277
 20
19.480558
 11
93.467022
 21
19.480558
  0
LINE
  8
寸法
  6
BYBLOCK
 62
     0
 10
93.467022
 20
22.814033
 11
93.467022
 21
19.480558
  0
POINT
  8
寸法
 62
     0
 10
93.467022
 20
22.814033
  0
POINT
  8
寸法
 62
     0
 10
93.467022
 20
19.480558
  0
TEXT
  7
TextStyle03
  8
寸法
  6
CONTINUOUS
 62
     0
 10
96.4
 20
13.5125
  1
100
 40
3.0
 50
90.0
 72
     5
 11
96.4
 21
18.3875
  0
ENDBLK
  0
BLOCK
  2
*DIM_0013
 70
    65
 10
0.0
 20
0.0
  0
LINE
  8
寸法
  6
BYBLOCK
 62
     0
 10
62.657105
 20
-70.209613
 11
73.059235
 21
-70.209613
  0
LINE
  8
寸法
  6
BYBLOCK
 62
     0
 10
64.323913
 20
-76.109732
 11
73.059235
 21
-76.109732
  0
LINE
  8
寸法
  6
BYBLOCK
 62
     0
 10
73.059235
 20
-70.209613
 11
73.059235
 21
-76.109732
  0
POINT
  8
寸法
 62
     0
 10
73.059235
 20
-70.209613
  0
POINT
  8
寸法
 62
     0
 10
73.059235
 20
-76.109732
  0
TEXT
  7
TextStyle03
  8
寸法
  6
CONTINUOUS
 62
     0
 10
72.625
 20
-75.6125
  1
177
 40
3.0
 50
90.0
 72
     5
 11
72.625
 21
-70.7375
  0
ENDBLK
  0
BLOCK
  2
*DIM_0014
 70
    65
 10
0.0
 20
0.0
  0
LINE
  8
寸法
  6
BYBLOCK
 62
     0
 10
45.157105
 20
-61.87628
 11
73.059235
 21
-61.87628
  0
LINE
  8
寸法
  6
BYBLOCK
 62
     0
 10
73.059235
 20
-70.209613
 11
73.059235
 21
-61.87628
  0
POINT
  8
寸法
 62
     0
 10
73.059235
 20
-70.209613
  0
POINT
  8
寸法
 62
     0
 10
73.059235
 20
-61.87628
  0
TEXT
  7
TextStyle03
  8
寸法
  6
CONTINUOUS
 62
     0
 10
72.625
 20
-68.4875
  1
250
 40
3.0
 50
90.0
 72
     5
 11
72.625
 21
-63.6125
  0
ENDBLK
  0
BLOCK
  2
*DIM_0015
 70
    65
 10
0.0
 20
0.0
  0
LINE
  8
寸法
  6
BYBLOCK
 62
     0
 10
61.323913
 20
-72.60973
 11
61.323913
 21
-13.121378
  0
LINE
  8
寸法
  6
BYBLOCK
 62
     0
 10
57.990438
 20
-13.121378
 11
61.323913
 21
-13.121378
  0
POINT
  8
寸法
 62
     0
 10
57.990438
 20
-13.121378
  0
POINT
  8
寸法
 62
     0
 10
61.323913
 20
-13.121378
  0
TEXT
  7
TextStyle03
  8
寸法
  6
CONTINUOUS
 62
     0
 10
62.7125
 20
-15.95
  1
100
 40
3.0
 72
     5
 11
67.5875
 21
-15.95
  0
ENDBLK
  0
BLOCK
  2
*DIM_0016
 70
    65
 10
0.0
 20
0.0
  0
LINE
  8
寸法
  6
BYBLOCK
 62
     0
 10
-78.676372
 20
-72.60973
 11
-78.676372
 21
-13.121378
  0
LINE
  8
寸法
  6
BYBLOCK
 62
     0
 10
-75.342897
 20
-13.121378
 11
-78.676372
 21
-13.121378
  0
POINT
  8
寸法
 62
     0
 10
-75.342897
 20
-13.121378
  0
POINT
  8
寸法
 62
     0
 10
-78.676372
 20
-13.121378
  0
TEXT
  7
TextStyle03
  8
寸法
  6
CONTINUOUS
 62
     0
 10
-84.9625
 20
-15.95
  1
100
 40
3.0
 72
     5
 11
-80.0875
 21
-15.95
  0
ENDBLK
  0
BLOCK
  2
*DIM_0017
 70
    65
 10
0.0
 20
0.0
  0
LINE
  8
寸法
  6
BYBLOCK
 62
     0
 10
147.453363
 20
-73.982308
 11
154.18645
 21
-73.982308
  0
LINE
  8
寸法
  6
BYBLOCK
 62
     0
 10
147.453363
 20
-43.448973
 11
154.18645
 21
-43.448973
  0
LINE
  8
寸法
  6
BYBLOCK
 62
     0
 10
154.18645
 20
-73.982308
 11
154.18645
 21
-43.448973
  0
POINT
  8
寸法
 62
     0
 10
154.18645
 20
-73.982308
  0
POINT
  8
寸法
 62
     0
 10
154.18645
 20
-43.448973
  0
TEXT
  7
TextStyle03
  8
寸法
  6
CONTINUOUS
 62
     0
 10
153.8
 20
-61.1625
  1
916
 40
3.0
 50
90.0
 72
     5
 11
153.8
 21
-56.2875
  0
ENDBLK
  0
BLOCK
  2
*DIM_0018
 70
    65
 10
0.0
 20
0.0
  0
LINE
  8
寸法
  6
BYBLOCK
 62
     0
 10
111.62003
 20
-40.448973
 11
111.62003
 21
-34.18084
  0
LINE
  8
寸法
  6
BYBLOCK
 62
     0
 10
144.453363
 20
-40.448973
 11
144.453363
 21
-34.18084
  0
LINE
  8
寸法
  6
BYBLOCK
 62
     0
 10
111.62003
 20
-34.18084
 11
144.453363
 21
-34.18084
  0
POINT
  8
寸法
 62
     0
 10
111.62003
 20
-34.18084
  0
POINT
  8
寸法
 62
     0
 10
144.453363
 20
-34.18084
  0
TEXT
  7
TextStyle03
  8
寸法
  6
CONTINUOUS
 62
     0
 10
125.5875
 20
-33.825
  1
985
 40
3.0
 72
     5
 11
130.4625
 21
-33.825
  0
ENDBLK
  0
BLOCK
  2
*DIM_0019
 70
    65
 10
0.0
 20
0.0
  0
LINE
  8
寸法
  6
BYBLOCK
 62
     0
 10
-78.342895
 20
47.814033
 11
-91.635732
 21
47.814033
  0
LINE
  8
寸法
  6
BYBLOCK
 62
     0
 10
-78.342895
 20
27.814033
 11
-91.635732
 21
27.814033
  0
LINE
  8
寸法
  6
BYBLOCK
 62
     0
 10
-91.635732
 20
47.814033
 11
-91.635732
 21
27.814033
  0
POINT
  8
寸法
 62
     0
 10
-91.635732
 20
47.814033
  0
POINT
  8
寸法
 62
     0
 10
-91.635732
 20
27.814033
  0
TEXT
  7
TextStyle03
  8
寸法
  6
CONTINUOUS
 62
     0
 10
-91.975
 20
35.3625
  1
600
 40
3.0
 50
90.0
 72
     5
 11
-91.975
 21
40.2375
  0
ENDBLK
  0
BLOCK
  2
*DIM_0020
 70
    65
 10
0.0
 20
0.0
  0
LINE
  8
寸法
  6
BYBLOCK
 62
     0
 10
-67.009562
 20
55.814033
 11
-67.009562
 21
84.922105
  0
LINE
  8
寸法
  6
BYBLOCK
 62
     0
 10
-43.67623
 20
55.814033
 11
-43.67623
 21
84.922105
  0
LINE
  8
寸法
  6
BYBLOCK
 62
     0
 10
-67.009562
 20
84.922105
 11
-43.67623
 21
84.922105
  0
POINT
  8
寸法
 62
     0
 10
-67.009562
 20
84.922105
  0
POINT
  8
寸法
 62
     0
 10
-43.67623
 20
84.922105
  0
TEXT
  7
TextStyle03
  8
寸法
  6
CONTINUOUS
 62
     0
 10
-57.7875
 20
85.275
  1
700
 40
3.0
 72
     5
 11
-52.9125
 21
85.275
  0
ENDBLK
  0
BLOCK
  2
*DIM_0021
 70
    65
 10
0.0
 20
0.0
  0
LINE
  8
寸法
  6
BYBLOCK
 62
     0
 10
-20.342897
 20
55.814033
 11
-20.342897
 21
84.922105
  0
LINE
  8
寸法
  6
BYBLOCK
 62
     0
 10
-43.67623
 20
84.922105
 11
-20.342897
 21
84.922105
  0
POINT
  8
寸法
 62
     0
 10
-20.342897
 20
84.922105
  0
TEXT
  7
TextStyle03
  8
寸法
  6
CONTINUOUS
 62
     0
 10
-34.4625
 20
85.275
  1
700
 40
3.0
 72
     5
 11
-29.5875
 21
85.275
  0
ENDBLK
  0
BLOCK
  2
*DIM_0022
 70
    65
 10
0.0
 20
0.0
  0
LINE
  8
寸法
  6
BYBLOCK
 62
     0
 10
2.990438
 20
55.814033
 11
2.990438
 21
84.922105
  0
LINE
  8
寸法
  6
BYBLOCK
 62
     0
 10
-20.342897
 20
84.922105
 11
2.990438
 21
84.922105
  0
POINT
  8
寸法
 62
     0
 10
2.990438
 20
84.922105
  0
TEXT
  7
TextStyle03
  8
寸法
  6
CONTINUOUS
 62
     0
 10
-11.1375
 20
85.275
  1
700
 40
3.0
 72
     5
 11
-6.2625
 21
85.275
  0
ENDBLK
  0
BLOCK
  2
*DIM_0023
 70
    65
 10
0.0
 20
0.0
  0
LINE
  8
寸法
  6
BYBLOCK
 62
     0
 10
26.32377
 20
55.814033
 11
26.32377
 21
84.922105
  0
LINE
  8
寸法
  6
BYBLOCK
 62
     0
 10
2.990438
 20
84.922105
 11
26.32377
 21
84.922105
  0
POINT
  8
寸法
 62
     0
 10
26.32377
 20
84.922105
  0
TEXT
  7
TextStyle03
  8
寸法
  6
CONTINUOUS
 62
     0
 10
12.2125
 20
85.275
  1
700
 40
3.0
 72
     5
 11
17.0875
 21
85.275
  0
ENDBLK
  0
BLOCK
  2
*DIM_0024
 70
    65
 10
0.0
 20
0.0
  0
LINE
  8
寸法
  6
BYBLOCK
 62
     0
 10
49.657102
 20
55.814033
 11
49.657102
 21
84.922105
  0
LINE
  8
寸法
  6
BYBLOCK
 62
     0
 10
26.32377
 20
84.922105
 11
49.657102
 21
84.922105
  0
POINT
  8
寸法
 62
     0
 10
49.657102
 20
84.922105
  0
TEXT
  7
TextStyle03
  8
寸法
  6
CONTINUOUS
 62
     0
 10
35.5375
 20
85.275
  1
700
 40
3.0
 72
     5
 11
40.4125
 21
85.275
  0
ENDBLK
  0
BLOCK
  2
*GRP_0025
 70
    65
 10
0.0
 20
0.0
  0
LINE
  8
ボルト／ビス
  6
CONTINUOUS
 10
58.657105
 20
-70.209613
 11
58.657105
 21
-69.742945
  0
LINE
  8
ボルト／ビス
  6
CONTINUOUS
 10
59.023773
 20
-70.209613
 11
59.023773
 21
-70.142945
  0
LINE
  8
ボルト／ビス
  6
CONTINUOUS
 10
59.023773
 20
-70.142945
 11
58.290438
 21
-70.142945
  0
LINE
  8
ボルト／ビス
  6
CONTINUOUS
 10
58.290438
 20
-70.142945
 11
58.290438
 21
-70.209613
  0
LINE
  8
ボルト／ビス
  6
CONTINUOUS
 10
59.023773
 20
-70.209613
 11
58.290438
 21
-70.209613
  0
LINE
  8
ボルト／ビス
  6
CONTINUOUS
 10
58.957105
 20
-70.109612
 11
58.957105
 21
-70.142945
  0
LINE
  8
ボルト／ビス
  6
CONTINUOUS
 10
58.957105
 20
-70.109612
 11
58.357105
 21
-70.109612
  0
LINE
  8
ボルト／ビス
  6
CONTINUOUS
 10
58.357105
 20
-70.109612
 11
58.357105
 21
-70.142945
  0
LINE
  8
ボルト／ビス
  6
CONTINUOUS
 62
    64
 10
58.81748
 20
-69.909613
 11
58.849555
 21
-69.921288
  0
ARC
  8
ボルト／ビス
  6
CONTINUOUS
 62
    64
 10
58.801442
 20
-70.014592
 40
0.104978
 50
90.0
 51
117.278033
  0
ARC
  8
ボルト／ビス
  6
CONTINUOUS
 62
    64
 10
58.657104
 20
-70.312016
 40
0.402402
 50
76.165015
 51
103.834998
  0
LINE
  8
ボルト／ビス
  6
CONTINUOUS
 62
    64
 10
58.49673
 20
-69.909613
 11
58.464655
 21
-69.921288
  0
ARC
  8
ボルト／ビス
  6
CONTINUOUS
 62
    64
 10
58.512767
 20
-70.014592
 40
0.104978
 50
62.721967
 51
90.0
  0
LINE
  8
ボルト／ビス
  6
CONTINUOUS
 62
    64
 10
58.81748
 20
-69.909613
 11
58.49673
 21
-69.909613
  0
LINE
  8
ボルト／ビス
  6
CONTINUOUS
 62
    64
 10
58.464655
 20
-69.921288
 11
58.464655
 21
-70.042945
  0
LINE
  8
ボルト／ビス
  6
CONTINUOUS
 62
    64
 10
58.56088
 20
-69.921288
 11
58.56088
 21
-70.042945
  0
LINE
  8
ボルト／ビス
  6
CONTINUOUS
 62
    64
 10
58.849555
 20
-69.921288
 11
58.849555
 21
-70.042945
  0
LINE
  8
ボルト／ビス
  6
CONTINUOUS
 62
    64
 10
58.75333
 20
-69.921288
 11
58.75333
 21
-70.042945
  0
LINE
  8
ボルト／ビス
  6
CONTINUOUS
 10
58.849555
 20
-70.042945
 11
58.464655
 21
-70.042945
  0
LINE
  8
ボルト／ビス
  6
CONTINUOUS
 10
58.857105
 20
-70.042945
 11
58.857105
 21
-70.109612
  0
LINE
  8
ボルト／ビス
  6
CONTINUOUS
 10
58.857105
 20
-70.042945
 11
58.457105
 21
-70.042945
  0
LINE
  8
ボルト／ビス
  6
CONTINUOUS
 10
58.457105
 20
-70.042945
 11
58.457105
 21
-70.109612
  0
ENDBLK
  0
BLOCK
  2
*GRP_0026
 70
    65
 10
0.0
 20
0.0
  0
LINE
  8
ボルト／ビス
  6
CONTINUOUS
 10
-76.009565
 20
-70.209613
 11
-76.009565
 21
-69.742945
  0
LINE
  8
ボルト／ビス
  6
CONTINUOUS
 10
-75.642897
 20
-70.209613
 11
-75.642897
 21
-70.142945
  0
LINE
  8
ボルト／ビス
  6
CONTINUOUS
 10
-75.642897
 20
-70.142945
 11
-76.376232
 21
-70.142945
  0
LINE
  8
ボルト／ビス
  6
CONTINUOUS
 10
-76.376232
 20
-70.142945
 11
-76.376232
 21
-70.209613
  0
LINE
  8
ボルト／ビス
  6
CONTINUOUS
 10
-75.642897
 20
-70.209613
 11
-76.376232
 21
-70.209613
  0
LINE
  8
ボルト／ビス
  6
CONTINUOUS
 10
-75.709565
 20
-70.109612
 11
-75.709565
 21
-70.142945
  0
LINE
  8
ボルト／ビス
  6
CONTINUOUS
 10
-75.709565
 20
-70.109612
 11
-76.309565
 21
-70.109612
  0
LINE
  8
ボルト／ビス
  6
CONTINUOUS
 10
-76.309565
 20
-70.109612
 11
-76.309565
 21
-70.142945
  0
LINE
  8
ボルト／ビス
  6
CONTINUOUS
 62
    64
 10
-75.84919
 20
-69.909613
 11
-75.817115
 21
-69.921288
  0
ARC
  8
ボルト／ビス
  6
CONTINUOUS
 62
    64
 10
-75.865228
 20
-70.014592
 40
0.104978
 50
90.0
 51
117.278033
  0
ARC
  8
ボルト／ビス
  6
CONTINUOUS
 62
    64
 10
-76.009566
 20
-70.312016
 40
0.402402
 50
76.165015
 51
103.834998
  0
LINE
  8
ボルト／ビス
  6
CONTINUOUS
 62
    64
 10
-76.16994
 20
-69.909613
 11
-76.202015
 21
-69.921288
  0
ARC
  8
ボルト／ビス
  6
CONTINUOUS
 62
    64
 10
-76.153903
 20
-70.014592
 40
0.104978
 50
62.721967
 51
90.0
  0
LINE
  8
ボルト／ビス
  6
CONTINUOUS
 62
    64
 10
-75.84919
 20
-69.909613
 11
-76.16994
 21
-69.909613
  0
LINE
  8
ボルト／ビス
  6
CONTINUOUS
 62
    64
 10
-76.202015
 20
-69.921288
 11
-76.202015
 21
-70.042945
  0
LINE
  8
ボルト／ビス
  6
CONTINUOUS
 62
    64
 10
-76.10579
 20
-69.921288
 11
-76.10579
 21
-70.042945
  0
LINE
  8
ボルト／ビス
  6
CONTINUOUS
 62
    64
 10
-75.817115
 20
-69.921288
 11
-75.817115
 21
-70.042945
  0
LINE
  8
ボルト／ビス
  6
CONTINUOUS
 62
    64
 10
-75.91334
 20
-69.921288
 11
-75.91334
 21
-70.042945
  0
LINE
  8
ボルト／ビス
  6
CONTINUOUS
 10
-75.817115
 20
-70.042945
 11
-76.202015
 21
-70.042945
  0
LINE
  8
ボルト／ビス
  6
CONTINUOUS
 10
-75.809565
 20
-70.042945
 11
-75.809565
 21
-70.109612
  0
LINE
  8
ボルト／ビス
  6
CONTINUOUS
 10
-75.809565
 20
-70.042945
 11
-76.209565
 21
-70.042945
  0
LINE
  8
ボルト／ビス
  6
CONTINUOUS
 10
-76.209565
 20
-70.042945
 11
-76.209565
 21
-70.109612
  0
ENDBLK
  0
BLOCK
  2
*GRP_0027
 70
    65
 10
0.0
 20
0.0
  0
LINE
  8
ボルト／ビス
  6
CONTINUOUS
 10
147.47616
 20
22.147367
 11
147.009492
 21
22.147367
  0
LINE
  8
ボルト／ビス
  6
CONTINUOUS
 10
147.47616
 20
22.514035
 11
147.409492
 21
22.514035
  0
LINE
  8
ボルト／ビス
  6
CONTINUOUS
 10
147.409492
 20
22.514035
 11
147.409492
 21
21.7807
  0
LINE
  8
ボルト／ビス
  6
CONTINUOUS
 10
147.409492
 20
21.7807
 11
147.47616
 21
21.7807
  0
LINE
  8
ボルト／ビス
  6
CONTINUOUS
 10
147.47616
 20
22.514035
 11
147.47616
 21
21.7807
  0
LINE
  8
ボルト／ビス
  6
CONTINUOUS
 10
147.37616
 20
22.447367
 11
147.409492
 21
22.447367
  0
LINE
  8
ボルト／ビス
  6
CONTINUOUS
 10
147.37616
 20
22.447367
 11
147.37616
 21
21.847367
  0
LINE
  8
ボルト／ビス
  6
CONTINUOUS
 10
147.37616
 20
21.847367
 11
147.409492
 21
21.847367
  0
LINE
  8
ボルト／ビス
  6
CONTINUOUS
 62
    64
 10
147.17616
 20
22.307742
 11
147.187835
 21
22.339818
  0
ARC
  8
ボルト／ビス
  6
CONTINUOUS
 62
    64
 10
147.28114
 20
22.291704
 40
0.104978
 50
180.0
 51
207.278033
  0
ARC
  8
ボルト／ビス
  6
CONTINUOUS
 62
    64
 10
147.578564
 20
22.147366
 40
0.402402
 50
166.165015
 51
193.834998
  0
LINE
  8
ボルト／ビス
  6
CONTINUOUS
 62
    64
 10
147.17616
 20
21.986993
 11
147.187835
 21
21.954918
  0
ARC
  8
ボルト／ビス
  6
CONTINUOUS
 62
    64
 10
147.28114
 20
22.003029
 40
0.104978
 50
152.721967
 51
180.0
  0
LINE
  8
ボルト／ビス
  6
CONTINUOUS
 62
    64
 10
147.17616
 20
22.307742
 11
147.17616
 21
21.986993
  0
LINE
  8
ボルト／ビス
  6
CONTINUOUS
 62
    64
 10
147.187835
 20
21.954918
 11
147.309492
 21
21.954918
  0
LINE
  8
ボルト／ビス
  6
CONTINUOUS
 62
    64
 10
147.187835
 20
22.051143
 11
147.309492
 21
22.051143
  0
LINE
  8
ボルト／ビス
  6
CONTINUOUS
 62
    64
 10
147.187835
 20
22.339818
 11
147.309492
 21
22.339818
  0
LINE
  8
ボルト／ビス
  6
CONTINUOUS
 62
    64
 10
147.187835
 20
22.243592
 11
147.309492
 21
22.243592
  0
LINE
  8
ボルト／ビス
  6
CONTINUOUS
 10
147.309492
 20
22.339818
 11
147.309492
 21
21.954918
  0
LINE
  8
ボルト／ビス
  6
CONTINUOUS
 10
147.309492
 20
22.347367
 11
147.37616
 21
22.347367
  0
LINE
  8
ボルト／ビス
  6
CONTINUOUS
 10
147.309492
 20
22.347367
 11
147.309492
 21
21.947367
  0
LINE
  8
ボルト／ビス
  6
CONTINUOUS
 10
147.309492
 20
21.947367
 11
147.37616
 21
21.947367
  0
ENDBLK
  0
BLOCK
  2
*GRP_0028
 70
    65
 10
0.0
 20
0.0
  0
LINE
  8
ボルト／ビス
  6
CONTINUOUS
 10
147.47616
 20
53.4807
 11
147.009492
 21
53.4807
  0
LINE
  8
ボルト／ビス
  6
CONTINUOUS
 10
147.47616
 20
53.847367
 11
147.409492
 21
53.847367
  0
LINE
  8
ボルト／ビス
  6
CONTINUOUS
 10
147.409492
 20
53.847367
 11
147.409492
 21
53.114033
  0
LINE
  8
ボルト／ビス
  6
CONTINUOUS
 10
147.409492
 20
53.114033
 11
147.47616
 21
53.114033
  0
LINE
  8
ボルト／ビス
  6
CONTINUOUS
 10
147.47616
 20
53.847367
 11
147.47616
 21
53.114033
  0
LINE
  8
ボルト／ビス
  6
CONTINUOUS
 10
147.37616
 20
53.7807
 11
147.409492
 21
53.7807
  0
LINE
  8
ボルト／ビス
  6
CONTINUOUS
 10
147.37616
 20
53.7807
 11
147.37616
 21
53.1807
  0
LINE
  8
ボルト／ビス
  6
CONTINUOUS
 10
147.37616
 20
53.1807
 11
147.409492
 21
53.1807
  0
LINE
  8
ボルト／ビス
  6
CONTINUOUS
 62
    64
 10
147.17616
 20
53.641075
 11
147.187835
 21
53.67315
  0
ARC
  8
ボルト／ビス
  6
CONTINUOUS
 62
    64
 10
147.28114
 20
53.625036
 40
0.104978
 50
180.0
 51
207.278033
  0
ARC
  8
ボルト／ビス
  6
CONTINUOUS
 62
    64
 10
147.578564
 20
53.480699
 40
0.402402
 50
166.165015
 51
193.834998
  0
LINE
  8
ボルト／ビス
  6
CONTINUOUS
 62
    64
 10
147.17616
 20
53.320325
 11
147.187835
 21
53.28825
  0
ARC
  8
ボルト／ビス
  6
CONTINUOUS
 62
    64
 10
147.28114
 20
53.336361
 40
0.104978
 50
152.721967
 51
180.0
  0
LINE
  8
ボルト／ビス
  6
CONTINUOUS
 62
    64
 10
147.17616
 20
53.641075
 11
147.17616
 21
53.320325
  0
LINE
  8
ボルト／ビス
  6
CONTINUOUS
 62
    64
 10
147.187835
 20
53.28825
 11
147.309492
 21
53.28825
  0
LINE
  8
ボルト／ビス
  6
CONTINUOUS
 62
    64
 10
147.187835
 20
53.384475
 11
147.309492
 21
53.384475
  0
LINE
  8
ボルト／ビス
  6
CONTINUOUS
 62
    64
 10
147.187835
 20
53.67315
 11
147.309492
 21
53.67315
  0
LINE
  8
ボルト／ビス
  6
CONTINUOUS
 62
    64
 10
147.187835
 20
53.576925
 11
147.309492
 21
53.576925
  0
LINE
  8
ボルト／ビス
  6
CONTINUOUS
 10
147.309492
 20
53.67315
 11
147.309492
 21
53.28825
  0
LINE
  8
ボルト／ビス
  6
CONTINUOUS
 10
147.309492
 20
53.6807
 11
147.37616
 21
53.6807
  0
LINE
  8
ボルト／ビス
  6
CONTINUOUS
 10
147.309492
 20
53.6807
 11
147.309492
 21
53.2807
  0
LINE
  8
ボルト／ビス
  6
CONTINUOUS
 10
147.309492
 20
53.2807
 11
147.37616
 21
53.2807
  0
ENDBLK
  0
BLOCK
  2
*GRP_0029
 70
    65
 10
0.0
 20
0.0
  0
LINE
  8
ボルト／ビス
  6
DOT
 10
146.83014
 20
56.468383
 11
146.500158
 21
56.798367
  0
LINE
  8
ボルト／ビス
  6
DOT
 10
147.089415
 20
56.727655
 11
147.042273
 21
56.774798
  0
LINE
  8
ボルト／ビス
  6
DOT
 10
147.042273
 20
56.774798
 11
146.523727
 21
56.25625
  0
LINE
  8
ボルト／ビス
  6
DOT
 10
146.523727
 20
56.25625
 11
146.570867
 21
56.20911
  0
LINE
  8
ボルト／ビス
  6
DOT
 10
147.089415
 20
56.727655
 11
146.570867
 21
56.20911
  0
LINE
  8
ボルト／ビス
  6
DOT
 10
146.971563
 20
56.751225
 11
146.995133
 21
56.727655
  0
LINE
  8
ボルト／ビス
  6
DOT
 10
146.971563
 20
56.751225
 11
146.547298
 21
56.326963
  0
LINE
  8
ボルト／ビス
  6
DOT
 10
146.547298
 20
56.326963
 11
146.570867
 21
56.303392
  0
LINE
  8
ボルト／ビス
  6
DOT
 62
    64
 10
146.73141
 20
56.793917
 11
146.762348
 21
56.808343
  0
ARC
  8
ボルト／ビス
  6
DOT
 62
    64
 10
146.794302
 20
56.708345
 40
0.104978
 50
135.0
 51
162.278033
  0
ARC
  8
ボルト／ビス
  6
DOT
 62
    64
 10
146.90255
 20
56.395973
 40
0.402402
 50
121.165015
 51
148.834998
  0
LINE
  8
ボルト／ビス
  6
DOT
 62
    64
 10
146.504608
 20
56.567113
 11
146.490183
 21
56.536177
  0
ARC
  8
ボルト／ビス
  6
DOT
 62
    64
 10
146.590177
 20
56.504221
 40
0.104978
 50
107.721967
 51
135.0
  0
LINE
  8
ボルト／ビス
  6
DOT
 62
    64
 10
146.73141
 20
56.793917
 11
146.504608
 21
56.567113
  0
LINE
  8
ボルト／ビス
  6
DOT
 62
    64
 10
146.490183
 20
56.536177
 11
146.576208
 21
56.450152
  0
LINE
  8
ボルト／ビス
  6
DOT
 62
    64
 10
146.558223
 20
56.604218
 11
146.644247
 21
56.518193
  0
LINE
  8
ボルト／ビス
  6
DOT
 62
    64
 10
146.762348
 20
56.808343
 11
146.848373
 21
56.722317
  0
LINE
  8
ボルト／ビス
  6
DOT
 62
    64
 10
146.694305
 20
56.7403
 11
146.78033
 21
56.654275
  0
LINE
  8
ボルト／ビス
  6
DOT
 10
146.848373
 20
56.722317
 11
146.576208
 21
56.450152
  0
LINE
  8
ボルト／ビス
  6
DOT
 10
146.85371
 20
56.727655
 11
146.900852
 21
56.680515
  0
LINE
  8
ボルト／ビス
  6
DOT
 10
146.85371
 20
56.727655
 11
146.570867
 21
56.444813
  0
LINE
  8
ボルト／ビス
  6
DOT
 10
146.570867
 20
56.444813
 11
146.618008
 21
56.397673
  0
ENDBLK
  0
BLOCK
  2
*GRP_0030
 70
    65
 10
0.0
 20
0.0
  0
LINE
  8
ボルト／ビス
  6
DOT
 10
124.674128
 20
34.31237
 11
124.344145
 21
34.642355
  0
LINE
  8
ボルト／ビス
  6
DOT
 10
124.933403
 20
34.571643
 11
124.88626
 21
34.618785
  0
LINE
  8
ボルト／ビス
  6
DOT
 10
124.88626
 20
34.618785
 11
124.367715
 21
34.100238
  0
LINE
  8
ボルト／ビス
  6
DOT
 10
124.367715
 20
34.100238
 11
124.414855
 21
34.053097
  0
LINE
  8
ボルト／ビス
  6
DOT
 10
124.933403
 20
34.571643
 11
124.414855
 21
34.053097
  0
LINE
  8
ボルト／ビス
  6
DOT
 10
124.81555
 20
34.595212
 11
124.83912
 21
34.571643
  0
LINE
  8
ボルト／ビス
  6
DOT
 10
124.81555
 20
34.595212
 11
124.391285
 21
34.17095
  0
LINE
  8
ボルト／ビス
  6
DOT
 10
124.391285
 20
34.17095
 11
124.414855
 21
34.14738
  0
LINE
  8
ボルト／ビス
  6
DOT
 62
    64
 10
124.575397
 20
34.637905
 11
124.606335
 21
34.65233
  0
ARC
  8
ボルト／ビス
  6
DOT
 62
    64
 10
124.638289
 20
34.552333
 40
0.104978
 50
135.0
 51
162.278033
  0
ARC
  8
ボルト／ビス
  6
DOT
 62
    64
 10
124.746537
 20
34.23996
 40
0.402402
 50
121.165015
 51
148.834998
  0
LINE
  8
ボルト／ビス
  6
DOT
 62
    64
 10
124.348595
 20
34.4111
 11
124.33417
 21
34.380165
  0
ARC
  8
ボルト／ビス
  6
DOT
 62
    64
 10
124.434165
 20
34.348209
 40
0.104978
 50
107.721967
 51
135.0
  0
LINE
  8
ボルト／ビス
  6
DOT
 62
    64
 10
124.575397
 20
34.637905
 11
124.348595
 21
34.4111
  0
LINE
  8
ボルト／ビス
  6
DOT
 62
    64
 10
124.33417
 20
34.380165
 11
124.420195
 21
34.29414
  0
LINE
  8
ボルト／ビス
  6
DOT
 62
    64
 10
124.40221
 20
34.448205
 11
124.488235
 21
34.36218
  0
LINE
  8
ボルト／ビス
  6
DOT
 62
    64
 10
124.606335
 20
34.65233
 11
124.69236
 21
34.566305
  0
LINE
  8
ボルト／ビス
  6
DOT
 62
    64
 10
124.538292
 20
34.584288
 11
124.624317
 21
34.498263
  0
LINE
  8
ボルト／ビス
  6
DOT
 10
124.69236
 20
34.566305
 11
124.420195
 21
34.29414
  0
LINE
  8
ボルト／ビス
  6
DOT
 10
124.697697
 20
34.571643
 11
124.74484
 21
34.524503
  0
LINE
  8
ボルト／ビス
  6
DOT
 10
124.697697
 20
34.571643
 11
124.414855
 21
34.2888
  0
LINE
  8
ボルト／ビス
  6
DOT
 10
124.414855
 20
34.2888
 11
124.461995
 21
34.24166
  0
ENDBLK
  0
ENDSEC
  0
SECTION
  2
ENTITIES
  0
POLYLINE
  8
通り芯
  6
CONTINUOUS
 66
     1
 70
     1
  0
VERTEX
  8
通り芯
 10
-210.0
 20
-148.5
  0
VERTEX
  8
通り芯
 10
210.0
 20
-148.5
  0
VERTEX
  8
通り芯
 10
210.0
 20
148.5
  0
VERTEX
  8
通り芯
 10
-210.0
 20
148.5
  0
SEQEND
  0
INSERT
  2
*GRP_0001
  8
型材断面
  6
CONTINUOUS
 10
0.0
 20
0.0
  0
LINE
  8
型材断面
  6
DASHDOT
 10
57.990438
 20
-77.836442
 11
57.990438
 21
52.814033
  0
LINE
  8
型材断面
  6
DASHDOT
 10
-8.67623
 20
-77.836442
 11
-8.67623
 21
52.814033
  0
LINE
  8
型材断面
  6
DASHDOT
 10
-75.342895
 20
-77.836442
 11
-75.342895
 21
52.814033
  0
LINE
  8
型材断面
  6
DASHDOT
 10
155.6672
 20
52.814033
 11
-75.342895
 21
52.814033
  0
LINE
  8
型材断面
  6
DASHDOT
 10
155.6672
 20
37.814033
 11
-75.342895
 21
37.814033
  0
LINE
  8
型材断面
  6
DASHDOT
 10
155.6672
 20
22.814033
 11
-75.342895
 21
22.814033
  0
LINE
  8
型材断面
  6
DOT
 10
-7.42623
 20
22.814033
 11
-7.42623
 21
52.814033
  0
LINE
  8
型材断面
  6
DOT
 10
-9.92623
 20
22.814033
 11
-9.92623
 21
52.814033
  0
LINE
  8
型材断面
  6
DASHDOT
 10
-8.67623
 20
22.814033
 11
-8.67623
 21
52.814033
  0
LINE
  8
型材断面
  6
CONTINUOUS
 10
-58.676228
 20
55.444162
 11
-60.171857
 21
58.03467
  0
LINE
  8
型材断面
  6
CONTINUOUS
 10
-58.676228
 20
55.444162
 11
-57.180598
 21
58.03467
  0
LINE
  8
型材断面
  6
CONTINUOUS
 10
-57.180598
 20
58.03467
 11
-60.171857
 21
58.03467
  0
LINE
  8
型材断面
  6
CONTINUOUS
 10
-77.973025
 20
37.814033
 11
-80.563533
 21
39.309663
  0
LINE
  8
型材断面
  6
CONTINUOUS
 10
-77.973025
 20
37.814033
 11
-80.563533
 21
36.318403
  0
LINE
  8
型材断面
  6
CONTINUOUS
 10
-80.563533
 20
36.318403
 11
-80.563533
 21
39.309663
  0
LINE
  8
型材断面
  6
CONTINUOUS
 10
-58.676228
 20
20.183902
 11
-60.171857
 21
17.593395
  0
LINE
  8
型材断面
  6
CONTINUOUS
 10
-58.676228
 20
20.183902
 11
-57.180598
 21
17.593395
  0
LINE
  8
型材断面
  6
CONTINUOUS
 10
-57.180598
 20
17.593395
 11
-60.171857
 21
17.593395
  0
LINE
  8
型材断面
  6
CONTINUOUS
 10
41.323768
 20
55.444162
 11
42.819398
 21
58.03467
  0
LINE
  8
型材断面
  6
CONTINUOUS
 10
41.323768
 20
55.444162
 11
39.828138
 21
58.03467
  0
LINE
  8
型材断面
  6
CONTINUOUS
 10
39.828138
 20
58.03467
 11
42.819398
 21
58.03467
  0
LINE
  8
型材断面
  6
CONTINUOUS
 10
41.323768
 20
20.183902
 11
42.819398
 21
17.593395
  0
LINE
  8
型材断面
  6
CONTINUOUS
 10
41.323768
 20
20.183902
 11
39.828138
 21
17.593395
  0
LINE
  8
型材断面
  6
CONTINUOUS
 10
39.828138
 20
17.593395
 11
42.819398
 21
17.593395
  0
LINE
  8
型材断面
  6
CONTINUOUS
 10
-129.221418
 20
90.791505
 11
-128.625363
 21
88.200998
  0
LINE
  8
型材断面
  6
CONTINUOUS
 10
-129.221418
 20
90.791505
 11
-129.817475
 21
88.200998
  0
LINE
  8
型材断面
  6
CONTINUOUS
 10
-129.817475
 20
88.200998
 11
-128.625363
 21
88.200998
  0
LINE
  8
型材断面
  6
CONTINUOUS
 10
-135.244005
 20
84.922105
 11
-89.002228
 21
84.922105
  0
LINE
  8
型材断面
  6
CONTINUOUS
 10
-129.221418
 20
97.32138
 11
-130.717047
 21
94.730873
  0
LINE
  8
型材断面
  6
CONTINUOUS
 10
-129.221418
 20
97.32138
 11
-127.725788
 21
94.730873
  0
LINE
  8
型材断面
  6
CONTINUOUS
 10
-127.725788
 20
94.730873
 11
-130.717047
 21
94.730873
  0
LINE
  8
型材断面
  6
CONTINUOUS
 10
-135.244005
 20
93.792277
 11
-89.002228
 21
93.792277
  0
LINE
  8
型材断面
  6
CONTINUOUS
 10
-135.244005
 20
79.134073
 11
-89.002228
 21
79.134073
  0
LINE
  8
型材断面
  6
CONTINUOUS
 10
60.620565
 20
37.814033
 11
63.211073
 21
39.309663
  0
LINE
  8
型材断面
  6
CONTINUOUS
 10
60.620565
 20
37.814033
 11
63.211073
 21
36.318403
  0
LINE
  8
型材断面
  6
CONTINUOUS
 10
63.211073
 20
36.318403
 11
63.211073
 21
39.309663
  0
POLYLINE
  8
型材断面
  6
DASHDOT
 66
     1
  0
VERTEX
  8
型材断面
 10
-75.342895
 20
22.814033
  0
VERTEX
  8
型材断面
 10
-8.67623
 20
52.814033
  0
VERTEX
  8
型材断面
 10
57.990438
 20
22.814033
  0
SEQEND
  0
LINE
  8
型材断面
  6
CONTINUOUS
 10
55.990438
 20
20.20722
 11
55.39438
 21
17.616715
  0
LINE
  8
型材断面
  6
CONTINUOUS
 10
55.990438
 20
20.20722
 11
56.586495
 21
17.616715
  0
LINE
  8
型材断面
  6
CONTINUOUS
 10
56.586495
 20
17.616715
 11
55.39438
 21
17.616715
  0
LINE
  8
型材断面
  6
CONTINUOUS
 10
-73.342897
 20
20.20722
 11
-72.74684
 21
17.616715
  0
LINE
  8
型材断面
  6
CONTINUOUS
 10
-73.342897
 20
20.20722
 11
-73.938955
 21
17.616715
  0
LINE
  8
型材断面
  6
CONTINUOUS
 10
-73.938955
 20
17.616715
 11
-72.74684
 21
17.616715
  0
LINE
  8
型材断面
  6
CONTINUOUS
 62
    47
 10
149.41629
 20
54.137368
 11
149.40629
 21
54.147367
  0
LINE
  8
型材断面
  6
CONTINUOUS
 62
    47
 10
149.41629
 20
54.137368
 11
149.42629
 21
54.147367
  0
LINE
  8
型材断面
  6
CONTINUOUS
 62
    47
 10
150.058523
 20
54.137368
 11
150.048523
 21
54.147367
  0
LINE
  8
型材断面
  6
CONTINUOUS
 62
    47
 10
150.058523
 20
54.137368
 11
150.068522
 21
54.147367
  0
LINE
  8
型材断面
  6
CONTINUOUS
 62
    47
 10
150.47629
 20
54.147367
 11
150.068522
 21
54.147367
  0
LINE
  8
型材断面
  6
CONTINUOUS
 62
    47
 10
150.048523
 20
54.147367
 11
149.42629
 21
54.147367
  0
LINE
  8
型材断面
  6
CONTINUOUS
 62
    47
 10
149.40629
 20
54.147367
 11
148.709605
 21
54.147367
  0
LINE
  8
型材断面
  6
CONTINUOUS
 62
    47
 10
150.542615
 20
55.414175
 11
150.709245
 21
55.414175
  0
LINE
  8
型材断面
  6
CONTINUOUS
 62
    47
 10
151.60962
 20
53.937507
 11
151.59962
 21
53.947508
  0
LINE
  8
型材断面
  6
CONTINUOUS
 62
    47
 10
151.60962
 20
53.937507
 11
151.61962
 21
53.947508
  0
LINE
  8
型材断面
  6
CONTINUOUS
 62
    47
 10
152.076295
 20
53.937507
 11
152.066295
 21
53.947508
  0
LINE
  8
型材断面
  6
CONTINUOUS
 62
    47
 10
152.076295
 20
53.937507
 11
152.086295
 21
53.947508
  0
LINE
  8
型材断面
  6
CONTINUOUS
 62
    47
 10
150.97627
 20
53.947508
 11
151.59962
 21
53.947508
  0
LINE
  8
型材断面
  6
CONTINUOUS
 62
    47
 10
151.61962
 20
53.947508
 11
152.066295
 21
53.947508
  0
LINE
  8
型材断面
  6
CONTINUOUS
 62
    47
 10
152.876277
 20
56.147508
 11
153.37628
 21
56.147508
  0
LINE
  8
型材断面
  6
CONTINUOUS
 62
    47
 10
153.70961
 20
55.647515
 11
153.37628
 21
55.647515
  0
LINE
  8
型材断面
  6
CONTINUOUS
 62
    47
 10
152.876277
 20
56.147508
 11
152.70961
 21
53.947508
  0
LINE
  8
型材断面
  6
CONTINUOUS
 62
    47
 10
152.70961
 20
53.214033
 11
152.70961
 21
53.88084
  0
LINE
  8
型材断面
  6
CONTINUOUS
 62
    47
 10
152.60961
 20
53.937507
 11
152.59961
 21
53.947508
  0
LINE
  8
型材断面
  6
CONTINUOUS
 62
    47
 10
152.60961
 20
53.937507
 11
152.61961
 21
53.947508
  0
LINE
  8
型材断面
  6
CONTINUOUS
 62
    47
 10
152.70961
 20
53.947508
 11
152.61961
 21
53.947508
  0
LINE
  8
型材断面
  6
CONTINUOUS
 62
    47
 10
152.086295
 20
53.947508
 11
152.59961
 21
53.947508
  0
LINE
  8
型材断面
  6
CONTINUOUS
 62
    47
 10
150.97627
 20
55.414172
 11
150.842952
 21
55.414172
  0
LINE
  8
型材断面
  6
CONTINUOUS
 62
    47
 10
150.47629
 20
54.147367
 11
150.542615
 21
55.414175
  0
LINE
  8
型材断面
  6
CONTINUOUS
 62
    47
 10
148.709605
 20
53.877377
 11
148.47616
 21
53.877377
  0
LINE
  8
型材断面
  6
CONTINUOUS
 62
    47
 10
148.709605
 20
54.147367
 11
148.709605
 21
37.814033
  0
LINE
  8
型材断面
  6
CONTINUOUS
 62
    47
 10
150.842952
 20
55.414172
 11
150.842952
 21
37.814033
  0
LINE
  8
型材断面
  6
CONTINUOUS
 62
    47
 10
150.97627
 20
55.414172
 11
150.97627
 21
37.814033
  0
LINE
  8
型材断面
  6
CONTINUOUS
 62
    47
 10
150.709245
 20
55.414175
 11
150.709245
 21
37.814033
  0
LINE
  8
型材断面
  6
CONTINUOUS
 10
150.47629
 20
54.147367
 11
150.47629
 21
37.814033
  0
LINE
  8
型材断面
  6
CONTINUOUS
 10
150.542615
 20
55.414175
 11
150.542615
 21
37.814033
  0
LINE
  8
型材断面
  6
CONTINUOUS
 10
152.70961
 20
53.947508
 11
152.70961
 21
37.814033
  0
LINE
  8
型材断面
  6
CONTINUOUS
 10
152.876277
 20
56.147508
 11
152.876277
 21
37.814033
  0
LINE
  8
型材断面
  6
CONTINUOUS
 62
    47
 10
153.37628
 20
56.147508
 11
153.37628
 21
37.814033
  0
LINE
  8
型材断面
  6
CONTINUOUS
 62
    47
 10
153.70961
 20
55.647515
 11
153.70961
 21
37.814033
  0
LINE
  8
型材断面
  6
CONTINUOUS
 62
    47
 10
149.41629
 20
21.4907
 11
149.40629
 21
21.4807
  0
LINE
  8
型材断面
  6
CONTINUOUS
 62
    47
 10
149.41629
 20
21.4907
 11
149.42629
 21
21.4807
  0
LINE
  8
型材断面
  6
CONTINUOUS
 62
    47
 10
150.058523
 20
21.4907
 11
150.048523
 21
21.4807
  0
LINE
  8
型材断面
  6
CONTINUOUS
 62
    47
 10
150.058523
 20
21.4907
 11
150.068522
 21
21.4807
  0
LINE
  8
型材断面
  6
CONTINUOUS
 62
    47
 10
150.47629
 20
21.4807
 11
150.068522
 21
21.4807
  0
LINE
  8
型材断面
  6
CONTINUOUS
 62
    47
 10
150.048523
 20
21.4807
 11
149.42629
 21
21.4807
  0
LINE
  8
型材断面
  6
CONTINUOUS
 62
    47
 10
149.40629
 20
21.4807
 11
148.709605
 21
21.4807
  0
LINE
  8
型材断面
  6
CONTINUOUS
 62
    47
 10
150.542615
 20
20.213892
 11
150.709245
 21
20.213892
  0
LINE
  8
型材断面
  6
CONTINUOUS
 62
    47
 10
151.60962
 20
21.69056
 11
151.59962
 21
21.68056
  0
LINE
  8
型材断面
  6
CONTINUOUS
 62
    47
 10
151.60962
 20
21.69056
 11
151.61962
 21
21.68056
  0
LINE
  8
型材断面
  6
CONTINUOUS
 62
    47
 10
152.076295
 20
21.69056
 11
152.066295
 21
21.68056
  0
LINE
  8
型材断面
  6
CONTINUOUS
 62
    47
 10
152.076295
 20
21.69056
 11
152.086295
 21
21.68056
  0
LINE
  8
型材断面
  6
CONTINUOUS
 62
    47
 10
150.97627
 20
21.68056
 11
151.59962
 21
21.68056
  0
LINE
  8
型材断面
  6
CONTINUOUS
 62
    47
 10
151.61962
 20
21.68056
 11
152.066295
 21
21.68056
  0
LINE
  8
型材断面
  6
CONTINUOUS
 62
    47
 10
152.876277
 20
19.48056
 11
153.37628
 21
19.48056
  0
LINE
  8
型材断面
  6
CONTINUOUS
 62
    47
 10
153.70961
 20
19.980552
 11
153.37628
 21
19.980552
  0
LINE
  8
型材断面
  6
CONTINUOUS
 62
    47
 10
152.876277
 20
19.48056
 11
152.70961
 21
21.68056
  0
LINE
  8
型材断面
  6
CONTINUOUS
 62
    47
 10
152.70961
 20
22.414035
 11
152.70961
 21
21.747228
  0
LINE
  8
型材断面
  6
CONTINUOUS
 62
    47
 10
152.60961
 20
21.69056
 11
152.59961
 21
21.68056
  0
LINE
  8
型材断面
  6
CONTINUOUS
 62
    47
 10
152.60961
 20
21.69056
 11
152.61961
 21
21.68056
  0
LINE
  8
型材断面
  6
CONTINUOUS
 62
    47
 10
152.70961
 20
21.68056
 11
152.61961
 21
21.68056
  0
LINE
  8
型材断面
  6
CONTINUOUS
 62
    47
 10
152.086295
 20
21.68056
 11
152.59961
 21
21.68056
  0
LINE
  8
型材断面
  6
CONTINUOUS
 62
    47
 10
150.97627
 20
20.213892
 11
150.842952
 21
20.213892
  0
LINE
  8
型材断面
  6
CONTINUOUS
 62
    47
 10
150.47629
 20
21.4807
 11
150.542615
 21
20.213892
  0
LINE
  8
型材断面
  6
CONTINUOUS
 62
    47
 10
148.709605
 20
21.75069
 11
148.47616
 21
21.75069
  0
LINE
  8
型材断面
  6
CONTINUOUS
 62
    47
 10
148.709605
 20
21.4807
 11
148.709605
 21
37.814033
  0
LINE
  8
型材断面
  6
CONTINUOUS
 62
    47
 10
150.842952
 20
20.213892
 11
150.842952
 21
37.814033
  0
LINE
  8
型材断面
  6
CONTINUOUS
 62
    47
 10
150.97627
 20
20.213892
 11
150.97627
 21
37.814033
  0
LINE
  8
型材断面
  6
CONTINUOUS
 62
    47
 10
150.709245
 20
20.213892
 11
150.709245
 21
37.814033
  0
LINE
  8
型材断面
  6
CONTINUOUS
 10
150.47629
 20
21.4807
 11
150.47629
 21
37.814033
  0
LINE
  8
型材断面
  6
CONTINUOUS
 10
150.542615
 20
20.213892
 11
150.542615
 21
37.814033
  0
LINE
  8
型材断面
  6
CONTINUOUS
 10
152.70961
 20
21.68056
 11
152.70961
 21
37.814033
  0
LINE
  8
型材断面
  6
CONTINUOUS
 10
152.876277
 20
19.48056
 11
152.876277
 21
37.814033
  0
LINE
  8
型材断面
  6
CONTINUOUS
 62
    47
 10
153.37628
 20
19.48056
 11
153.37628
 21
37.814033
  0
LINE
  8
型材断面
  6
CONTINUOUS
 62
    47
 10
153.70961
 20
19.980552
 11
153.70961
 21
37.814033
  0
LINE
  8
型材断面
  6
DOT
 62
    47
 10
148.666352
 20
55.560837
 11
148.666352
 21
55.574978
  0
LINE
  8
型材断面
  6
DOT
 62
    47
 10
148.666352
 20
55.560837
 11
148.680495
 21
55.560837
  0
LINE
  8
型材断面
  6
DOT
 62
    47
 10
149.12048
 20
55.10671
 11
149.12048
 21
55.120852
  0
LINE
  8
型材断面
  6
DOT
 62
    47
 10
149.12048
 20
55.10671
 11
149.13462
 21
55.10671
  0
LINE
  8
型材断面
  6
DOT
 62
    47
 10
149.422957
 20
54.818375
 11
149.13462
 21
55.10671
  0
LINE
  8
型材断面
  6
DOT
 62
    47
 10
149.12048
 20
55.120852
 11
148.680495
 21
55.560837
  0
LINE
  8
型材断面
  6
DOT
 62
    47
 10
148.666352
 20
55.574978
 11
148.173723
 21
56.06761
  0
LINE
  8
型材断面
  6
DOT
 62
    47
 10
150.365625
 20
55.667245
 11
150.48345
 21
55.54942
  0
LINE
  8
型材断面
  6
DOT
 62
    47
 10
149.422957
 20
54.818375
 11
150.365625
 21
55.667245
  0
LINE
  8
型材断面
  6
DOT
 62
    47
 10
147.98281
 20
55.876698
 11
147.81774
 21
56.04177
  0
LINE
  8
型材断面
  6
DOT
 62
    47
 10
148.173723
 20
56.06761
 11
136.624313
 21
44.518197
  0
LINE
  8
型材断面
  6
DOT
 62
    47
 10
150.48345
 20
55.54942
 11
138.03827
 21
43.104242
  0
LINE
  8
型材断面
  6
DOT
 10
149.422957
 20
54.818375
 11
137.873545
 21
43.268963
  0
LINE
  8
型材断面
  6
DOT
 10
150.365625
 20
55.667245
 11
137.920445
 21
43.222065
  0
LINE
  8
型材断面
  6
DOT
 62
    47
 10
125.581675
 20
32.476158
 11
125.56753
 21
32.476158
  0
LINE
  8
型材断面
  6
DOT
 62
    47
 10
125.581675
 20
32.476158
 11
125.581675
 21
32.462015
  0
LINE
  8
型材断面
  6
DOT
 62
    47
 10
126.0358
 20
32.022033
 11
126.021658
 21
32.022033
  0
LINE
  8
型材断面
  6
DOT
 62
    47
 10
126.0358
 20
32.022033
 11
126.0358
 21
32.007887
  0
LINE
  8
型材断面
  6
DOT
 62
    47
 10
126.324135
 20
31.719552
 11
126.0358
 21
32.007887
  0
LINE
  8
型材断面
  6
DOT
 62
    47
 10
126.021658
 20
32.022033
 11
125.581675
 21
32.462015
  0
LINE
  8
型材断面
  6
DOT
 62
    47
 10
125.56753
 20
32.476158
 11
125.0749
 21
32.968787
  0
LINE
  8
型材断面
  6
DOT
 62
    47
 10
125.475265
 20
30.776885
 11
125.59309
 21
30.659063
  0
LINE
  8
型材断面
  6
DOT
 62
    47
 10
126.324135
 20
31.719552
 11
125.475265
 21
30.776885
  0
LINE
  8
型材断面
  6
DOT
 62
    47
 10
125.265813
 20
33.1597
 11
125.10074
 21
33.324772
  0
LINE
  8
型材断面
  6
DOT
 62
    47
 10
125.0749
 20
32.968787
 11
136.624313
 21
44.518197
  0
LINE
  8
型材断面
  6
DOT
 62
    47
 10
125.59309
 20
30.659063
 11
138.03827
 21
43.104242
  0
LINE
  8
型材断面
  6
DOT
 10
126.324135
 20
31.719552
 11
137.873545
 21
43.268963
  0
LINE
  8
型材断面
  6
DOT
 10
125.475265
 20
30.776885
 11
137.920445
 21
43.222065
  0
ARC
  8
型材断面
  6
DOT
 10
150.759603
 20
55.754357
 40
35.540502
 50
225.0
 51
269.918816
  0
LINE
  8
型材断面
  6
CONTINUOUS
 62
    47
 10
59.313773
 20
-72.149742
 11
59.323773
 21
-72.139743
  0
LINE
  8
型材断面
  6
CONTINUOUS
 62
    47
 10
59.313773
 20
-72.149742
 11
59.323773
 21
-72.159742
  0
LINE
  8
型材断面
  6
CONTINUOUS
 62
    47
 10
59.313773
 20
-72.791975
 11
59.323773
 21
-72.781975
  0
LINE
  8
型材断面
  6
CONTINUOUS
 62
    47
 10
59.313773
 20
-72.791975
 11
59.323773
 21
-72.801975
  0
LINE
  8
型材断面
  6
CONTINUOUS
 62
    47
 10
59.323773
 20
-73.209742
 11
59.323773
 21
-72.801975
  0
LINE
  8
型材断面
  6
CONTINUOUS
 62
    47
 10
59.323773
 20
-72.781975
 11
59.323773
 21
-72.159742
  0
LINE
  8
型材断面
  6
CONTINUOUS
 62
    47
 10
59.323773
 20
-72.139743
 11
59.323773
 21
-71.443058
  0
LINE
  8
型材断面
  6
CONTINUOUS
 62
    47
 10
60.59058
 20
-73.276068
 11
60.59058
 21
-73.442698
  0
LINE
  8
型材断面
  6
CONTINUOUS
 62
    47
 10
59.113912
 20
-74.343073
 11
59.123913
 21
-74.333072
  0
LINE
  8
型材断面
  6
CONTINUOUS
 62
    47
 10
59.113912
 20
-74.343073
 11
59.123913
 21
-74.353072
  0
LINE
  8
型材断面
  6
CONTINUOUS
 62
    47
 10
59.113912
 20
-74.809747
 11
59.123913
 21
-74.799748
  0
LINE
  8
型材断面
  6
CONTINUOUS
 62
    47
 10
59.113912
 20
-74.809747
 11
59.123913
 21
-74.819747
  0
LINE
  8
型材断面
  6
CONTINUOUS
 62
    47
 10
59.123913
 20
-73.709723
 11
59.123913
 21
-74.333072
  0
LINE
  8
型材断面
  6
CONTINUOUS
 62
    47
 10
59.123913
 20
-74.353072
 11
59.123913
 21
-74.799748
  0
LINE
  8
型材断面
  6
CONTINUOUS
 62
    47
 10
61.323913
 20
-75.60973
 11
61.323913
 21
-76.109732
  0
LINE
  8
型材断面
  6
CONTINUOUS
 62
    47
 10
60.82392
 20
-76.443062
 11
60.82392
 21
-76.109732
  0
LINE
  8
型材断面
  6
CONTINUOUS
 62
    47
 10
61.323913
 20
-75.60973
 11
59.123913
 21
-75.443062
  0
LINE
  8
型材断面
  6
CONTINUOUS
 62
    47
 10
58.390438
 20
-75.443062
 11
59.057245
 21
-75.443062
  0
LINE
  8
型材断面
  6
CONTINUOUS
 62
    47
 10
59.113912
 20
-75.343063
 11
59.123913
 21
-75.333062
  0
LINE
  8
型材断面
  6
CONTINUOUS
 62
    47
 10
59.113912
 20
-75.343063
 11
59.123913
 21
-75.353063
  0
LINE
  8
型材断面
  6
CONTINUOUS
 62
    47
 10
59.123913
 20
-75.443062
 11
59.123913
 21
-75.353063
  0
LINE
  8
型材断面
  6
CONTINUOUS
 62
    47
 10
59.123913
 20
-74.819747
 11
59.123913
 21
-75.333062
  0
LINE
  8
型材断面
  6
CONTINUOUS
 62
    47
 10
60.59058
 20
-73.709723
 11
60.59058
 21
-73.576405
  0
LINE
  8
型材断面
  6
CONTINUOUS
 62
    47
 10
59.323773
 20
-73.209742
 11
60.59058
 21
-73.276068
  0
LINE
  8
型材断面
  6
CONTINUOUS
 62
    47
 10
59.053782
 20
-71.443058
 11
59.053782
 21
-71.209613
  0
LINE
  8
型材断面
  6
CONTINUOUS
 62
    47
 10
60.82392
 20
-76.443062
 11
-8.67623
 21
-76.443062
  0
LINE
  8
型材断面
  6
CONTINUOUS
 10
61.323913
 20
-75.60973
 11
-8.67623
 21
-75.60973
  0
LINE
  8
型材断面
  6
CONTINUOUS
 10
59.123913
 20
-75.443062
 11
-8.67623
 21
-75.443062
  0
LINE
  8
型材断面
  6
CONTINUOUS
 62
    47
 10
61.323913
 20
-76.109732
 11
-8.67623
 21
-76.109732
  0
LINE
  8
型材断面
  6
CONTINUOUS
 62
    47
 10
60.59058
 20
-73.576405
 11
-8.67623
 21
-73.576405
  0
LINE
  8
型材断面
  6
CONTINUOUS
 62
    47
 10
60.59058
 20
-73.442698
 11
-8.67623
 21
-73.442698
  0
LINE
  8
型材断面
  6
CONTINUOUS
 62
    47
 10
60.59058
 20
-73.709723
 11
-8.67623
 21
-73.709723
  0
LINE
  8
型材断面
  6
CONTINUOUS
 10
60.59058
 20
-73.276068
 11
-8.67623
 21
-73.276068
  0
LINE
  8
型材断面
  6
CONTINUOUS
 10
59.323773
 20
-73.209742
 11
-8.67623
 21
-73.209742
  0
LINE
  8
型材断面
  6
CONTINUOUS
 62
    47
 10
59.323773
 20
-71.443058
 11
-8.67623
 21
-71.443058
  0
LINE
  8
型材断面
  6
CONTINUOUS
 62
    47
 10
-76.666233
 20
-72.149742
 11
-76.676232
 21
-72.139743
  0
LINE
  8
型材断面
  6
CONTINUOUS
 62
    47
 10
-76.666233
 20
-72.149742
 11
-76.676232
 21
-72.159742
  0
LINE
  8
型材断面
  6
CONTINUOUS
 62
    47
 10
-76.666233
 20
-72.791975
 11
-76.676232
 21
-72.781975
  0
LINE
  8
型材断面
  6
CONTINUOUS
 62
    47
 10
-76.666233
 20
-72.791975
 11
-76.676232
 21
-72.801975
  0
LINE
  8
型材断面
  6
CONTINUOUS
 62
    47
 10
-76.676232
 20
-73.209742
 11
-76.676232
 21
-72.801975
  0
LINE
  8
型材断面
  6
CONTINUOUS
 62
    47
 10
-76.676232
 20
-72.781975
 11
-76.676232
 21
-72.159742
  0
LINE
  8
型材断面
  6
CONTINUOUS
 62
    47
 10
-76.676232
 20
-72.139743
 11
-76.676232
 21
-71.443058
  0
LINE
  8
型材断面
  6
CONTINUOUS
 62
    47
 10
-77.94304
 20
-73.276068
 11
-77.94304
 21
-73.442698
  0
LINE
  8
型材断面
  6
CONTINUOUS
 62
    47
 10
-76.466373
 20
-74.343073
 11
-76.476372
 21
-74.333072
  0
LINE
  8
型材断面
  6
CONTINUOUS
 62
    47
 10
-76.466373
 20
-74.343073
 11
-76.476372
 21
-74.353072
  0
LINE
  8
型材断面
  6
CONTINUOUS
 62
    47
 10
-76.466373
 20
-74.809747
 11
-76.476372
 21
-74.799748
  0
LINE
  8
型材断面
  6
CONTINUOUS
 62
    47
 10
-76.466373
 20
-74.809747
 11
-76.476372
 21
-74.819747
  0
LINE
  8
型材断面
  6
CONTINUOUS
 62
    47
 10
-76.476372
 20
-73.709723
 11
-76.476372
 21
-74.333072
  0
LINE
  8
型材断面
  6
CONTINUOUS
 62
    47
 10
-76.476372
 20
-74.353072
 11
-76.476372
 21
-74.799748
  0
LINE
  8
型材断面
  6
CONTINUOUS
 62
    47
 10
-78.676372
 20
-75.60973
 11
-78.676372
 21
-76.109732
  0
LINE
  8
型材断面
  6
CONTINUOUS
 62
    47
 10
-78.17638
 20
-76.443062
 11
-78.17638
 21
-76.109732
  0
LINE
  8
型材断面
  6
CONTINUOUS
 62
    47
 10
-78.676372
 20
-75.60973
 11
-76.476372
 21
-75.443062
  0
LINE
  8
型材断面
  6
CONTINUOUS
 62
    47
 10
-75.742897
 20
-75.443062
 11
-76.409705
 21
-75.443062
  0
LINE
  8
型材断面
  6
CONTINUOUS
 62
    47
 10
-76.466373
 20
-75.343063
 11
-76.476372
 21
-75.333062
  0
LINE
  8
型材断面
  6
CONTINUOUS
 62
    47
 10
-76.466373
 20
-75.343063
 11
-76.476372
 21
-75.353063
  0
LINE
  8
型材断面
  6
CONTINUOUS
 62
    47
 10
-76.476372
 20
-75.443062
 11
-76.476372
 21
-75.353063
  0
LINE
  8
型材断面
  6
CONTINUOUS
 62
    47
 10
-76.476372
 20
-74.819747
 11
-76.476372
 21
-75.333062
  0
LINE
  8
型材断面
  6
CONTINUOUS
 62
    47
 10
-77.94304
 20
-73.709723
 11
-77.94304
 21
-73.576405
  0
LINE
  8
型材断面
  6
CONTINUOUS
 62
    47
 10
-76.676232
 20
-73.209742
 11
-77.94304
 21
-73.276068
  0
LINE
  8
型材断面
  6
CONTINUOUS
 62
    47
 10
-76.406243
 20
-71.443058
 11
-76.406243
 21
-71.209613
  0
LINE
  8
型材断面
  6
CONTINUOUS
 62
    47
 10
-78.17638
 20
-76.443062
 11
-8.67623
 21
-76.443062
  0
LINE
  8
型材断面
  6
CONTINUOUS
 10
-78.676372
 20
-75.60973
 11
-8.67623
 21
-75.60973
  0
LINE
  8
型材断面
  6
CONTINUOUS
 10
-76.476372
 20
-75.443062
 11
-8.67623
 21
-75.443062
  0
LINE
  8
型材断面
  6
CONTINUOUS
 62
    47
 10
-78.676372
 20
-76.109732
 11
-8.67623
 21
-76.109732
  0
LINE
  8
型材断面
  6
CONTINUOUS
 62
    47
 10
-77.94304
 20
-73.576405
 11
-8.67623
 21
-73.576405
  0
LINE
  8
型材断面
  6
CONTINUOUS
 62
    47
 10
-77.94304
 20
-73.442698
 11
-8.67623
 21
-73.442698
  0
LINE
  8
型材断面
  6
CONTINUOUS
 62
    47
 10
-77.94304
 20
-73.709723
 11
-8.67623
 21
-73.709723
  0
LINE
  8
型材断面
  6
CONTINUOUS
 10
-77.94304
 20
-73.276068
 11
-8.67623
 21
-73.276068
  0
LINE
  8
型材断面
  6
CONTINUOUS
 10
-76.676232
 20
-73.209742
 11
-8.67623
 21
-73.209742
  0
LINE
  8
型材断面
  6
CONTINUOUS
 62
    47
 10
-76.676232
 20
-71.443058
 11
-8.67623
 21
-71.443058
  0
LINE
  8
型材断面
  6
CONTINUOUS
 10
61.323913
 20
19.480558
 11
61.323913
 21
37.814033
  0
LINE
  8
型材断面
  6
CONTINUOUS
 10
60.057105
 20
20.747365
 11
61.323913
 21
19.480558
  0
LINE
  8
型材断面
  6
CONTINUOUS
 10
61.323913
 20
19.480558
 11
-8.67623
 21
19.480558
  0
LINE
  8
型材断面
  6
CONTINUOUS
 10
61.323913
 20
56.147508
 11
61.323913
 21
37.814033
  0
LINE
  8
型材断面
  6
CONTINUOUS
 10
60.057105
 20
54.8807
 11
61.323913
 21
56.147508
  0
LINE
  8
型材断面
  6
CONTINUOUS
 10
61.323913
 20
56.147508
 11
-8.67623
 21
56.147508
  0
LINE
  8
型材断面
  6
CONTINUOUS
 10
-78.676372
 20
56.147508
 11
-78.676372
 21
37.814033
  0
LINE
  8
型材断面
  6
CONTINUOUS
 10
-77.409565
 20
54.8807
 11
-78.676372
 21
56.147508
  0
LINE
  8
型材断面
  6
CONTINUOUS
 10
-78.676372
 20
56.147508
 11
-8.67623
 21
56.147508
  0
LINE
  8
型材断面
  6
CONTINUOUS
 10
-78.676372
 20
19.480558
 11
-78.676372
 21
37.814033
  0
LINE
  8
型材断面
  6
CONTINUOUS
 10
-77.409565
 20
20.747365
 11
-78.676372
 21
19.480558
  0
LINE
  8
型材断面
  6
CONTINUOUS
 10
-78.676372
 20
19.480558
 11
-8.67623
 21
19.480558
  0
LINE
  8
型材断面
  6
DASHDOT
 10
-42.352895
 20
22.814033
 11
-42.352895
 21
52.814033
  0
LINE
  8
型材断面
  6
DOT
 10
-43.602895
 20
22.814033
 11
-43.602895
 21
52.814033
  0
LINE
  8
型材断面
  6
DOT
 10
-41.102895
 20
22.814033
 11
-41.102895
 21
52.814033
  0
LINE
  8
型材断面
  6
DASHDOT
 10
25.000435
 20
22.814033
 11
25.000435
 21
52.814033
  0
LINE
  8
型材断面
  6
DOT
 10
26.250435
 20
22.814033
 11
26.250435
 21
52.814033
  0
LINE
  8
型材断面
  6
DOT
 10
23.750435
 20
22.814033
 11
23.750435
 21
52.814033
  0
LINE
  8
ガラス
  6
CONTINUOUS
 10
144.453363
 20
-73.982308
 11
144.453363
 21
-43.448973
  0
LINE
  8
ガラス
  6
CONTINUOUS
 10
144.453363
 20
-43.448973
 11
111.62003
 21
-43.448973
  0
LINE
  8
ガラス
  6
CONTINUOUS
 10
111.62003
 20
-43.448973
 11
111.62003
 21
-73.982308
  0
LINE
  8
ガラス
  6
CONTINUOUS
 10
144.453363
 20
-73.982308
 11
111.62003
 21
-73.982308
  0
TEXT
  7
TextStyle03
  8
文字
  6
CONTINUOUS
 10
-126.45
 20
94.925
  1
は排水穴位置を示す
 40
3.0
 72
     5
 11
-96.45
 21
94.925
  0
TEXT
  7
TextStyle03
  8
文字
  6
CONTINUOUS
 10
-126.45
 20
89.4
  1
はケーシング位置を示す
 40
3.0
 72
     5
 11
-89.7
 21
89.4
  0
TEXT
  7
TextStyle03
  8
文字
  6
CONTINUOUS
 10
-126.45
 20
86.025
  1
２ヶ所中1ヶ所に設定
 40
3.0
 72
     5
 11
-94.7625
 21
86.025
  0
TEXT
  7
TextStyle03
  8
文字
  6
CONTINUOUS
 10
125.0
 20
23.375
  1
45°
 40
3.0
 72
     5
 11
131.375
 21
23.375
  0
TEXT
  7
TextStyle03
  8
文字
  6
CONTINUOUS
 10
126.275
 20
-67.575
  1
網入り6.8t
 40
3.0
 72
     5
 11
142.9625
 21
-67.575
  0
TEXT
  7
TextStyle03
  8
文字
  6
CONTINUOUS
 10
132.95
 20
-72.25
  1
×４枚
 40
3.0
 72
     5
 11
142.7
 21
-72.25
  0
TEXT
  7
TextStyle03
  8
文字
  6
CONTINUOUS
 10
-96.3
 20
16.275
  1
アンカーピッチ
 40
3.0
 50
90.0
 72
     5
 11
-96.3
 21
39.525
  0
TEXT
  7
TextStyle03
  8
文字
  6
CONTINUOUS
 10
-67.25
 20
90.825
  1
アンカーピッチ
 40
3.0
 72
     5
 11
-44.0
 21
90.825
  0
TEXT
  7
TextStyle03
  8
文字
  6
CONTINUOUS
 10
-130.175
 20
80.05
  1
アンカー数量　１６ヶ所
 40
3.0
 72
     5
 11
-93.425
 21
80.05
  0
TEXT
  7
TextStyle03
  8
文字
  6
CONTINUOUS
 10
78.1
 20
125.25
  1
シリーズ：ＴＤ２ＨＬ
 40
5.0
 72
     5
 11
133.725
 21
125.25
  0
TEXT
  7
TextStyle03
  8
文字
  6
CONTINUOUS
 10
78.1
 20
119.625
  1
　　　　　（片側開閉）900×4000タイプ
 40
5.0
 72
     5
 11
181.5375
 21
119.625
  0
TEXT
  7
TextStyle03
  8
文字
  6
CONTINUOUS
 10
78.1
 20
114.0
  1
図面名　：外観姿図
 40
5.0
 72
     5
 11
128.1
 21
114.0
  0
TEXT
  7
TextStyle03
  8
文字
  6
CONTINUOUS
 10
78.1
 20
108.375
  1
　　　　　　
 40
5.0
 72
     5
 11
111.225
 21
108.375
  0
TEXT
  7
TextStyle03
  8
文字
  6
CONTINUOUS
 10
77.425
 20
103.975
  1
ＮＳコード：ＮＳＨＺＬ
 40
5.0
 72
     5
 11
138.675
 21
103.975
  0
INSERT
  2
*DIM_0002
  8
寸法
  6
CONTINUOUS
 10
0.0
 20
0.0
  0
INSERT
  2
*DIM_0003
  8
寸法
  6
CONTINUOUS
 10
0.0
 20
0.0
  0
INSERT
  2
*DIM_0005
  8
寸法
  6
CONTINUOUS
 10
0.0
 20
0.0
  0
INSERT
  2
*DIM_0006
  8
寸法
  6
CONTINUOUS
 10
0.0
 20
0.0
  0
INSERT
  2
*DIM_0007
  8
寸法
  6
CONTINUOUS
 10
0.0
 20
0.0
  0
INSERT
  2
*DIM_0009
  8
寸法
  6
CONTINUOUS
 10
0.0
 20
0.0
  0
INSERT
  2
*DIM_0010
  8
寸法
  6
CONTINUOUS
 10
0.0
 20
0.0
  0
INSERT
  2
*DIM_0011
  8
寸法
  6
CONTINUOUS
 10
0.0
 20
0.0
  0
INSERT
  2
*DIM_0012
  8
寸法
  6
CONTINUOUS
 10
0.0
 20
0.0
  0
INSERT
  2
*DIM_0013
  8
寸法
  6
CONTINUOUS
 10
0.0
 20
0.0
  0
INSERT
  2
*DIM_0014
  8
寸法
  6
CONTINUOUS
 10
0.0
 20
0.0
  0
INSERT
  2
*DIM_0015
  8
寸法
  6
CONTINUOUS
 10
0.0
 20
0.0
  0
INSERT
  2
*DIM_0016
  8
寸法
  6
CONTINUOUS
 10
0.0
 20
0.0
  0
INSERT
  2
*DIM_0017
  8
寸法
  6
CONTINUOUS
 10
0.0
 20
0.0
  0
INSERT
  2
*DIM_0018
  8
寸法
  6
CONTINUOUS
 10
0.0
 20
0.0
  0
INSERT
  2
*DIM_0019
  8
寸法
  6
CONTINUOUS
 10
0.0
 20
0.0
  0
INSERT
  2
*DIM_0020
  8
寸法
  6
CONTINUOUS
 10
0.0
 20
0.0
  0
INSERT
  2
*DIM_0021
  8
寸法
  6
CONTINUOUS
 10
0.0
 20
0.0
  0
INSERT
  2
*DIM_0022
  8
寸法
  6
CONTINUOUS
 10
0.0
 20
0.0
  0
INSERT
  2
*DIM_0023
  8
寸法
  6
CONTINUOUS
 10
0.0
 20
0.0
  0
INSERT
  2
*DIM_0024
  8
寸法
  6
CONTINUOUS
 10
0.0
 20
0.0
  0
LINE
  8
別途部材
  6
CONTINUOUS
 10
60.057105
 20
20.747365
 11
59.657105
 21
21.147365
  0
LINE
  8
別途部材
  6
CONTINUOUS
 10
57.990438
 20
22.814033
 11
49.931183
 21
30.87329
  0
LINE
  8
別途部材
  6
CONTINUOUS
 10
59.657105
 20
21.147365
 11
59.657105
 21
37.814033
  0
LINE
  8
別途部材
  6
CONTINUOUS
 10
60.057105
 20
20.747365
 11
60.057105
 21
37.814033
  0
LINE
  8
別途部材
  6
CONTINUOUS
 10
60.057105
 20
54.8807
 11
59.657105
 21
54.4807
  0
LINE
  8
別途部材
  6
CONTINUOUS
 10
57.990438
 20
52.814033
 11
49.931183
 21
44.754775
  0
LINE
  8
別途部材
  6
CONTINUOUS
 10
59.657105
 20
54.4807
 11
59.657105
 21
37.814033
  0
LINE
  8
別途部材
  6
CONTINUOUS
 10
60.057105
 20
54.8807
 11
60.057105
 21
37.814033
  0
LINE
  8
別途部材
  6
CONTINUOUS
 10
59.657105
 20
54.4807
 11
-8.67623
 21
54.4807
  0
LINE
  8
別途部材
  6
CONTINUOUS
 10
60.057105
 20
54.8807
 11
-8.67623
 21
54.8807
  0
LINE
  8
別途部材
  6
CONTINUOUS
 10
60.057105
 20
20.747365
 11
-8.67623
 21
20.747365
  0
LINE
  8
別途部材
  6
CONTINUOUS
 10
59.657105
 20
21.147365
 11
-8.67623
 21
21.147365
  0
LINE
  8
別途部材
  6
CONTINUOUS
 10
-77.409565
 20
20.747365
 11
-77.009565
 21
21.147365
  0
LINE
  8
別途部材
  6
CONTINUOUS
 10
-75.342897
 20
22.814033
 11
-67.283643
 21
30.87329
  0
LINE
  8
別途部材
  6
CONTINUOUS
 10
-77.009565
 20
21.147365
 11
-77.009565
 21
37.814033
  0
LINE
  8
別途部材
  6
CONTINUOUS
 10
-77.409565
 20
20.747365
 11
-77.409565
 21
37.814033
  0
LINE
  8
別途部材
  6
CONTINUOUS
 10
-77.409565
 20
54.8807
 11
-77.009565
 21
54.4807
  0
LINE
  8
別途部材
  6
CONTINUOUS
 10
-75.342897
 20
52.814033
 11
-67.283643
 21
44.754775
  0
LINE
  8
別途部材
  6
CONTINUOUS
 10
-77.009565
 20
54.4807
 11
-77.009565
 21
37.814033
  0
LINE
  8
別途部材
  6
CONTINUOUS
 10
-77.409565
 20
54.8807
 11
-77.409565
 21
37.814033
  0
LINE
  8
別途部材
  6
CONTINUOUS
 10
-77.009565
 20
54.4807
 11
-8.67623
 21
54.4807
  0
LINE
  8
別途部材
  6
CONTINUOUS
 10
-77.409565
 20
54.8807
 11
-8.67623
 21
54.8807
  0
LINE
  8
別途部材
  6
CONTINUOUS
 10
-77.409565
 20
20.747365
 11
-8.67623
 21
20.747365
  0
LINE
  8
別途部材
  6
CONTINUOUS
 10
-77.009565
 20
21.147365
 11
-8.67623
 21
21.147365
  0
INSERT
  2
*GRP_0004
  8
別途部材
  6
CONTINUOUS
 10
0.0
 20
0.0
  0
LINE
  8
別途部材
  6
CONTINUOUS
 62
    96
 10
147.47616
 20
54.4807
 11
148.47616
 21
54.8807
  0
LINE
  8
別途部材
  6
CONTINUOUS
 62
    96
 10
147.47616
 20
54.4807
 11
147.47616
 21
37.814033
  0
LINE
  8
別途部材
  6
CONTINUOUS
 10
148.47616
 20
54.8807
 11
148.47616
 21
37.814033
  0
LINE
  8
別途部材
  6
CONTINUOUS
 62
    96
 10
147.47616
 20
21.147367
 11
148.47616
 21
20.747367
  0
LINE
  8
別途部材
  6
CONTINUOUS
 62
    96
 10
147.47616
 20
21.147367
 11
147.47616
 21
37.814033
  0
LINE
  8
別途部材
  6
CONTINUOUS
 10
148.47616
 20
20.747367
 11
148.47616
 21
37.814033
  0
ARC
  8
別途部材
  6
CONTINUOUS
 10
156.809493
 20
37.814032
 40
17.666667
 50
121.890792
 51
238.109208
  0
INSERT
  2
*GRP_0008
  8
別途部材
  6
CONTINUOUS
 10
0.0
 20
0.0
  0
LINE
  8
別途部材
  6
DOT
 62
    96
 10
147.537245
 20
57.17549
 11
148.527195
 21
56.751227
  0
LINE
  8
別途部材
  6
DOT
 62
    96
 10
147.537245
 20
57.17549
 11
135.752132
 21
45.390378
  0
LINE
  8
別途部材
  6
DOT
 10
148.527195
 20
56.751227
 11
136.45924
 21
44.68327
  0
LINE
  8
別途部材
  6
DOT
 62
    96
 10
123.96702
 20
33.605265
 11
124.391285
 21
32.615315
  0
LINE
  8
別途部材
  6
DOT
 62
    96
 10
123.96702
 20
33.605265
 11
135.752132
 21
45.390378
  0
LINE
  8
別途部材
  6
DOT
 10
124.391285
 20
32.615315
 11
136.45924
 21
44.68327
  0
ARC
  8
別途部材
  6
DOT
 10
142.351796
 20
38.790713
 40
17.666667
 50
76.890792
 51
193.109208
  0
INSERT
  2
*GRP_0025
  8
別途部材
  6
DOT
 10
0.0
 20
0.0
  0
INSERT
  2
*GRP_0026
  8
別途部材
  6
DOT
 10
0.0
 20
0.0
  0
INSERT
  2
*GRP_0027
  8
別途部材
  6
DOT
 10
0.0
 20
0.0
  0
INSERT
  2
*GRP_0028
  8
別途部材
  6
DOT
 10
0.0
 20
0.0
  0
INSERT
  2
*GRP_0029
  8
別途部材
  6
DOT
 10
0.0
 20
0.0
  0
INSERT
  2
*GRP_0030
  8
別途部材
  6
DOT
 10
0.0
 20
0.0
  0
ENDSEC
  0
EOF
