  0
SECTION
  2
HEADER
  9
$EXTMIN
 10
-210.0
 20
-148.5
  9
$EXTMAX
 10
210.0
 20
148.5
  9
$PDMODE
 70
    32
  9
$PDSIZE
 40
1.5
  9
$LTSCALE
 40
10.0
  0
ENDSEC
  0
SECTION
  2
TABLES
  0
TABLE
  2
LTYPE
 70
    15
  0
LTYPE
  2
CONTINUOUS
 70
    64
  3
実線
 72
    65
 73
     0
 40
0.0
  0
LTYPE
  2
DASHED
 70
    64
  3
破線A
 72
    65
 73
     2
 40
0.6
 49
0.4
 49
-0.2
  0
LTYPE
  2
DASHEDX2
 70
    64
  3
破線B
 72
    65
 73
     2
 40
1.3
 49
0.9
 49
-0.4
  0
LTYPE
  2
DASHDOT
 70
    64
  3
１点鎖線A
 72
    65
 73
     4
 40
0.5375
 49
0.375
 49
-0.05
 49
0.0625
 49
-0.05
  0
LTYPE
  2
DASHDOTX2
 70
    64
  3
１点鎖線B
 72
    65
 73
     4
 40
1.075
 49
0.75
 49
-0.1
 49
0.125
 49
-0.1
  0
LTYPE
  2
DIVIDE2
 70
    64
  3
２点鎖線A
 72
    65
 73
     6
 40
0.5125
 49
0.3
 49
-0.0375
 49
0.05
 49
-0.0375
 49
0.05
 49
-0.0375
  0
LTYPE
  2
DIVIDE
 70
    64
  3
２点鎖線B
 72
    65
 73
     6
 40
1.05
 49
0.55
 49
-0.1
 49
0.1
 49
-0.1
 49
0.1
 49
-0.1
  0
LTYPE
  2
DOT
 70
    64
  3
点線A
 72
    65
 73
     2
 40
0.1125
 49
0.0625
 49
-0.05
  0
LTYPE
  2
DOTX2
 70
    64
  3
点線B
 72
    65
 73
     2
 40
0.275
 49
0.15
 49
-0.125
  0
LTYPE
  2
CONTINUOUS
 70
    64
  3
実線
 72
    65
 73
     0
 40
0.0
  0
LTYPE
  2
CONTINUOUS
 70
    64
  3
実線
 72
    65
 73
     0
 40
0.0
  0
LTYPE
  2
CONTINUOUS
 70
    64
  3
実線
 72
    65
 73
     0
 40
0.0
  0
LTYPE
  2
CONTINUOUS
 70
    64
  3
実線
 72
    65
 73
     0
 40
0.0
  0
LTYPE
  2
CONTINUOUS
 70
    64
  3
実線
 72
    65
 73
     0
 40
0.0
  0
LTYPE
  2
CONTINUOUS
 70
    64
  3
実線
 72
    65
 73
     0
 40
0.0
  0
ENDTAB
  0
TABLE
  2
LAYER
 70
    34
  0
LAYER
  2
通り芯
 70
     0
 62
    15
  6
CONTINUOUS
  0
LAYER
  2
補助線
 70
     0
 62
    16
  6
DOT
  0
LAYER
  2
躯体
 70
     0
 62
    31
  6
CONTINUOUS
  0
LAYER
  2
型材
 70
     0
 62
    32
  6
CONTINUOUS
  0
LAYER
  2
型材断面
 70
     0
 62
    47
  6
CONTINUOUS
  0
LAYER
  2
ガラス
 70
     0
 62
    48
  6
CONTINUOUS
  0
LAYER
  2
ゴム等
 70
     0
 62
    63
  6
CONTINUOUS
  0
LAYER
  2
ボルト／ビス
 70
     0
 62
    64
  6
CONTINUOUS
  0
LAYER
  2
文字
 70
     0
 62
    79
  6
CONTINUOUS
  0
LAYER
  2
寸法
 70
     0
 62
    80
  6
CONTINUOUS
  0
LAYER
  2
ﾊｯﾁﾝｸﾞ
 70
     0
 62
    95
  6
CONTINUOUS
  0
LAYER
  2
別途部材
 70
     0
 62
    96
  6
CONTINUOUS
  0
LAYER
  2
曲げ物
 70
     0
 62
   111
  6
CONTINUOUS
  0
LAYER
  2
鉄骨等
 70
     0
 62
   112
  6
CONTINUOUS
  0
LAYER
  2
St
 70
     0
 62
   127
  6
CONTINUOUS
  0
LAYER
  2
その他部品等
 70
     0
 62
   128
  6
CONTINUOUS
  0
LAYER
  2
ｶﾞｽｹｯﾄ
 70
     0
 62
   143
  6
CONTINUOUS
  0
LAYER
  2
ｽｹｯﾁ
 70
     0
 62
    14
  6
CONTINUOUS
  0
LAYER
  2
0
 70
     0
 62
    17
  6
CONTINUOUS
  0
LAYER
  2
1
 70
     0
 62
    30
  6
CONTINUOUS
  0
LAYER
  2
4
 70
     0
 62
    33
  6
CONTINUOUS
  0
LAYER
  2
ﾚｲﾔ3
 70
     0
 62
    46
  6
CONTINUOUS
  0
LAYER
  2
外形線
 70
     0
 62
    49
  6
CONTINUOUS
  0
LAYER
  2
部品
 70
     0
 62
    14
  6
CONTINUOUS
  0
LAYER
  2
サッシ芯
 70
     0
 62
    17
  6
DASHDOTX2
  0
LAYER
  2
寸法線
 70
     0
 62
    62
  6
CONTINUOUS
  0
LAYER
  2
姿図外形線
 70
     0
 62
    65
  6
CONTINUOUS
  0
LAYER
  2
姿補助線
 70
     0
 62
    30
  6
CONTINUOUS
  0
LAYER
  2
透視線
 70
     0
 62
    78
  6
DOT
  0
LAYER
  2
用紙
 70
     0
 62
    81
  6
CONTINUOUS
  0
LAYER
  2
実線図枠
 70
     0
 62
    94
  6
CONTINUOUS
  0
LAYER
  2
補助図枠
 70
     0
 62
    97
  6
CONTINUOUS
  0
LAYER
  2
建具記号
 70
     0
 62
   110
  6
CONTINUOUS
  0
LAYER
  2
補助文字
 70
     0
 62
   113
  6
CONTINUOUS
  0
ENDTAB
  0
TABLE
  2
STYLE
 70
    10
  0
STYLE
  2
STANDARD
 70
     0
 40
1.0
 41
1.0
 42
1.0
 50
0.0
 71
     0
  3
TXT
  4
BIGFONT
  0
STYLE
  2
TATE
 70
     4
 40
1.0
 41
1.0
 42
1.0
 50
0.0
 71
     0
  3
TXT
  4
BIGFONT
  0
STYLE
  2
TextStyle03
 70
     0
 40
1.0
 41
1.0
 42
1.0
 50
0.0
 71
     0
  3
MONOTXT
  4
BIGFONT
  0
STYLE
  2
TextStyle04
 70
     0
 40
1.0
 41
1.0
 42
1.0
 50
0.0
 71
     0
  3
MONOTXT
  4
BIGFONT
  0
STYLE
  2
TextStyle05
 70
     0
 40
1.0
 41
1.0
 42
1.0
 50
0.0
 71
     0
  3
MONOTXT
  4
BIGFONT
  0
STYLE
  2
TextStyle06
 70
     0
 40
1.0
 41
1.0
 42
1.0
 50
0.0
 71
     0
  3
MONOTXT
  4
BIGFONT
  0
STYLE
  2
TextStyle07
 70
     0
 40
1.0
 41
1.0
 42
1.0
 50
0.0
 71
     0
  3
MONOTXT
  4
BIGFONT
  0
STYLE
  2
TextStyle08
 70
     0
 40
1.0
 41
1.0
 42
1.0
 50
0.0
 71
     0
  3
MONOTXT
  4
BIGFONT
  0
STYLE
  2
TextStyle09
 70
     0
 40
1.0
 41
1.0
 42
1.0
 50
0.0
 71
     0
  3
MONOTXT
  4
BIGFONT
  0
STYLE
  2
TextStyle10
 70
     0
 40
1.0
 41
1.0
 42
1.0
 50
0.0
 71
     0
  3
MONOTXT
  4
BIGFONT
  0
ENDTAB
  0
ENDSEC
  0
SECTION
  2
BLOCKS
  0
BLOCK
  2
*GRP_0001
 70
    65
 10
0.0
 20
0.0
  0
LINE
  8
型材断面
  6
CONTINUOUS
 10
195.0
 20
133.5
 11
195.0
 21
-133.5
  0
LINE
  8
型材断面
  6
CONTINUOUS
 10
195.0
 20
-133.5
 11
-185.0
 21
-133.5
  0
LINE
  8
型材断面
  6
CONTINUOUS
 10
-185.0
 20
-133.5
 11
-185.0
 21
133.5
  0
LINE
  8
型材断面
  6
CONTINUOUS
 10
195.0
 20
133.5
 11
-185.0
 21
133.5
  0
LINE
  8
型材断面
  6
CONTINUOUS
 10
145.0
 20
-133.5
 11
145.0
 21
-118.5
  0
LINE
  8
型材断面
  6
CONTINUOUS
 10
195.0
 20
-118.5
 11
145.0
 21
-118.5
  0
ENDBLK
  0
BLOCK
  2
*DIM_0002
 70
    65
 10
0.0
 20
0.0
  0
LINE
  8
寸法
  6
BYBLOCK
 62
     0
 10
-92.435405
 20
-26.094458
 11
-62.435405
 21
-26.094458
  0
POINT
  8
寸法
 62
     0
 10
-92.435405
 20
-26.094458
  0
POINT
  8
寸法
 62
     0
 10
-62.435405
 20
-26.094458
  0
TEXT
  7
TextStyle03
  8
寸法
  6
CONTINUOUS
 62
     0
 10
-88.325
 20
-25.725
  1
呼称寸法　600
 40
3.0
 72
     5
 11
-66.575
 21
-25.725
  0
ENDBLK
  0
BLOCK
  2
*DIM_0003
 70
    65
 10
0.0
 20
0.0
  0
LINE
  8
寸法
  6
BYBLOCK
 62
     0
 10
-61.435405
 20
31.69199
 11
-46.752115
 21
31.69199
  0
LINE
  8
寸法
  6
BYBLOCK
 62
     0
 10
-53.411528
 20
28.69199
 11
-46.752115
 21
28.69199
  0
LINE
  8
寸法
  6
BYBLOCK
 62
     0
 10
-46.752115
 20
31.69199
 11
-46.752115
 21
28.69199
  0
POINT
  8
寸法
 62
     0
 10
-46.752115
 20
31.69199
  0
POINT
  8
寸法
 62
     0
 10
-46.752115
 20
28.69199
  0
TEXT
  7
TextStyle03
  8
寸法
  6
CONTINUOUS
 62
     0
 10
-43.775
 20
28.58125
  1
60
 40
3.0
 50
90.0
 72
     5
 11
-43.775
 21
31.76875
  0
ENDBLK
  0
BLOCK
  2
*DIM_0004
 70
    65
 10
0.0
 20
0.0
  0
LINE
  8
寸法
  6
BYBLOCK
 62
     0
 10
-61.435405
 20
1.69199
 11
-46.752115
 21
1.69199
  0
LINE
  8
寸法
  6
BYBLOCK
 62
     0
 10
-53.411528
 20
4.69199
 11
-46.752115
 21
4.69199
  0
LINE
  8
寸法
  6
BYBLOCK
 62
     0
 10
-46.752115
 20
1.69199
 11
-46.752115
 21
4.69199
  0
POINT
  8
寸法
 62
     0
 10
-46.752115
 20
1.69199
  0
POINT
  8
寸法
 62
     0
 10
-46.752115
 20
4.69199
  0
TEXT
  7
TextStyle03
  8
寸法
  6
CONTINUOUS
 62
     0
 10
-43.775
 20
1.58125
  1
60
 40
3.0
 50
90.0
 72
     5
 11
-43.775
 21
4.76875
  0
ENDBLK
  0
BLOCK
  2
*DIM_0005
 70
    65
 10
0.0
 20
0.0
  0
LINE
  8
寸法
  6
BYBLOCK
 62
     0
 10
-87.435402
 20
32.691993
 11
-87.435402
 21
52.281172
  0
LINE
  8
寸法
  6
BYBLOCK
 62
     0
 10
-67.435402
 20
32.691993
 11
-67.435402
 21
52.281172
  0
LINE
  8
寸法
  6
BYBLOCK
 62
     0
 10
-87.435402
 20
52.281172
 11
-67.435402
 21
52.281172
  0
POINT
  8
寸法
 62
     0
 10
-87.435402
 20
52.281172
  0
POINT
  8
寸法
 62
     0
 10
-67.435402
 20
52.281172
  0
TEXT
  7
TextStyle03
  8
寸法
  6
CONTINUOUS
 62
     0
 10
-79.8875
 20
52.675
  1
400
 40
3.0
 72
     5
 11
-75.0125
 21
52.675
  0
ENDBLK
  0
BLOCK
  2
*GRP_0006
 70
    65
 10
0.0
 20
0.0
  0
LINE
  8
別途部材
  6
CONTINUOUS
 62
    96
 10
-94.28589
 20
-69.87343
 11
-94.13589
 21
-69.87343
  0
LINE
  8
別途部材
  6
CONTINUOUS
 62
    96
 10
-94.43589
 20
-66.72181
 11
-96.432097
 21
-66.82632
  0
LINE
  8
別途部材
  6
CONTINUOUS
 62
    96
 10
-96.44589
 20
-67.64843
 11
-96.84589
 21
-67.47343
  0
LINE
  8
別途部材
  6
CONTINUOUS
 62
    96
 10
-96.414515
 20
-67.49843
 11
-96.646015
 21
-67.39715
  0
LINE
  8
別途部材
  6
CONTINUOUS
 62
    96
 10
-96.471273
 20
-66.678165
 11
-96.861575
 21
-66.87384
  0
LINE
  8
別途部材
  6
CONTINUOUS
 62
    96
 10
-96.432097
 20
-66.82632
 11
-96.827515
 21
-67.02456
  0
LINE
  8
別途部材
  6
CONTINUOUS
 62
    96
 10
-96.730192
 20
-67.077963
 11
-96.614498
 21
-66.982492
  0
LINE
  8
別途部材
  6
DASHDOTX2
 62
    96
 10
-96.84589
 20
-67.17343
 11
-96.84589
 21
-66.703203
  0
LINE
  8
別途部材
  6
DASHDOTX2
 62
    96
 10
-96.84589
 20
-67.17343
 11
-96.84589
 21
-67.66912
  0
LINE
  8
別途部材
  6
DASHDOTX2
 62
    96
 10
-96.84589
 20
-67.17343
 11
-96.450683
 21
-67.17343
  0
LINE
  8
別途部材
  6
DASHDOTX2
 62
    96
 10
-96.84589
 20
-67.17343
 11
-97.263355
 21
-67.17343
  0
LINE
  8
別途部材
  6
CONTINUOUS
 62
    96
 10
-94.13589
 20
-67.49843
 11
-96.414515
 21
-67.49843
  0
LINE
  8
別途部材
  6
CONTINUOUS
 62
    96
 10
-94.28589
 20
-67.64843
 11
-96.44589
 21
-67.64843
  0
LINE
  8
別途部材
  6
CONTINUOUS
 62
    96
 10
-94.585893
 20
-64.87181
 11
-94.585893
 21
-66.579457
  0
LINE
  8
別途部材
  6
CONTINUOUS
 62
    96
 10
-94.43589
 20
-64.87181
 11
-94.585893
 21
-64.87181
  0
LINE
  8
別途部材
  6
CONTINUOUS
 62
    96
 10
-94.43589
 20
-64.87181
 11
-94.43589
 21
-66.72181
  0
CIRCLE
  8
別途部材
  6
CONTINUOUS
 62
    96
 10
-96.84589
 20
-67.17343
 40
0.15
  0
ARC
  8
別途部材
  6
CONTINUOUS
 62
    96
 10
-96.845891
 20
-67.173428
 40
0.3
 50
92.998444
 51
411.219394
  0
LINE
  8
別途部材
  6
CONTINUOUS
 62
    96
 10
-94.13589
 20
-67.49843
 11
-94.13589
 21
-69.87343
  0
LINE
  8
別途部材
  6
CONTINUOUS
 62
    96
 10
-94.28589
 20
-67.64843
 11
-94.28589
 21
-69.87343
  0
LINE
  8
別途部材
  6
CONTINUOUS
 62
    96
 10
-96.471273
 20
-66.678165
 11
-94.585893
 21
-66.579457
  0
ENDBLK
  0
BLOCK
  2
*DIM_0007
 70
    65
 10
0.0
 20
0.0
  0
LINE
  8
寸法
  6
BYBLOCK
 62
     0
 10
-57.435195
 20
-69.348442
 11
-57.435195
 21
-26.094458
  0
LINE
  8
寸法
  6
BYBLOCK
 62
     0
 10
-62.435405
 20
-26.094458
 11
-57.435195
 21
-26.094458
  0
POINT
  8
寸法
 62
     0
 10
-62.435405
 20
-26.094458
  0
POINT
  8
寸法
 62
     0
 10
-57.435195
 20
-26.094458
  0
TEXT
  7
TextStyle03
  8
寸法
  6
CONTINUOUS
 62
     0
 10
-57.3375
 20
-25.725
  1
100
 40
3.0
 72
     5
 11
-52.4625
 21
-25.725
  0
ENDBLK
  0
BLOCK
  2
*DIM_0008
 70
    65
 10
0.0
 20
0.0
  0
LINE
  8
寸法
  6
BYBLOCK
 62
     0
 10
-97.435615
 20
-69.348442
 11
-97.435615
 21
-26.094458
  0
LINE
  8
寸法
  6
BYBLOCK
 62
     0
 10
-92.435405
 20
-26.094458
 11
-97.435615
 21
-26.094458
  0
POINT
  8
寸法
 62
     0
 10
-92.435405
 20
-26.094458
  0
POINT
  8
寸法
 62
     0
 10
-97.435615
 20
-26.094458
  0
TEXT
  7
TextStyle03
  8
寸法
  6
CONTINUOUS
 62
     0
 10
-102.4375
 20
-25.725
  1
100
 40
3.0
 72
     5
 11
-97.5625
 21
-25.725
  0
ENDBLK
  0
BLOCK
  2
*GRP_0009
 70
    65
 10
0.0
 20
0.0
  0
LINE
  8
別途部材
  6
CONTINUOUS
 62
    96
 10
39.352108
 20
-69.87343
 11
39.502108
 21
-69.87343
  0
LINE
  8
別途部材
  6
CONTINUOUS
 62
    96
 10
39.202108
 20
-66.72181
 11
37.2059
 21
-66.82632
  0
LINE
  8
別途部材
  6
CONTINUOUS
 62
    96
 10
37.192108
 20
-67.64843
 11
36.792108
 21
-67.47343
  0
LINE
  8
別途部材
  6
CONTINUOUS
 62
    96
 10
37.223482
 20
-67.49843
 11
36.991983
 21
-67.39715
  0
LINE
  8
別途部材
  6
CONTINUOUS
 62
    96
 10
37.166725
 20
-66.678165
 11
36.776423
 21
-66.87384
  0
LINE
  8
別途部材
  6
CONTINUOUS
 62
    96
 10
37.2059
 20
-66.82632
 11
36.810483
 21
-67.02456
  0
LINE
  8
別途部材
  6
CONTINUOUS
 62
    96
 10
36.907805
 20
-67.077963
 11
37.0235
 21
-66.982492
  0
LINE
  8
別途部材
  6
DASHDOTX2
 62
    96
 10
36.792108
 20
-67.17343
 11
36.792108
 21
-66.703203
  0
LINE
  8
別途部材
  6
DASHDOTX2
 62
    96
 10
36.792108
 20
-67.17343
 11
36.792108
 21
-67.66912
  0
LINE
  8
別途部材
  6
DASHDOTX2
 62
    96
 10
36.792108
 20
-67.17343
 11
37.187315
 21
-67.17343
  0
LINE
  8
別途部材
  6
DASHDOTX2
 62
    96
 10
36.792108
 20
-67.17343
 11
36.374642
 21
-67.17343
  0
LINE
  8
別途部材
  6
CONTINUOUS
 62
    96
 10
39.502108
 20
-67.49843
 11
37.223482
 21
-67.49843
  0
LINE
  8
別途部材
  6
CONTINUOUS
 62
    96
 10
39.352108
 20
-67.64843
 11
37.192108
 21
-67.64843
  0
LINE
  8
別途部材
  6
CONTINUOUS
 62
    96
 10
39.052105
 20
-64.87181
 11
39.052105
 21
-66.579457
  0
LINE
  8
別途部材
  6
CONTINUOUS
 62
    96
 10
39.202108
 20
-64.87181
 11
39.052105
 21
-64.87181
  0
LINE
  8
別途部材
  6
CONTINUOUS
 62
    96
 10
39.202108
 20
-64.87181
 11
39.202108
 21
-66.72181
  0
CIRCLE
  8
別途部材
  6
CONTINUOUS
 62
    96
 10
36.792108
 20
-67.17343
 40
0.15
  0
ARC
  8
別途部材
  6
CONTINUOUS
 62
    96
 10
36.792108
 20
-67.173428
 40
0.3
 50
92.998444
 51
411.219394
  0
LINE
  8
別途部材
  6
CONTINUOUS
 62
    96
 10
39.502108
 20
-67.49843
 11
39.502108
 21
-69.87343
  0
LINE
  8
別途部材
  6
CONTINUOUS
 62
    96
 10
39.352108
 20
-67.64843
 11
39.352108
 21
-69.87343
  0
LINE
  8
別途部材
  6
CONTINUOUS
 62
    96
 10
37.166725
 20
-66.678165
 11
39.052105
 21
-66.579457
  0
ENDBLK
  0
BLOCK
  2
*DIM_0010
 70
    65
 10
0.0
 20
0.0
  0
LINE
  8
寸法
  6
BYBLOCK
 62
     0
 10
137.054785
 20
77.557477
 11
137.054785
 21
84.95527
  0
LINE
  8
寸法
  6
BYBLOCK
 62
     0
 10
167.304785
 20
77.557477
 11
167.304785
 21
84.95527
  0
LINE
  8
寸法
  6
BYBLOCK
 62
     0
 10
137.054785
 20
84.95527
 11
167.304785
 21
84.95527
  0
POINT
  8
寸法
 62
     0
 10
137.054785
 20
84.95527
  0
POINT
  8
寸法
 62
     0
 10
167.304785
 20
84.95527
  0
TEXT
  7
TextStyle03
  8
寸法
  6
CONTINUOUS
 62
     0
 10
149.7375
 20
85.325
  1
605
 40
3.0
 72
     5
 11
154.6125
 21
85.325
  0
ENDBLK
  0
BLOCK
  2
*DIM_0011
 70
    65
 10
0.0
 20
0.0
  0
LINE
  8
寸法
  6
BYBLOCK
 62
     0
 10
170.304785
 20
74.557477
 11
179.777233
 21
74.557477
  0
LINE
  8
寸法
  6
BYBLOCK
 62
     0
 10
170.304785
 20
44.307477
 11
179.777233
 21
44.307477
  0
LINE
  8
寸法
  6
BYBLOCK
 62
     0
 10
179.777233
 20
74.557477
 11
179.777233
 21
44.307477
  0
POINT
  8
寸法
 62
     0
 10
179.777233
 20
74.557477
  0
POINT
  8
寸法
 62
     0
 10
179.777233
 20
44.307477
  0
TEXT
  7
TextStyle03
  8
寸法
  6
CONTINUOUS
 62
     0
 10
179.4
 20
56.9875
  1
605
 40
3.0
 50
90.0
 72
     5
 11
179.4
 21
61.8625
  0
ENDBLK
  0
BLOCK
  2
*DIM_0012
 70
    65
 10
0.0
 20
0.0
  0
LINE
  8
寸法
  6
CONTINUOUS
 10
-52.435195
 20
-71.098445
 11
-41.48546
 21
-71.098445
  0
LINE
  8
寸法
  6
CONTINUOUS
 10
-54.905608
 20
-61.323622
 11
-41.48546
 21
-61.323622
  0
LINE
  8
寸法
  6
CONTINUOUS
 10
-41.48546
 20
-71.098445
 11
-41.48546
 21
-61.323622
  0
POINT
  8
寸法
 10
-41.48546
 20
-71.098445
  0
POINT
  8
寸法
 10
-41.48546
 20
-61.323622
  0
TEXT
  7
TextStyle03
  8
寸法
  6
CONTINUOUS
 10
-37.375
 20
-71.725
  1
195.5
 40
4.0
 50
90.0
 72
     5
 11
-37.375
 21
-60.725
  0
ENDBLK
  0
ENDSEC
  0
SECTION
  2
ENTITIES
  0
POLYLINE
  8
通り芯
  6
CONTINUOUS
 66
     1
 70
     1
  0
VERTEX
  8
通り芯
 10
-210.0
 20
-148.5
  0
VERTEX
  8
通り芯
 10
210.0
 20
-148.5
  0
VERTEX
  8
通り芯
 10
210.0
 20
148.5
  0
VERTEX
  8
通り芯
 10
-210.0
 20
148.5
  0
SEQEND
  0
INSERT
  2
*GRP_0001
  8
型材断面
  6
CONTINUOUS
 10
0.0
 20
0.0
  0
LINE
  8
型材断面
  6
DASHDOT
 10
-92.435405
 20
-77.76228
 11
-92.435405
 21
31.69199
  0
LINE
  8
型材断面
  6
DASHDOT
 10
-77.435405
 20
-77.76228
 11
-77.435405
 21
31.69199
  0
LINE
  8
型材断面
  6
DASHDOT
 10
-62.435405
 20
-77.76228
 11
-62.435405
 21
31.69199
  0
LINE
  8
型材断面
  6
CONTINUOUS
 10
-100.459278
 20
16.69199
 11
-104.345038
 21
14.448545
  0
LINE
  8
型材断面
  6
CONTINUOUS
 10
-100.459278
 20
16.69199
 11
-104.345038
 21
18.935435
  0
LINE
  8
型材断面
  6
CONTINUOUS
 10
-104.345038
 20
18.935435
 11
-104.345038
 21
14.448545
  0
LINE
  8
型材断面
  6
CONTINUOUS
 10
-54.411528
 20
16.69199
 11
-50.525767
 21
14.448545
  0
LINE
  8
型材断面
  6
CONTINUOUS
 10
-54.411528
 20
16.69199
 11
-50.525767
 21
18.935435
  0
LINE
  8
型材断面
  6
CONTINUOUS
 10
-50.525767
 20
18.935435
 11
-50.525767
 21
14.448545
  0
LINE
  8
型材断面
  6
CONTINUOUS
 10
-77.435405
 20
39.715863
 11
-79.67885
 21
43.601622
  0
LINE
  8
型材断面
  6
CONTINUOUS
 10
-77.435405
 20
39.715863
 11
-75.19196
 21
43.601622
  0
LINE
  8
型材断面
  6
CONTINUOUS
 10
-75.19196
 20
43.601622
 11
-79.67885
 21
43.601622
  0
LINE
  8
型材断面
  6
CONTINUOUS
 10
-77.435405
 20
-6.331887
 11
-79.67885
 21
-10.217648
  0
LINE
  8
型材断面
  6
CONTINUOUS
 10
-77.435405
 20
-6.331887
 11
-75.19196
 21
-10.217648
  0
LINE
  8
型材断面
  6
CONTINUOUS
 10
-75.19196
 20
-10.217648
 11
-79.67885
 21
-10.217648
  0
LINE
  8
型材断面
  6
CONTINUOUS
 10
-35.48472
 20
-6.182028
 11
-37.728165
 21
-10.067788
  0
LINE
  8
型材断面
  6
CONTINUOUS
 10
-35.48472
 20
-6.182028
 11
-33.241275
 21
-10.067788
  0
LINE
  8
型材断面
  6
CONTINUOUS
 10
-33.241275
 20
-10.067788
 11
-37.728165
 21
-10.067788
  0
LINE
  8
型材断面
  6
CONTINUOUS
 10
-35.48472
 20
-13.871575
 11
-34.590635
 21
-17.757335
  0
LINE
  8
型材断面
  6
CONTINUOUS
 10
-35.48472
 20
-13.871575
 11
-36.378805
 21
-17.757335
  0
LINE
  8
型材断面
  6
CONTINUOUS
 10
-36.378805
 20
-17.757335
 11
-34.590635
 21
-17.757335
  0
LINE
  8
型材断面
  6
CONTINUOUS
 10
-44.5186
 20
-11.47568
 11
8.13808
 21
-11.47568
  0
LINE
  8
型材断面
  6
CONTINUOUS
 10
-44.5186
 20
-22.675673
 11
8.13808
 21
-22.675673
  0
LINE
  8
型材断面
  6
CONTINUOUS
 10
-44.5186
 20
-29.515618
 11
8.13808
 21
-29.515618
  0
LINE
  8
型材断面
  6
CONTINUOUS
 10
-54.411528
 20
28.69199
 11
-50.525767
 21
27.797905
  0
LINE
  8
型材断面
  6
CONTINUOUS
 10
-54.411528
 20
28.69199
 11
-50.525767
 21
29.586075
  0
LINE
  8
型材断面
  6
CONTINUOUS
 10
-50.525767
 20
29.586075
 11
-50.525767
 21
27.797905
  0
LINE
  8
型材断面
  6
CONTINUOUS
 10
-54.411528
 20
4.69199
 11
-50.525767
 21
5.586075
  0
LINE
  8
型材断面
  6
CONTINUOUS
 10
-54.411528
 20
4.69199
 11
-50.525767
 21
3.797905
  0
LINE
  8
型材断面
  6
CONTINUOUS
 10
-50.525767
 20
3.797905
 11
-50.525767
 21
5.586075
  0
POLYLINE
  8
型材断面
  6
CONTINUOUS
 66
     1
 70
     1
  0
VERTEX
  8
型材断面
 10
-101.415475
 20
-64.546893
  0
VERTEX
  8
型材断面
 10
-115.011485
 20
-64.546893
  0
VERTEX
  8
型材断面
 10
-115.011485
 20
-69.84042
  0
VERTEX
  8
型材断面
 10
-101.415475
 20
-69.84042
  0
SEQEND
  0
LINE
  8
型材断面
  6
CONTINUOUS
 62
    47
 10
-94.420405
 20
-65.158463
 11
-94.435405
 21
-65.143462
  0
LINE
  8
型材断面
  6
CONTINUOUS
 62
    47
 10
-94.420405
 20
-65.158463
 11
-94.435405
 21
-65.173462
  0
LINE
  8
型材断面
  6
CONTINUOUS
 62
    47
 10
-94.420405
 20
-66.12181
 11
-94.435405
 21
-66.10681
  0
LINE
  8
型材断面
  6
CONTINUOUS
 62
    47
 10
-94.420405
 20
-66.12181
 11
-94.435405
 21
-66.13681
  0
LINE
  8
型材断面
  6
CONTINUOUS
 62
    47
 10
-94.435405
 20
-66.748463
 11
-94.435405
 21
-66.13681
  0
LINE
  8
型材断面
  6
CONTINUOUS
 62
    47
 10
-94.435405
 20
-66.10681
 11
-94.435405
 21
-65.173462
  0
LINE
  8
型材断面
  6
CONTINUOUS
 62
    47
 10
-94.435405
 20
-65.143462
 11
-94.435405
 21
-64.098435
  0
LINE
  8
型材断面
  6
CONTINUOUS
 62
    47
 10
-94.435405
 20
-64.098435
 11
-77.435402
 21
-64.098435
  0
LINE
  8
型材断面
  6
CONTINUOUS
 10
-94.435405
 20
-66.748463
 11
-77.435402
 21
-66.748463
  0
LINE
  8
型材断面
  6
CONTINUOUS
 10
-77.435402
 20
-66.84795
 11
-96.335617
 21
-66.84795
  0
LINE
  8
型材断面
  6
CONTINUOUS
 62
    47
 10
-96.335617
 20
-66.84795
 11
-96.335617
 21
-67.097893
  0
LINE
  8
型材断面
  6
CONTINUOUS
 62
    47
 10
-77.435402
 20
-67.097893
 11
-96.335617
 21
-67.097893
  0
LINE
  8
型材断面
  6
CONTINUOUS
 62
    47
 10
-94.120615
 20
-68.448458
 11
-94.135615
 21
-68.433457
  0
LINE
  8
型材断面
  6
CONTINUOUS
 62
    47
 10
-94.120615
 20
-68.448458
 11
-94.135615
 21
-68.463458
  0
LINE
  8
型材断面
  6
CONTINUOUS
 62
    47
 10
-94.120615
 20
-69.148467
 11
-94.135615
 21
-69.133468
  0
LINE
  8
型材断面
  6
CONTINUOUS
 62
    47
 10
-94.120615
 20
-69.148467
 11
-94.135615
 21
-69.163468
  0
LINE
  8
型材断面
  6
CONTINUOUS
 62
    47
 10
-94.135615
 20
-67.49843
 11
-94.135615
 21
-68.433457
  0
LINE
  8
型材断面
  6
CONTINUOUS
 62
    47
 10
-94.135615
 20
-68.463458
 11
-94.135615
 21
-69.133468
  0
LINE
  8
型材断面
  6
CONTINUOUS
 62
    47
 10
-97.435615
 20
-70.348442
 11
-97.435615
 21
-71.098445
  0
LINE
  8
型材断面
  6
CONTINUOUS
 62
    47
 10
-96.685628
 20
-71.598442
 11
-96.685628
 21
-71.098445
  0
LINE
  8
型材断面
  6
CONTINUOUS
 62
    47
 10
-97.435615
 20
-70.348442
 11
-94.135615
 21
-70.098442
  0
LINE
  8
型材断面
  6
CONTINUOUS
 62
    47
 10
-93.035402
 20
-70.098442
 11
-94.035615
 21
-70.098442
  0
LINE
  8
型材断面
  6
CONTINUOUS
 62
    47
 10
-94.120615
 20
-69.948442
 11
-94.135615
 21
-69.933442
  0
LINE
  8
型材断面
  6
CONTINUOUS
 62
    47
 10
-94.120615
 20
-69.948442
 11
-94.135615
 21
-69.963443
  0
LINE
  8
型材断面
  6
CONTINUOUS
 62
    47
 10
-94.135615
 20
-70.098442
 11
-94.135615
 21
-69.963443
  0
LINE
  8
型材断面
  6
CONTINUOUS
 62
    47
 10
-94.135615
 20
-69.163468
 11
-94.135615
 21
-69.933442
  0
LINE
  8
型材断面
  6
CONTINUOUS
 62
    47
 10
-77.435402
 20
-67.298455
 11
-96.335615
 21
-67.298455
  0
LINE
  8
型材断面
  6
CONTINUOUS
 62
    47
 10
-96.335615
 20
-67.49843
 11
-96.335615
 21
-67.298455
  0
LINE
  8
型材断面
  6
CONTINUOUS
 62
    47
 10
-96.335615
 20
-67.49843
 11
-77.435402
 21
-67.49843
  0
LINE
  8
型材断面
  6
CONTINUOUS
 10
-77.435402
 20
-70.098442
 11
-94.135615
 21
-70.098442
  0
LINE
  8
型材断面
  6
CONTINUOUS
 10
-77.435402
 20
-70.348442
 11
-97.435615
 21
-70.348442
  0
LINE
  8
型材断面
  6
CONTINUOUS
 62
    47
 10
-97.435615
 20
-71.098445
 11
-77.435402
 21
-71.098445
  0
LINE
  8
型材断面
  6
CONTINUOUS
 62
    47
 10
-96.685628
 20
-71.598442
 11
-77.435402
 21
-71.598442
  0
LINE
  8
型材断面
  6
CONTINUOUS
 62
    47
 10
-94.435405
 20
-66.748463
 11
-96.335617
 21
-66.84795
  0
LINE
  8
型材断面
  6
CONTINUOUS
 62
    47
 10
-60.450405
 20
-65.158463
 11
-60.435405
 21
-65.143462
  0
LINE
  8
型材断面
  6
CONTINUOUS
 62
    47
 10
-60.450405
 20
-65.158463
 11
-60.435405
 21
-65.173462
  0
LINE
  8
型材断面
  6
CONTINUOUS
 62
    47
 10
-60.450405
 20
-66.12181
 11
-60.435405
 21
-66.10681
  0
LINE
  8
型材断面
  6
CONTINUOUS
 62
    47
 10
-60.450405
 20
-66.12181
 11
-60.435405
 21
-66.13681
  0
LINE
  8
型材断面
  6
CONTINUOUS
 62
    47
 10
-60.435405
 20
-66.748463
 11
-60.435405
 21
-66.13681
  0
LINE
  8
型材断面
  6
CONTINUOUS
 62
    47
 10
-60.435405
 20
-66.10681
 11
-60.435405
 21
-65.173462
  0
LINE
  8
型材断面
  6
CONTINUOUS
 62
    47
 10
-60.435405
 20
-65.143462
 11
-60.435405
 21
-64.098435
  0
LINE
  8
型材断面
  6
CONTINUOUS
 62
    47
 10
-60.435405
 20
-64.098435
 11
-77.435408
 21
-64.098435
  0
LINE
  8
型材断面
  6
CONTINUOUS
 10
-60.435405
 20
-66.748463
 11
-77.435408
 21
-66.748463
  0
LINE
  8
型材断面
  6
CONTINUOUS
 10
-77.435408
 20
-66.84795
 11
-58.535192
 21
-66.84795
  0
LINE
  8
型材断面
  6
CONTINUOUS
 62
    47
 10
-58.535192
 20
-66.84795
 11
-58.535192
 21
-67.097893
  0
LINE
  8
型材断面
  6
CONTINUOUS
 62
    47
 10
-77.435408
 20
-67.097893
 11
-58.535192
 21
-67.097893
  0
LINE
  8
型材断面
  6
CONTINUOUS
 62
    47
 10
-60.750195
 20
-68.448458
 11
-60.735195
 21
-68.433457
  0
LINE
  8
型材断面
  6
CONTINUOUS
 62
    47
 10
-60.750195
 20
-68.448458
 11
-60.735195
 21
-68.463458
  0
LINE
  8
型材断面
  6
CONTINUOUS
 62
    47
 10
-60.750195
 20
-69.148467
 11
-60.735195
 21
-69.133468
  0
LINE
  8
型材断面
  6
CONTINUOUS
 62
    47
 10
-60.750195
 20
-69.148467
 11
-60.735195
 21
-69.163468
  0
LINE
  8
型材断面
  6
CONTINUOUS
 62
    47
 10
-60.735195
 20
-67.49843
 11
-60.735195
 21
-68.433457
  0
LINE
  8
型材断面
  6
CONTINUOUS
 62
    47
 10
-60.735195
 20
-68.463458
 11
-60.735195
 21
-69.133468
  0
LINE
  8
型材断面
  6
CONTINUOUS
 62
    47
 10
-57.435195
 20
-70.348442
 11
-57.435195
 21
-71.098445
  0
LINE
  8
型材断面
  6
CONTINUOUS
 62
    47
 10
-58.185182
 20
-71.598442
 11
-58.185182
 21
-71.098445
  0
LINE
  8
型材断面
  6
CONTINUOUS
 62
    47
 10
-57.435195
 20
-70.348442
 11
-60.735195
 21
-70.098442
  0
LINE
  8
型材断面
  6
CONTINUOUS
 62
    47
 10
-61.835408
 20
-70.098442
 11
-60.835195
 21
-70.098442
  0
LINE
  8
型材断面
  6
CONTINUOUS
 62
    47
 10
-60.750195
 20
-69.948442
 11
-60.735195
 21
-69.933442
  0
LINE
  8
型材断面
  6
CONTINUOUS
 62
    47
 10
-60.750195
 20
-69.948442
 11
-60.735195
 21
-69.963443
  0
LINE
  8
型材断面
  6
CONTINUOUS
 62
    47
 10
-60.735195
 20
-70.098442
 11
-60.735195
 21
-69.963443
  0
LINE
  8
型材断面
  6
CONTINUOUS
 62
    47
 10
-60.735195
 20
-69.163468
 11
-60.735195
 21
-69.933442
  0
LINE
  8
型材断面
  6
CONTINUOUS
 62
    47
 10
-77.435408
 20
-67.298455
 11
-58.535195
 21
-67.298455
  0
LINE
  8
型材断面
  6
CONTINUOUS
 62
    47
 10
-58.535195
 20
-67.49843
 11
-58.535195
 21
-67.298455
  0
LINE
  8
型材断面
  6
CONTINUOUS
 62
    47
 10
-58.535195
 20
-67.49843
 11
-77.435408
 21
-67.49843
  0
LINE
  8
型材断面
  6
CONTINUOUS
 10
-77.435408
 20
-70.098442
 11
-60.735195
 21
-70.098442
  0
LINE
  8
型材断面
  6
CONTINUOUS
 10
-77.435408
 20
-70.348442
 11
-57.435195
 21
-70.348442
  0
LINE
  8
型材断面
  6
CONTINUOUS
 62
    47
 10
-57.435195
 20
-71.098445
 11
-77.435408
 21
-71.098445
  0
LINE
  8
型材断面
  6
CONTINUOUS
 62
    47
 10
-58.185182
 20
-71.598442
 11
-77.435408
 21
-71.598442
  0
LINE
  8
型材断面
  6
CONTINUOUS
 62
    47
 10
-60.435405
 20
-66.748463
 11
-58.535192
 21
-66.84795
  0
LINE
  8
型材断面
  6
CONTINUOUS
 10
-57.435195
 20
-3.30822
 11
-57.435195
 21
16.69199
  0
LINE
  8
型材断面
  6
CONTINUOUS
 10
-57.435195
 20
-3.30822
 11
-77.435405
 21
-3.30822
  0
LINE
  8
型材断面
  6
CONTINUOUS
 10
-57.435195
 20
36.6922
 11
-57.435195
 21
16.69199
  0
LINE
  8
型材断面
  6
CONTINUOUS
 10
-57.435195
 20
36.6922
 11
-77.435405
 21
36.6922
  0
LINE
  8
型材断面
  6
CONTINUOUS
 10
-97.435615
 20
36.6922
 11
-77.435405
 21
36.6922
  0
LINE
  8
型材断面
  6
CONTINUOUS
 10
-97.435615
 20
-3.30822
 11
-77.435405
 21
-3.30822
  0
LINE
  8
型材断面
  6
CONTINUOUS
 62
    47
 10
39.217592
 20
-65.158463
 11
39.202592
 21
-65.143462
  0
LINE
  8
型材断面
  6
CONTINUOUS
 62
    47
 10
39.217592
 20
-65.158463
 11
39.202592
 21
-65.173462
  0
LINE
  8
型材断面
  6
CONTINUOUS
 62
    47
 10
39.217592
 20
-66.12181
 11
39.202592
 21
-66.10681
  0
LINE
  8
型材断面
  6
CONTINUOUS
 62
    47
 10
39.217592
 20
-66.12181
 11
39.202592
 21
-66.13681
  0
LINE
  8
型材断面
  6
CONTINUOUS
 62
    47
 10
39.202592
 20
-66.748463
 11
39.202592
 21
-66.13681
  0
LINE
  8
型材断面
  6
CONTINUOUS
 62
    47
 10
39.202592
 20
-66.10681
 11
39.202592
 21
-65.173462
  0
LINE
  8
型材断面
  6
CONTINUOUS
 62
    47
 10
39.202592
 20
-65.143462
 11
39.202592
 21
-64.098435
  0
LINE
  8
型材断面
  6
CONTINUOUS
 62
    47
 10
39.202592
 20
-64.098435
 11
56.202595
 21
-64.098435
  0
LINE
  8
型材断面
  6
CONTINUOUS
 10
39.202592
 20
-66.748463
 11
56.202595
 21
-66.748463
  0
LINE
  8
型材断面
  6
CONTINUOUS
 10
56.202595
 20
-66.84795
 11
37.30238
 21
-66.84795
  0
LINE
  8
型材断面
  6
CONTINUOUS
 62
    47
 10
37.30238
 20
-66.84795
 11
37.30238
 21
-67.097893
  0
LINE
  8
型材断面
  6
CONTINUOUS
 62
    47
 10
56.202595
 20
-67.097893
 11
37.30238
 21
-67.097893
  0
LINE
  8
型材断面
  6
CONTINUOUS
 62
    47
 10
39.517382
 20
-68.448458
 11
39.502383
 21
-68.433457
  0
LINE
  8
型材断面
  6
CONTINUOUS
 62
    47
 10
39.517382
 20
-68.448458
 11
39.502383
 21
-68.463458
  0
LINE
  8
型材断面
  6
CONTINUOUS
 62
    47
 10
39.517382
 20
-69.148467
 11
39.502383
 21
-69.133468
  0
LINE
  8
型材断面
  6
CONTINUOUS
 62
    47
 10
39.517382
 20
-69.148467
 11
39.502383
 21
-69.163468
  0
LINE
  8
型材断面
  6
CONTINUOUS
 62
    47
 10
39.502383
 20
-67.49843
 11
39.502383
 21
-68.433457
  0
LINE
  8
型材断面
  6
CONTINUOUS
 62
    47
 10
39.502383
 20
-68.463458
 11
39.502383
 21
-69.133468
  0
LINE
  8
型材断面
  6
CONTINUOUS
 62
    47
 10
36.202383
 20
-70.348442
 11
36.202383
 21
-71.098445
  0
LINE
  8
型材断面
  6
CONTINUOUS
 62
    47
 10
36.95237
 20
-71.598442
 11
36.95237
 21
-71.098445
  0
LINE
  8
型材断面
  6
CONTINUOUS
 62
    47
 10
36.202383
 20
-70.348442
 11
39.502383
 21
-70.098442
  0
LINE
  8
型材断面
  6
CONTINUOUS
 62
    47
 10
40.602595
 20
-70.098442
 11
39.602383
 21
-70.098442
  0
LINE
  8
型材断面
  6
CONTINUOUS
 62
    47
 10
39.517382
 20
-69.948442
 11
39.502383
 21
-69.933442
  0
LINE
  8
型材断面
  6
CONTINUOUS
 62
    47
 10
39.517382
 20
-69.948442
 11
39.502383
 21
-69.963443
  0
LINE
  8
型材断面
  6
CONTINUOUS
 62
    47
 10
39.502383
 20
-70.098442
 11
39.502383
 21
-69.963443
  0
LINE
  8
型材断面
  6
CONTINUOUS
 62
    47
 10
39.502383
 20
-69.163468
 11
39.502383
 21
-69.933442
  0
LINE
  8
型材断面
  6
CONTINUOUS
 62
    47
 10
56.202595
 20
-67.298455
 11
37.302383
 21
-67.298455
  0
LINE
  8
型材断面
  6
CONTINUOUS
 62
    47
 10
37.302383
 20
-67.49843
 11
37.302383
 21
-67.298455
  0
LINE
  8
型材断面
  6
CONTINUOUS
 62
    47
 10
37.302383
 20
-67.49843
 11
56.202595
 21
-67.49843
  0
LINE
  8
型材断面
  6
CONTINUOUS
 10
56.202595
 20
-70.098442
 11
39.502383
 21
-70.098442
  0
LINE
  8
型材断面
  6
CONTINUOUS
 10
56.202595
 20
-70.348442
 11
36.202383
 21
-70.348442
  0
LINE
  8
型材断面
  6
CONTINUOUS
 62
    47
 10
36.202383
 20
-71.098445
 11
56.202595
 21
-71.098445
  0
LINE
  8
型材断面
  6
CONTINUOUS
 62
    47
 10
36.95237
 20
-71.598442
 11
56.202595
 21
-71.598442
  0
LINE
  8
型材断面
  6
CONTINUOUS
 62
    47
 10
39.202592
 20
-66.748463
 11
37.30238
 21
-66.84795
  0
LINE
  8
型材断面
  6
CONTINUOUS
 62
    47
 10
73.187593
 20
-65.158463
 11
73.202592
 21
-65.143462
  0
LINE
  8
型材断面
  6
CONTINUOUS
 62
    47
 10
73.187593
 20
-65.158463
 11
73.202592
 21
-65.173462
  0
LINE
  8
型材断面
  6
CONTINUOUS
 62
    47
 10
73.187593
 20
-66.12181
 11
73.202592
 21
-66.10681
  0
LINE
  8
型材断面
  6
CONTINUOUS
 62
    47
 10
73.187593
 20
-66.12181
 11
73.202592
 21
-66.13681
  0
LINE
  8
型材断面
  6
CONTINUOUS
 62
    47
 10
73.202592
 20
-66.748463
 11
73.202592
 21
-66.13681
  0
LINE
  8
型材断面
  6
CONTINUOUS
 62
    47
 10
73.202592
 20
-66.10681
 11
73.202592
 21
-65.173462
  0
LINE
  8
型材断面
  6
CONTINUOUS
 62
    47
 10
73.202592
 20
-65.143462
 11
73.202592
 21
-64.098435
  0
LINE
  8
型材断面
  6
CONTINUOUS
 62
    47
 10
73.202592
 20
-64.098435
 11
56.20259
 21
-64.098435
  0
LINE
  8
型材断面
  6
CONTINUOUS
 10
73.202592
 20
-66.748463
 11
56.20259
 21
-66.748463
  0
LINE
  8
型材断面
  6
CONTINUOUS
 10
56.20259
 20
-66.84795
 11
75.102805
 21
-66.84795
  0
LINE
  8
型材断面
  6
CONTINUOUS
 62
    47
 10
75.102805
 20
-66.84795
 11
75.102805
 21
-67.097893
  0
LINE
  8
型材断面
  6
CONTINUOUS
 62
    47
 10
56.20259
 20
-67.097893
 11
75.102805
 21
-67.097893
  0
LINE
  8
型材断面
  6
CONTINUOUS
 62
    47
 10
72.887802
 20
-68.448458
 11
72.902802
 21
-68.433457
  0
LINE
  8
型材断面
  6
CONTINUOUS
 62
    47
 10
72.887802
 20
-68.448458
 11
72.902802
 21
-68.463458
  0
LINE
  8
型材断面
  6
CONTINUOUS
 62
    47
 10
72.887802
 20
-69.148467
 11
72.902802
 21
-69.133468
  0
LINE
  8
型材断面
  6
CONTINUOUS
 62
    47
 10
72.887802
 20
-69.148467
 11
72.902802
 21
-69.163468
  0
LINE
  8
型材断面
  6
CONTINUOUS
 62
    47
 10
72.902802
 20
-67.49843
 11
72.902802
 21
-68.433457
  0
LINE
  8
型材断面
  6
CONTINUOUS
 62
    47
 10
72.902802
 20
-68.463458
 11
72.902802
 21
-69.133468
  0
LINE
  8
型材断面
  6
CONTINUOUS
 62
    47
 10
76.202802
 20
-70.348442
 11
76.202802
 21
-71.098445
  0
LINE
  8
型材断面
  6
CONTINUOUS
 62
    47
 10
75.452815
 20
-71.598442
 11
75.452815
 21
-71.098445
  0
LINE
  8
型材断面
  6
CONTINUOUS
 62
    47
 10
76.202802
 20
-70.348442
 11
72.902802
 21
-70.098442
  0
LINE
  8
型材断面
  6
CONTINUOUS
 62
    47
 10
71.80259
 20
-70.098442
 11
72.802802
 21
-70.098442
  0
LINE
  8
型材断面
  6
CONTINUOUS
 62
    47
 10
72.887802
 20
-69.948442
 11
72.902802
 21
-69.933442
  0
LINE
  8
型材断面
  6
CONTINUOUS
 62
    47
 10
72.887802
 20
-69.948442
 11
72.902802
 21
-69.963443
  0
LINE
  8
型材断面
  6
CONTINUOUS
 62
    47
 10
72.902802
 20
-70.098442
 11
72.902802
 21
-69.963443
  0
LINE
  8
型材断面
  6
CONTINUOUS
 62
    47
 10
72.902802
 20
-69.163468
 11
72.902802
 21
-69.933442
  0
LINE
  8
型材断面
  6
CONTINUOUS
 62
    47
 10
56.20259
 20
-67.298455
 11
75.102802
 21
-67.298455
  0
LINE
  8
型材断面
  6
CONTINUOUS
 62
    47
 10
75.102802
 20
-67.49843
 11
75.102802
 21
-67.298455
  0
LINE
  8
型材断面
  6
CONTINUOUS
 62
    47
 10
75.102802
 20
-67.49843
 11
56.20259
 21
-67.49843
  0
LINE
  8
型材断面
  6
CONTINUOUS
 10
56.20259
 20
-70.098442
 11
72.902802
 21
-70.098442
  0
LINE
  8
型材断面
  6
CONTINUOUS
 10
56.20259
 20
-70.348442
 11
76.202802
 21
-70.348442
  0
LINE
  8
型材断面
  6
CONTINUOUS
 62
    47
 10
76.202802
 20
-71.098445
 11
56.20259
 21
-71.098445
  0
LINE
  8
型材断面
  6
CONTINUOUS
 62
    47
 10
75.452815
 20
-71.598442
 11
56.20259
 21
-71.598442
  0
LINE
  8
型材断面
  6
CONTINUOUS
 62
    47
 10
73.202592
 20
-66.748463
 11
75.102805
 21
-66.84795
  0
ARC
  8
型材断面
  6
DASHDOT
 10
36.792108
 20
-67.17343
 40
38.310772
 50
360.11297
 51
405.112972
  0
LINE
  8
型材断面
  6
CONTINUOUS
 10
-77.435405
 20
-2.208223
 11
-96.335617
 21
-2.208223
  0
LINE
  8
型材断面
  6
CONTINUOUS
 10
-77.435405
 20
35.592202
 11
-96.335617
 21
35.592202
  0
LINE
  8
型材断面
  6
CONTINUOUS
 10
-58.535192
 20
16.69199
 11
-58.535192
 21
35.592202
  0
LINE
  8
型材断面
  6
CONTINUOUS
 10
-77.435405
 20
35.592202
 11
-58.535192
 21
35.592202
  0
LINE
  8
型材断面
  6
CONTINUOUS
 10
-77.435405
 20
-2.208223
 11
-58.535192
 21
-2.208223
  0
LINE
  8
型材断面
  6
CONTINUOUS
 10
-58.535192
 20
16.69199
 11
-58.535192
 21
-2.208223
  0
LINE
  8
型材断面
  6
CONTINUOUS
 10
-94.73042
 20
-61.573622
 11
-94.73042
 21
-63.823622
  0
LINE
  8
型材断面
  6
CONTINUOUS
 62
    47
 10
-77.435405
 20
-63.823622
 11
-94.73042
 21
-63.823622
  0
LINE
  8
型材断面
  6
CONTINUOUS
 10
-94.965203
 20
-61.573622
 11
-94.965203
 21
-61.323622
  0
LINE
  8
型材断面
  6
CONTINUOUS
 62
    47
 10
-77.435405
 20
-61.323622
 11
-94.965203
 21
-61.323622
  0
LINE
  8
型材断面
  6
CONTINUOUS
 62
    47
 10
-77.435405
 20
-61.573622
 11
-94.965203
 21
-61.573622
  0
LINE
  8
型材断面
  6
CONTINUOUS
 10
-60.14039
 20
-61.573622
 11
-60.14039
 21
-63.823622
  0
LINE
  8
型材断面
  6
CONTINUOUS
 62
    47
 10
-77.435405
 20
-63.823622
 11
-60.14039
 21
-63.823622
  0
LINE
  8
型材断面
  6
CONTINUOUS
 10
-59.905608
 20
-61.573622
 11
-59.905608
 21
-61.323622
  0
LINE
  8
型材断面
  6
CONTINUOUS
 62
    47
 10
-77.435405
 20
-61.323622
 11
-59.905608
 21
-61.323622
  0
LINE
  8
型材断面
  6
CONTINUOUS
 62
    47
 10
-77.435405
 20
-61.573622
 11
-59.905608
 21
-61.573622
  0
LINE
  8
型材断面
  6
CONTINUOUS
 10
38.907577
 20
-61.573622
 11
38.907577
 21
-63.823622
  0
LINE
  8
型材断面
  6
CONTINUOUS
 62
    47
 10
56.202592
 20
-63.823622
 11
38.907577
 21
-63.823622
  0
LINE
  8
型材断面
  6
CONTINUOUS
 10
38.672795
 20
-61.573622
 11
38.672795
 21
-61.323622
  0
LINE
  8
型材断面
  6
CONTINUOUS
 62
    47
 10
56.202592
 20
-61.323622
 11
38.672795
 21
-61.323622
  0
LINE
  8
型材断面
  6
CONTINUOUS
 62
    47
 10
56.202592
 20
-61.573622
 11
38.672795
 21
-61.573622
  0
LINE
  8
型材断面
  6
CONTINUOUS
 10
73.497608
 20
-61.573622
 11
73.497608
 21
-63.823622
  0
LINE
  8
型材断面
  6
CONTINUOUS
 62
    47
 10
56.202592
 20
-63.823622
 11
73.497608
 21
-63.823622
  0
LINE
  8
型材断面
  6
CONTINUOUS
 10
73.73239
 20
-61.573622
 11
73.73239
 21
-61.323622
  0
LINE
  8
型材断面
  6
CONTINUOUS
 62
    47
 10
56.202592
 20
-61.323622
 11
73.73239
 21
-61.323622
  0
LINE
  8
型材断面
  6
CONTINUOUS
 62
    47
 10
56.202592
 20
-61.573622
 11
73.73239
 21
-61.573622
  0
LINE
  8
型材断面
  6
DOT
 62
    47
 10
37.082388
 20
-64.033555
 11
37.061175
 21
-64.033555
  0
LINE
  8
型材断面
  6
DOT
 62
    47
 10
37.082388
 20
-64.033555
 11
37.082388
 21
-64.05477
  0
LINE
  8
型材断面
  6
DOT
 62
    47
 10
37.763578
 20
-64.714745
 11
37.742362
 21
-64.714745
  0
LINE
  8
型材断面
  6
DOT
 62
    47
 10
37.763578
 20
-64.714745
 11
37.763578
 21
-64.735958
  0
LINE
  8
型材断面
  6
DOT
 62
    47
 10
38.19608
 20
-65.168462
 11
37.763578
 21
-64.735958
  0
LINE
  8
型材断面
  6
DOT
 62
    47
 10
37.742362
 20
-64.714745
 11
37.082388
 21
-64.05477
  0
LINE
  8
型材断面
  6
DOT
 62
    47
 10
37.061175
 20
-64.033555
 11
36.322228
 21
-63.29461
  0
LINE
  8
型材断面
  6
DOT
 62
    47
 10
36.322228
 20
-63.29461
 11
48.343045
 21
-51.273793
  0
LINE
  8
型材断面
  6
DOT
 10
38.19608
 20
-65.168462
 11
50.216898
 21
-53.147645
  0
LINE
  8
型材断面
  6
DOT
 10
50.287245
 20
-53.217993
 11
36.922775
 21
-66.582463
  0
LINE
  8
型材断面
  6
DOT
 62
    47
 10
36.922775
 20
-66.582463
 11
37.099512
 21
-66.7592
  0
LINE
  8
型材断面
  6
DOT
 62
    47
 10
50.463983
 20
-53.39473
 11
37.099512
 21
-66.7592
  0
LINE
  8
型材断面
  6
DOT
 62
    47
 10
38.19608
 20
-65.168462
 11
36.922775
 21
-66.582463
  0
LINE
  8
型材断面
  6
DOT
 62
    47
 10
36.608595
 20
-63.008242
 11
36.360988
 21
-62.760635
  0
LINE
  8
型材断面
  6
DOT
 62
    47
 10
61.102805
 20
-40.013137
 11
61.102805
 21
-39.991925
  0
LINE
  8
型材断面
  6
DOT
 62
    47
 10
61.102805
 20
-40.013137
 11
61.124018
 21
-40.013137
  0
LINE
  8
型材断面
  6
DOT
 62
    47
 10
61.783995
 20
-40.694327
 11
61.783995
 21
-40.673115
  0
LINE
  8
型材断面
  6
DOT
 62
    47
 10
61.783995
 20
-40.694327
 11
61.805207
 21
-40.694327
  0
LINE
  8
型材断面
  6
DOT
 62
    47
 10
62.23771
 20
-41.126832
 11
61.805207
 21
-40.694327
  0
LINE
  8
型材断面
  6
DOT
 62
    47
 10
61.783995
 20
-40.673115
 11
61.124018
 21
-40.013137
  0
LINE
  8
型材断面
  6
DOT
 62
    47
 10
61.102805
 20
-39.991925
 11
60.363858
 21
-39.25298
  0
LINE
  8
型材断面
  6
DOT
 62
    47
 10
60.363858
 20
-39.25298
 11
48.343043
 21
-51.273798
  0
LINE
  8
型材断面
  6
DOT
 10
62.23771
 20
-41.126832
 11
50.216895
 21
-53.14765
  0
LINE
  8
型材断面
  6
DOT
 10
50.287242
 20
-53.217998
 11
63.651713
 21
-39.853528
  0
LINE
  8
型材断面
  6
DOT
 62
    47
 10
63.651713
 20
-39.853528
 11
63.828448
 21
-40.030263
  0
LINE
  8
型材断面
  6
DOT
 62
    47
 10
50.463977
 20
-53.394733
 11
63.828448
 21
-40.030263
  0
LINE
  8
型材断面
  6
DOT
 62
    47
 10
62.23771
 20
-41.126832
 11
63.651713
 21
-39.853528
  0
LINE
  8
型材断面
  6
DOT
 62
    47
 10
60.07749
 20
-39.539347
 11
59.829882
 21
-39.29174
  0
LINE
  8
型材断面
  6
DOT
 10
34.32831
 20
-61.717905
 11
35.9193
 21
-63.308895
  0
LINE
  8
型材断面
  6
DOT
 62
    47
 10
48.148723
 20
-51.079472
 11
35.9193
 21
-63.308895
  0
LINE
  8
型材断面
  6
DOT
 10
34.162292
 20
-61.883922
 11
33.985515
 21
-61.707145
  0
LINE
  8
型材断面
  6
DOT
 62
    47
 10
46.380955
 20
-49.311705
 11
33.985515
 21
-61.707145
  0
LINE
  8
型材断面
  6
DOT
 62
    47
 10
46.55773
 20
-49.488483
 11
34.162292
 21
-61.883922
  0
LINE
  8
型材断面
  6
DOT
 10
58.787153
 20
-37.25906
 11
60.378145
 21
-38.85005
  0
LINE
  8
型材断面
  6
DOT
 62
    47
 10
48.148723
 20
-51.079472
 11
60.378145
 21
-38.85005
  0
LINE
  8
型材断面
  6
DOT
 10
58.95317
 20
-37.093045
 11
58.776392
 21
-36.916267
  0
LINE
  8
型材断面
  6
DOT
 62
    47
 10
46.380955
 20
-49.311705
 11
58.776392
 21
-36.916267
  0
LINE
  8
型材断面
  6
DOT
 62
    47
 10
46.55773
 20
-49.488483
 11
58.95317
 21
-37.093045
  0
LINE
  8
型材断面
  6
DASHDOT
 10
-92.435405
 20
-77.76228
 11
-92.435405
 21
31.69199
  0
LINE
  8
型材断面
  6
DASHDOT
 10
-92.435405
 20
31.69199
 11
-62.435405
 21
31.69199
  0
LINE
  8
型材断面
  6
CONTINUOUS
 62
    47
 10
-60.84039
 20
-64.098435
 11
-60.84039
 21
-63.823622
  0
LINE
  8
型材断面
  6
CONTINUOUS
 62
    47
 10
-94.03042
 20
-64.098435
 11
-94.03042
 21
-63.823622
  0
LINE
  8
型材断面
  6
CONTINUOUS
 62
    47
 10
72.797608
 20
-64.098435
 11
72.797608
 21
-63.823622
  0
LINE
  8
型材断面
  6
CONTINUOUS
 62
    47
 10
39.607577
 20
-64.098435
 11
39.607577
 21
-63.823622
  0
LINE
  8
型材断面
  6
CONTINUOUS
 10
-60.259155
 20
-0.837817
 11
-59.90561
 21
-0.484255
  0
LINE
  8
型材断面
  6
CONTINUOUS
 10
-57.435195
 20
-3.30822
 11
-60.08238
 21
-0.661035
  0
LINE
  8
型材断面
  6
CONTINUOUS
 10
-64.009165
 20
2.912183
 11
-60.259165
 21
-0.837807
  0
LINE
  8
型材断面
  6
CONTINUOUS
 10
-63.65561
 20
3.265738
 11
-59.905608
 21
-0.484257
  0
LINE
  8
型材断面
  6
CONTINUOUS
 10
-64.009155
 20
2.912192
 11
-63.65561
 21
3.265738
  0
LINE
  8
型材断面
  6
DASHDOT
 10
-92.435405
 20
16.69199
 11
-62.435405
 21
16.69199
  0
LINE
  8
型材断面
  6
DASHDOT
 10
-92.435405
 20
1.69199
 11
-62.435405
 21
1.69199
  0
LINE
  8
型材断面
  6
CONTINUOUS
 10
-60.259155
 20
34.221797
 11
-59.90561
 21
33.868235
  0
LINE
  8
型材断面
  6
CONTINUOUS
 10
-57.435195
 20
36.6922
 11
-60.08238
 21
34.045015
  0
LINE
  8
型材断面
  6
CONTINUOUS
 10
-64.009165
 20
30.471797
 11
-60.259165
 21
34.221788
  0
LINE
  8
型材断面
  6
CONTINUOUS
 10
-63.65561
 20
30.118243
 11
-59.905608
 21
33.868238
  0
LINE
  8
型材断面
  6
CONTINUOUS
 10
-64.009155
 20
30.471788
 11
-63.65561
 21
30.118243
  0
LINE
  8
型材断面
  6
CONTINUOUS
 10
-59.905608
 20
-0.484257
 11
-59.905608
 21
33.868238
  0
LINE
  8
型材断面
  6
CONTINUOUS
 10
-76.810405
 20
2.912195
 11
-76.810405
 21
-0.837807
  0
LINE
  8
型材断面
  6
CONTINUOUS
 10
-78.060405
 20
2.912195
 11
-78.060405
 21
-0.837807
  0
LINE
  8
型材断面
  6
CONTINUOUS
 10
-76.810405
 20
2.912195
 11
-64.009152
 21
2.912195
  0
LINE
  8
型材断面
  6
CONTINUOUS
 10
-63.65561
 20
16.06699
 11
-59.905608
 21
16.06699
  0
LINE
  8
型材断面
  6
CONTINUOUS
 10
-63.65561
 20
17.31699
 11
-59.905608
 21
17.31699
  0
LINE
  8
型材断面
  6
CONTINUOUS
 10
-78.060405
 20
30.471785
 11
-78.060405
 21
34.221788
  0
LINE
  8
型材断面
  6
CONTINUOUS
 10
-76.810405
 20
30.471785
 11
-76.810405
 21
34.221788
  0
LINE
  8
型材断面
  6
CONTINUOUS
 10
-76.810405
 20
30.471785
 11
-64.009152
 21
30.471785
  0
LINE
  8
型材断面
  6
CONTINUOUS
 10
-63.65561
 20
3.265738
 11
-63.65561
 21
16.06699
  0
LINE
  8
型材断面
  6
CONTINUOUS
 10
-63.65561
 20
17.31699
 11
-63.65561
 21
30.118243
  0
LINE
  8
型材断面
  6
CONTINUOUS
 10
-97.435615
 20
-3.30822
 11
-97.435615
 21
16.69199
  0
LINE
  8
型材断面
  6
CONTINUOUS
 10
-97.435615
 20
36.6922
 11
-97.435615
 21
16.69199
  0
LINE
  8
型材断面
  6
CONTINUOUS
 10
-96.335617
 20
16.69199
 11
-96.335617
 21
35.592202
  0
LINE
  8
型材断面
  6
CONTINUOUS
 10
-96.335617
 20
16.69199
 11
-96.335617
 21
-2.208223
  0
LINE
  8
型材断面
  6
CONTINUOUS
 10
-94.611655
 20
-0.837817
 11
-94.9652
 21
-0.484255
  0
LINE
  8
型材断面
  6
CONTINUOUS
 10
-97.435615
 20
-3.30822
 11
-94.78843
 21
-0.661035
  0
LINE
  8
型材断面
  6
CONTINUOUS
 10
-90.861645
 20
2.912183
 11
-94.611645
 21
-0.837807
  0
LINE
  8
型材断面
  6
CONTINUOUS
 10
-91.2152
 20
3.265738
 11
-94.965203
 21
-0.484257
  0
LINE
  8
型材断面
  6
CONTINUOUS
 10
-90.861655
 20
2.912192
 11
-91.2152
 21
3.265738
  0
LINE
  8
型材断面
  6
CONTINUOUS
 10
-94.611655
 20
34.221797
 11
-94.9652
 21
33.868235
  0
LINE
  8
型材断面
  6
CONTINUOUS
 10
-97.435615
 20
36.6922
 11
-94.78843
 21
34.045015
  0
LINE
  8
型材断面
  6
CONTINUOUS
 10
-90.861645
 20
30.471797
 11
-94.611645
 21
34.221788
  0
LINE
  8
型材断面
  6
CONTINUOUS
 10
-91.2152
 20
30.118243
 11
-94.965203
 21
33.868238
  0
LINE
  8
型材断面
  6
CONTINUOUS
 10
-90.861655
 20
30.471788
 11
-91.2152
 21
30.118243
  0
LINE
  8
型材断面
  6
CONTINUOUS
 10
-94.965203
 20
-0.484257
 11
-94.965203
 21
33.868238
  0
LINE
  8
型材断面
  6
CONTINUOUS
 10
-91.2152
 20
16.06699
 11
-94.965203
 21
16.06699
  0
LINE
  8
型材断面
  6
CONTINUOUS
 10
-91.2152
 20
17.31699
 11
-94.965203
 21
17.31699
  0
LINE
  8
型材断面
  6
CONTINUOUS
 10
-91.2152
 20
3.265738
 11
-91.2152
 21
16.06699
  0
LINE
  8
型材断面
  6
CONTINUOUS
 10
-91.2152
 20
17.31699
 11
-91.2152
 21
30.118243
  0
LINE
  8
型材断面
  6
CONTINUOUS
 10
-78.060405
 20
30.471785
 11
-90.861632
 21
30.471785
  0
LINE
  8
型材断面
  6
CONTINUOUS
 10
-60.259165
 20
34.221788
 11
-94.611645
 21
34.221788
  0
LINE
  8
型材断面
  6
CONTINUOUS
 10
-78.060405
 20
2.912195
 11
-90.861632
 21
2.912195
  0
LINE
  8
型材断面
  6
CONTINUOUS
 10
-60.259165
 20
-0.837807
 11
-94.611645
 21
-0.837807
  0
POLYLINE
  8
型材断面
  6
DASHDOT
 66
     1
  0
VERTEX
  8
型材断面
 10
-62.435405
 20
1.69199
  0
VERTEX
  8
型材断面
 10
-92.435405
 20
16.69199
  0
VERTEX
  8
型材断面
 10
-62.435405
 20
31.69199
  0
SEQEND
  0
LINE
  8
ガラス
  6
CONTINUOUS
 10
-75.41871
 20
18.65692
 11
-79.365157
 21
14.710475
  0
LINE
  8
ガラス
  6
CONTINUOUS
 10
-76.40297
 20
15.694732
 11
-78.380895
 21
17.672667
  0
LINE
  8
ガラス
  6
CONTINUOUS
 10
-77.682538
 20
15.74041
 11
-76.157762
 21
17.265185
  0
LINE
  8
ガラス
  6
CONTINUOUS
 10
-77.10133
 20
17.62699
 11
-78.6261
 21
16.102218
  0
LINE
  8
ガラス
  6
CONTINUOUS
 10
167.304785
 20
74.557477
 11
137.054785
 21
74.557477
  0
LINE
  8
ガラス
  6
CONTINUOUS
 10
137.054785
 20
74.557477
 11
137.054785
 21
44.307477
  0
LINE
  8
ガラス
  6
CONTINUOUS
 10
137.054785
 20
44.307477
 11
167.304785
 21
44.307477
  0
LINE
  8
ガラス
  6
CONTINUOUS
 10
167.304785
 20
74.557477
 11
167.304785
 21
44.307477
  0
TEXT
  7
TextStyle03
  8
文字
  6
CONTINUOUS
 10
-31.2
 20
-9.725
  1
は排水穴位置を示す
 40
3.0
 72
     5
 11
-1.2
 21
-9.725
  0
TEXT
  7
TextStyle03
  8
文字
  6
CONTINUOUS
 10
-36.8
 20
-28.1
  1
アンカー数量　４ヶ所
 40
3.0
 72
     5
 11
-3.425
 21
-28.1
  0
TEXT
  7
TextStyle03
  8
文字
  6
CONTINUOUS
 10
-31.2
 20
-17.575
  1
はケーシング位置を示す
 40
3.0
 72
     5
 11
5.55
 21
-17.575
  0
TEXT
  7
TextStyle03
  8
文字
  6
CONTINUOUS
 10
-31.2
 20
-20.95
  1
２ヶ所中1ヶ所に設定
 40
3.0
 72
     5
 11
0.4875
 21
-20.95
  0
TEXT
  7
TextStyle03
  8
文字
  6
CONTINUOUS
 10
-98.825
 20
58.1
  1
アンカーピッチ
 40
3.0
 72
     5
 11
-75.575
 21
58.1
  0
TEXT
  7
TextStyle03
  8
文字
  6
CONTINUOUS
 10
-113.4
 20
-68.55
  1
丁番側
 40
3.0
 72
     5
 11
-103.65
 21
-68.55
  0
TEXT
  7
TextStyle03
  8
文字
  6
CONTINUOUS
 10
74.1
 20
-54.325
  1
45°
 40
3.0
 72
     5
 11
80.475
 21
-54.325
  0
TEXT
  7
TextStyle03
  8
文字
  6
CONTINUOUS
 10
66.975
 20
94.65
  1
ＮＳコード：ＮＳＦＨＺ
 40
5.0
 72
     5
 11
128.225
 21
94.65
  0
TEXT
  7
TextStyle03
  8
文字
  6
CONTINUOUS
 10
148.475
 20
51.275
  1
網入り6.8t
 40
3.0
 72
     5
 11
165.1625
 21
51.275
  0
TEXT
  7
TextStyle03
  8
文字
  6
CONTINUOUS
 10
155.1
 20
46.025
  1
×１枚
 40
3.0
 72
     5
 11
164.85
 21
46.025
  0
TEXT
  7
TextStyle03
  8
文字
  6
CONTINUOUS
 10
67.025
 20
122.25
  1
シリーズ：ＴＦ２ＦＨ
 40
5.0
 72
     5
 11
122.65
 21
122.25
  0
TEXT
  7
TextStyle03
  8
文字
  6
CONTINUOUS
 10
67.025
 20
116.625
  1
　　　　　（片側開閉）600×600タイプ
 40
5.0
 72
     5
 11
167.65
 21
116.625
  0
TEXT
  7
TextStyle03
  8
文字
  6
CONTINUOUS
 10
67.025
 20
111.0
  1

 40
5.0
 41
1.125
  0
TEXT
  7
TextStyle03
  8
文字
  6
CONTINUOUS
 10
67.025
 20
105.375
  1
図面名　：外観姿図
 40
5.0
 72
     5
 11
117.025
 21
105.375
  0
INSERT
  2
*DIM_0002
  8
寸法
  6
CONTINUOUS
 10
0.0
 20
0.0
  0
INSERT
  2
*DIM_0003
  8
寸法
  6
CONTINUOUS
 10
0.0
 20
0.0
  0
INSERT
  2
*DIM_0004
  8
寸法
  6
CONTINUOUS
 10
0.0
 20
0.0
  0
INSERT
  2
*DIM_0005
  8
寸法
  6
CONTINUOUS
 10
0.0
 20
0.0
  0
INSERT
  2
*DIM_0007
  8
寸法
  6
CONTINUOUS
 10
0.0
 20
0.0
  0
INSERT
  2
*DIM_0008
  8
寸法
  6
CONTINUOUS
 10
0.0
 20
0.0
  0
INSERT
  2
*DIM_0010
  8
寸法
  6
CONTINUOUS
 10
0.0
 20
0.0
  0
INSERT
  2
*DIM_0011
  8
寸法
  6
CONTINUOUS
 10
0.0
 20
0.0
  0
INSERT
  2
*DIM_0012
  8
寸法
  6
CONTINUOUS
 10
0.0
 20
0.0
  0
INSERT
  2
*GRP_0006
  8
別途部材
  6
CONTINUOUS
 10
0.0
 20
0.0
  0
INSERT
  2
*GRP_0009
  8
別途部材
  6
CONTINUOUS
 10
0.0
 20
0.0
  0
ENDSEC
  0
EOF
