  0
SECTION
  2
HEADER
  9
$EXTMIN
 10
-210.0
 20
-148.5
  9
$EXTMAX
 10
210.0
 20
148.5
  9
$PDMODE
 70
    32
  9
$PDSIZE
 40
1.5
  9
$LTSCALE
 40
10.0
  0
ENDSEC
  0
SECTION
  2
TABLES
  0
TABLE
  2
LTYPE
 70
    15
  0
LTYPE
  2
CONTINUOUS
 70
    64
  3
実線
 72
    65
 73
     0
 40
0.0
  0
LTYPE
  2
DASHED
 70
    64
  3
破線A
 72
    65
 73
     2
 40
0.6
 49
0.4
 49
-0.2
  0
LTYPE
  2
DASHEDX2
 70
    64
  3
破線B
 72
    65
 73
     2
 40
1.3
 49
0.9
 49
-0.4
  0
LTYPE
  2
DASHDOT
 70
    64
  3
１点鎖線A
 72
    65
 73
     4
 40
0.5375
 49
0.375
 49
-0.05
 49
0.0625
 49
-0.05
  0
LTYPE
  2
DASHDOTX2
 70
    64
  3
１点鎖線B
 72
    65
 73
     4
 40
1.075
 49
0.75
 49
-0.1
 49
0.125
 49
-0.1
  0
LTYPE
  2
DIVIDE2
 70
    64
  3
２点鎖線A
 72
    65
 73
     6
 40
0.5125
 49
0.3
 49
-0.0375
 49
0.05
 49
-0.0375
 49
0.05
 49
-0.0375
  0
LTYPE
  2
DIVIDE
 70
    64
  3
２点鎖線B
 72
    65
 73
     6
 40
1.05
 49
0.55
 49
-0.1
 49
0.1
 49
-0.1
 49
0.1
 49
-0.1
  0
LTYPE
  2
DOT
 70
    64
  3
点線A
 72
    65
 73
     2
 40
0.1125
 49
0.0625
 49
-0.05
  0
LTYPE
  2
DOTX2
 70
    64
  3
点線B
 72
    65
 73
     2
 40
0.275
 49
0.15
 49
-0.125
  0
LTYPE
  2
CONTINUOUS
 70
    64
  3
実線
 72
    65
 73
     0
 40
0.0
  0
LTYPE
  2
CONTINUOUS
 70
    64
  3
実線
 72
    65
 73
     0
 40
0.0
  0
LTYPE
  2
CONTINUOUS
 70
    64
  3
実線
 72
    65
 73
     0
 40
0.0
  0
LTYPE
  2
CONTINUOUS
 70
    64
  3
実線
 72
    65
 73
     0
 40
0.0
  0
LTYPE
  2
CONTINUOUS
 70
    64
  3
実線
 72
    65
 73
     0
 40
0.0
  0
LTYPE
  2
CONTINUOUS
 70
    64
  3
実線
 72
    65
 73
     0
 40
0.0
  0
ENDTAB
  0
TABLE
  2
LAYER
 70
    34
  0
LAYER
  2
通り芯
 70
     0
 62
    15
  6
CONTINUOUS
  0
LAYER
  2
補助線
 70
     0
 62
    16
  6
DOT
  0
LAYER
  2
躯体
 70
     0
 62
    31
  6
CONTINUOUS
  0
LAYER
  2
型材
 70
     0
 62
    32
  6
CONTINUOUS
  0
LAYER
  2
型材断面
 70
     0
 62
    47
  6
CONTINUOUS
  0
LAYER
  2
ガラス
 70
     0
 62
    48
  6
CONTINUOUS
  0
LAYER
  2
ゴム等
 70
     0
 62
    63
  6
CONTINUOUS
  0
LAYER
  2
ボルト／ビス
 70
     0
 62
    64
  6
CONTINUOUS
  0
LAYER
  2
文字
 70
     0
 62
    79
  6
CONTINUOUS
  0
LAYER
  2
寸法
 70
     0
 62
    80
  6
CONTINUOUS
  0
LAYER
  2
ﾊｯﾁﾝｸﾞ
 70
     0
 62
    95
  6
CONTINUOUS
  0
LAYER
  2
別途部材
 70
     0
 62
    96
  6
CONTINUOUS
  0
LAYER
  2
曲げ物
 70
     0
 62
   111
  6
CONTINUOUS
  0
LAYER
  2
鉄骨等
 70
     0
 62
   112
  6
CONTINUOUS
  0
LAYER
  2
St
 70
     0
 62
   127
  6
CONTINUOUS
  0
LAYER
  2
その他部品等
 70
     0
 62
   128
  6
CONTINUOUS
  0
LAYER
  2
ｶﾞｽｹｯﾄ
 70
     0
 62
   143
  6
CONTINUOUS
  0
LAYER
  2
ｽｹｯﾁ
 70
     0
 62
    14
  6
CONTINUOUS
  0
LAYER
  2
0
 70
     0
 62
    17
  6
CONTINUOUS
  0
LAYER
  2
1
 70
     0
 62
    30
  6
CONTINUOUS
  0
LAYER
  2
4
 70
     0
 62
    33
  6
CONTINUOUS
  0
LAYER
  2
ﾚｲﾔ3
 70
     0
 62
    46
  6
CONTINUOUS
  0
LAYER
  2
外形線
 70
     0
 62
    49
  6
CONTINUOUS
  0
LAYER
  2
部品
 70
     0
 62
    14
  6
CONTINUOUS
  0
LAYER
  2
サッシ芯
 70
     0
 62
    17
  6
DASHDOTX2
  0
LAYER
  2
寸法線
 70
     0
 62
    62
  6
CONTINUOUS
  0
LAYER
  2
姿図外形線
 70
     0
 62
    65
  6
CONTINUOUS
  0
LAYER
  2
姿補助線
 70
     0
 62
    30
  6
CONTINUOUS
  0
LAYER
  2
透視線
 70
     0
 62
    78
  6
DOT
  0
LAYER
  2
用紙
 70
     0
 62
    81
  6
CONTINUOUS
  0
LAYER
  2
実線図枠
 70
     0
 62
    94
  6
CONTINUOUS
  0
LAYER
  2
補助図枠
 70
     0
 62
    97
  6
CONTINUOUS
  0
LAYER
  2
建具記号
 70
     0
 62
   110
  6
CONTINUOUS
  0
LAYER
  2
補助文字
 70
     0
 62
   113
  6
CONTINUOUS
  0
ENDTAB
  0
TABLE
  2
STYLE
 70
    10
  0
STYLE
  2
STANDARD
 70
     0
 40
1.0
 41
1.0
 42
1.0
 50
0.0
 71
     0
  3
TXT
  4
BIGFONT
  0
STYLE
  2
TATE
 70
     4
 40
1.0
 41
1.0
 42
1.0
 50
0.0
 71
     0
  3
TXT
  4
BIGFONT
  0
STYLE
  2
TextStyle03
 70
     0
 40
1.0
 41
1.0
 42
1.0
 50
0.0
 71
     0
  3
MONOTXT
  4
BIGFONT
  0
STYLE
  2
TextStyle04
 70
     0
 40
1.0
 41
1.0
 42
1.0
 50
0.0
 71
     0
  3
MONOTXT
  4
BIGFONT
  0
STYLE
  2
TextStyle05
 70
     0
 40
1.0
 41
1.0
 42
1.0
 50
0.0
 71
     0
  3
MONOTXT
  4
BIGFONT
  0
STYLE
  2
TextStyle06
 70
     0
 40
1.0
 41
1.0
 42
1.0
 50
0.0
 71
     0
  3
MONOTXT
  4
BIGFONT
  0
STYLE
  2
TextStyle07
 70
     0
 40
1.0
 41
1.0
 42
1.0
 50
0.0
 71
     0
  3
MONOTXT
  4
BIGFONT
  0
STYLE
  2
TextStyle08
 70
     0
 40
1.0
 41
1.0
 42
1.0
 50
0.0
 71
     0
  3
MONOTXT
  4
BIGFONT
  0
STYLE
  2
TextStyle09
 70
     0
 40
1.0
 41
1.0
 42
1.0
 50
0.0
 71
     0
  3
MONOTXT
  4
BIGFONT
  0
STYLE
  2
TextStyle10
 70
     0
 40
1.0
 41
1.0
 42
1.0
 50
0.0
 71
     0
  3
MONOTXT
  4
BIGFONT
  0
ENDTAB
  0
ENDSEC
  0
SECTION
  2
BLOCKS
  0
BLOCK
  2
*HAT_0001
 70
    65
 10
0.0
 20
0.0
  0
LINE
  8
ゴム等
 10
-75.725
 20
-11.125
 11
-74.175
 21
-9.625
  0
LINE
  8
ゴム等
 10
-77.375
 20
-11.125
 11
-74.175
 21
-7.925
  0
LINE
  8
ゴム等
 10
-79.075
 20
-11.125
 11
-74.175
 21
-6.225
  0
LINE
  8
ゴム等
 10
-80.775
 20
-11.125
 11
-74.775
 21
-5.125
  0
LINE
  8
ゴム等
 10
-82.475
 20
-11.125
 11
-76.475
 21
-5.125
  0
LINE
  8
ゴム等
 10
-84.175
 20
-11.125
 11
-78.175
 21
-5.125
  0
LINE
  8
ゴム等
 10
-85.875
 20
-11.125
 11
-79.875
 21
-5.125
  0
LINE
  8
ゴム等
 10
-87.575
 20
-11.125
 11
-81.575
 21
-5.125
  0
LINE
  8
ゴム等
 10
-89.175
 20
-11.075
 11
-83.275
 21
-5.125
  0
LINE
  8
ゴム等
 10
-89.175
 20
-9.375
 11
-84.975
 21
-5.125
  0
LINE
  8
ゴム等
 10
-89.175
 20
-7.675
 11
-86.675
 21
-5.125
  0
LINE
  8
ゴム等
 10
-89.175
 20
-5.975
 11
-88.325
 21
-5.125
  0
ENDBLK
  0
BLOCK
  2
*HAT_0002
 70
    65
 10
0.0
 20
0.0
  0
LINE
  8
ゴム等
 10
-105.225
 20
-11.1
 11
-104.075
 21
-9.95
  0
LINE
  8
ゴム等
 10
-103.725
 20
-9.65
 11
-102.575
 21
-8.5
  0
LINE
  8
ゴム等
 10
-106.925
 20
-11.1
 11
-105.925
 21
-10.1
  0
LINE
  8
ゴム等
 10
-103.575
 20
-7.8
 11
-102.625
 21
-6.8
  0
LINE
  8
ゴム等
 10
-108.625
 20
-11.1
 11
-107.625
 21
-10.1
  0
LINE
  8
ゴム等
 10
-103.875
 20
-6.4
 11
-103.175
 21
-5.7
  0
LINE
  8
ゴム等
 10
-110.275
 20
-11.1
 11
-109.275
 21
-10.1
  0
LINE
  8
ゴム等
 10
-105.275
 20
-6.1
 11
-104.325
 21
-5.15
  0
LINE
  8
ゴム等
 10
-111.975
 20
-11.1
 11
-110.975
 21
-10.1
  0
LINE
  8
ゴム等
 10
-106.975
 20
-6.1
 11
-105.975
 21
-5.1
  0
LINE
  8
ゴム等
 10
-113.475
 20
-10.9
 11
-112.675
 21
-10.1
  0
LINE
  8
ゴム等
 10
-108.675
 20
-6.1
 11
-105.475
 21
-2.9
  0
LINE
  8
ゴム等
 10
-114.325
 20
-10.1
 11
-113.575
 21
-9.3
  0
LINE
  8
ゴム等
 10
-110.375
 20
-6.1
 11
-106.375
 21
-2.1
  0
LINE
  8
ゴム等
 10
-114.575
 20
-8.65
 11
-113.575
 21
-7.65
  0
LINE
  8
ゴム等
 10
-112.075
 20
-6.1
 11
-111.075
 21
-5.1
  0
LINE
  8
ゴム等
 10
-110.725
 20
-4.8
 11
-108.075
 21
-2.1
  0
LINE
  8
ゴム等
 10
-114.575
 20
-6.95
 11
-112.775
 21
-5.15
  0
LINE
  8
ゴム等
 10
-111.325
 20
-3.65
 11
-109.775
 21
-2.1
  0
LINE
  8
ゴム等
 10
-111.875
 20
-2.55
 11
-111.475
 21
-2.1
  0
ENDBLK
  0
BLOCK
  2
*HAT_0003
 70
    65
 10
0.0
 20
0.0
  0
LINE
  8
ﾊｯﾁﾝｸﾞ
 10
-26.7
 20
91.75
 11
-27.9
 21
92.95
  0
LINE
  8
ﾊｯﾁﾝｸﾞ
 10
-24.6
 20
91.75
 11
-27.9
 21
95.05
  0
LINE
  8
ﾊｯﾁﾝｸﾞ
 10
-22.5
 20
91.75
 11
-27.9
 21
97.15
  0
LINE
  8
ﾊｯﾁﾝｸﾞ
 10
-20.925
 20
92.275
 11
-27.9
 21
99.25
  0
LINE
  8
ﾊｯﾁﾝｸﾞ
 10
-20.925
 20
94.375
 11
-27.9
 21
101.425
  0
LINE
  8
ﾊｯﾁﾝｸﾞ
 10
-20.925
 20
96.55
 11
-26.55
 21
102.175
  0
LINE
  8
ﾊｯﾁﾝｸﾞ
 10
-20.925
 20
98.65
 11
-24.375
 21
102.175
  0
LINE
  8
ﾊｯﾁﾝｸﾞ
 10
-20.925
 20
100.75
 11
-22.275
 21
102.175
  0
LINE
  8
ﾊｯﾁﾝｸﾞ
 10
-20.925
 20
92.2
 11
-21.375
 21
91.75
  0
LINE
  8
ﾊｯﾁﾝｸﾞ
 10
-20.925
 20
94.375
 11
-23.475
 21
91.75
  0
LINE
  8
ﾊｯﾁﾝｸﾞ
 10
-20.925
 20
96.475
 11
-25.575
 21
91.75
  0
LINE
  8
ﾊｯﾁﾝｸﾞ
 10
-20.925
 20
98.575
 11
-27.75
 21
91.75
  0
LINE
  8
ﾊｯﾁﾝｸﾞ
 10
-20.925
 20
100.675
 11
-27.9
 21
93.7
  0
LINE
  8
ﾊｯﾁﾝｸﾞ
 10
-21.525
 20
102.175
 11
-27.9
 21
95.8
  0
LINE
  8
ﾊｯﾁﾝｸﾞ
 10
-23.7
 20
102.175
 11
-27.9
 21
97.975
  0
LINE
  8
ﾊｯﾁﾝｸﾞ
 10
-25.8
 20
102.175
 11
-27.9
 21
100.075
  0
ENDBLK
  0
BLOCK
  2
*HAT_0004
 70
    65
 10
0.0
 20
0.0
  0
LINE
  8
その他部品等
 10
-54.525
 20
-68.45
 11
-54.425
 21
-68.35
  0
LINE
  8
その他部品等
 10
-56.05
 20
-68.575
 11
-54.55
 21
-67.075
  0
LINE
  8
その他部品等
 10
-57.575
 20
-68.675
 11
-55.975
 21
-67.075
  0
LINE
  8
その他部品等
 10
-59.1
 20
-68.8
 11
-57.375
 21
-67.075
  0
LINE
  8
その他部品等
 10
-60.625
 20
-68.925
 11
-58.8
 21
-67.075
  0
LINE
  8
その他部品等
 10
-62.15
 20
-69.025
 11
-60.2
 21
-67.075
  0
LINE
  8
その他部品等
 10
-63.675
 20
-69.15
 11
-61.625
 21
-67.075
  0
LINE
  8
その他部品等
 10
-65.2
 20
-69.275
 11
-63.025
 21
-67.075
  0
LINE
  8
その他部品等
 10
-66.725
 20
-69.375
 11
-64.45
 21
-67.075
  0
LINE
  8
その他部品等
 10
-68.275
 20
-69.5
 11
-65.85
 21
-67.075
  0
LINE
  8
その他部品等
 10
-69.8
 20
-69.6
 11
-67.275
 21
-67.075
  0
LINE
  8
その他部品等
 10
-71.325
 20
-69.725
 11
-68.675
 21
-67.075
  0
LINE
  8
その他部品等
 10
-72.85
 20
-69.85
 11
-70.1
 21
-67.075
  0
LINE
  8
その他部品等
 10
-74.375
 20
-69.95
 11
-71.5
 21
-67.075
  0
LINE
  8
その他部品等
 10
-75.9
 20
-70.075
 11
-72.9
 21
-67.075
  0
LINE
  8
その他部品等
 10
-77.425
 20
-70.2
 11
-74.325
 21
-67.075
  0
LINE
  8
その他部品等
 10
-78.95
 20
-70.3
 11
-75.85
 21
-67.2
  0
LINE
  8
その他部品等
 10
-80.475
 20
-70.425
 11
-77.375
 21
-67.3
  0
LINE
  8
その他部品等
 10
-82.025
 20
-70.525
 11
-78.9
 21
-67.425
  0
LINE
  8
その他部品等
 10
-83.55
 20
-70.65
 11
-80.425
 21
-67.55
  0
LINE
  8
その他部品等
 10
-85.075
 20
-70.775
 11
-81.95
 21
-67.65
  0
LINE
  8
その他部品等
 10
-86.6
 20
-70.875
 11
-83.5
 21
-67.775
  0
LINE
  8
その他部品等
 10
-88.125
 20
-71.0
 11
-85.025
 21
-67.9
  0
LINE
  8
その他部品等
 10
-89.65
 20
-71.125
 11
-86.55
 21
-68.0
  0
LINE
  8
その他部品等
 10
-91.175
 20
-71.225
 11
-88.075
 21
-68.125
  0
LINE
  8
その他部品等
 10
-92.7
 20
-71.35
 11
-89.6
 21
-68.225
  0
LINE
  8
その他部品等
 10
-94.225
 20
-71.45
 11
-91.125
 21
-68.35
  0
LINE
  8
その他部品等
 10
-95.775
 20
-71.575
 11
-92.65
 21
-68.475
  0
LINE
  8
その他部品等
 10
-97.3
 20
-71.7
 11
-94.175
 21
-68.575
  0
LINE
  8
その他部品等
 10
-98.825
 20
-71.8
 11
-95.7
 21
-68.7
  0
LINE
  8
その他部品等
 10
-100.35
 20
-71.925
 11
-97.225
 21
-68.825
  0
LINE
  8
その他部品等
 10
-101.875
 20
-72.05
 11
-98.775
 21
-68.925
  0
LINE
  8
その他部品等
 10
-103.4
 20
-72.15
 11
-100.3
 21
-69.05
  0
LINE
  8
その他部品等
 10
-104.925
 20
-72.275
 11
-101.825
 21
-69.175
  0
LINE
  8
その他部品等
 10
-106.45
 20
-72.375
 11
-103.35
 21
-69.275
  0
LINE
  8
その他部品等
 10
-107.975
 20
-72.5
 11
-104.875
 21
-69.4
  0
LINE
  8
その他部品等
 10
-109.5
 20
-72.625
 11
-106.4
 21
-69.5
  0
LINE
  8
その他部品等
 10
-111.05
 20
-72.725
 11
-107.925
 21
-69.625
  0
LINE
  8
その他部品等
 10
-112.575
 20
-72.85
 11
-109.45
 21
-69.75
  0
LINE
  8
その他部品等
 10
-114.1
 20
-72.975
 11
-110.975
 21
-69.85
  0
LINE
  8
その他部品等
 10
-115.625
 20
-73.075
 11
-112.525
 21
-69.975
  0
LINE
  8
その他部品等
 10
-117.15
 20
-73.2
 11
-114.05
 21
-70.1
  0
LINE
  8
その他部品等
 10
-118.675
 20
-73.325
 11
-115.575
 21
-70.2
  0
LINE
  8
その他部品等
 10
-120.2
 20
-73.425
 11
-117.1
 21
-70.325
  0
LINE
  8
その他部品等
 10
-121.725
 20
-73.55
 11
-118.625
 21
-70.425
  0
LINE
  8
その他部品等
 10
-123.25
 20
-73.65
 11
-120.15
 21
-70.55
  0
LINE
  8
その他部品等
 10
-124.8
 20
-73.775
 11
-121.675
 21
-70.675
  0
LINE
  8
その他部品等
 10
-135.5
 20
-83.075
 11
-135.425
 21
-83.0
  0
LINE
  8
その他部品等
 10
-136.925
 20
-83.075
 11
-135.425
 21
-81.575
  0
LINE
  8
その他部品等
 10
-138.325
 20
-83.075
 11
-135.425
 21
-80.175
  0
LINE
  8
その他部品等
 10
-126.325
 20
-73.9
 11
-123.2
 21
-70.775
  0
LINE
  8
その他部品等
 10
-127.85
 20
-74.0
 11
-124.725
 21
-70.9
  0
LINE
  8
その他部品等
 10
-129.375
 20
-74.125
 11
-126.275
 21
-71.025
  0
LINE
  8
その他部品等
 10
-138.425
 20
-81.75
 11
-135.425
 21
-78.75
  0
LINE
  8
その他部品等
 10
-138.425
 20
-80.35
 11
-135.425
 21
-77.35
  0
LINE
  8
その他部品等
 10
-130.9
 20
-74.25
 11
-127.8
 21
-71.125
  0
LINE
  8
その他部品等
 10
-132.425
 20
-74.35
 11
-129.325
 21
-71.25
  0
LINE
  8
その他部品等
 10
-138.425
 20
-78.95
 11
-135.35
 21
-75.85
  0
LINE
  8
その他部品等
 10
-133.975
 20
-74.475
 11
-130.85
 21
-71.375
  0
LINE
  8
その他部品等
 10
-138.425
 20
-77.525
 11
-132.375
 21
-71.475
  0
LINE
  8
その他部品等
 10
-138.425
 20
-76.125
 11
-133.9
 21
-71.6
  0
LINE
  8
その他部品等
 10
-138.425
 20
-74.7
 11
-135.425
 21
-71.7
  0
LINE
  8
その他部品等
 10
-138.425
 20
-73.3
 11
-136.95
 21
-71.825
  0
LINE
  8
その他部品等
 10
-138.425
 20
-82.275
 11
-137.625
 21
-83.075
  0
LINE
  8
その他部品等
 10
-138.425
 20
-80.875
 11
-136.225
 21
-83.075
  0
LINE
  8
その他部品等
 10
-138.425
 20
-79.475
 11
-135.425
 21
-82.475
  0
LINE
  8
その他部品等
 10
-138.425
 20
-78.05
 11
-135.425
 21
-81.05
  0
LINE
  8
その他部品等
 10
-138.425
 20
-76.65
 11
-135.425
 21
-79.65
  0
LINE
  8
その他部品等
 10
-138.425
 20
-75.225
 11
-135.425
 21
-78.225
  0
LINE
  8
その他部品等
 10
-138.425
 20
-73.825
 11
-135.425
 21
-76.825
  0
LINE
  8
その他部品等
 10
-138.425
 20
-72.4
 11
-135.225
 21
-75.6
  0
LINE
  8
その他部品等
 10
-137.55
 20
-71.875
 11
-134.625
 21
-74.775
  0
LINE
  8
その他部品等
 10
-136.25
 20
-71.775
 11
-133.575
 21
-74.425
  0
LINE
  8
その他部品等
 10
-134.925
 20
-71.675
 11
-132.25
 21
-74.35
  0
LINE
  8
その他部品等
 10
-133.625
 20
-71.575
 11
-130.95
 21
-74.25
  0
LINE
  8
その他部品等
 10
-132.3
 20
-71.475
 11
-129.625
 21
-74.15
  0
LINE
  8
その他部品等
 10
-131.0
 20
-71.375
 11
-128.325
 21
-74.05
  0
LINE
  8
その他部品等
 10
-129.675
 20
-71.275
 11
-127.0
 21
-73.95
  0
LINE
  8
その他部品等
 10
-128.375
 20
-71.175
 11
-125.7
 21
-73.85
  0
LINE
  8
その他部品等
 10
-127.05
 20
-71.075
 11
-124.375
 21
-73.75
  0
LINE
  8
その他部品等
 10
-125.75
 20
-70.975
 11
-123.075
 21
-73.65
  0
LINE
  8
その他部品等
 10
-124.425
 20
-70.875
 11
-121.75
 21
-73.55
  0
LINE
  8
その他部品等
 10
-123.125
 20
-70.775
 11
-120.45
 21
-73.45
  0
LINE
  8
その他部品等
 10
-121.8
 20
-70.675
 11
-119.125
 21
-73.35
  0
LINE
  8
その他部品等
 10
-120.475
 20
-70.575
 11
-117.825
 21
-73.25
  0
LINE
  8
その他部品等
 10
-119.175
 20
-70.475
 11
-116.5
 21
-73.15
  0
LINE
  8
その他部品等
 10
-117.875
 20
-70.375
 11
-115.2
 21
-73.05
  0
LINE
  8
その他部品等
 10
-116.55
 20
-70.275
 11
-113.875
 21
-72.95
  0
LINE
  8
その他部品等
 10
-115.25
 20
-70.175
 11
-112.575
 21
-72.85
  0
LINE
  8
その他部品等
 10
-113.925
 20
-70.075
 11
-111.25
 21
-72.75
  0
LINE
  8
その他部品等
 10
-112.625
 20
-69.975
 11
-109.95
 21
-72.65
  0
LINE
  8
その他部品等
 10
-111.3
 20
-69.875
 11
-108.625
 21
-72.55
  0
LINE
  8
その他部品等
 10
-110.0
 20
-69.775
 11
-107.325
 21
-72.45
  0
LINE
  8
その他部品等
 10
-108.675
 20
-69.675
 11
-106.0
 21
-72.35
  0
LINE
  8
その他部品等
 10
-107.375
 20
-69.575
 11
-104.7
 21
-72.25
  0
LINE
  8
その他部品等
 10
-106.05
 20
-69.475
 11
-103.375
 21
-72.15
  0
LINE
  8
その他部品等
 10
-104.75
 20
-69.375
 11
-102.075
 21
-72.05
  0
LINE
  8
その他部品等
 10
-103.425
 20
-69.275
 11
-100.75
 21
-71.95
  0
LINE
  8
その他部品等
 10
-102.125
 20
-69.175
 11
-99.45
 21
-71.85
  0
LINE
  8
その他部品等
 10
-100.8
 20
-69.075
 11
-98.125
 21
-71.75
  0
LINE
  8
その他部品等
 10
-99.5
 20
-68.975
 11
-96.825
 21
-71.65
  0
LINE
  8
その他部品等
 10
-98.175
 20
-68.875
 11
-95.5
 21
-71.55
  0
LINE
  8
その他部品等
 10
-96.875
 20
-68.775
 11
-94.2
 21
-71.45
  0
LINE
  8
その他部品等
 10
-95.55
 20
-68.675
 11
-92.875
 21
-71.35
  0
LINE
  8
その他部品等
 10
-94.25
 20
-68.575
 11
-91.575
 21
-71.25
  0
LINE
  8
その他部品等
 10
-92.925
 20
-68.475
 11
-90.25
 21
-71.15
  0
LINE
  8
その他部品等
 10
-91.625
 20
-68.4
 11
-88.95
 21
-71.05
  0
LINE
  8
その他部品等
 10
-90.3
 20
-68.3
 11
-87.625
 21
-70.95
  0
LINE
  8
その他部品等
 10
-89.0
 20
-68.2
 11
-86.325
 21
-70.85
  0
LINE
  8
その他部品等
 10
-87.675
 20
-68.1
 11
-85.0
 21
-70.75
  0
LINE
  8
その他部品等
 10
-86.375
 20
-68.0
 11
-83.7
 21
-70.65
  0
LINE
  8
その他部品等
 10
-85.05
 20
-67.9
 11
-82.375
 21
-70.55
  0
LINE
  8
その他部品等
 10
-83.75
 20
-67.8
 11
-81.075
 21
-70.45
  0
LINE
  8
その他部品等
 10
-82.425
 20
-67.7
 11
-79.75
 21
-70.35
  0
LINE
  8
その他部品等
 10
-81.1
 20
-67.6
 11
-78.45
 21
-70.25
  0
LINE
  8
その他部品等
 10
-79.8
 20
-67.5
 11
-77.125
 21
-70.15
  0
LINE
  8
その他部品等
 10
-78.5
 20
-67.4
 11
-75.825
 21
-70.05
  0
LINE
  8
その他部品等
 10
-77.175
 20
-67.3
 11
-74.5
 21
-69.975
  0
LINE
  8
その他部品等
 10
-75.875
 20
-67.2
 11
-73.2
 21
-69.875
  0
LINE
  8
その他部品等
 10
-74.55
 20
-67.1
 11
-71.875
 21
-69.775
  0
LINE
  8
その他部品等
 10
-73.15
 20
-67.075
 11
-70.575
 21
-69.675
  0
LINE
  8
その他部品等
 10
-71.75
 20
-67.075
 11
-69.25
 21
-69.575
  0
LINE
  8
その他部品等
 10
-70.325
 20
-67.075
 11
-67.95
 21
-69.475
  0
LINE
  8
その他部品等
 10
-68.925
 20
-67.075
 11
-66.625
 21
-69.375
  0
LINE
  8
その他部品等
 10
-67.5
 20
-67.075
 11
-65.325
 21
-69.275
  0
LINE
  8
その他部品等
 10
-66.1
 20
-67.075
 11
-64.0
 21
-69.175
  0
LINE
  8
その他部品等
 10
-64.675
 20
-67.075
 11
-62.7
 21
-69.075
  0
LINE
  8
その他部品等
 10
-63.275
 20
-67.075
 11
-61.375
 21
-68.975
  0
LINE
  8
その他部品等
 10
-61.85
 20
-67.075
 11
-60.075
 21
-68.875
  0
LINE
  8
その他部品等
 10
-60.45
 20
-67.075
 11
-58.75
 21
-68.775
  0
LINE
  8
その他部品等
 10
-59.025
 20
-67.075
 11
-57.45
 21
-68.675
  0
LINE
  8
その他部品等
 10
-57.625
 20
-67.075
 11
-56.125
 21
-68.575
  0
LINE
  8
その他部品等
 10
-56.2
 20
-67.075
 11
-54.825
 21
-68.475
  0
LINE
  8
その他部品等
 10
-54.8
 20
-67.075
 11
-54.425
 21
-67.45
  0
ENDBLK
  0
BLOCK
  2
*HAT_0005
 70
    65
 10
0.0
 20
0.0
  0
LINE
  8
その他部品等
 10
-54.85
 20
-81.475
 11
-54.425
 21
-81.075
  0
LINE
  8
その他部品等
 10
-56.25
 20
-81.475
 11
-54.425
 21
-79.65
  0
LINE
  8
その他部品等
 10
-57.65
 20
-81.475
 11
-54.425
 21
-78.25
  0
LINE
  8
その他部品等
 10
-59.075
 20
-81.475
 11
-54.425
 21
-76.825
  0
LINE
  8
その他部品等
 10
-60.475
 20
-81.475
 11
-54.425
 21
-75.425
  0
LINE
  8
その他部品等
 10
-61.9
 20
-81.475
 11
-54.425
 21
-74.0
  0
LINE
  8
その他部品等
 10
-63.3
 20
-81.475
 11
-54.425
 21
-72.6
  0
LINE
  8
その他部品等
 10
-64.725
 20
-81.475
 11
-54.425
 21
-71.175
  0
LINE
  8
その他部品等
 10
-66.125
 20
-81.475
 11
-54.725
 21
-70.075
  0
LINE
  8
その他部品等
 10
-67.55
 20
-81.475
 11
-56.25
 21
-70.2
  0
LINE
  8
その他部品等
 10
-68.95
 20
-81.475
 11
-57.775
 21
-70.3
  0
LINE
  8
その他部品等
 10
-70.375
 20
-81.475
 11
-59.3
 21
-70.425
  0
LINE
  8
その他部品等
 10
-71.775
 20
-81.475
 11
-60.825
 21
-70.525
  0
LINE
  8
その他部品等
 10
-73.2
 20
-81.475
 11
-62.35
 21
-70.65
  0
LINE
  8
その他部品等
 10
-74.225
 20
-81.1
 11
-63.9
 21
-70.775
  0
LINE
  8
その他部品等
 10
-74.225
 20
-79.675
 11
-65.425
 21
-70.875
  0
LINE
  8
その他部品等
 10
-74.225
 20
-78.275
 11
-66.95
 21
-71.0
  0
LINE
  8
その他部品等
 10
-74.225
 20
-76.85
 11
-68.475
 21
-71.125
  0
LINE
  8
その他部品等
 10
-74.225
 20
-75.45
 11
-70.0
 21
-71.225
  0
LINE
  8
その他部品等
 10
-74.225
 20
-74.05
 11
-71.525
 21
-71.35
  0
LINE
  8
その他部品等
 10
-74.225
 20
-72.625
 11
-73.05
 21
-71.475
  0
LINE
  8
その他部品等
 10
-74.225
 20
-80.125
 11
-72.875
 21
-81.475
  0
LINE
  8
その他部品等
 10
-74.225
 20
-78.725
 11
-71.45
 21
-81.475
  0
LINE
  8
その他部品等
 10
-74.225
 20
-77.3
 11
-70.05
 21
-81.475
  0
LINE
  8
その他部品等
 10
-74.225
 20
-75.9
 11
-68.625
 21
-81.475
  0
LINE
  8
その他部品等
 10
-74.225
 20
-74.475
 11
-67.225
 21
-81.475
  0
LINE
  8
その他部品等
 10
-74.225
 20
-73.075
 11
-65.825
 21
-81.475
  0
LINE
  8
その他部品等
 10
-74.225
 20
-71.65
 11
-64.4
 21
-81.475
  0
LINE
  8
その他部品等
 10
-73.0
 20
-71.45
 11
-63.0
 21
-81.475
  0
LINE
  8
その他部品等
 10
-71.7
 20
-71.35
 11
-61.575
 21
-81.475
  0
LINE
  8
その他部品等
 10
-70.4
 20
-71.25
 11
-60.175
 21
-81.475
  0
LINE
  8
その他部品等
 10
-69.075
 20
-71.15
 11
-58.75
 21
-81.475
  0
LINE
  8
その他部品等
 10
-67.775
 20
-71.05
 11
-57.35
 21
-81.475
  0
LINE
  8
その他部品等
 10
-66.45
 20
-70.95
 11
-55.925
 21
-81.475
  0
LINE
  8
その他部品等
 10
-65.125
 20
-70.85
 11
-54.525
 21
-81.475
  0
LINE
  8
その他部品等
 10
-63.825
 20
-70.75
 11
-54.425
 21
-80.15
  0
LINE
  8
その他部品等
 10
-62.5
 20
-70.65
 11
-54.425
 21
-78.75
  0
LINE
  8
その他部品等
 10
-61.2
 20
-70.575
 11
-54.425
 21
-77.325
  0
LINE
  8
その他部品等
 10
-59.875
 20
-70.475
 11
-54.425
 21
-75.925
  0
LINE
  8
その他部品等
 10
-58.575
 20
-70.375
 11
-54.425
 21
-74.5
  0
LINE
  8
その他部品等
 10
-57.275
 20
-70.275
 11
-54.425
 21
-73.1
  0
LINE
  8
その他部品等
 10
-55.95
 20
-70.175
 11
-54.425
 21
-71.675
  0
LINE
  8
その他部品等
 10
-54.625
 20
-70.075
 11
-54.425
 21
-70.275
  0
ENDBLK
  0
BLOCK
  2
*GRP_0001
 70
    65
 10
0.0
 20
0.0
  0
LINE
  8
型材断面
  6
CONTINUOUS
 10
195.0
 20
133.5
 11
195.0
 21
-133.5
  0
LINE
  8
型材断面
  6
CONTINUOUS
 10
195.0
 20
-133.5
 11
-185.0
 21
-133.5
  0
LINE
  8
型材断面
  6
CONTINUOUS
 10
-185.0
 20
-133.5
 11
-185.0
 21
133.5
  0
LINE
  8
型材断面
  6
CONTINUOUS
 10
195.0
 20
133.5
 11
-185.0
 21
133.5
  0
LINE
  8
型材断面
  6
CONTINUOUS
 10
145.0
 20
-133.5
 11
145.0
 21
-118.5
  0
LINE
  8
型材断面
  6
CONTINUOUS
 10
195.0
 20
-118.5
 11
145.0
 21
-118.5
  0
ENDBLK
  0
BLOCK
  2
*GRP_0002
 70
    65
 10
0.0
 20
0.0
  0
LINE
  8
別途部材
  6
CONTINUOUS
 62
    47
 10
-61.519812
 20
-83.084418
 11
-119.019787
 21
-83.084418
  0
LINE
  8
別途部材
  6
CONTINUOUS
 62
    47
 10
-61.519812
 20
-81.484418
 11
-119.019787
 21
-81.484418
  0
LINE
  8
別途部材
  6
CONTINUOUS
 62
    47
 10
-104.519812
 20
-83.084418
 11
-110.755188
 21
-86.684418
  0
LINE
  8
別途部材
  6
CONTINUOUS
 62
    47
 10
-119.019787
 20
-86.684418
 11
-110.755188
 21
-86.684418
  0
LINE
  8
別途部材
  6
CONTINUOUS
 62
    47
 10
-119.019787
 20
-85.084418
 11
-111.183913
 21
-85.084418
  0
LINE
  8
別途部材
  6
CONTINUOUS
 62
    47
 10
-107.719812
 20
-83.084418
 11
-111.183913
 21
-85.084418
  0
LINE
  8
別途部材
  6
CONTINUOUS
 62
    47
 10
-119.019787
 20
-83.084418
 11
-119.019787
 21
-81.484418
  0
LINE
  8
別途部材
  6
CONTINUOUS
 62
    47
 10
-119.019787
 20
-85.084418
 11
-119.019787
 21
-86.684418
  0
LINE
  8
別途部材
  6
CONTINUOUS
 62
    47
 10
-76.019812
 20
-83.084418
 11
-69.784437
 21
-86.684418
  0
LINE
  8
別途部材
  6
CONTINUOUS
 62
    47
 10
-61.519812
 20
-86.684418
 11
-69.784437
 21
-86.684418
  0
LINE
  8
別途部材
  6
CONTINUOUS
 62
    47
 10
-61.519812
 20
-85.084418
 11
-69.355688
 21
-85.084418
  0
LINE
  8
別途部材
  6
CONTINUOUS
 62
    47
 10
-72.819787
 20
-83.084418
 11
-69.355688
 21
-85.084418
  0
LINE
  8
別途部材
  6
CONTINUOUS
 62
    47
 10
-61.519812
 20
-85.084418
 11
-61.519812
 21
-86.684418
  0
LINE
  8
別途部材
  6
CONTINUOUS
 62
    47
 10
-98.019787
 20
-99.484418
 11
-98.019787
 21
-83.084418
  0
LINE
  8
別途部材
  6
CONTINUOUS
 62
    47
 10
-96.419812
 20
-99.484418
 11
-96.419812
 21
-83.084418
  0
LINE
  8
別途部材
  6
CONTINUOUS
 62
    47
 10
-98.019787
 20
-99.484418
 11
-96.419812
 21
-99.484418
  0
LINE
  8
別途部材
  6
CONTINUOUS
 62
    47
 10
-61.519812
 20
-81.484418
 11
-61.519812
 21
-83.084418
  0
ENDBLK
  0
BLOCK
  2
*GRP_0003
 70
    65
 10
0.0
 20
0.0
  0
LINE
  8
型材
  6
CONTINUOUS
 62
    47
 10
-33.865465
 20
68.41573
 11
-33.865465
 21
67.51573
  0
LINE
  8
型材
  6
CONTINUOUS
 62
    47
 10
-33.265465
 20
69.01573
 11
-33.865465
 21
68.41573
  0
LINE
  8
型材
  6
CONTINUOUS
 62
    47
 10
-33.865465
 20
67.51573
 11
-31.36546
 21
67.515745
  0
LINE
  8
型材
  6
CONTINUOUS
 62
    47
 10
-33.265465
 20
69.01573
 11
-29.86546
 21
69.015738
  0
LINE
  8
型材
  6
CONTINUOUS
 62
    47
 10
-29.86546
 20
66.015738
 11
-37.76536
 21
58.115838
  0
LINE
  8
型材
  6
CONTINUOUS
 62
    47
 10
-29.86546
 20
69.015745
 11
-29.865445
 21
66.015753
  0
LINE
  8
型材
  6
CONTINUOUS
 62
    47
 10
-31.36546
 20
67.515738
 11
-31.36546
 21
66.63706
  0
LINE
  8
型材
  6
CONTINUOUS
 62
    47
 10
-39.36535
 20
57.41584
 11
-39.36535
 21
58.63717
  0
LINE
  8
型材
  6
CONTINUOUS
 62
    47
 10
-37.765345
 20
55.91584
 11
-37.765345
 21
58.115853
  0
LINE
  8
型材
  6
CONTINUOUS
 62
    47
 10
-38.86546
 20
68.415715
 11
-38.86546
 21
67.515715
  0
LINE
  8
型材
  6
CONTINUOUS
 62
    47
 10
-38.86546
 20
68.415715
 11
-39.46546
 21
69.015707
  0
LINE
  8
型材
  6
CONTINUOUS
 62
    47
 10
-39.46546
 20
69.015707
 11
-42.865465
 21
69.0157
  0
LINE
  8
型材
  6
CONTINUOUS
 62
    47
 10
-38.86546
 20
67.515715
 11
-41.36545
 21
67.5157
  0
LINE
  8
型材
  6
CONTINUOUS
 62
    47
 10
-41.865355
 20
54.815845
 11
-41.865355
 21
57.41584
  0
LINE
  8
型材
  6
CONTINUOUS
 62
    47
 10
-40.365355
 20
54.815845
 11
-40.365355
 21
55.91584
  0
LINE
  8
型材
  6
CONTINUOUS
 62
    47
 10
-40.365355
 20
54.815845
 11
-41.865355
 21
54.815845
  0
LINE
  8
型材
  6
CONTINUOUS
 62
    47
 10
-39.36535
 20
57.41584
 11
-41.865355
 21
57.41584
  0
LINE
  8
型材
  6
CONTINUOUS
 62
    47
 10
-51.665695
 20
56.815833
 11
-53.66233
 21
56.815833
  0
LINE
  8
型材
  6
CONTINUOUS
 62
    47
 10
-51.665695
 20
56.815833
 11
-51.665695
 21
54.815838
  0
LINE
  8
型材
  6
CONTINUOUS
 62
    47
 10
-51.665695
 20
54.815838
 11
-55.16233
 21
54.815838
  0
LINE
  8
型材
  6
CONTINUOUS
 62
    47
 10
-55.16233
 20
54.815838
 11
-55.16233
 21
69.01567
  0
LINE
  8
型材
  6
CONTINUOUS
 62
    47
 10
-55.16233
 20
69.01567
 11
-53.66233
 21
69.015677
  0
LINE
  8
型材
  6
CONTINUOUS
 62
    47
 10
-39.36535
 20
58.63717
 11
-35.4868
 21
62.515712
  0
LINE
  8
型材
  6
CONTINUOUS
 62
    47
 10
-31.365475
 20
66.637045
 11
-33.9868
 21
64.01572
  0
LINE
  8
型材
  6
CONTINUOUS
 62
    47
 10
-41.36545
 20
67.515753
 11
-41.36545
 21
64.015705
  0
LINE
  8
型材
  6
CONTINUOUS
 62
    47
 10
-53.66233
 20
69.015677
 11
-53.66233
 21
64.015682
  0
LINE
  8
型材
  6
CONTINUOUS
 62
    47
 10
-35.4868
 20
62.515712
 11
-53.66233
 21
62.515675
  0
LINE
  8
型材
  6
CONTINUOUS
 62
    47
 10
-53.66233
 20
56.815833
 11
-53.66233
 21
62.515675
  0
LINE
  8
型材
  6
CONTINUOUS
 62
    47
 10
-42.865465
 20
69.015753
 11
-42.865435
 21
64.015705
  0
LINE
  8
型材
  6
CONTINUOUS
 62
    47
 10
-33.9868
 20
64.01572
 11
-41.36545
 21
64.015705
  0
LINE
  8
型材
  6
CONTINUOUS
 62
    47
 10
-47.165695
 20
63.715697
 11
-47.465695
 21
64.015697
  0
LINE
  8
型材
  6
CONTINUOUS
 62
    47
 10
-47.165695
 20
63.715697
 11
-46.865695
 21
64.015697
  0
LINE
  8
型材
  6
CONTINUOUS
 62
    47
 10
-42.865435
 20
64.015705
 11
-46.865695
 21
64.015697
  0
LINE
  8
型材
  6
CONTINUOUS
 62
    47
 10
-47.465695
 20
64.015697
 11
-53.66233
 21
64.015682
  0
LINE
  8
型材
  6
CONTINUOUS
 62
    47
 10
-40.365355
 20
55.91584
 11
-37.765345
 21
55.91584
  0
ENDBLK
  0
BLOCK
  2
*GRP_0004
 70
    65
 10
0.0
 20
0.0
  0
POLYLINE
  8
ガラス
  6
CONTINUOUS
 66
     1
 70
     4
  0
VERTEX
  8
ガラス
 10
-33.925
 20
-63.125
 70
     8
  0
VERTEX
  8
ガラス
 10
-33.825
 20
-63.1
 70
     8
  0
VERTEX
  8
ガラス
 10
-33.725
 20
-63.1
 70
     8
  0
VERTEX
  8
ガラス
 10
-33.65
 20
-63.075
 70
     8
  0
VERTEX
  8
ガラス
 10
-33.55
 20
-63.075
 70
     8
  0
VERTEX
  8
ガラス
 10
-33.45
 20
-63.075
 70
     8
  0
VERTEX
  8
ガラス
 10
-33.375
 20
-63.05
 70
     8
  0
VERTEX
  8
ガラス
 10
-33.275
 20
-63.05
 70
     8
  0
VERTEX
  8
ガラス
 10
-33.175
 20
-63.05
 70
     8
  0
VERTEX
  8
ガラス
 10
-33.1
 20
-63.05
 70
     8
  0
VERTEX
  8
ガラス
 10
-33.0
 20
-63.05
 70
     8
  0
VERTEX
  8
ガラス
 10
-32.9
 20
-63.05
 70
     8
  0
VERTEX
  8
ガラス
 10
-32.825
 20
-63.05
 70
     8
  0
VERTEX
  8
ガラス
 10
-32.75
 20
-63.05
 70
     8
  0
VERTEX
  8
ガラス
 10
-32.65
 20
-63.05
 70
     8
  0
VERTEX
  8
ガラス
 10
-32.575
 20
-63.075
 70
     8
  0
VERTEX
  8
ガラス
 10
-32.475
 20
-63.075
 70
     8
  0
VERTEX
  8
ガラス
 10
-32.4
 20
-63.1
 70
     8
  0
VERTEX
  8
ガラス
 10
-32.325
 20
-63.125
 70
     8
  0
VERTEX
  8
ガラス
 10
-32.25
 20
-63.125
 70
     8
  0
VERTEX
  8
ガラス
 10
-32.15
 20
-63.175
 70
     8
  0
VERTEX
  8
ガラス
 10
-32.075
 20
-63.2
 70
     8
  0
VERTEX
  8
ガラス
 10
-32.0
 20
-63.225
 70
     8
  0
VERTEX
  8
ガラス
 10
-31.925
 20
-63.275
 70
     8
  0
VERTEX
  8
ガラス
 10
-31.875
 20
-63.3
 70
     8
  0
VERTEX
  8
ガラス
 10
-31.8
 20
-63.35
 70
     8
  0
VERTEX
  8
ガラス
 10
-31.725
 20
-63.4
 70
     8
  0
VERTEX
  8
ガラス
 10
-31.65
 20
-63.45
 70
     8
  0
VERTEX
  8
ガラス
 10
-31.575
 20
-63.5
 70
     8
  0
VERTEX
  8
ガラス
 10
-31.525
 20
-63.55
 70
     8
  0
VERTEX
  8
ガラス
 10
-31.45
 20
-63.625
 70
     8
  0
VERTEX
  8
ガラス
 10
-31.4
 20
-63.675
 70
     8
  0
VERTEX
  8
ガラス
 10
-31.325
 20
-63.75
 70
     8
  0
VERTEX
  8
ガラス
 10
-31.25
 20
-63.8
 70
     8
  0
VERTEX
  8
ガラス
 10
-31.2
 20
-63.875
 70
     8
  0
VERTEX
  8
ガラス
 10
-31.125
 20
-63.95
 70
     8
  0
VERTEX
  8
ガラス
 10
-31.075
 20
-64.0
 70
     8
  0
VERTEX
  8
ガラス
 10
-31.0
 20
-64.075
 70
     8
  0
VERTEX
  8
ガラス
 10
-30.95
 20
-64.15
 70
     8
  0
VERTEX
  8
ガラス
 10
-30.9
 20
-64.225
 70
     8
  0
VERTEX
  8
ガラス
 10
-30.825
 20
-64.275
 70
     8
  0
SEQEND
  0
POLYLINE
  8
ガラス
  6
CONTINUOUS
 66
     1
 70
     4
  0
VERTEX
  8
ガラス
 10
-30.825
 20
-64.275
 70
     8
  0
VERTEX
  8
ガラス
 10
-30.9
 20
-64.3
 70
     8
  0
VERTEX
  8
ガラス
 10
-30.95
 20
-64.3
 70
     8
  0
VERTEX
  8
ガラス
 10
-31.0
 20
-64.3
 70
     8
  0
VERTEX
  8
ガラス
 10
-31.075
 20
-64.3
 70
     8
  0
VERTEX
  8
ガラス
 10
-31.125
 20
-64.325
 70
     8
  0
VERTEX
  8
ガラス
 10
-31.2
 20
-64.325
 70
     8
  0
VERTEX
  8
ガラス
 10
-31.25
 20
-64.325
 70
     8
  0
VERTEX
  8
ガラス
 10
-31.325
 20
-64.35
 70
     8
  0
VERTEX
  8
ガラス
 10
-31.375
 20
-64.35
 70
     8
  0
VERTEX
  8
ガラス
 10
-31.45
 20
-64.35
 70
     8
  0
VERTEX
  8
ガラス
 10
-31.5
 20
-64.375
 70
     8
  0
VERTEX
  8
ガラス
 10
-31.55
 20
-64.375
 70
     8
  0
VERTEX
  8
ガラス
 10
-31.625
 20
-64.375
 70
     8
  0
VERTEX
  8
ガラス
 10
-31.675
 20
-64.4
 70
     8
  0
VERTEX
  8
ガラス
 10
-31.75
 20
-64.4
 70
     8
  0
VERTEX
  8
ガラス
 10
-31.8
 20
-64.425
 70
     8
  0
VERTEX
  8
ガラス
 10
-31.85
 20
-64.425
 70
     8
  0
VERTEX
  8
ガラス
 10
-31.925
 20
-64.45
 70
     8
  0
VERTEX
  8
ガラス
 10
-31.975
 20
-64.45
 70
     8
  0
VERTEX
  8
ガラス
 10
-32.05
 20
-64.475
 70
     8
  0
VERTEX
  8
ガラス
 10
-32.1
 20
-64.475
 70
     8
  0
VERTEX
  8
ガラス
 10
-32.15
 20
-64.5
 70
     8
  0
VERTEX
  8
ガラス
 10
-32.225
 20
-64.525
 70
     8
  0
VERTEX
  8
ガラス
 10
-32.275
 20
-64.525
 70
     8
  0
VERTEX
  8
ガラス
 10
-32.325
 20
-64.55
 70
     8
  0
VERTEX
  8
ガラス
 10
-32.4
 20
-64.575
 70
     8
  0
VERTEX
  8
ガラス
 10
-32.45
 20
-64.6
 70
     8
  0
VERTEX
  8
ガラス
 10
-32.5
 20
-64.625
 70
     8
  0
VERTEX
  8
ガラス
 10
-32.575
 20
-64.625
 70
     8
  0
VERTEX
  8
ガラス
 10
-32.625
 20
-64.65
 70
     8
  0
VERTEX
  8
ガラス
 10
-32.675
 20
-64.675
 70
     8
  0
VERTEX
  8
ガラス
 10
-32.75
 20
-64.7
 70
     8
  0
VERTEX
  8
ガラス
 10
-32.8
 20
-64.725
 70
     8
  0
VERTEX
  8
ガラス
 10
-32.85
 20
-64.75
 70
     8
  0
VERTEX
  8
ガラス
 10
-32.9
 20
-64.775
 70
     8
  0
VERTEX
  8
ガラス
 10
-32.975
 20
-64.8
 70
     8
  0
VERTEX
  8
ガラス
 10
-33.025
 20
-64.825
 70
     8
  0
VERTEX
  8
ガラス
 10
-33.075
 20
-64.825
 70
     8
  0
VERTEX
  8
ガラス
 10
-33.125
 20
-64.85
 70
     8
  0
VERTEX
  8
ガラス
 10
-33.2
 20
-64.875
 70
     8
  0
SEQEND
  0
ARC
  8
ガラス
  6
CONTINUOUS
 10
-33.5437
 20
-63.987931
 40
0.955135
 50
112.264588
 51
292.264588
  0
ENDBLK
  0
BLOCK
  2
*GRP_0005
 70
    65
 10
0.0
 20
0.0
  0
POLYLINE
  8
ガラス
  6
CONTINUOUS
 66
     1
 70
     4
  0
VERTEX
  8
ガラス
 10
-48.25
 20
-63.125
 70
     8
  0
VERTEX
  8
ガラス
 10
-48.15
 20
-63.1
 70
     8
  0
VERTEX
  8
ガラス
 10
-48.05
 20
-63.1
 70
     8
  0
VERTEX
  8
ガラス
 10
-47.95
 20
-63.075
 70
     8
  0
VERTEX
  8
ガラス
 10
-47.875
 20
-63.075
 70
     8
  0
VERTEX
  8
ガラス
 10
-47.775
 20
-63.075
 70
     8
  0
VERTEX
  8
ガラス
 10
-47.675
 20
-63.05
 70
     8
  0
VERTEX
  8
ガラス
 10
-47.6
 20
-63.05
 70
     8
  0
VERTEX
  8
ガラス
 10
-47.5
 20
-63.05
 70
     8
  0
VERTEX
  8
ガラス
 10
-47.4
 20
-63.05
 70
     8
  0
VERTEX
  8
ガラス
 10
-47.325
 20
-63.05
 70
     8
  0
VERTEX
  8
ガラス
 10
-47.225
 20
-63.05
 70
     8
  0
VERTEX
  8
ガラス
 10
-47.15
 20
-63.05
 70
     8
  0
VERTEX
  8
ガラス
 10
-47.05
 20
-63.05
 70
     8
  0
VERTEX
  8
ガラス
 10
-46.975
 20
-63.05
 70
     8
  0
VERTEX
  8
ガラス
 10
-46.875
 20
-63.075
 70
     8
  0
VERTEX
  8
ガラス
 10
-46.8
 20
-63.075
 70
     8
  0
VERTEX
  8
ガラス
 10
-46.725
 20
-63.1
 70
     8
  0
VERTEX
  8
ガラス
 10
-46.65
 20
-63.125
 70
     8
  0
VERTEX
  8
ガラス
 10
-46.55
 20
-63.125
 70
     8
  0
VERTEX
  8
ガラス
 10
-46.475
 20
-63.175
 70
     8
  0
VERTEX
  8
ガラス
 10
-46.4
 20
-63.2
 70
     8
  0
VERTEX
  8
ガラス
 10
-46.325
 20
-63.225
 70
     8
  0
VERTEX
  8
ガラス
 10
-46.25
 20
-63.275
 70
     8
  0
VERTEX
  8
ガラス
 10
-46.175
 20
-63.3
 70
     8
  0
VERTEX
  8
ガラス
 10
-46.1
 20
-63.35
 70
     8
  0
VERTEX
  8
ガラス
 10
-46.05
 20
-63.4
 70
     8
  0
VERTEX
  8
ガラス
 10
-45.975
 20
-63.45
 70
     8
  0
VERTEX
  8
ガラス
 10
-45.9
 20
-63.5
 70
     8
  0
VERTEX
  8
ガラス
 10
-45.85
 20
-63.55
 70
     8
  0
VERTEX
  8
ガラス
 10
-45.775
 20
-63.625
 70
     8
  0
VERTEX
  8
ガラス
 10
-45.7
 20
-63.675
 70
     8
  0
VERTEX
  8
ガラス
 10
-45.65
 20
-63.75
 70
     8
  0
VERTEX
  8
ガラス
 10
-45.575
 20
-63.8
 70
     8
  0
VERTEX
  8
ガラス
 10
-45.525
 20
-63.875
 70
     8
  0
VERTEX
  8
ガラス
 10
-45.45
 20
-63.95
 70
     8
  0
VERTEX
  8
ガラス
 10
-45.4
 20
-64.0
 70
     8
  0
VERTEX
  8
ガラス
 10
-45.325
 20
-64.075
 70
     8
  0
VERTEX
  8
ガラス
 10
-45.275
 20
-64.15
 70
     8
  0
VERTEX
  8
ガラス
 10
-45.2
 20
-64.225
 70
     8
  0
VERTEX
  8
ガラス
 10
-45.15
 20
-64.275
 70
     8
  0
SEQEND
  0
POLYLINE
  8
ガラス
  6
CONTINUOUS
 66
     1
 70
     4
  0
VERTEX
  8
ガラス
 10
-45.15
 20
-64.275
 70
     8
  0
VERTEX
  8
ガラス
 10
-45.2
 20
-64.3
 70
     8
  0
VERTEX
  8
ガラス
 10
-45.275
 20
-64.3
 70
     8
  0
VERTEX
  8
ガラス
 10
-45.325
 20
-64.3
 70
     8
  0
VERTEX
  8
ガラス
 10
-45.4
 20
-64.3
 70
     8
  0
VERTEX
  8
ガラス
 10
-45.45
 20
-64.325
 70
     8
  0
VERTEX
  8
ガラス
 10
-45.525
 20
-64.325
 70
     8
  0
VERTEX
  8
ガラス
 10
-45.575
 20
-64.325
 70
     8
  0
VERTEX
  8
ガラス
 10
-45.65
 20
-64.35
 70
     8
  0
VERTEX
  8
ガラス
 10
-45.7
 20
-64.35
 70
     8
  0
VERTEX
  8
ガラス
 10
-45.75
 20
-64.35
 70
     8
  0
VERTEX
  8
ガラス
 10
-45.825
 20
-64.375
 70
     8
  0
VERTEX
  8
ガラス
 10
-45.875
 20
-64.375
 70
     8
  0
VERTEX
  8
ガラス
 10
-45.95
 20
-64.375
 70
     8
  0
VERTEX
  8
ガラス
 10
-46.0
 20
-64.4
 70
     8
  0
VERTEX
  8
ガラス
 10
-46.075
 20
-64.4
 70
     8
  0
VERTEX
  8
ガラス
 10
-46.125
 20
-64.425
 70
     8
  0
VERTEX
  8
ガラス
 10
-46.175
 20
-64.425
 70
     8
  0
VERTEX
  8
ガラス
 10
-46.25
 20
-64.45
 70
     8
  0
VERTEX
  8
ガラス
 10
-46.3
 20
-64.45
 70
     8
  0
VERTEX
  8
ガラス
 10
-46.35
 20
-64.475
 70
     8
  0
VERTEX
  8
ガラス
 10
-46.425
 20
-64.475
 70
     8
  0
VERTEX
  8
ガラス
 10
-46.475
 20
-64.5
 70
     8
  0
VERTEX
  8
ガラス
 10
-46.55
 20
-64.525
 70
     8
  0
VERTEX
  8
ガラス
 10
-46.6
 20
-64.525
 70
     8
  0
VERTEX
  8
ガラス
 10
-46.65
 20
-64.55
 70
     8
  0
VERTEX
  8
ガラス
 10
-46.725
 20
-64.575
 70
     8
  0
VERTEX
  8
ガラス
 10
-46.775
 20
-64.6
 70
     8
  0
VERTEX
  8
ガラス
 10
-46.825
 20
-64.625
 70
     8
  0
VERTEX
  8
ガラス
 10
-46.875
 20
-64.625
 70
     8
  0
VERTEX
  8
ガラス
 10
-46.95
 20
-64.65
 70
     8
  0
VERTEX
  8
ガラス
 10
-47.0
 20
-64.675
 70
     8
  0
VERTEX
  8
ガラス
 10
-47.05
 20
-64.7
 70
     8
  0
VERTEX
  8
ガラス
 10
-47.125
 20
-64.725
 70
     8
  0
VERTEX
  8
ガラス
 10
-47.175
 20
-64.75
 70
     8
  0
VERTEX
  8
ガラス
 10
-47.225
 20
-64.775
 70
     8
  0
VERTEX
  8
ガラス
 10
-47.275
 20
-64.8
 70
     8
  0
VERTEX
  8
ガラス
 10
-47.35
 20
-64.825
 70
     8
  0
VERTEX
  8
ガラス
 10
-47.4
 20
-64.825
 70
     8
  0
VERTEX
  8
ガラス
 10
-47.45
 20
-64.85
 70
     8
  0
VERTEX
  8
ガラス
 10
-47.525
 20
-64.875
 70
     8
  0
SEQEND
  0
ARC
  8
ガラス
  6
CONTINUOUS
 10
-47.864089
 20
-63.987931
 40
0.955135
 50
112.264588
 51
292.264588
  0
ENDBLK
  0
BLOCK
  2
*GRP_0006
 70
    65
 10
0.0
 20
0.0
  0
POLYLINE
  8
ガラス
  6
CONTINUOUS
 66
     1
 70
     4
  0
VERTEX
  8
ガラス
 10
-65.725
 20
-63.125
 70
     8
  0
VERTEX
  8
ガラス
 10
-65.65
 20
-63.1
 70
     8
  0
VERTEX
  8
ガラス
 10
-65.55
 20
-63.1
 70
     8
  0
VERTEX
  8
ガラス
 10
-65.45
 20
-63.075
 70
     8
  0
VERTEX
  8
ガラス
 10
-65.375
 20
-63.075
 70
     8
  0
VERTEX
  8
ガラス
 10
-65.275
 20
-63.075
 70
     8
  0
VERTEX
  8
ガラス
 10
-65.175
 20
-63.05
 70
     8
  0
VERTEX
  8
ガラス
 10
-65.1
 20
-63.05
 70
     8
  0
VERTEX
  8
ガラス
 10
-65.0
 20
-63.05
 70
     8
  0
VERTEX
  8
ガラス
 10
-64.9
 20
-63.05
 70
     8
  0
VERTEX
  8
ガラス
 10
-64.825
 20
-63.05
 70
     8
  0
VERTEX
  8
ガラス
 10
-64.725
 20
-63.05
 70
     8
  0
VERTEX
  8
ガラス
 10
-64.65
 20
-63.05
 70
     8
  0
VERTEX
  8
ガラス
 10
-64.55
 20
-63.05
 70
     8
  0
VERTEX
  8
ガラス
 10
-64.475
 20
-63.05
 70
     8
  0
VERTEX
  8
ガラス
 10
-64.375
 20
-63.075
 70
     8
  0
VERTEX
  8
ガラス
 10
-64.3
 20
-63.075
 70
     8
  0
VERTEX
  8
ガラス
 10
-64.225
 20
-63.1
 70
     8
  0
VERTEX
  8
ガラス
 10
-64.125
 20
-63.125
 70
     8
  0
VERTEX
  8
ガラス
 10
-64.05
 20
-63.125
 70
     8
  0
VERTEX
  8
ガラス
 10
-63.975
 20
-63.175
 70
     8
  0
VERTEX
  8
ガラス
 10
-63.9
 20
-63.2
 70
     8
  0
VERTEX
  8
ガラス
 10
-63.825
 20
-63.225
 70
     8
  0
VERTEX
  8
ガラス
 10
-63.75
 20
-63.275
 70
     8
  0
VERTEX
  8
ガラス
 10
-63.675
 20
-63.3
 70
     8
  0
VERTEX
  8
ガラス
 10
-63.6
 20
-63.35
 70
     8
  0
VERTEX
  8
ガラス
 10
-63.55
 20
-63.4
 70
     8
  0
VERTEX
  8
ガラス
 10
-63.475
 20
-63.45
 70
     8
  0
VERTEX
  8
ガラス
 10
-63.4
 20
-63.5
 70
     8
  0
VERTEX
  8
ガラス
 10
-63.325
 20
-63.55
 70
     8
  0
VERTEX
  8
ガラス
 10
-63.275
 20
-63.625
 70
     8
  0
VERTEX
  8
ガラス
 10
-63.2
 20
-63.675
 70
     8
  0
VERTEX
  8
ガラス
 10
-63.15
 20
-63.75
 70
     8
  0
VERTEX
  8
ガラス
 10
-63.075
 20
-63.8
 70
     8
  0
VERTEX
  8
ガラス
 10
-63.025
 20
-63.875
 70
     8
  0
VERTEX
  8
ガラス
 10
-62.95
 20
-63.95
 70
     8
  0
VERTEX
  8
ガラス
 10
-62.9
 20
-64.0
 70
     8
  0
VERTEX
  8
ガラス
 10
-62.825
 20
-64.075
 70
     8
  0
VERTEX
  8
ガラス
 10
-62.775
 20
-64.15
 70
     8
  0
VERTEX
  8
ガラス
 10
-62.7
 20
-64.225
 70
     8
  0
VERTEX
  8
ガラス
 10
-62.65
 20
-64.275
 70
     8
  0
SEQEND
  0
POLYLINE
  8
ガラス
  6
CONTINUOUS
 66
     1
 70
     4
  0
VERTEX
  8
ガラス
 10
-62.65
 20
-64.275
 70
     8
  0
VERTEX
  8
ガラス
 10
-62.7
 20
-64.3
 70
     8
  0
VERTEX
  8
ガラス
 10
-62.775
 20
-64.3
 70
     8
  0
VERTEX
  8
ガラス
 10
-62.825
 20
-64.3
 70
     8
  0
VERTEX
  8
ガラス
 10
-62.9
 20
-64.3
 70
     8
  0
VERTEX
  8
ガラス
 10
-62.95
 20
-64.325
 70
     8
  0
VERTEX
  8
ガラス
 10
-63.025
 20
-64.325
 70
     8
  0
VERTEX
  8
ガラス
 10
-63.075
 20
-64.325
 70
     8
  0
VERTEX
  8
ガラス
 10
-63.125
 20
-64.35
 70
     8
  0
VERTEX
  8
ガラス
 10
-63.2
 20
-64.35
 70
     8
  0
VERTEX
  8
ガラス
 10
-63.25
 20
-64.35
 70
     8
  0
VERTEX
  8
ガラス
 10
-63.325
 20
-64.375
 70
     8
  0
VERTEX
  8
ガラス
 10
-63.375
 20
-64.375
 70
     8
  0
VERTEX
  8
ガラス
 10
-63.45
 20
-64.375
 70
     8
  0
VERTEX
  8
ガラス
 10
-63.5
 20
-64.4
 70
     8
  0
VERTEX
  8
ガラス
 10
-63.55
 20
-64.4
 70
     8
  0
VERTEX
  8
ガラス
 10
-63.625
 20
-64.425
 70
     8
  0
VERTEX
  8
ガラス
 10
-63.675
 20
-64.425
 70
     8
  0
VERTEX
  8
ガラス
 10
-63.75
 20
-64.45
 70
     8
  0
VERTEX
  8
ガラス
 10
-63.8
 20
-64.45
 70
     8
  0
VERTEX
  8
ガラス
 10
-63.85
 20
-64.475
 70
     8
  0
VERTEX
  8
ガラス
 10
-63.925
 20
-64.475
 70
     8
  0
VERTEX
  8
ガラス
 10
-63.975
 20
-64.5
 70
     8
  0
VERTEX
  8
ガラス
 10
-64.025
 20
-64.525
 70
     8
  0
VERTEX
  8
ガラス
 10
-64.1
 20
-64.525
 70
     8
  0
VERTEX
  8
ガラス
 10
-64.15
 20
-64.55
 70
     8
  0
VERTEX
  8
ガラス
 10
-64.2
 20
-64.575
 70
     8
  0
VERTEX
  8
ガラス
 10
-64.275
 20
-64.6
 70
     8
  0
VERTEX
  8
ガラス
 10
-64.325
 20
-64.625
 70
     8
  0
VERTEX
  8
ガラス
 10
-64.375
 20
-64.625
 70
     8
  0
VERTEX
  8
ガラス
 10
-64.45
 20
-64.65
 70
     8
  0
VERTEX
  8
ガラス
 10
-64.5
 20
-64.675
 70
     8
  0
VERTEX
  8
ガラス
 10
-64.55
 20
-64.7
 70
     8
  0
VERTEX
  8
ガラス
 10
-64.6
 20
-64.725
 70
     8
  0
VERTEX
  8
ガラス
 10
-64.675
 20
-64.75
 70
     8
  0
VERTEX
  8
ガラス
 10
-64.725
 20
-64.775
 70
     8
  0
VERTEX
  8
ガラス
 10
-64.775
 20
-64.8
 70
     8
  0
VERTEX
  8
ガラス
 10
-64.85
 20
-64.825
 70
     8
  0
VERTEX
  8
ガラス
 10
-64.9
 20
-64.825
 70
     8
  0
VERTEX
  8
ガラス
 10
-64.95
 20
-64.85
 70
     8
  0
VERTEX
  8
ガラス
 10
-65.0
 20
-64.875
 70
     8
  0
SEQEND
  0
ARC
  8
ガラス
  6
CONTINUOUS
 10
-65.360594
 20
-63.987931
 40
0.955135
 50
112.264588
 51
292.264588
  0
ENDBLK
  0
BLOCK
  2
*GRP_0007
 70
    65
 10
0.0
 20
0.0
  0
POLYLINE
  8
ガラス
  6
CONTINUOUS
 66
     1
 70
     4
  0
VERTEX
  8
ガラス
 10
-79.725
 20
-63.125
 70
     8
  0
VERTEX
  8
ガラス
 10
-79.625
 20
-63.1
 70
     8
  0
VERTEX
  8
ガラス
 10
-79.525
 20
-63.1
 70
     8
  0
VERTEX
  8
ガラス
 10
-79.45
 20
-63.075
 70
     8
  0
VERTEX
  8
ガラス
 10
-79.35
 20
-63.075
 70
     8
  0
VERTEX
  8
ガラス
 10
-79.25
 20
-63.075
 70
     8
  0
VERTEX
  8
ガラス
 10
-79.175
 20
-63.05
 70
     8
  0
VERTEX
  8
ガラス
 10
-79.075
 20
-63.05
 70
     8
  0
VERTEX
  8
ガラス
 10
-78.975
 20
-63.05
 70
     8
  0
VERTEX
  8
ガラス
 10
-78.9
 20
-63.05
 70
     8
  0
VERTEX
  8
ガラス
 10
-78.8
 20
-63.05
 70
     8
  0
VERTEX
  8
ガラス
 10
-78.725
 20
-63.05
 70
     8
  0
VERTEX
  8
ガラス
 10
-78.625
 20
-63.05
 70
     8
  0
VERTEX
  8
ガラス
 10
-78.55
 20
-63.05
 70
     8
  0
VERTEX
  8
ガラス
 10
-78.45
 20
-63.05
 70
     8
  0
VERTEX
  8
ガラス
 10
-78.375
 20
-63.075
 70
     8
  0
VERTEX
  8
ガラス
 10
-78.275
 20
-63.075
 70
     8
  0
VERTEX
  8
ガラス
 10
-78.2
 20
-63.1
 70
     8
  0
VERTEX
  8
ガラス
 10
-78.125
 20
-63.125
 70
     8
  0
VERTEX
  8
ガラス
 10
-78.05
 20
-63.125
 70
     8
  0
VERTEX
  8
ガラス
 10
-77.975
 20
-63.175
 70
     8
  0
VERTEX
  8
ガラス
 10
-77.875
 20
-63.2
 70
     8
  0
VERTEX
  8
ガラス
 10
-77.8
 20
-63.225
 70
     8
  0
VERTEX
  8
ガラス
 10
-77.75
 20
-63.275
 70
     8
  0
VERTEX
  8
ガラス
 10
-77.675
 20
-63.3
 70
     8
  0
VERTEX
  8
ガラス
 10
-77.6
 20
-63.35
 70
     8
  0
VERTEX
  8
ガラス
 10
-77.525
 20
-63.4
 70
     8
  0
VERTEX
  8
ガラス
 10
-77.45
 20
-63.45
 70
     8
  0
VERTEX
  8
ガラス
 10
-77.4
 20
-63.5
 70
     8
  0
VERTEX
  8
ガラス
 10
-77.325
 20
-63.55
 70
     8
  0
VERTEX
  8
ガラス
 10
-77.25
 20
-63.625
 70
     8
  0
VERTEX
  8
ガラス
 10
-77.2
 20
-63.675
 70
     8
  0
VERTEX
  8
ガラス
 10
-77.125
 20
-63.75
 70
     8
  0
VERTEX
  8
ガラス
 10
-77.075
 20
-63.8
 70
     8
  0
VERTEX
  8
ガラス
 10
-77.0
 20
-63.875
 70
     8
  0
VERTEX
  8
ガラス
 10
-76.95
 20
-63.95
 70
     8
  0
VERTEX
  8
ガラス
 10
-76.875
 20
-64.0
 70
     8
  0
VERTEX
  8
ガラス
 10
-76.825
 20
-64.075
 70
     8
  0
VERTEX
  8
ガラス
 10
-76.75
 20
-64.15
 70
     8
  0
VERTEX
  8
ガラス
 10
-76.7
 20
-64.225
 70
     8
  0
VERTEX
  8
ガラス
 10
-76.625
 20
-64.275
 70
     8
  0
SEQEND
  0
POLYLINE
  8
ガラス
  6
CONTINUOUS
 66
     1
 70
     4
  0
VERTEX
  8
ガラス
 10
-76.625
 20
-64.275
 70
     8
  0
VERTEX
  8
ガラス
 10
-76.7
 20
-64.3
 70
     8
  0
VERTEX
  8
ガラス
 10
-76.75
 20
-64.3
 70
     8
  0
VERTEX
  8
ガラス
 10
-76.825
 20
-64.3
 70
     8
  0
VERTEX
  8
ガラス
 10
-76.875
 20
-64.3
 70
     8
  0
VERTEX
  8
ガラス
 10
-76.95
 20
-64.325
 70
     8
  0
VERTEX
  8
ガラス
 10
-77.0
 20
-64.325
 70
     8
  0
VERTEX
  8
ガラス
 10
-77.05
 20
-64.325
 70
     8
  0
VERTEX
  8
ガラス
 10
-77.125
 20
-64.35
 70
     8
  0
VERTEX
  8
ガラス
 10
-77.175
 20
-64.35
 70
     8
  0
VERTEX
  8
ガラス
 10
-77.25
 20
-64.35
 70
     8
  0
VERTEX
  8
ガラス
 10
-77.3
 20
-64.375
 70
     8
  0
VERTEX
  8
ガラス
 10
-77.375
 20
-64.375
 70
     8
  0
VERTEX
  8
ガラス
 10
-77.425
 20
-64.375
 70
     8
  0
VERTEX
  8
ガラス
 10
-77.475
 20
-64.4
 70
     8
  0
VERTEX
  8
ガラス
 10
-77.55
 20
-64.4
 70
     8
  0
VERTEX
  8
ガラス
 10
-77.6
 20
-64.425
 70
     8
  0
VERTEX
  8
ガラス
 10
-77.675
 20
-64.425
 70
     8
  0
VERTEX
  8
ガラス
 10
-77.725
 20
-64.45
 70
     8
  0
VERTEX
  8
ガラス
 10
-77.775
 20
-64.45
 70
     8
  0
VERTEX
  8
ガラス
 10
-77.85
 20
-64.475
 70
     8
  0
VERTEX
  8
ガラス
 10
-77.9
 20
-64.475
 70
     8
  0
VERTEX
  8
ガラス
 10
-77.95
 20
-64.5
 70
     8
  0
VERTEX
  8
ガラス
 10
-78.025
 20
-64.525
 70
     8
  0
VERTEX
  8
ガラス
 10
-78.075
 20
-64.525
 70
     8
  0
VERTEX
  8
ガラス
 10
-78.125
 20
-64.55
 70
     8
  0
VERTEX
  8
ガラス
 10
-78.2
 20
-64.575
 70
     8
  0
VERTEX
  8
ガラス
 10
-78.25
 20
-64.6
 70
     8
  0
VERTEX
  8
ガラス
 10
-78.3
 20
-64.625
 70
     8
  0
VERTEX
  8
ガラス
 10
-78.375
 20
-64.625
 70
     8
  0
VERTEX
  8
ガラス
 10
-78.425
 20
-64.65
 70
     8
  0
VERTEX
  8
ガラス
 10
-78.475
 20
-64.675
 70
     8
  0
VERTEX
  8
ガラス
 10
-78.55
 20
-64.7
 70
     8
  0
VERTEX
  8
ガラス
 10
-78.6
 20
-64.725
 70
     8
  0
VERTEX
  8
ガラス
 10
-78.65
 20
-64.75
 70
     8
  0
VERTEX
  8
ガラス
 10
-78.725
 20
-64.775
 70
     8
  0
VERTEX
  8
ガラス
 10
-78.775
 20
-64.8
 70
     8
  0
VERTEX
  8
ガラス
 10
-78.825
 20
-64.825
 70
     8
  0
VERTEX
  8
ガラス
 10
-78.875
 20
-64.825
 70
     8
  0
VERTEX
  8
ガラス
 10
-78.95
 20
-64.85
 70
     8
  0
VERTEX
  8
ガラス
 10
-79.0
 20
-64.875
 70
     8
  0
SEQEND
  0
ARC
  8
ガラス
  6
CONTINUOUS
 10
-79.346654
 20
-63.987931
 40
0.955135
 50
112.264588
 51
292.264588
  0
ENDBLK
  0
BLOCK
  2
*GRP_0008
 70
    65
 10
0.0
 20
0.0
  0
INSERT
  2
*HAT_0001
  8
ゴム等
 10
0.0
 20
0.0
  0
LINE
  8
ゴム等
  6
CONTINUOUS
 10
-74.065787
 20
-5.083798
 11
-74.065787
 21
-11.083798
  0
LINE
  8
ゴム等
  6
CONTINUOUS
 10
-74.065787
 20
-11.083798
 11
-89.065787
 21
-11.083798
  0
LINE
  8
ゴム等
  6
CONTINUOUS
 10
-89.065787
 20
-11.083798
 11
-89.065787
 21
-5.083798
  0
LINE
  8
ゴム等
  6
CONTINUOUS
 10
-74.065787
 20
-5.083798
 11
-89.065787
 21
-5.083798
  0
ENDBLK
  0
BLOCK
  2
*GRP_0009
 70
    65
 10
0.0
 20
0.0
  0
INSERT
  2
*HAT_0002
  8
ゴム等
 10
0.0
 20
0.0
  0
LINE
  8
ゴム等
  6
CONTINUOUS
 10
-112.06042
 20
-2.084173
 11
-105.061345
 21
-2.084173
  0
LINE
  8
ゴム等
  6
CONTINUOUS
 10
-105.061345
 20
-2.084173
 11
-106.56132
 21
-5.084173
  0
LINE
  8
ゴム等
  6
CONTINUOUS
 10
-112.06042
 20
-2.084173
 11
-110.56062
 21
-5.083798
  0
LINE
  8
ゴム等
  6
CONTINUOUS
 10
-112.56087
 20
-5.083798
 11
-110.56062
 21
-5.083798
  0
ARC
  8
ゴム等
  6
CONTINUOUS
 10
-112.560865
 20
-7.08377
 40
2.0
 50
90.0
 51
180.0
  0
LINE
  8
ゴム等
  6
CONTINUOUS
 10
-114.560895
 20
-9.083773
 11
-114.560895
 21
-7.083773
  0
ARC
  8
ゴム等
  6
CONTINUOUS
 10
-112.560865
 20
-9.08377
 40
2.0
 50
180.0
 51
270.0
  0
LINE
  8
ゴム等
  6
CONTINUOUS
 10
-112.56087
 20
-11.083798
 11
-104.56087
 21
-11.083798
  0
ARC
  8
ゴム等
  6
CONTINUOUS
 10
-104.560865
 20
-9.08377
 40
2.0
 50
270.0
 51
360.0
  0
LINE
  8
ゴム等
  6
CONTINUOUS
 10
-102.560895
 20
-9.083773
 11
-102.560895
 21
-7.084173
  0
LINE
  8
ゴム等
  6
CONTINUOUS
 10
-104.56087
 20
-5.084173
 11
-106.56132
 21
-5.084173
  0
ARC
  8
ゴム等
  6
CONTINUOUS
 10
-104.560865
 20
-7.08416
 40
2.0
 50
0.0
 51
90.0
  0
ARC
  8
ゴム等
  6
CONTINUOUS
 10
-112.560867
 20
-7.083768
 40
1.0
 50
90.0
 51
180.0
  0
LINE
  8
ゴム等
  6
CONTINUOUS
 10
-113.56087
 20
-9.083798
 11
-113.56087
 21
-7.083773
  0
ARC
  8
ゴム等
  6
CONTINUOUS
 10
-112.560867
 20
-9.083773
 40
1.0
 50
180.0
 51
270.0
  0
LINE
  8
ゴム等
  6
CONTINUOUS
 10
-104.56087
 20
-10.083773
 11
-112.560895
 21
-10.083773
  0
ARC
  8
ゴム等
  6
CONTINUOUS
 10
-104.560862
 20
-9.083773
 40
1.0
 50
270.0
 51
360.0
  0
LINE
  8
ゴム等
  6
CONTINUOUS
 10
-103.56087
 20
-7.083773
 11
-103.56087
 21
-9.083798
  0
LINE
  8
ゴム等
  6
CONTINUOUS
 10
-104.56087
 20
-6.083773
 11
-112.560895
 21
-6.083773
  0
ARC
  8
ゴム等
  6
CONTINUOUS
 10
-104.560862
 20
-7.083768
 40
1.0
 50
0.0
 51
90.0
  0
ENDBLK
  0
BLOCK
  2
*GRP_0010
 70
    65
 10
0.0
 20
0.0
  0
LINE
  8
ゴム等
  6
DOT
 10
-50.36533
 20
88.015547
 11
-46.86547
 21
88.01557
  0
LINE
  8
ゴム等
  6
DOT
 10
-42.865345
 20
93.515883
 11
-46.86544
 21
93.515875
  0
LINE
  8
ゴム等
  6
DOT
 10
-46.86547
 20
88.01557
 11
-46.86544
 21
93.515875
  0
LINE
  8
ゴム等
  6
DOT
 10
-42.865442
 20
93.515905
 11
-42.865435
 21
64.01569
  0
LINE
  8
ゴム等
  6
DOT
 10
-46.365333
 20
64.015682
 11
-50.365323
 21
68.015673
  0
LINE
  8
ゴム等
  6
DOT
 10
-42.865345
 20
93.515883
 11
-49.55452
 21
67.20487
  0
LINE
  8
ゴム等
  6
DOT
 10
-50.36533
 20
88.015547
 11
-50.365323
 21
68.015673
  0
LINE
  8
ゴム等
  6
DOT
 10
-42.865435
 20
64.01569
 11
-46.365333
 21
64.015682
  0
ENDBLK
  0
BLOCK
  2
*GRP_0011
 70
    65
 10
0.0
 20
0.0
  0
LINE
  8
ボルト／ビス
  6
CONTINUOUS
 62
    64
 10
-64.769818
 20
-83.284353
 11
-60.769818
 21
-83.284353
  0
LINE
  8
ボルト／ビス
  6
CONTINUOUS
 62
    64
 10
-65.769818
 20
-85.084353
 11
-64.769818
 21
-83.284353
  0
LINE
  8
ボルト／ビス
  6
CONTINUOUS
 62
    64
 10
-65.769818
 20
-85.084353
 11
-59.769818
 21
-85.084353
  0
LINE
  8
ボルト／ビス
  6
CONTINUOUS
 62
    64
 10
-59.769818
 20
-85.084353
 11
-60.769818
 21
-83.284353
  0
LINE
  8
ボルト／ビス
  6
CONTINUOUS
 62
    64
 10
-62.769818
 20
-86.567885
 11
-62.769818
 21
-76.205325
  0
LINE
  8
ボルト／ビス
  6
CONTINUOUS
 62
    64
 10
-64.769818
 20
-77.584353
 11
-64.269818
 21
-77.084353
  0
LINE
  8
ボルト／ビス
  6
CONTINUOUS
 62
    64
 10
-60.769818
 20
-77.584353
 11
-61.269818
 21
-77.084353
  0
LINE
  8
ボルト／ビス
  6
CONTINUOUS
 62
    64
 10
-64.269818
 20
-77.084353
 11
-61.269818
 21
-77.084353
  0
LINE
  8
ボルト／ビス
  6
CONTINUOUS
 62
    64
 10
-64.769818
 20
-77.584353
 11
-60.769818
 21
-77.584353
  0
LINE
  8
ボルト／ビス
  6
CONTINUOUS
 62
    64
 10
-64.269818
 20
-83.284353
 11
-64.269818
 21
-77.084353
  0
LINE
  8
ボルト／ビス
  6
CONTINUOUS
 62
    64
 10
-61.269818
 20
-83.284353
 11
-61.269818
 21
-77.084353
  0
LINE
  8
ボルト／ビス
  6
CONTINUOUS
 62
    64
 10
-60.769818
 20
-83.284353
 11
-60.769818
 21
-77.584353
  0
LINE
  8
ボルト／ビス
  6
CONTINUOUS
 62
    64
 10
-64.769818
 20
-83.284353
 11
-64.769818
 21
-77.584353
  0
ENDBLK
  0
BLOCK
  2
*GRP_0012
 70
    65
 10
0.0
 20
0.0
  0
LINE
  8
ボルト／ビス
  6
CONTINUOUS
 62
    64
 10
-72.265505
 20
59.214812
 11
-73.31367
 21
59.306517
  0
ARC
  8
ボルト／ビス
  6
CONTINUOUS
 62
    64
 10
-73.165502
 20
61.00005
 40
1.7
 50
180.0
 51
265.000011
  0
LINE
  8
ボルト／ビス
  6
CONTINUOUS
 62
    64
 10
-74.865505
 20
61.000048
 11
-74.865505
 21
62.714812
  0
LINE
  8
ボルト／ビス
  6
CONTINUOUS
 62
    64
 10
-72.265505
 20
66.214812
 11
-73.31367
 21
66.123113
  0
ARC
  8
ボルト／ビス
  6
CONTINUOUS
 62
    64
 10
-73.165502
 20
64.429583
 40
1.7
 50
94.999989
 51
180.0
  0
LINE
  8
ボルト／ビス
  6
CONTINUOUS
 62
    64
 10
-74.865505
 20
64.429582
 11
-74.865505
 21
62.714812
  0
LINE
  8
ボルト／ビス
  6
CONTINUOUS
 62
    64
 10
-74.4806
 20
60.318173
 11
-74.72276
 21
60.318173
  0
LINE
  8
ボルト／ビス
  6
CONTINUOUS
 62
    64
 10
-73.830515
 20
62.014812
 11
-73.830515
 21
62.714812
  0
LINE
  8
ボルト／ビス
  6
CONTINUOUS
 62
    64
 10
-74.4806
 20
61.614812
 11
-74.4806
 21
60.318173
  0
LINE
  8
ボルト／ビス
  6
CONTINUOUS
 62
    64
 10
-73.830515
 20
62.014812
 11
-74.0806
 21
62.014812
  0
ARC
  8
ボルト／ビス
  6
CONTINUOUS
 62
    64
 10
-74.080597
 20
61.614816
 40
0.4
 50
90.0
 51
180.0
  0
LINE
  8
ボルト／ビス
  6
CONTINUOUS
 62
    64
 10
-74.4806
 20
65.111453
 11
-74.72276
 21
65.111453
  0
LINE
  8
ボルト／ビス
  6
CONTINUOUS
 62
    64
 10
-73.830515
 20
63.414812
 11
-73.830515
 21
62.714812
  0
LINE
  8
ボルト／ビス
  6
CONTINUOUS
 62
    64
 10
-74.4806
 20
63.814812
 11
-74.4806
 21
65.111453
  0
LINE
  8
ボルト／ビス
  6
CONTINUOUS
 62
    64
 10
-73.830515
 20
63.414812
 11
-74.0806
 21
63.414812
  0
ARC
  8
ボルト／ビス
  6
CONTINUOUS
 62
    64
 10
-74.080597
 20
63.814816
 40
0.4
 50
180.0
 51
270.0
  0
LINE
  8
ボルト／ビス
  6
CONTINUOUS
 62
    64
 10
-72.265505
 20
59.214812
 11
-72.265505
 21
66.214812
  0
LINE
  8
ボルト／ビス
  6
CONTINUOUS
 62
    64
 10
-62.765505
 20
60.714812
 11
-62.265505
 21
61.214812
  0
LINE
  8
ボルト／ビス
  6
CONTINUOUS
 62
    64
 10
-62.765505
 20
64.714812
 11
-62.265505
 21
64.214812
  0
LINE
  8
ボルト／ビス
  6
CONTINUOUS
 62
    64
 10
-62.765505
 20
60.714812
 11
-62.765505
 21
64.714812
  0
LINE
  8
ボルト／ビス
  6
CONTINUOUS
 62
    64
 10
-62.265505
 20
61.214812
 11
-62.265505
 21
64.214812
  0
LINE
  8
ボルト／ビス
  6
CONTINUOUS
 62
    64
 10
-76.83689
 20
62.714812
 11
-60.69063
 21
62.714812
  0
LINE
  8
ボルト／ビス
  6
CONTINUOUS
 62
    64
 10
-72.265505
 20
60.714812
 11
-62.765505
 21
60.714812
  0
LINE
  8
ボルト／ビス
  6
CONTINUOUS
 62
    64
 10
-72.265505
 20
64.714812
 11
-62.765505
 21
64.714812
  0
LINE
  8
ボルト／ビス
  6
CONTINUOUS
 62
    64
 10
-72.265505
 20
64.214812
 11
-62.265505
 21
64.214812
  0
LINE
  8
ボルト／ビス
  6
CONTINUOUS
 62
    64
 10
-72.265505
 20
61.214812
 11
-62.265505
 21
61.214812
  0
ENDBLK
  0
BLOCK
  2
*GRP_0013
 70
    65
 10
0.0
 20
0.0
  0
LINE
  8
ボルト／ビス
  6
CONTINUOUS
 62
    64
 10
-133.369578
 20
-83.284477
 11
-129.369578
 21
-83.284477
  0
LINE
  8
ボルト／ビス
  6
CONTINUOUS
 62
    64
 10
-134.369578
 20
-85.084477
 11
-133.369578
 21
-83.284477
  0
LINE
  8
ボルト／ビス
  6
CONTINUOUS
 62
    64
 10
-134.369578
 20
-85.084477
 11
-128.369578
 21
-85.084477
  0
LINE
  8
ボルト／ビス
  6
CONTINUOUS
 62
    64
 10
-128.369578
 20
-85.084477
 11
-129.369578
 21
-83.284477
  0
LINE
  8
ボルト／ビス
  6
CONTINUOUS
 62
    64
 10
-131.369578
 20
-86.56801
 11
-131.369578
 21
-76.20545
  0
LINE
  8
ボルト／ビス
  6
CONTINUOUS
 62
    64
 10
-133.369578
 20
-77.584477
 11
-132.869578
 21
-77.084477
  0
LINE
  8
ボルト／ビス
  6
CONTINUOUS
 62
    64
 10
-129.369578
 20
-77.584477
 11
-129.869578
 21
-77.084477
  0
LINE
  8
ボルト／ビス
  6
CONTINUOUS
 62
    64
 10
-132.869578
 20
-77.084477
 11
-129.869578
 21
-77.084477
  0
LINE
  8
ボルト／ビス
  6
CONTINUOUS
 62
    64
 10
-133.369578
 20
-77.584477
 11
-129.369578
 21
-77.584477
  0
LINE
  8
ボルト／ビス
  6
CONTINUOUS
 62
    64
 10
-132.869578
 20
-83.284477
 11
-132.869578
 21
-77.084477
  0
LINE
  8
ボルト／ビス
  6
CONTINUOUS
 62
    64
 10
-129.869578
 20
-83.284477
 11
-129.869578
 21
-77.084477
  0
LINE
  8
ボルト／ビス
  6
CONTINUOUS
 62
    64
 10
-129.369578
 20
-83.284477
 11
-129.369578
 21
-77.584477
  0
LINE
  8
ボルト／ビス
  6
CONTINUOUS
 62
    64
 10
-133.369578
 20
-83.284477
 11
-133.369578
 21
-77.584477
  0
ENDBLK
  0
BLOCK
  2
*GRP_0014
 70
    65
 10
0.0
 20
0.0
  0
LINE
  8
ボルト／ビス
  6
CONTINUOUS
 62
    64
 10
-90.848567
 20
-21.794045
 11
-89.886318
 21
-21.443818
  0
ARC
  8
ボルト／ビス
  6
CONTINUOUS
 62
    64
 10
-91.329697
 20
-18.644689
 40
3.149353
 50
242.721967
 51
270.0
  0
ARC
  8
ボルト／ビス
  6
CONTINUOUS
 62
    64
 10
-95.659825
 20
-9.721974
 40
12.072067
 50
256.165002
 51
283.834985
  0
LINE
  8
ボルト／ビス
  6
CONTINUOUS
 62
    64
 10
-100.471083
 20
-21.794045
 11
-101.433332
 21
-21.443818
  0
ARC
  8
ボルト／ビス
  6
CONTINUOUS
 62
    64
 10
-99.989952
 20
-18.644689
 40
3.149353
 50
270.0
 51
297.278033
  0
LINE
  8
ボルト／ビス
  6
CONTINUOUS
 62
    64
 10
-90.848567
 20
-21.794045
 11
-100.471083
 21
-21.794045
  0
LINE
  8
ボルト／ビス
  6
CONTINUOUS
 62
    64
 10
-101.433332
 20
-21.443818
 11
-101.433332
 21
-17.794048
  0
LINE
  8
ボルト／ビス
  6
CONTINUOUS
 62
    64
 10
-98.546583
 20
-21.443818
 11
-98.546583
 21
-17.794048
  0
LINE
  8
ボルト／ビス
  6
CONTINUOUS
 62
    64
 10
-89.886318
 20
-21.443818
 11
-89.886318
 21
-17.794048
  0
LINE
  8
ボルト／ビス
  6
CONTINUOUS
 62
    64
 10
-92.773082
 20
-21.443818
 11
-92.773082
 21
-17.794048
  0
LINE
  8
ボルト／ビス
  6
CONTINUOUS
 62
    64
 10
-101.83333
 20
-16.294048
 11
-101.83333
 21
-17.794048
  0
LINE
  8
ボルト／ビス
  6
CONTINUOUS
 62
    64
 10
-102.65983
 20
-15.394048
 11
-102.65983
 21
-16.294048
  0
LINE
  8
ボルト／ビス
  6
CONTINUOUS
 62
    64
 10
-89.486327
 20
-16.294048
 11
-89.486327
 21
-17.794048
  0
LINE
  8
ボルト／ビス
  6
CONTINUOUS
 62
    64
 10
-88.659828
 20
-15.394048
 11
-88.659828
 21
-16.294048
  0
LINE
  8
ボルト／ビス
  6
CONTINUOUS
 62
    64
 10
-102.65983
 20
-16.294048
 11
-88.659828
 21
-16.294048
  0
LINE
  8
ボルト／ビス
  6
CONTINUOUS
 62
    64
 10
-102.65983
 20
-15.394048
 11
-88.659828
 21
-15.394048
  0
LINE
  8
ボルト／ビス
  6
CONTINUOUS
 62
    64
 10
-101.83333
 20
-17.794048
 11
-89.486327
 21
-17.794048
  0
LINE
  8
ボルト／ビス
  6
CONTINUOUS
 62
    64
 10
-95.659832
 20
-16.294048
 11
-95.659832
 21
-17.794048
  0
LINE
  8
ボルト／ビス
  6
CONTINUOUS
 62
    64
 10
-98.659832
 20
-8.794048
 11
-97.959828
 21
-7.794042
  0
LINE
  8
ボルト／ビス
  6
CONTINUOUS
 62
    64
 10
-92.659832
 20
-8.794048
 11
-93.35983
 21
-7.794042
  0
LINE
  8
ボルト／ビス
  6
CONTINUOUS
 62
    64
 10
-92.659832
 20
-8.794048
 11
-98.659832
 21
-8.794048
  0
LINE
  8
ボルト／ビス
  6
CONTINUOUS
 62
    64
 10
-93.35983
 20
-7.794042
 11
-97.959828
 21
-7.794042
  0
LINE
  8
ボルト／ビス
  6
CONTINUOUS
 62
    64
 10
-95.659832
 20
-26.794048
 11
-95.659832
 21
-4.547232
  0
LINE
  8
ボルト／ビス
  6
CONTINUOUS
 62
    64
 10
-98.659832
 20
-8.794048
 11
-98.659832
 21
-15.394048
  0
LINE
  8
ボルト／ビス
  6
CONTINUOUS
 62
    64
 10
-97.959828
 20
-7.794042
 11
-97.959828
 21
-15.394048
  0
LINE
  8
ボルト／ビス
  6
CONTINUOUS
 62
    64
 10
-93.35983
 20
-7.794042
 11
-93.35983
 21
-15.394048
  0
LINE
  8
ボルト／ビス
  6
CONTINUOUS
 62
    64
 10
-92.659832
 20
-8.794048
 11
-92.659832
 21
-15.394048
  0
ENDBLK
  0
BLOCK
  2
*DIM_0015
 70
    65
 10
0.0
 20
0.0
  0
LINE
  8
寸法
  6
BYBLOCK
 62
     0
 10
-119.569597
 20
-0.084952
 11
-163.044458
 21
-0.084952
  0
LINE
  8
寸法
  6
BYBLOCK
 62
     0
 10
-163.044458
 20
1.915263
 11
-163.044458
 21
-0.084952
  0
POINT
  8
寸法
 62
     0
 10
-163.044458
 20
-0.084952
  0
TEXT
  7
TextStyle03
  8
寸法
  6
CONTINUOUS
 62
     0
 10
-163.4
 20
0.175
  1
2
 40
3.0
 50
90.0
 72
     5
 11
-163.4
 21
1.675
  0
ENDBLK
  0
BLOCK
  2
*DIM_0016
 70
    65
 10
0.0
 20
0.0
  0
LINE
  8
寸法
  6
BYBLOCK
 62
     0
 10
-119.569567
 20
-13.084047
 11
-163.044458
 21
-13.084047
  0
LINE
  8
寸法
  6
BYBLOCK
 62
     0
 10
-163.044458
 20
-0.084952
 11
-163.044458
 21
-13.084047
  0
POINT
  8
寸法
 62
     0
 10
-163.044458
 20
-13.084047
  0
TEXT
  7
TextStyle03
  8
寸法
  6
CONTINUOUS
 62
     0
 10
-163.4
 20
-8.16875
  1
13
 40
3.0
 50
90.0
 72
     5
 11
-163.4
 21
-4.98125
  0
ENDBLK
  0
BLOCK
  2
*DIM_0017
 70
    65
 10
0.0
 20
0.0
  0
LINE
  8
寸法
  6
BYBLOCK
 62
     0
 10
-75.369575
 20
-65.084297
 11
-163.044458
 21
-65.084297
  0
LINE
  8
寸法
  6
BYBLOCK
 62
     0
 10
-163.044458
 20
-13.084047
 11
-163.044458
 21
-65.084297
  0
POINT
  8
寸法
 62
     0
 10
-163.044458
 20
-65.084297
  0
TEXT
  7
TextStyle03
  8
寸法
  6
CONTINUOUS
 62
     0
 10
-163.4
 20
-40.66875
  1
52
 40
3.0
 50
90.0
 72
     5
 11
-163.4
 21
-37.48125
  0
ENDBLK
  0
BLOCK
  2
*DIM_0018
 70
    65
 10
0.0
 20
0.0
  0
LINE
  8
寸法
  6
BYBLOCK
 62
     0
 10
-141.369578
 20
-70.084297
 11
-163.044458
 21
-70.084297
  0
LINE
  8
寸法
  6
BYBLOCK
 62
     0
 10
-163.044458
 20
-65.084297
 11
-163.044458
 21
-70.084297
  0
POINT
  8
寸法
 62
     0
 10
-163.044458
 20
-70.084297
  0
TEXT
  7
TextStyle03
  8
寸法
  6
CONTINUOUS
 62
     0
 10
-163.4
 20
-68.325
  1
5
 40
3.0
 50
90.0
 72
     5
 11
-163.4
 21
-66.825
  0
ENDBLK
  0
BLOCK
  2
*DIM_0019
 70
    65
 10
0.0
 20
0.0
  0
LINE
  8
寸法
  6
BYBLOCK
 62
     0
 10
-141.369578
 20
-85.084353
 11
-163.044458
 21
-85.084353
  0
LINE
  8
寸法
  6
BYBLOCK
 62
     0
 10
-163.044458
 20
-70.084297
 11
-163.044458
 21
-85.084353
  0
POINT
  8
寸法
 62
     0
 10
-163.044458
 20
-85.084353
  0
TEXT
  7
TextStyle03
  8
寸法
  6
CONTINUOUS
 62
     0
 10
-163.4
 20
-79.16875
  1
15
 40
3.0
 50
90.0
 72
     5
 11
-163.4
 21
-75.98125
  0
ENDBLK
  0
BLOCK
  2
*DIM_0020
 70
    65
 10
0.0
 20
0.0
  0
LINE
  8
寸法
  6
BYBLOCK
 62
     0
 10
-154.01566
 20
-0.084952
 11
-154.91123
 21
-0.084952
  0
LINE
  8
寸法
  6
BYBLOCK
 62
     0
 10
-119.269605
 20
-5.083767
 11
-154.91123
 21
-5.083767
  0
LINE
  8
寸法
  6
BYBLOCK
 62
     0
 10
-154.91123
 20
-0.084952
 11
-154.91123
 21
-5.083767
  0
POINT
  8
寸法
 62
     0
 10
-154.91123
 20
-0.084952
  0
POINT
  8
寸法
 62
     0
 10
-154.91123
 20
-5.083767
  0
TEXT
  7
TextStyle03
  8
寸法
  6
CONTINUOUS
 62
     0
 10
-155.275
 20
-3.325
  1
5
 40
3.0
 50
90.0
 72
     5
 11
-155.275
 21
-1.825
  0
ENDBLK
  0
BLOCK
  2
*DIM_0021
 70
    65
 10
0.0
 20
0.0
  0
LINE
  8
寸法
  6
BYBLOCK
 62
     0
 10
-119.269567
 20
-9.084555
 11
-154.91123
 21
-9.084555
  0
LINE
  8
寸法
  6
BYBLOCK
 62
     0
 10
-154.91123
 20
-5.083767
 11
-154.91123
 21
-9.084555
  0
POINT
  8
寸法
 62
     0
 10
-154.91123
 20
-9.084555
  0
TEXT
  7
TextStyle03
  8
寸法
  6
CONTINUOUS
 62
     0
 10
-155.275
 20
-7.825
  1
4
 40
3.0
 50
90.0
 72
     5
 11
-155.275
 21
-6.325
  0
ENDBLK
  0
BLOCK
  2
*DIM_0022
 70
    65
 10
0.0
 20
0.0
  0
LINE
  8
寸法
  6
BYBLOCK
 62
     0
 10
-120.569567
 20
-13.084047
 11
-154.91123
 21
-13.084047
  0
LINE
  8
寸法
  6
BYBLOCK
 62
     0
 10
-154.91123
 20
-9.084555
 11
-154.91123
 21
-13.084047
  0
POINT
  8
寸法
 62
     0
 10
-154.91123
 20
-13.084047
  0
TEXT
  7
TextStyle03
  8
寸法
  6
CONTINUOUS
 62
     0
 10
-155.275
 20
-11.825
  1
4
 40
3.0
 50
90.0
 72
     5
 11
-155.275
 21
-10.325
  0
ENDBLK
  0
BLOCK
  2
*DIM_0023
 70
    65
 10
0.0
 20
0.0
  0
LINE
  8
寸法
  6
BYBLOCK
 62
     0
 10
-140.369578
 20
-69.084297
 11
-140.369578
 21
128.95056
  0
LINE
  8
寸法
  6
BYBLOCK
 62
     0
 10
-40.365327
 20
128.95056
 11
-140.369578
 21
128.95056
  0
POINT
  8
寸法
 62
     0
 10
-40.365327
 20
128.95056
  0
POINT
  8
寸法
 62
     0
 10
-140.369578
 20
128.95056
  0
TEXT
  7
TextStyle03
  8
寸法
  6
CONTINUOUS
 62
     0
 10
-92.7875
 20
129.3
  1
100
 40
3.0
 72
     5
 11
-87.9125
 21
129.3
  0
ENDBLK
  0
BLOCK
  2
*DIM_0024
 70
    65
 10
0.0
 20
0.0
  0
LINE
  8
寸法
  6
BYBLOCK
 62
     0
 10
-140.369578
 20
122.664168
 11
-140.369578
 21
122.443323
  0
LINE
  8
寸法
  6
BYBLOCK
 62
     0
 10
-25.365327
 20
-58.084297
 11
-25.365327
 21
122.443323
  0
LINE
  8
寸法
  6
BYBLOCK
 62
     0
 10
-140.369578
 20
122.443323
 11
-25.365327
 21
122.443323
  0
POINT
  8
寸法
 62
     0
 10
-140.369578
 20
122.443323
  0
POINT
  8
寸法
 62
     0
 10
-25.365327
 20
122.443323
  0
TEXT
  7
TextStyle03
  8
寸法
  6
CONTINUOUS
 62
     0
 10
-85.2875
 20
122.8
  1
115
 40
3.0
 72
     5
 11
-80.4125
 21
122.8
  0
ENDBLK
  0
BLOCK
  2
*DIM_0025
 70
    65
 10
0.0
 20
0.0
  0
LINE
  8
寸法
  6
BYBLOCK
 62
     0
 10
-49.665327
 20
-9.084548
 11
34.549845
 21
-9.084548
  0
LINE
  8
寸法
  6
BYBLOCK
 62
     0
 10
34.549845
 20
-5.083798
 11
34.549845
 21
-9.084548
  0
POINT
  8
寸法
 62
     0
 10
34.549845
 20
-9.084548
  0
TEXT
  7
TextStyle03
  8
寸法
  6
CONTINUOUS
 62
     0
 10
34.2
 20
-7.85
  1
4
 40
3.0
 50
90.0
 72
     5
 11
34.2
 21
-6.35
  0
ENDBLK
  0
BLOCK
  2
*DIM_0026
 70
    65
 10
0.0
 20
0.0
  0
LINE
  8
寸法
  6
BYBLOCK
 62
     0
 10
-24.365327
 20
-67.084297
 11
34.549845
 21
-67.084297
  0
LINE
  8
寸法
  6
BYBLOCK
 62
     0
 10
34.549845
 20
-9.084548
 11
34.549845
 21
-67.084297
  0
POINT
  8
寸法
 62
     0
 10
34.549845
 20
-67.084297
  0
TEXT
  7
TextStyle03
  8
寸法
  6
CONTINUOUS
 62
     0
 10
34.2
 20
-39.69375
  1
58
 40
3.0
 50
90.0
 72
     5
 11
34.2
 21
-36.50625
  0
ENDBLK
  0
BLOCK
  2
*DIM_0027
 70
    65
 10
0.0
 20
0.0
  0
LINE
  8
寸法
  6
BYBLOCK
 62
     0
 10
-39.365327
 20
45.915827
 11
34.549845
 21
45.915827
  0
LINE
  8
寸法
  6
BYBLOCK
 62
     0
 10
34.549845
 20
55.915827
 11
34.549845
 21
45.915827
  0
POINT
  8
寸法
 62
     0
 10
34.549845
 20
45.915827
  0
TEXT
  7
TextStyle03
  8
寸法
  6
CONTINUOUS
 62
     0
 10
34.175
 20
49.30625
  1
10
 40
3.0
 50
90.0
 72
     5
 11
34.175
 21
52.49375
  0
ENDBLK
  0
BLOCK
  2
*DIM_0028
 70
    65
 10
0.0
 20
0.0
  0
LINE
  8
寸法
  6
BYBLOCK
 62
     0
 10
-49.665327
 20
-5.083798
 11
34.549845
 21
-5.083798
  0
LINE
  8
寸法
  6
BYBLOCK
 62
     0
 10
34.549845
 20
45.915827
 11
34.549845
 21
-5.083798
  0
POINT
  8
寸法
 62
     0
 10
34.549845
 20
-5.083798
  0
TEXT
  7
TextStyle03
  8
寸法
  6
CONTINUOUS
 62
     0
 10
34.175
 20
18.80625
  1
51
 40
3.0
 50
90.0
 72
     5
 11
34.175
 21
21.99375
  0
ENDBLK
  0
BLOCK
  2
*DIM_0029
 70
    65
 10
0.0
 20
0.0
  0
LINE
  8
寸法
  6
BYBLOCK
 62
     0
 10
-81.365327
 20
1.915263
 11
-163.044458
 21
1.915263
  0
LINE
  8
寸法
  6
BYBLOCK
 62
     0
 10
-81.365327
 20
54.915827
 11
-163.044458
 21
54.915827
  0
LINE
  8
寸法
  6
BYBLOCK
 62
     0
 10
-163.044458
 20
1.915263
 11
-163.044458
 21
54.915827
  0
POINT
  8
寸法
 62
     0
 10
-163.044458
 20
1.915263
  0
POINT
  8
寸法
 62
     0
 10
-163.044458
 20
54.915827
  0
TEXT
  7
TextStyle03
  8
寸法
  6
CONTINUOUS
 62
     0
 10
-163.425
 20
26.80625
  1
53
 40
3.0
 50
90.0
 72
     5
 11
-163.425
 21
29.99375
  0
ENDBLK
  0
BLOCK
  2
*GRP_0030
 70
    65
 10
0.0
 20
0.0
  0
POLYLINE
  8
寸法
  6
BYBLOCK
 62
     0
 66
     1
  0
VERTEX
  8
寸法
 10
-83.214682
 20
-68.00993
  0
VERTEX
  8
寸法
 10
-81.551743
 20
-70.506852
  0
VERTEX
  8
寸法
 10
-81.74343
 20
-67.512985
  0
SEQEND
  0
POLYLINE
  8
寸法
  6
BYBLOCK
 62
     0
 66
     1
  0
VERTEX
  8
寸法
 10
-81.551743
 20
-70.506852
  0
VERTEX
  8
寸法
 10
-89.131115
 20
-48.06743
  0
VERTEX
  8
寸法
 10
-92.307233
 20
-48.06743
  0
SEQEND
  0
ENDBLK
  0
BLOCK
  2
*GRP_0031
 70
    65
 10
0.0
 20
0.0
  0
POLYLINE
  8
寸法
  6
BYBLOCK
 62
     0
 66
     1
  0
VERTEX
  8
寸法
 10
-91.589422
 20
-67.482333
  0
VERTEX
  8
寸法
 10
-89.976975
 20
-70.012158
  0
VERTEX
  8
寸法
 10
-90.108485
 20
-67.01504
  0
SEQEND
  0
POLYLINE
  8
寸法
  6
BYBLOCK
 62
     0
 66
     1
  0
VERTEX
  8
寸法
 10
-89.976975
 20
-70.012158
  0
VERTEX
  8
寸法
 10
-93.97664
 20
-57.336455
  0
VERTEX
  8
寸法
 10
-97.654248
 20
-57.336455
  0
SEQEND
  0
ENDBLK
  0
BLOCK
  2
*GRP_0032
 70
    65
 10
0.0
 20
0.0
  0
POLYLINE
  8
寸法
  6
BYBLOCK
 62
     0
 66
     1
  0
VERTEX
  8
寸法
 10
-57.065327
 20
28.469935
  0
VERTEX
  8
寸法
 10
-55.565327
 20
31.068013
  0
VERTEX
  8
寸法
 10
-58.163403
 20
29.568013
  0
SEQEND
  0
POLYLINE
  8
寸法
  6
BYBLOCK
 62
     0
 66
     1
  0
VERTEX
  8
寸法
 10
-55.565327
 20
31.068013
  0
VERTEX
  8
寸法
 10
-63.293977
 20
23.339363
  0
VERTEX
  8
寸法
 10
-94.845392
 20
23.339363
  0
SEQEND
  0
ENDBLK
  0
BLOCK
  2
*GRP_0033
 70
    65
 10
0.0
 20
0.0
  0
POLYLINE
  8
寸法
  6
BYBLOCK
 62
     0
 66
     1
  0
VERTEX
  8
寸法
 10
-55.496162
 20
-27.600888
  0
VERTEX
  8
寸法
 10
-53.996162
 20
-25.00281
  0
VERTEX
  8
寸法
 10
-56.594237
 20
-26.50281
  0
SEQEND
  0
POLYLINE
  8
寸法
  6
BYBLOCK
 62
     0
 66
     1
  0
VERTEX
  8
寸法
 10
-53.996162
 20
-25.00281
  0
VERTEX
  8
寸法
 10
-61.724813
 20
-32.73146
  0
VERTEX
  8
寸法
 10
-93.276228
 20
-32.73146
  0
SEQEND
  0
ENDBLK
  0
BLOCK
  2
*DIM_0034
 70
    65
 10
0.0
 20
0.0
  0
LINE
  8
寸法
  6
BYBLOCK
 62
     0
 10
-51.369575
 20
-85.084227
 11
34.549845
 21
-85.084227
  0
LINE
  8
寸法
  6
BYBLOCK
 62
     0
 10
34.549845
 20
-67.084297
 11
34.549845
 21
-85.084227
  0
POINT
  8
寸法
 62
     0
 10
34.549845
 20
-67.084297
  0
POINT
  8
寸法
 62
     0
 10
34.549845
 20
-85.084227
  0
TEXT
  7
TextStyle03
  8
寸法
  6
CONTINUOUS
 62
     0
 10
34.175
 20
-77.69375
  1
18
 40
3.0
 50
90.0
 72
     5
 11
34.175
 21
-74.50625
  0
ENDBLK
  0
BLOCK
  2
*DIM_0035
 70
    65
 10
0.0
 20
0.0
  0
LINE
  8
寸法
  6
BYBLOCK
 62
     0
 10
-122.869823
 20
-95.084332
 11
34.549845
 21
-95.084332
  0
LINE
  8
寸法
  6
BYBLOCK
 62
     0
 10
34.549845
 20
-85.084227
 11
34.549845
 21
-95.084332
  0
POINT
  8
寸法
 62
     0
 10
34.549845
 20
-95.084332
  0
TEXT
  7
TextStyle03
  8
寸法
  6
CONTINUOUS
 62
     0
 10
34.175
 20
-91.69375
  1
10
 40
3.0
 50
90.0
 72
     5
 11
34.175
 21
-88.50625
  0
ENDBLK
  0
BLOCK
  2
*DIM_0036
 70
    65
 10
0.0
 20
0.0
  0
LINE
  8
寸法
  6
BYBLOCK
 62
     0
 10
-126.369823
 20
-95.084332
 11
-172.608065
 21
-95.084332
  0
LINE
  8
寸法
  6
BYBLOCK
 62
     0
 10
-172.608065
 20
-85.084353
 11
-172.608065
 21
-95.084332
  0
POINT
  8
寸法
 62
     0
 10
-172.608065
 20
-85.084353
  0
POINT
  8
寸法
 62
     0
 10
-172.608065
 20
-95.084332
  0
TEXT
  7
TextStyle03
  8
寸法
  6
CONTINUOUS
 62
     0
 10
-172.975
 20
-91.69375
  1
10
 40
3.0
 50
90.0
 72
     5
 11
-172.975
 21
-88.50625
  0
ENDBLK
  0
BLOCK
  2
*DIM_0037
 70
    65
 10
0.0
 20
0.0
  0
LINE
  8
寸法
  6
BYBLOCK
 62
     0
 10
-140.369578
 20
-86.084353
 11
-140.369578
 21
-106.048875
  0
LINE
  8
寸法
  6
BYBLOCK
 62
     0
 10
-125.369823
 20
-96.084332
 11
-125.369823
 21
-106.048875
  0
LINE
  8
寸法
  6
BYBLOCK
 62
     0
 10
-140.369578
 20
-106.048875
 11
-125.369823
 21
-106.048875
  0
POINT
  8
寸法
 62
     0
 10
-140.369578
 20
-106.048875
  0
POINT
  8
寸法
 62
     0
 10
-125.369823
 20
-106.048875
  0
TEXT
  7
TextStyle03
  8
寸法
  6
CONTINUOUS
 62
     0
 10
-134.46875
 20
-105.675
  1
15
 40
3.0
 72
     5
 11
-131.28125
 21
-105.675
  0
ENDBLK
  0
BLOCK
  2
*GRP_0038
 70
    65
 10
0.0
 20
0.0
  0
POLYLINE
  8
寸法
  6
BYBLOCK
 62
     0
 66
     1
  0
VERTEX
  8
寸法
 10
-106.1378
 20
-15.394528
  0
VERTEX
  8
寸法
 10
-113.954143
 20
-23.21087
  0
VERTEX
  8
寸法
 10
-116.680332
 20
-23.21087
  0
SEQEND
  0
ENDBLK
  0
BLOCK
  2
*DIM_0039
 70
    65
 10
0.0
 20
0.0
  0
LINE
  8
寸法
  6
BYBLOCK
 62
     0
 10
23.647773
 20
-9.084548
 11
24.480608
 21
-9.084548
  0
LINE
  8
寸法
  6
BYBLOCK
 62
     0
 10
-22.365337
 20
-57.083773
 11
24.480608
 21
-57.083773
  0
LINE
  8
寸法
  6
BYBLOCK
 62
     0
 10
24.480608
 20
-9.084548
 11
24.480608
 21
-57.083773
  0
POINT
  8
寸法
 62
     0
 10
24.480608
 20
-9.084548
  0
POINT
  8
寸法
 62
     0
 10
24.480608
 20
-57.083773
  0
TEXT
  7
TextStyle03
  8
寸法
  6
CONTINUOUS
 62
     0
 10
24.1
 20
-34.69375
  1
48
 40
3.0
 50
90.0
 72
     5
 11
24.1
 21
-31.50625
  0
ENDBLK
  0
BLOCK
  2
*DIM_0040
 70
    65
 10
0.0
 20
0.0
  0
LINE
  8
寸法
  6
BYBLOCK
 62
     0
 10
-19.365337
 20
-67.084297
 11
24.480608
 21
-67.084297
  0
LINE
  8
寸法
  6
BYBLOCK
 62
     0
 10
24.480608
 20
-57.083773
 11
24.480608
 21
-67.084297
  0
POINT
  8
寸法
 62
     0
 10
24.480608
 20
-67.084297
  0
TEXT
  7
TextStyle03
  8
寸法
  6
CONTINUOUS
 62
     0
 10
24.1
 20
-63.69375
  1
10
 40
3.0
 50
90.0
 72
     5
 11
24.1
 21
-60.50625
  0
ENDBLK
  0
BLOCK
  2
*DIM_0041
 70
    65
 10
0.0
 20
0.0
  0
LINE
  8
寸法
  6
BYBLOCK
 62
     0
 10
-52.369585
 20
-86.084235
 11
-52.369585
 21
-106.048875
  0
LINE
  8
寸法
  6
BYBLOCK
 62
     0
 10
-125.369823
 20
-106.048875
 11
-52.369585
 21
-106.048875
  0
POINT
  8
寸法
 62
     0
 10
-125.369823
 20
-106.048875
  0
POINT
  8
寸法
 62
     0
 10
-52.369585
 20
-106.048875
  0
TEXT
  7
TextStyle03
  8
寸法
  6
CONTINUOUS
 62
     0
 10
-90.46875
 20
-105.675
  1
73
 40
3.0
 72
     5
 11
-87.28125
 21
-105.675
  0
ENDBLK
  0
BLOCK
  2
*DIM_0042
 70
    65
 10
0.0
 20
0.0
  0
LINE
  8
寸法
  6
BYBLOCK
 62
     0
 10
-25.36534
 20
-68.084303
 11
-25.36534
 21
-106.048875
  0
LINE
  8
寸法
  6
BYBLOCK
 62
     0
 10
-52.369585
 20
-106.048875
 11
-25.36534
 21
-106.048875
  0
POINT
  8
寸法
 62
     0
 10
-25.36534
 20
-106.048875
  0
TEXT
  7
TextStyle03
  8
寸法
  6
CONTINUOUS
 62
     0
 10
-40.46875
 20
-105.675
  1
27
 40
3.0
 72
     5
 11
-37.28125
 21
-105.675
  0
ENDBLK
  0
BLOCK
  2
*GRP_0043
 70
    65
 10
0.0
 20
0.0
  0
POLYLINE
  8
寸法
  6
BYBLOCK
 62
     0
 66
     1
  0
VERTEX
  8
寸法
 10
-23.365337
 20
-101.779177
  0
VERTEX
  8
寸法
 10
-46.79259
 20
-125.206427
  0
VERTEX
  8
寸法
 10
-52.53108
 20
-125.206427
  0
SEQEND
  0
ENDBLK
  0
BLOCK
  2
*GRP_0044
 70
    65
 10
0.0
 20
0.0
  0
POLYLINE
  8
寸法
  6
BYBLOCK
 62
     0
 66
     1
  0
VERTEX
  8
寸法
 10
-98.019787
 20
-91.284418
  0
VERTEX
  8
寸法
 10
-118.212248
 20
-111.476877
  0
VERTEX
  8
寸法
 10
-124.382408
 20
-111.476877
  0
SEQEND
  0
ENDBLK
  0
BLOCK
  2
*DIM_0045
 70
    65
 10
0.0
 20
0.0
  0
LINE
  8
寸法
  6
BYBLOCK
 62
     0
 10
-34.765345
 20
55.91584
 11
34.54983
 21
55.91584
  0
LINE
  8
寸法
  6
BYBLOCK
 62
     0
 10
-26.86546
 20
69.015738
 11
34.54983
 21
69.015738
  0
LINE
  8
寸法
  6
BYBLOCK
 62
     0
 10
34.54983
 20
55.91584
 11
34.54983
 21
69.015738
  0
POINT
  8
寸法
 62
     0
 10
34.54983
 20
55.91584
  0
POINT
  8
寸法
 62
     0
 10
34.54983
 20
69.015738
  0
TEXT
  7
TextStyle03
  8
寸法
  6
CONTINUOUS
 62
     0
 10
34.15
 20
59.14375
  1
13.1
 40
3.0
 50
90.0
 72
     5
 11
34.15
 21
65.70625
  0
ENDBLK
  0
BLOCK
  2
*GRP_0046
 70
    65
 10
0.0
 20
0.0
  0
POLYLINE
  8
寸法
  6
BYBLOCK
 62
     0
 66
     1
  0
VERTEX
  8
寸法
 10
-33.81541
 20
62.065788
  0
VERTEX
  8
寸法
 10
-21.776555
 20
50.026932
  0
VERTEX
  8
寸法
 10
-17.66924
 20
50.026932
  0
SEQEND
  0
ENDBLK
  0
BLOCK
  2
*GRP_0047
 70
    65
 10
0.0
 20
0.0
  0
POLYLINE
  8
寸法
  6
BYBLOCK
 62
     0
 66
     1
  0
VERTEX
  8
寸法
 10
5.85189
 20
-1.013062
  0
VERTEX
  8
寸法
 10
12.622033
 20
5.757083
  0
VERTEX
  8
寸法
 10
14.377255
 20
5.757083
  0
SEQEND
  0
ENDBLK
  0
BLOCK
  2
*GRP_0048
 70
    65
 10
0.0
 20
0.0
  0
LINE
  8
通り芯
  6
CONTINUOUS
 10
-47.365337
 20
-12.58376
 11
-50.365337
 21
-12.58376
  0
ARC
  8
通り芯
  6
CONTINUOUS
 10
-47.365338
 20
44.915832
 40
3.0
 50
90.0
 51
180.0
  0
LINE
  8
通り芯
  6
CONTINUOUS
 10
-50.365337
 20
44.91583
 11
-50.365337
 21
-2.084173
  0
LINE
  8
通り芯
  6
CONTINUOUS
 10
-47.365337
 20
44.91583
 11
-47.365337
 21
-2.084173
  0
LINE
  8
通り芯
  6
CONTINUOUS
 10
-50.365337
 20
-2.084173
 11
-47.365337
 21
-2.084173
  0
ARC
  8
通り芯
  6
CONTINUOUS
 10
-47.365326
 20
-54.083762
 40
3.0
 50
180.0
 51
270.0
  0
LINE
  8
通り芯
  6
CONTINUOUS
 10
-47.365337
 20
-49.08377
 11
-42.365343
 21
-54.083773
  0
LINE
  8
通り芯
  6
CONTINUOUS
 10
-47.365337
 20
-12.58376
 11
-47.365337
 21
-54.083773
  0
LINE
  8
通り芯
  6
CONTINUOUS
 10
-50.365337
 20
-12.58376
 11
-50.365337
 21
-57.083773
  0
ARC
  8
通り芯
  6
CONTINUOUS
 10
-2.365323
 20
44.915833
 40
3.0
 50
0.0
 51
90.0
  0
LINE
  8
通り芯
  6
CONTINUOUS
 10
0.634663
 20
47.91583
 11
0.634663
 21
23.91583
  0
LINE
  8
通り芯
  6
CONTINUOUS
 10
-20.365337
 20
-124.084175
 11
-2.365337
 21
-124.084175
  0
ARC
  8
通り芯
  6
CONTINUOUS
 10
-2.365323
 20
-124.084172
 40
3.0
 50
270.0
 51
360.0
  0
LINE
  8
通り芯
  6
CONTINUOUS
 10
-2.365337
 20
-124.084175
 11
-2.365337
 21
-97.084175
  0
ARC
  8
通り芯
  6
CONTINUOUS
 10
-20.365323
 20
-124.084172
 40
3.0
 50
180.0
 51
270.0
  0
LINE
  8
通り芯
  6
CONTINUOUS
 10
0.634663
 20
-127.084175
 11
-23.365337
 21
-127.084175
  0
LINE
  8
通り芯
  6
CONTINUOUS
 10
0.634663
 20
-96.72452
 11
0.634663
 21
-127.084175
  0
LINE
  8
通り芯
  6
CONTINUOUS
 10
-2.365337
 20
-119.084173
 11
-7.36534
 21
-124.084175
  0
LINE
  8
通り芯
  6
CONTINUOUS
 10
-15.365335
 20
-124.084175
 11
-20.365337
 21
-119.084173
  0
LINE
  8
通り芯
  6
CONTINUOUS
 10
-2.365337
 20
-97.084175
 11
0.634663
 21
-97.084175
  0
LINE
  8
通り芯
  6
CONTINUOUS
 10
-2.365337
 20
44.91583
 11
-2.365337
 21
25.915825
  0
LINE
  8
通り芯
  6
CONTINUOUS
 10
-2.365337
 20
25.915825
 11
0.634663
 21
25.915825
  0
ARC
  8
通り芯
  6
CONTINUOUS
 10
-23.365323
 20
-57.083762
 40
3.0
 50
0.0
 51
90.0
  0
LINE
  8
通り芯
  6
CONTINUOUS
 10
-23.365337
 20
-127.084175
 11
-23.365337
 21
-57.083773
  0
LINE
  8
通り芯
  6
CONTINUOUS
 10
-20.365337
 20
-124.084175
 11
-20.365337
 21
-54.083773
  0
LINE
  8
通り芯
  6
CONTINUOUS
 10
-50.365337
 20
-57.083773
 11
-23.365337
 21
-57.083773
  0
LINE
  8
通り芯
  6
CONTINUOUS
 10
-47.365337
 20
-54.083773
 11
-20.365337
 21
-54.083773
  0
LINE
  8
通り芯
  6
CONTINUOUS
 10
-47.365337
 20
-12.58376
 11
0.634663
 21
-34.768648
  0
LINE
  8
通り芯
  6
CONTINUOUS
 10
0.634663
 20
-91.584177
 11
0.634663
 21
-34.768648
  0
LINE
  8
通り芯
  6
CONTINUOUS
 10
-2.365337
 20
25.915825
 11
-47.365337
 21
-2.084173
  0
LINE
  8
通り芯
  6
CONTINUOUS
 10
-47.365337
 20
47.91583
 11
0.634663
 21
47.91583
  0
LINE
  8
通り芯
  6
CONTINUOUS
 10
-47.365337
 20
44.91583
 11
-2.365337
 21
44.91583
  0
LINE
  8
ボルト／ビス
  6
CONTINUOUS
 10
11.784665
 20
29.661197
 11
11.32937
 21
28.410273
  0
ARC
  8
ボルト／ビス
  6
CONTINUOUS
 10
7.690511
 20
30.286662
 40
4.09417
 50
0.0
 51
27.277966
  0
LINE
  8
ボルト／ビス
  6
CONTINUOUS
 10
11.784665
 20
42.170463
 11
11.32937
 21
43.421387
  0
ARC
  8
ボルト／ビス
  6
CONTINUOUS
 10
7.690511
 20
41.544997
 40
4.09417
 50
332.722034
 51
360.0
  0
ARC
  8
ボルト／ビス
  6
CONTINUOUS
 10
-3.909051
 20
35.91583
 40
15.693733
 50
346.165046
 51
373.834954
  0
LINE
  8
ボルト／ビス
  6
CONTINUOUS
 10
6.634663
 20
28.410273
 11
11.32937
 21
28.410273
  0
LINE
  8
ボルト／ビス
  6
CONTINUOUS
 10
6.634663
 20
43.421387
 11
11.32937
 21
43.421387
  0
LINE
  8
ボルト／ビス
  6
CONTINUOUS
 10
11.784665
 20
42.170463
 11
11.784665
 21
29.661197
  0
LINE
  8
ボルト／ビス
  6
CONTINUOUS
 10
11.32937
 20
39.668605
 11
6.634663
 21
39.668605
  0
LINE
  8
ボルト／ビス
  6
CONTINUOUS
 10
11.32937
 20
32.163055
 11
6.634663
 21
32.163055
  0
LINE
  8
ボルト／ビス
  6
CONTINUOUS
 10
6.634663
 20
43.421387
 11
6.634663
 21
28.410273
  0
LINE
  8
ボルト／ビス
  6
CONTINUOUS
 10
4.834663
 20
27.165827
 11
3.834665
 21
27.165827
  0
LINE
  8
ボルト／ビス
  6
CONTINUOUS
 10
4.834663
 20
44.665833
 11
3.834665
 21
44.665833
  0
LINE
  8
ボルト／ビス
  6
CONTINUOUS
 10
4.834663
 20
27.165827
 11
4.834663
 21
44.665833
  0
LINE
  8
ボルト／ビス
  6
CONTINUOUS
 10
3.834665
 20
27.165827
 11
3.834665
 21
44.665833
  0
LINE
  8
ボルト／ビス
  6
CONTINUOUS
 10
6.634663
 20
35.91583
 11
4.834663
 21
35.91583
  0
LINE
  8
ボルト／ビス
  6
CONTINUOUS
 10
6.634663
 20
43.815827
 11
4.834663
 21
43.815827
  0
LINE
  8
ボルト／ビス
  6
CONTINUOUS
 10
6.634663
 20
28.015833
 11
4.834663
 21
28.015833
  0
LINE
  8
ボルト／ビス
  6
CONTINUOUS
 10
6.634663
 20
43.815827
 11
6.634663
 21
28.015833
  0
LINE
  8
ボルト／ビス
  6
CONTINUOUS
 10
-12.165333
 20
39.915827
 11
-13.365333
 21
39.115833
  0
LINE
  8
ボルト／ビス
  6
CONTINUOUS
 10
-12.165333
 20
31.915833
 11
-13.365333
 21
32.715827
  0
LINE
  8
ボルト／ビス
  6
CONTINUOUS
 10
-13.365333
 20
39.115833
 11
-13.365333
 21
32.715827
  0
LINE
  8
ボルト／ビス
  6
CONTINUOUS
 10
-12.165333
 20
39.915827
 11
-12.165333
 21
31.915833
  0
LINE
  8
ボルト／ビス
  6
CONTINUOUS
 10
3.834665
 20
39.915827
 11
-12.165333
 21
39.915827
  0
LINE
  8
ボルト／ビス
  6
CONTINUOUS
 10
3.834665
 20
31.915833
 11
-12.165333
 21
31.915833
  0
LINE
  8
ボルト／ビス
  6
CONTINUOUS
 10
3.834665
 20
39.115833
 11
-13.365333
 21
39.115833
  0
LINE
  8
ボルト／ビス
  6
CONTINUOUS
 10
3.834665
 20
32.715827
 11
-13.365333
 21
32.715827
  0
LINE
  8
ボルト／ビス
  6
CONTINUOUS
 10
16.784668
 20
35.91583
 11
-18.365335
 21
35.91583
  0
LINE
  8
ボルト／ビス
  6
CONTINUOUS
 10
-10.315337
 20
29.661197
 11
-9.860042
 21
28.410273
  0
ARC
  8
ボルト／ビス
  6
CONTINUOUS
 10
-6.221155
 20
30.286664
 40
4.09417
 50
152.722034
 51
180.0
  0
LINE
  8
ボルト／ビス
  6
CONTINUOUS
 10
-10.315337
 20
42.170463
 11
-9.860042
 21
43.421387
  0
ARC
  8
ボルト／ビス
  6
CONTINUOUS
 10
-6.221155
 20
41.544999
 40
4.09417
 50
180.0
 51
207.277966
  0
ARC
  8
ボルト／ビス
  6
CONTINUOUS
 10
5.378407
 20
35.915831
 40
15.693733
 50
166.165046
 51
193.834954
  0
LINE
  8
ボルト／ビス
  6
CONTINUOUS
 10
-5.165335
 20
28.410273
 11
-9.860042
 21
28.410273
  0
LINE
  8
ボルト／ビス
  6
CONTINUOUS
 10
-5.165335
 20
43.421387
 11
-9.860042
 21
43.421387
  0
LINE
  8
ボルト／ビス
  6
CONTINUOUS
 10
-10.315337
 20
42.170463
 11
-10.315337
 21
29.661197
  0
LINE
  8
ボルト／ビス
  6
CONTINUOUS
 10
-9.860042
 20
39.668605
 11
-5.165335
 21
39.668605
  0
LINE
  8
ボルト／ビス
  6
CONTINUOUS
 10
-9.860042
 20
32.163055
 11
-5.165335
 21
32.163055
  0
LINE
  8
ボルト／ビス
  6
CONTINUOUS
 10
-5.165335
 20
43.421387
 11
-5.165335
 21
28.410273
  0
LINE
  8
ボルト／ビス
  6
CONTINUOUS
 10
-3.365335
 20
27.165827
 11
-2.365337
 21
27.165827
  0
LINE
  8
ボルト／ビス
  6
CONTINUOUS
 10
-3.365335
 20
44.665833
 11
-2.365337
 21
44.665833
  0
LINE
  8
ボルト／ビス
  6
CONTINUOUS
 10
-3.365335
 20
27.165827
 11
-3.365335
 21
44.665833
  0
LINE
  8
ボルト／ビス
  6
CONTINUOUS
 10
-2.365337
 20
27.165827
 11
-2.365337
 21
44.665833
  0
LINE
  8
ボルト／ビス
  6
CONTINUOUS
 10
-5.165335
 20
35.91583
 11
-3.365335
 21
35.91583
  0
LINE
  8
ボルト／ビス
  6
CONTINUOUS
 10
-5.165335
 20
43.815827
 11
-3.365335
 21
43.815827
  0
LINE
  8
ボルト／ビス
  6
CONTINUOUS
 10
-5.165335
 20
28.015833
 11
-3.365335
 21
28.015833
  0
LINE
  8
ボルト／ビス
  6
CONTINUOUS
 10
-5.165335
 20
43.815827
 11
-5.165335
 21
28.015833
  0
LINE
  8
ボルト／ビス
  6
CONTINUOUS
 10
11.784665
 20
-113.33915
 11
11.32937
 21
-114.590075
  0
ARC
  8
ボルト／ビス
  6
CONTINUOUS
 10
7.690511
 20
-112.713685
 40
4.09417
 50
0.0
 51
27.277966
  0
LINE
  8
ボルト／ビス
  6
CONTINUOUS
 10
11.784665
 20
-100.829885
 11
11.32937
 21
-99.57896
  0
ARC
  8
ボルト／ビス
  6
CONTINUOUS
 10
7.690511
 20
-101.45535
 40
4.09417
 50
332.722034
 51
360.0
  0
ARC
  8
ボルト／ビス
  6
CONTINUOUS
 10
-3.909051
 20
-107.084518
 40
15.693733
 50
346.165046
 51
373.834954
  0
LINE
  8
ボルト／ビス
  6
CONTINUOUS
 10
6.634663
 20
-114.590075
 11
11.32937
 21
-114.590075
  0
LINE
  8
ボルト／ビス
  6
CONTINUOUS
 10
6.634663
 20
-99.57896
 11
11.32937
 21
-99.57896
  0
LINE
  8
ボルト／ビス
  6
CONTINUOUS
 10
11.784665
 20
-100.829885
 11
11.784665
 21
-113.33915
  0
LINE
  8
ボルト／ビス
  6
CONTINUOUS
 10
11.32937
 20
-103.331743
 11
6.634663
 21
-103.331743
  0
LINE
  8
ボルト／ビス
  6
CONTINUOUS
 10
11.32937
 20
-110.837292
 11
6.634663
 21
-110.837292
  0
LINE
  8
ボルト／ビス
  6
CONTINUOUS
 10
6.634663
 20
-99.57896
 11
6.634663
 21
-114.590075
  0
LINE
  8
ボルト／ビス
  6
CONTINUOUS
 10
4.834663
 20
-115.83452
 11
3.834665
 21
-115.83452
  0
LINE
  8
ボルト／ビス
  6
CONTINUOUS
 10
4.834663
 20
-98.334515
 11
3.834665
 21
-98.334515
  0
LINE
  8
ボルト／ビス
  6
CONTINUOUS
 10
4.834663
 20
-115.83452
 11
4.834663
 21
-98.334515
  0
LINE
  8
ボルト／ビス
  6
CONTINUOUS
 10
3.834665
 20
-115.83452
 11
3.834665
 21
-98.334515
  0
LINE
  8
ボルト／ビス
  6
CONTINUOUS
 10
6.634663
 20
-107.084518
 11
4.834663
 21
-107.084518
  0
LINE
  8
ボルト／ビス
  6
CONTINUOUS
 10
6.634663
 20
-99.18452
 11
4.834663
 21
-99.18452
  0
LINE
  8
ボルト／ビス
  6
CONTINUOUS
 10
6.634663
 20
-114.984515
 11
4.834663
 21
-114.984515
  0
LINE
  8
ボルト／ビス
  6
CONTINUOUS
 10
6.634663
 20
-99.18452
 11
6.634663
 21
-114.984515
  0
LINE
  8
ボルト／ビス
  6
CONTINUOUS
 10
-12.165333
 20
-103.08452
 11
-13.365333
 21
-103.884515
  0
LINE
  8
ボルト／ビス
  6
CONTINUOUS
 10
-12.165333
 20
-111.084515
 11
-13.365333
 21
-110.28452
  0
LINE
  8
ボルト／ビス
  6
CONTINUOUS
 10
-13.365333
 20
-103.884515
 11
-13.365333
 21
-110.28452
  0
LINE
  8
ボルト／ビス
  6
CONTINUOUS
 10
-12.165333
 20
-103.08452
 11
-12.165333
 21
-111.084515
  0
LINE
  8
ボルト／ビス
  6
CONTINUOUS
 10
3.834665
 20
-103.08452
 11
-12.165333
 21
-103.08452
  0
LINE
  8
ボルト／ビス
  6
CONTINUOUS
 10
3.834665
 20
-111.084515
 11
-12.165333
 21
-111.084515
  0
LINE
  8
ボルト／ビス
  6
CONTINUOUS
 10
3.834665
 20
-103.884515
 11
-13.365333
 21
-103.884515
  0
LINE
  8
ボルト／ビス
  6
CONTINUOUS
 10
3.834665
 20
-110.28452
 11
-13.365333
 21
-110.28452
  0
LINE
  8
ボルト／ビス
  6
CONTINUOUS
 10
16.784668
 20
-107.084518
 11
-18.365335
 21
-107.084518
  0
LINE
  8
ボルト／ビス
  6
CONTINUOUS
 10
-10.315337
 20
-113.33915
 11
-9.860042
 21
-114.590075
  0
ARC
  8
ボルト／ビス
  6
CONTINUOUS
 10
-6.221155
 20
-112.713684
 40
4.09417
 50
152.722034
 51
180.0
  0
LINE
  8
ボルト／ビス
  6
CONTINUOUS
 10
-10.315337
 20
-100.829885
 11
-9.860042
 21
-99.57896
  0
ARC
  8
ボルト／ビス
  6
CONTINUOUS
 10
-6.221155
 20
-101.455349
 40
4.09417
 50
180.0
 51
207.277966
  0
ARC
  8
ボルト／ビス
  6
CONTINUOUS
 10
5.378407
 20
-107.084516
 40
15.693733
 50
166.165046
 51
193.834954
  0
LINE
  8
ボルト／ビス
  6
CONTINUOUS
 10
-5.165335
 20
-114.590075
 11
-9.860042
 21
-114.590075
  0
LINE
  8
ボルト／ビス
  6
CONTINUOUS
 10
-5.165335
 20
-99.57896
 11
-9.860042
 21
-99.57896
  0
LINE
  8
ボルト／ビス
  6
CONTINUOUS
 10
-10.315337
 20
-100.829885
 11
-10.315337
 21
-113.33915
  0
LINE
  8
ボルト／ビス
  6
CONTINUOUS
 10
-9.860042
 20
-103.331743
 11
-5.165335
 21
-103.331743
  0
LINE
  8
ボルト／ビス
  6
CONTINUOUS
 10
-9.860042
 20
-110.837292
 11
-5.165335
 21
-110.837292
  0
LINE
  8
ボルト／ビス
  6
CONTINUOUS
 10
-5.165335
 20
-99.57896
 11
-5.165335
 21
-114.590075
  0
LINE
  8
ボルト／ビス
  6
CONTINUOUS
 10
-3.365335
 20
-115.83452
 11
-2.365337
 21
-115.83452
  0
LINE
  8
ボルト／ビス
  6
CONTINUOUS
 10
-3.365335
 20
-98.334515
 11
-2.365337
 21
-98.334515
  0
LINE
  8
ボルト／ビス
  6
CONTINUOUS
 10
-3.365335
 20
-115.83452
 11
-3.365335
 21
-98.334515
  0
LINE
  8
ボルト／ビス
  6
CONTINUOUS
 10
-2.365337
 20
-115.83452
 11
-2.365337
 21
-98.334515
  0
LINE
  8
ボルト／ビス
  6
CONTINUOUS
 10
-5.165335
 20
-107.084518
 11
-3.365335
 21
-107.084518
  0
LINE
  8
ボルト／ビス
  6
CONTINUOUS
 10
-5.165335
 20
-99.18452
 11
-3.365335
 21
-99.18452
  0
LINE
  8
ボルト／ビス
  6
CONTINUOUS
 10
-5.165335
 20
-114.984515
 11
-3.365335
 21
-114.984515
  0
LINE
  8
ボルト／ビス
  6
CONTINUOUS
 10
-5.165335
 20
-99.18452
 11
-5.165335
 21
-114.984515
  0
LINE
  8
別途部材
  6
DASHDOT
 10
-1.165337
 20
34.2619
 11
-1.165337
 21
-124.085045
  0
LINE
  8
別途部材
  6
DASHDOT
 10
-1.165337
 20
-71.81546
 11
-1.165337
 21
46.915825
  0
LINE
  8
別途部材
  6
CONTINUOUS
 10
-12.16534
 20
-51.17597
 11
9.834665
 21
-51.17597
  0
LINE
  8
別途部材
  6
CONTINUOUS
 10
-12.16534
 20
-49.67597
 11
9.834665
 21
-49.67597
  0
LINE
  8
別途部材
  6
CONTINUOUS
 10
8.83466
 20
-52.67597
 11
8.83466
 21
-51.17597
  0
LINE
  8
別途部材
  6
CONTINUOUS
 10
8.83466
 20
-52.67597
 11
-11.165335
 21
-52.67597
  0
LINE
  8
別途部材
  6
CONTINUOUS
 10
-11.165335
 20
-52.67597
 11
-11.165335
 21
-51.17597
  0
LINE
  8
別途部材
  6
CONTINUOUS
 10
5.83466
 20
-55.67597
 11
5.83466
 21
-52.67597
  0
LINE
  8
別途部材
  6
CONTINUOUS
 10
-8.165335
 20
-55.67597
 11
5.83466
 21
-55.67597
  0
LINE
  8
別途部材
  6
CONTINUOUS
 10
-8.165335
 20
-52.67597
 11
-8.165335
 21
-55.67597
  0
LINE
  8
別途部材
  6
CONTINUOUS
 10
3.834665
 20
-55.67597
 11
3.834665
 21
-82.724518
  0
LINE
  8
別途部材
  6
CONTINUOUS
 10
-6.16534
 20
-85.92452
 11
0.634663
 21
-85.92452
  0
LINE
  8
別途部材
  6
CONTINUOUS
 10
-6.16534
 20
-55.67597
 11
-6.16534
 21
-85.92452
  0
ARC
  8
別途部材
  6
CONTINUOUS
 10
0.634672
 20
-85.924512
 40
3.2
 50
0.0
 51
90.0
  0
LINE
  8
別途部材
  6
CONTINUOUS
 10
-6.16534
 20
-82.724518
 11
3.834665
 21
-82.724518
  0
LINE
  8
別途部材
  6
CONTINUOUS
 10
-12.16534
 20
3.915827
 11
9.834665
 21
3.915827
  0
LINE
  8
別途部材
  6
CONTINUOUS
 10
-12.16534
 20
4.915833
 11
9.834665
 21
4.915833
  0
ARC
  8
別途部材
  6
CONTINUOUS
 10
-7.165329
 20
4.915836
 40
5.0
 50
90.0
 51
180.0
  0
LINE
  8
別途部材
  6
CONTINUOUS
 10
-7.165337
 20
9.915827
 11
4.834663
 21
9.915827
  0
ARC
  8
別途部材
  6
CONTINUOUS
 10
4.834671
 20
4.915836
 40
5.0
 50
0.0
 51
90.0
  0
LINE
  8
別途部材
  6
CONTINUOUS
 10
4.834663
 20
9.915827
 11
4.834663
 21
11.91583
  0
LINE
  8
別途部材
  6
CONTINUOUS
 10
-7.165337
 20
9.915827
 11
-7.165337
 21
11.91583
  0
LINE
  8
別途部材
  6
CONTINUOUS
 10
0.634663
 20
44.91583
 11
0.634663
 21
15.115833
  0
LINE
  8
別途部材
  6
CONTINUOUS
 10
0.634663
 20
15.115833
 11
-6.16534
 21
15.115833
  0
LINE
  8
別途部材
  6
CONTINUOUS
 10
-6.16534
 20
15.115833
 11
-6.16534
 21
11.91583
  0
LINE
  8
別途部材
  6
CONTINUOUS
 10
3.834665
 20
44.91583
 11
3.834665
 21
15.115833
  0
ARC
  8
別途部材
  6
CONTINUOUS
 10
0.634671
 20
15.115836
 40
3.2
 50
-90.0
 51
0.0
  0
LINE
  8
別途部材
  6
CONTINUOUS
 10
-7.165337
 20
11.91583
 11
4.834663
 21
11.91583
  0
LINE
  8
別途部材
  6
CONTINUOUS
 10
0.634663
 20
44.91583
 11
3.834665
 21
44.91583
  0
LINE
  8
別途部材
  6
CONTINUOUS
 10
0.634663
 20
31.41583
 11
3.834665
 21
31.41583
  0
LINE
  8
別途部材
  6
CONTINUOUS
 10
0.634663
 20
40.41583
 11
3.834665
 21
40.41583
  0
LINE
  8
別途部材
  6
CONTINUOUS
 10
-1.165337
 20
35.91583
 11
6.250445
 21
35.91583
  0
LINE
  8
別途部材
  6
CONTINUOUS
 10
-12.16534
 20
4.915833
 11
-12.16534
 21
-51.17597
  0
LINE
  8
別途部材
  6
CONTINUOUS
 10
9.834665
 20
4.915833
 11
9.834665
 21
-51.17597
  0
LINE
  8
別途部材
  6
CONTINUOUS
 10
3.834665
 20
-116.084518
 11
0.634663
 21
-116.084518
  0
LINE
  8
別途部材
  6
CONTINUOUS
 10
3.834665
 20
-111.584518
 11
0.634663
 21
-111.584518
  0
LINE
  8
別途部材
  6
CONTINUOUS
 10
3.834665
 20
-102.584518
 11
0.634663
 21
-102.584518
  0
LINE
  8
別途部材
  6
CONTINUOUS
 10
5.948202
 20
-107.084518
 11
-1.165337
 21
-107.084518
  0
LINE
  8
別途部材
  6
CONTINUOUS
 10
3.834665
 20
-82.724518
 11
3.834665
 21
-116.084518
  0
LINE
  8
別途部材
  6
CONTINUOUS
 10
0.634663
 20
-85.92452
 11
0.634663
 21
-116.084518
  0
ENDBLK
  0
BLOCK
  2
*GRP_0049
 70
    65
 10
0.0
 20
0.0
  0
ARC
  8
型材断面
  6
CONTINUOUS
 62
    47
 10
-106.237572
 20
-4.883791
 40
0.199974
 50
153.434949
 51
270.0
  0
ARC
  8
型材断面
  6
CONTINUOUS
 62
    47
 10
-110.884184
 20
-4.883791
 40
0.199974
 50
270.0
 51
386.565051
  0
LINE
  8
型材断面
  6
CONTINUOUS
 62
    47
 10
-113.260293
 20
-5.083798
 11
-110.88421
 21
-5.083798
  0
ARC
  8
型材断面
  6
CONTINUOUS
 62
    47
 10
-113.260269
 20
-4.783804
 40
0.299961
 50
180.0
 51
270.0
  0
LINE
  8
型材断面
  6
CONTINUOUS
 62
    47
 10
-103.561563
 20
-3.884173
 11
-101.561568
 21
-3.884173
  0
LINE
  8
型材断面
  6
CONTINUOUS
 62
    47
 10
-81.865345
 20
-4.583795
 11
-81.865345
 21
-3.884173
  0
ARC
  8
型材断面
  6
CONTINUOUS
 62
    47
 10
-81.365342
 20
-4.583792
 40
0.5
 50
180.0
 51
270.0
  0
LINE
  8
型材断面
  6
CONTINUOUS
 62
    47
 10
-78.865345
 20
-5.083798
 11
-81.365343
 21
-5.083798
  0
LINE
  8
型材断面
  6
CONTINUOUS
 62
    47
 10
-78.365343
 20
-2.084173
 11
-78.365343
 21
-4.583795
  0
ARC
  8
型材断面
  6
CONTINUOUS
 62
    47
 10
-78.865342
 20
-4.583792
 40
0.5
 50
270.0
 51
360.0
  0
LINE
  8
型材断面
  6
CONTINUOUS
 62
    47
 10
-106.237585
 20
-5.083798
 11
-102.061563
 21
-5.083798
  0
LINE
  8
型材断面
  6
CONTINUOUS
 62
    47
 10
-101.561568
 20
-4.583795
 11
-101.561568
 21
-3.884173
  0
ARC
  8
型材断面
  6
CONTINUOUS
 62
    47
 10
-102.061562
 20
-4.583792
 40
0.5
 50
270.0
 51
360.0
  0
LINE
  8
型材断面
  6
CONTINUOUS
 62
    47
 10
-101.561568
 20
-1.19723
 11
-101.561568
 21
-2.084173
  0
LINE
  8
型材断面
  6
CONTINUOUS
 62
    47
 10
-103.561563
 20
-2.084173
 11
-101.561568
 21
-2.084173
  0
LINE
  8
型材断面
  6
CONTINUOUS
 62
    47
 10
-81.865345
 20
-0.16601
 11
-81.865345
 21
-2.084173
  0
LINE
  8
型材断面
  6
CONTINUOUS
 62
    47
 10
-103.561563
 20
-3.884173
 11
-103.561563
 21
-2.084173
  0
LINE
  8
型材断面
  6
CONTINUOUS
 62
    47
 10
-92.71345
 20
-2.084173
 11
-90.713455
 21
-2.084173
  0
LINE
  8
型材断面
  6
CONTINUOUS
 62
    47
 10
-92.71345
 20
-2.084173
 11
-92.71345
 21
-0.733978
  0
LINE
  8
型材断面
  6
CONTINUOUS
 62
    47
 10
-90.713455
 20
-2.084173
 11
-90.713455
 21
-0.629263
  0
LINE
  8
型材断面
  6
CONTINUOUS
 62
    47
 10
-81.865345
 20
-0.16601
 11
-90.713455
 21
-0.629263
  0
LINE
  8
型材断面
  6
CONTINUOUS
 62
    47
 10
-113.560263
 20
-4.78382
 11
-113.560263
 21
-1.82543
  0
LINE
  8
型材断面
  6
CONTINUOUS
 62
    47
 10
-92.71345
 20
-0.733978
 11
-101.561568
 21
-1.19723
  0
LINE
  8
型材断面
  6
CONTINUOUS
 62
    47
 10
-112.078398
 20
-2.048255
 11
-104.854285
 21
-1.67003
  0
LINE
  8
型材断面
  6
CONTINUOUS
 62
    47
 10
-106.41646
 20
-4.794373
 11
-104.854285
 21
-1.67003
  0
LINE
  8
型材断面
  6
CONTINUOUS
 62
    47
 10
-110.705335
 20
-4.794373
 11
-112.078398
 21
-2.048255
  0
LINE
  8
型材断面
  6
CONTINUOUS
 62
    47
 10
-81.865345
 20
-2.084173
 11
-79.865343
 21
-2.084173
  0
LINE
  8
型材断面
  6
CONTINUOUS
 62
    47
 10
-79.865343
 20
-2.084173
 11
-79.865343
 21
-3.884173
  0
LINE
  8
型材断面
  6
CONTINUOUS
 62
    47
 10
-81.865345
 20
-3.884173
 11
-79.865343
 21
-3.884173
  0
LINE
  8
型材断面
  6
CONTINUOUS
 62
    47
 10
-108.8572
 20
0.123137
 11
-108.573295
 21
0.438415
  0
LINE
  8
型材断面
  6
CONTINUOUS
 62
    47
 10
-108.8572
 20
0.123137
 11
-109.17247
 21
0.407042
  0
LINE
  8
型材断面
  6
CONTINUOUS
 62
    47
 10
-80.365345
 20
1.915263
 11
-108.573295
 21
0.438415
  0
LINE
  8
型材断面
  6
CONTINUOUS
 62
    47
 10
-51.865345
 20
-4.783798
 11
-51.865345
 21
-2.084173
  0
ARC
  8
型材断面
  6
CONTINUOUS
 62
    47
 10
-51.565342
 20
-4.783792
 40
0.3
 50
180.0
 51
270.0
  0
LINE
  8
型材断面
  6
CONTINUOUS
 62
    47
 10
-50.665345
 20
-5.083798
 11
-51.565345
 21
-5.083798
  0
ARC
  8
型材断面
  6
CONTINUOUS
 62
    47
 10
-50.665342
 20
-4.783792
 40
0.3
 50
270.0
 51
360.0
  0
LINE
  8
型材断面
  6
CONTINUOUS
 62
    47
 10
-78.365343
 20
-2.084173
 11
-51.865345
 21
-2.084173
  0
LINE
  8
型材断面
  6
CONTINUOUS
 62
    47
 10
-80.065345
 20
33.715285
 11
-80.365345
 21
34.015285
  0
LINE
  8
型材断面
  6
CONTINUOUS
 62
    47
 10
-80.065345
 20
33.715285
 11
-80.365345
 21
33.415285
  0
LINE
  8
型材断面
  6
CONTINUOUS
 62
    47
 10
-80.065345
 20
14.448355
 11
-80.365345
 21
14.748355
  0
LINE
  8
型材断面
  6
CONTINUOUS
 62
    47
 10
-80.065345
 20
14.448355
 11
-80.365345
 21
14.148355
  0
LINE
  8
型材断面
  6
CONTINUOUS
 62
    47
 10
-80.365345
 20
1.915263
 11
-80.365345
 21
14.148355
  0
LINE
  8
型材断面
  6
CONTINUOUS
 62
    47
 10
-80.365345
 20
14.748355
 11
-80.365345
 21
33.415285
  0
LINE
  8
型材断面
  6
CONTINUOUS
 62
    47
 10
-52.365348
 20
47.91583
 11
-42.365343
 21
47.91583
  0
LINE
  8
型材断面
  6
CONTINUOUS
 62
    47
 10
-50.365345
 20
45.915827
 11
-40.365348
 21
45.915827
  0
LINE
  8
型材断面
  6
CONTINUOUS
 62
    47
 10
-42.365343
 20
52.815827
 11
-42.365343
 21
47.91583
  0
LINE
  8
型材断面
  6
CONTINUOUS
 62
    47
 10
-78.365343
 20
52.815827
 11
-42.365343
 21
52.815827
  0
LINE
  8
型材断面
  6
CONTINUOUS
 62
    47
 10
-65.265647
 20
55.815302
 11
-65.265647
 21
54.81583
  0
LINE
  8
型材断面
  6
CONTINUOUS
 62
    47
 10
-60.36535
 20
85.612075
 11
-60.06535
 21
85.912075
  0
LINE
  8
型材断面
  6
CONTINUOUS
 62
    47
 10
-60.36535
 20
85.612075
 11
-60.66535
 21
85.912075
  0
LINE
  8
型材断面
  6
CONTINUOUS
 62
    47
 10
-60.061773
 20
85.915645
 11
-50.365345
 21
85.915645
  0
LINE
  8
型材断面
  6
CONTINUOUS
 62
    47
 10
-50.865348
 20
84.412045
 11
-50.365345
 21
84.912047
  0
LINE
  8
型材断面
  6
CONTINUOUS
 62
    47
 10
-55.865343
 20
82.915645
 11
-54.368942
 21
84.412045
  0
LINE
  8
型材断面
  6
CONTINUOUS
 62
    47
 10
-50.865348
 20
84.412045
 11
-54.368942
 21
84.412045
  0
LINE
  8
型材断面
  6
CONTINUOUS
 62
    47
 10
-50.365345
 20
85.915645
 11
-50.365345
 21
84.912047
  0
LINE
  8
型材断面
  6
CONTINUOUS
 62
    47
 10
-50.165695
 20
54.81583
 11
-41.365345
 21
54.81583
  0
LINE
  8
型材断面
  6
CONTINUOUS
 62
    47
 10
-49.26565
 20
54.81583
 11
-41.365345
 21
54.81583
  0
LINE
  8
型材断面
  6
CONTINUOUS
 62
    47
 10
-72.265645
 20
64.364523
 11
-72.265645
 21
84.415645
  0
LINE
  8
型材断面
  6
CONTINUOUS
 62
    47
 10
-66.765647
 20
54.81583
 11
-66.765647
 21
56.815825
  0
LINE
  8
型材断面
  6
CONTINUOUS
 62
    47
 10
-65.265647
 20
54.81583
 11
-65.265647
 21
56.815825
  0
LINE
  8
型材断面
  6
CONTINUOUS
 62
    47
 10
-66.765647
 20
56.815825
 11
-65.265647
 21
56.815825
  0
LINE
  8
型材断面
  6
CONTINUOUS
 62
    47
 10
-66.765647
 20
68.61379
 11
-65.265647
 21
68.61379
  0
LINE
  8
型材断面
  6
CONTINUOUS
 62
    47
 10
-70.26565
 20
54.81583
 11
-66.765647
 21
54.81583
  0
LINE
  8
型材断面
  6
CONTINUOUS
 62
    47
 10
-51.665695
 20
54.81583
 11
-65.265647
 21
54.81583
  0
LINE
  8
型材断面
  6
CONTINUOUS
 62
    47
 10
-55.865343
 20
82.915645
 11
-70.26565
 21
82.915645
  0
LINE
  8
型材断面
  6
CONTINUOUS
 62
    47
 10
-70.26565
 20
72.113793
 11
-70.26565
 21
82.915645
  0
LINE
  8
型材断面
  6
CONTINUOUS
 62
    47
 10
-71.965645
 20
62.714815
 11
-72.265645
 21
63.014815
  0
LINE
  8
型材断面
  6
CONTINUOUS
 62
    47
 10
-71.965645
 20
62.714815
 11
-72.265645
 21
62.414815
  0
LINE
  8
型材断面
  6
CONTINUOUS
 62
    47
 10
-72.265645
 20
65.315305
 11
-72.265645
 21
63.014815
  0
LINE
  8
型材断面
  6
CONTINUOUS
 62
    47
 10
-76.365348
 20
85.912068
 11
-76.365348
 21
84.415645
  0
LINE
  8
型材断面
  6
CONTINUOUS
 62
    47
 10
-72.265645
 20
84.415645
 11
-76.365348
 21
84.415645
  0
LINE
  8
型材断面
  6
CONTINUOUS
 62
    47
 10
-50.365345
 20
-4.783798
 11
-50.365345
 21
45.915827
  0
LINE
  8
型材断面
  6
CONTINUOUS
 62
    47
 10
-52.365348
 20
46.41583
 11
-52.365348
 21
-0.08417
  0
LINE
  8
型材断面
  6
CONTINUOUS
 62
    47
 10
-78.365343
 20
52.815827
 11
-78.365343
 21
-0.08417
  0
LINE
  8
型材断面
  6
CONTINUOUS
 62
    47
 10
-39.365343
 20
53.815825
 11
-40.365348
 21
53.815825
  0
LINE
  8
型材断面
  6
CONTINUOUS
 62
    47
 10
-40.365348
 20
45.915827
 11
-40.365348
 21
53.815825
  0
LINE
  8
型材断面
  6
CONTINUOUS
 62
    47
 10
-41.365345
 20
54.81583
 11
-40.365348
 21
54.81583
  0
LINE
  8
型材断面
  6
CONTINUOUS
 62
    47
 10
-72.265645
 20
62.414815
 11
-72.265645
 21
54.915827
  0
LINE
  8
型材断面
  6
CONTINUOUS
 62
    47
 10
-72.265645
 20
54.915827
 11
-80.365345
 21
54.915827
  0
LINE
  8
型材断面
  6
CONTINUOUS
 62
    47
 10
-80.365345
 20
34.015285
 11
-80.365345
 21
54.915827
  0
LINE
  8
型材断面
  6
CONTINUOUS
 62
    47
 10
-39.365343
 20
53.815825
 11
-39.365343
 21
55.915825
  0
LINE
  8
型材断面
  6
CONTINUOUS
 62
    47
 10
-39.365343
 20
55.915825
 11
-40.365348
 21
55.915825
  0
LINE
  8
型材断面
  6
CONTINUOUS
 62
    47
 10
-40.365348
 20
54.81583
 11
-40.365348
 21
55.915825
  0
ARC
  8
型材断面
  6
CONTINUOUS
 62
    47
 10
-118.069622
 20
-4.773334
 40
0.299961
 50
180.0
 51
270.0
  0
LINE
  8
型材断面
  6
CONTINUOUS
 62
    47
 10
-116.669838
 20
-5.073327
 11
-118.069638
 21
-5.073327
  0
ARC
  8
型材断面
  6
CONTINUOUS
 62
    47
 10
-116.669803
 20
-4.773334
 40
0.299961
 50
270.0
 51
360.0
  0
LINE
  8
型材断面
  6
CONTINUOUS
 62
    47
 10
-118.369615
 20
-4.77335
 11
-118.369615
 21
-0.07448
  0
LINE
  8
型材断面
  6
CONTINUOUS
 62
    47
 10
-116.36986
 20
-4.77335
 11
-116.36986
 21
-1.972535
  0
LINE
  8
型材断面
  6
CONTINUOUS
 62
    47
 10
-109.17247
 20
0.407042
 11
-118.369615
 21
-0.07448
  0
LINE
  8
型材断面
  6
CONTINUOUS
 62
    47
 10
-113.560263
 20
-1.82543
 11
-116.36986
 21
-1.972535
  0
LINE
  8
型材断面
  6
CONTINUOUS
 62
    47
 10
-59.664858
 20
70.313793
 11
-65.265647
 21
70.313793
  0
LINE
  8
型材断面
  6
CONTINUOUS
 62
    47
 10
-70.26565
 20
70.313793
 11
-66.765647
 21
70.313793
  0
LINE
  8
型材断面
  6
CONTINUOUS
 62
    47
 10
-70.26565
 20
54.81583
 11
-70.26565
 21
70.313793
  0
LINE
  8
型材断面
  6
CONTINUOUS
 62
    47
 10
-66.765647
 20
68.61379
 11
-66.765647
 21
70.313793
  0
LINE
  8
型材断面
  6
CONTINUOUS
 62
    47
 10
-65.265647
 20
68.61379
 11
-65.265647
 21
70.313793
  0
ARC
  8
型材断面
  6
CONTINUOUS
 62
    47
 10
-56.964857
 20
70.713794
 40
0.1
 50
-90.0
 51
45.0
  0
LINE
  8
型材断面
  6
CONTINUOUS
 62
    47
 10
-58.164858
 20
70.613793
 11
-56.964858
 21
70.613793
  0
LINE
  8
型材断面
  6
CONTINUOUS
 62
    47
 10
-56.894147
 20
70.7845
 11
-58.223433
 21
72.113793
  0
LINE
  8
型材断面
  6
CONTINUOUS
 62
    47
 10
-58.164858
 20
70.613793
 11
-56.964858
 21
70.613793
  0
LINE
  8
型材断面
  6
CONTINUOUS
 62
    47
 10
-70.26565
 20
72.113793
 11
-58.223433
 21
72.113793
  0
LINE
  8
型材断面
  6
CONTINUOUS
 62
    47
 10
-59.664858
 20
70.313793
 11
-59.664812
 21
62.31379
  0
LINE
  8
型材断面
  6
CONTINUOUS
 62
    47
 10
-58.164858
 20
70.6138
 11
-58.164812
 21
62.31379
  0
LINE
  8
型材断面
  6
CONTINUOUS
 62
    47
 10
-58.164812
 20
62.31379
 11
-59.664812
 21
62.31379
  0
LINE
  8
型材断面
  6
CONTINUOUS
 62
    47
 10
-51.665695
 20
54.81583
 11
-51.665695
 21
57.115825
  0
ARC
  8
型材断面
  6
CONTINUOUS
 62
    47
 10
-53.065697
 20
57.215829
 40
0.1
 50
135.0
 51
270.0
  0
LINE
  8
型材断面
  6
CONTINUOUS
 62
    47
 10
-51.665695
 20
57.115825
 11
-53.065697
 21
57.115825
  0
LINE
  8
型材断面
  6
CONTINUOUS
 62
    47
 10
-53.136408
 20
57.28654
 11
-51.807115
 21
58.615825
  0
LINE
  8
型材断面
  6
CONTINUOUS
 62
    47
 10
-51.807115
 20
58.615825
 11
-50.165695
 21
58.615825
  0
LINE
  8
型材断面
  6
CONTINUOUS
 62
    47
 10
-50.165695
 20
54.81583
 11
-50.165695
 21
58.615825
  0
LINE
  8
型材断面
  6
CONTINUOUS
 62
    47
 10
-42.865345
 20
47.91583
 11
-58.365348
 21
47.91583
  0
LINE
  8
型材断面
  6
CONTINUOUS
 62
    47
 10
-58.365348
 20
47.91583
 11
-58.365348
 21
44.415827
  0
LINE
  8
型材断面
  6
CONTINUOUS
 62
    47
 10
-58.365348
 20
44.415827
 11
-56.865348
 21
44.415827
  0
LINE
  8
型材断面
  6
CONTINUOUS
 62
    47
 10
-56.865348
 20
44.415827
 11
-56.865348
 21
46.41583
  0
LINE
  8
型材断面
  6
CONTINUOUS
 62
    47
 10
-52.365348
 20
46.41583
 11
-56.865348
 21
46.41583
  0
LINE
  8
型材断面
  6
CONTINUOUS
 62
    47
 10
-58.365348
 20
-0.08417
 11
-58.365348
 21
1.41583
  0
LINE
  8
型材断面
  6
CONTINUOUS
 62
    47
 10
-56.865348
 20
-0.08417
 11
-56.865348
 21
1.41583
  0
LINE
  8
型材断面
  6
CONTINUOUS
 62
    47
 10
-78.365343
 20
-0.08417
 11
-58.365348
 21
-0.08417
  0
LINE
  8
型材断面
  6
CONTINUOUS
 62
    47
 10
-52.365348
 20
-0.08417
 11
-56.865348
 21
-0.08417
  0
LINE
  8
型材断面
  6
CONTINUOUS
 62
    47
 10
-76.365348
 20
85.912068
 11
-60.665343
 21
85.912068
  0
LINE
  8
寸法
  6
CONTINUOUS
 62
    47
 10
-58.365348
 20
1.41583
 11
-56.865348
 21
1.41583
  0
ENDBLK
  0
BLOCK
  2
*GRP_0050
 70
    65
 10
0.0
 20
0.0
  0
LINE
  8
型材断面
  6
CONTINUOUS
 62
    47
 10
-84.768925
 20
-11.08433
 11
-104.466377
 21
-11.08433
  0
LINE
  8
型材断面
  6
CONTINUOUS
 62
    47
 10
-84.768925
 20
-11.08433
 11
-104.466377
 21
-11.08433
  0
LINE
  8
型材断面
  6
CONTINUOUS
 62
    47
 10
-80.269967
 20
-11.08433
 11
-76.47019
 21
-11.08433
  0
ARC
  8
型材断面
  6
CONTINUOUS
 62
    47
 10
-73.769424
 20
-9.384489
 40
0.299961
 50
90.0
 51
180.0
  0
LINE
  8
型材断面
  6
CONTINUOUS
 62
    47
 10
-73.169538
 20
-9.084552
 11
-73.769463
 21
-9.084552
  0
ARC
  8
型材断面
  6
CONTINUOUS
 62
    47
 10
-73.169502
 20
-9.384489
 40
0.299961
 50
0.0
 51
90.0
  0
LINE
  8
型材断面
  6
CONTINUOUS
 62
    47
 10
-74.069417
 20
-9.3845
 11
-74.069417
 21
-11.0843
  0
LINE
  8
型材断面
  6
CONTINUOUS
 62
    47
 10
-72.86959
 20
-9.3845
 11
-72.86959
 21
-11.0843
  0
LINE
  8
型材断面
  6
CONTINUOUS
 62
    47
 10
-89.673318
 20
-11.0843
 11
-74.069417
 21
-11.0843
  0
LINE
  8
型材断面
  6
CONTINUOUS
 62
    47
 10
-76.16872
 20
-11.0843
 11
-74.069417
 21
-11.0843
  0
ARC
  8
型材断面
  6
CONTINUOUS
 62
    47
 10
-51.565337
 20
-9.384546
 40
0.3
 50
90.0
 51
180.0
  0
LINE
  8
型材断面
  6
CONTINUOUS
 62
    47
 10
-50.665337
 20
-9.084552
 11
-51.565337
 21
-9.084552
  0
ARC
  8
型材断面
  6
CONTINUOUS
 62
    47
 10
-50.665337
 20
-9.384546
 40
0.3
 50
0.0
 51
90.0
  0
LINE
  8
型材断面
  6
CONTINUOUS
 62
    47
 10
-51.865337
 20
-11.0843
 11
-51.865337
 21
-9.384552
  0
LINE
  8
型材断面
  6
CONTINUOUS
 62
    47
 10
-72.86959
 20
-11.0843
 11
-51.865337
 21
-11.0843
  0
LINE
  8
型材断面
  6
CONTINUOUS
 62
    47
 10
-74.06959
 20
-32.0846
 11
-74.36959
 21
-31.7846
  0
LINE
  8
型材断面
  6
CONTINUOUS
 62
    47
 10
-74.06959
 20
-32.0846
 11
-74.36959
 21
-32.3846
  0
LINE
  8
型材断面
  6
CONTINUOUS
 62
    47
 10
-74.06959
 20
-46.08482
 11
-74.36959
 21
-45.78482
  0
LINE
  8
型材断面
  6
CONTINUOUS
 62
    47
 10
-74.06959
 20
-46.08482
 11
-74.36959
 21
-46.38482
  0
LINE
  8
型材断面
  6
CONTINUOUS
 62
    47
 10
-74.36959
 20
-13.084055
 11
-74.36959
 21
-31.7846
  0
LINE
  8
型材断面
  6
CONTINUOUS
 62
    47
 10
-74.36959
 20
-32.3846
 11
-74.36959
 21
-45.78482
  0
LINE
  8
型材断面
  6
CONTINUOUS
 62
    47
 10
-108.569582
 20
-11.38433
 11
-108.269582
 21
-11.08433
  0
LINE
  8
型材断面
  6
CONTINUOUS
 62
    47
 10
-108.569582
 20
-11.38433
 11
-108.869582
 21
-11.08433
  0
LINE
  8
型材断面
  6
CONTINUOUS
 62
    47
 10
-97.666562
 20
-11.08433
 11
-108.269582
 21
-11.08433
  0
LINE
  8
型材断面
  6
CONTINUOUS
 62
    47
 10
-50.365337
 20
-65.0843
 11
-26.86534
 21
-65.0843
  0
LINE
  8
型材断面
  6
CONTINUOUS
 62
    47
 10
-125.369837
 20
-95.084338
 11
-123.869837
 21
-95.084338
  0
LINE
  8
型材断面
  6
CONTINUOUS
 62
    47
 10
-123.869837
 20
-95.084338
 11
-123.869837
 21
-85.084235
  0
LINE
  8
型材断面
  6
CONTINUOUS
 62
    47
 10
-140.36959
 20
-70.084303
 11
-140.36959
 21
-85.084355
  0
LINE
  8
型材断面
  6
CONTINUOUS
 62
    47
 10
-125.369837
 20
-95.084338
 11
-125.369837
 21
-85.084355
  0
ARC
  8
型材断面
  6
CONTINUOUS
 62
    47
 10
-66.265565
 20
-83.584353
 40
0.5
 50
90.0
 51
180.0
  0
LINE
  8
型材断面
  6
CONTINUOUS
 62
    47
 10
-66.765565
 20
-83.584355
 11
-66.765565
 21
-84.584232
  0
ARC
  8
型材断面
  6
CONTINUOUS
 62
    47
 10
-66.265565
 20
-84.584228
 40
0.5
 50
180.0
 51
270.0
  0
LINE
  8
型材断面
  6
CONTINUOUS
 62
    47
 10
-138.369588
 20
-83.08436
 11
-138.369588
 21
-71.93852
  0
LINE
  8
型材断面
  6
CONTINUOUS
 62
    47
 10
-54.369588
 20
-83.08436
 11
-54.369588
 21
-67.084303
  0
LINE
  8
型材断面
  6
CONTINUOUS
 62
    47
 10
-66.265563
 20
-83.08436
 11
-54.369588
 21
-83.08436
  0
LINE
  8
型材断面
  6
CONTINUOUS
 62
    47
 10
-140.36959
 20
-70.084303
 11
-74.36959
 21
-65.0843
  0
LINE
  8
型材断面
  6
CONTINUOUS
 62
    47
 10
-52.36534
 20
-65.0843
 11
-72.369588
 21
-65.0843
  0
ARC
  8
型材断面
  6
CONTINUOUS
 62
    47
 10
-114.265565
 20
-83.584353
 40
0.5
 50
0.0
 51
90.0
  0
LINE
  8
型材断面
  6
CONTINUOUS
 62
    47
 10
-113.76556
 20
-83.584355
 11
-113.76556
 21
-84.584232
  0
ARC
  8
型材断面
  6
CONTINUOUS
 62
    47
 10
-114.265565
 20
-84.584228
 40
0.5
 50
270.0
 51
360.0
  0
LINE
  8
型材断面
  6
CONTINUOUS
 62
    47
 10
-123.869837
 20
-85.084235
 11
-114.265563
 21
-85.084235
  0
LINE
  8
型材断面
  6
CONTINUOUS
 62
    47
 10
-138.369588
 20
-83.08436
 11
-114.265563
 21
-83.08436
  0
LINE
  8
型材断面
  6
CONTINUOUS
 62
    47
 10
-74.06959
 20
-62.0843
 11
-74.36959
 21
-61.7843
  0
LINE
  8
型材断面
  6
CONTINUOUS
 62
    47
 10
-74.06959
 20
-62.0843
 11
-74.36959
 21
-62.3843
  0
LINE
  8
型材断面
  6
CONTINUOUS
 62
    47
 10
-74.36959
 20
-65.0843
 11
-74.36959
 21
-62.3843
  0
LINE
  8
型材断面
  6
CONTINUOUS
 62
    47
 10
-138.369588
 20
-71.93852
 11
-74.293945
 21
-67.084303
  0
LINE
  8
型材断面
  6
CONTINUOUS
 62
    47
 10
-50.365337
 20
-9.384545
 11
-50.365337
 21
-65.0843
  0
LINE
  8
型材断面
  6
CONTINUOUS
 62
    47
 10
-74.36959
 20
-46.38482
 11
-74.36959
 21
-61.7843
  0
LINE
  8
型材断面
  6
CONTINUOUS
 62
    47
 10
-72.369588
 20
-13.084303
 11
-52.36534
 21
-13.084303
  0
LINE
  8
型材断面
  6
CONTINUOUS
 62
    47
 10
-72.369588
 20
-65.0843
 11
-72.369588
 21
-13.084303
  0
LINE
  8
型材断面
  6
CONTINUOUS
 62
    47
 10
-52.36534
 20
-65.0843
 11
-52.36534
 21
-13.084303
  0
LINE
  8
型材断面
  6
CONTINUOUS
 62
    47
 10
-74.293945
 20
-67.084303
 11
-54.369588
 21
-67.084303
  0
LINE
  8
型材断面
  6
CONTINUOUS
 62
    47
 10
-52.369585
 20
-67.084303
 11
-25.36534
 21
-67.084303
  0
LINE
  8
型材断面
  6
CONTINUOUS
 62
    47
 10
-52.369585
 20
-85.084235
 11
-52.369585
 21
-67.084303
  0
LINE
  8
型材断面
  6
CONTINUOUS
 62
    47
 10
-62.769827
 20
-84.784235
 11
-62.469827
 21
-85.084235
  0
LINE
  8
型材断面
  6
CONTINUOUS
 62
    47
 10
-62.769827
 20
-84.784235
 11
-63.069827
 21
-85.084235
  0
LINE
  8
型材断面
  6
CONTINUOUS
 62
    47
 10
-66.265563
 20
-85.084235
 11
-63.069827
 21
-85.084235
  0
LINE
  8
型材断面
  6
CONTINUOUS
 62
    47
 10
-52.369585
 20
-85.084235
 11
-62.469827
 21
-85.084235
  0
LINE
  8
型材断面
  6
CONTINUOUS
 62
    47
 10
-131.36959
 20
-84.784355
 11
-131.06959
 21
-85.084355
  0
LINE
  8
型材断面
  6
CONTINUOUS
 62
    47
 10
-131.36959
 20
-84.784355
 11
-131.66959
 21
-85.084355
  0
LINE
  8
型材断面
  6
CONTINUOUS
 62
    47
 10
-125.369837
 20
-85.084355
 11
-131.06959
 21
-85.084355
  0
LINE
  8
型材断面
  6
CONTINUOUS
 62
    47
 10
-140.36959
 20
-85.084355
 11
-131.66959
 21
-85.084355
  0
ARC
  8
型材断面
  6
CONTINUOUS
 62
    47
 10
-118.06958
 20
-9.384519
 40
0.299961
 50
90.0
 51
180.0
  0
LINE
  8
型材断面
  6
CONTINUOUS
 62
    47
 10
-117.469675
 20
-9.084583
 11
-118.0696
 21
-9.084583
  0
ARC
  8
型材断面
  6
CONTINUOUS
 62
    47
 10
-117.469658
 20
-9.384519
 40
0.299961
 50
0.0
 51
90.0
  0
LINE
  8
型材断面
  6
CONTINUOUS
 62
    47
 10
-117.169728
 20
-9.38453
 11
-117.169728
 21
-11.08433
  0
LINE
  8
型材断面
  6
CONTINUOUS
 62
    47
 10
-118.369578
 20
-9.38453
 11
-118.369578
 21
-13.084055
  0
LINE
  8
型材断面
  6
CONTINUOUS
 62
    47
 10
-74.36959
 20
-13.084055
 11
-118.369578
 21
-13.084055
  0
LINE
  8
型材断面
  6
CONTINUOUS
 62
    47
 10
-108.869582
 20
-11.08433
 11
-117.169728
 21
-11.08433
  0
LINE
  8
型材断面
  6
CONTINUOUS
 62
    47
 10
-26.86534
 20
-65.0843
 11
-26.86534
 21
-57.084305
  0
LINE
  8
型材断面
  6
CONTINUOUS
 62
    47
 10
-25.36534
 20
-67.084303
 11
-25.36534
 21
-57.084305
  0
LINE
  8
St
  6
DASHDOT
 62
    47
 10
-26.86534
 20
-57.084305
 11
-25.36534
 21
-57.084305
  0
ENDBLK
  0
BLOCK
  2
*DIM_0051
 70
    65
 10
0.0
 20
0.0
  0
LINE
  8
寸法
  6
CONTINUOUS
 10
-25.365343
 20
116.417653
 11
-40.365343
 21
116.417653
  0
POINT
  8
寸法
 10
-40.365343
 20
116.417653
  0
TEXT
  7
TextStyle03
  8
寸法
  6
CONTINUOUS
 10
-35.0
 20
116.775
  1
15
 40
4.0
 72
     5
 11
-30.75
 21
116.775
  0
ENDBLK
  0
BLOCK
  2
*DIM_0052
 70
    65
 10
0.0
 20
0.0
  0
LINE
  8
寸法
  6
CONTINUOUS
 10
-140.369593
 20
-64.084297
 11
-140.369593
 21
116.417653
  0
LINE
  8
寸法
  6
CONTINUOUS
 10
-118.369615
 20
116.417653
 11
-140.369593
 21
116.417653
  0
POINT
  8
寸法
 10
-140.369593
 20
116.417653
  0
TEXT
  7
TextStyle03
  8
寸法
  6
CONTINUOUS
 10
-131.5
 20
116.775
  1
22
 40
4.0
 72
     5
 11
-127.25
 21
116.775
  0
ENDBLK
  0
BLOCK
  2
*GRP_0053
 70
    65
 10
0.0
 20
0.0
  0
LINE
  8
ゴム等
  6
CONTINUOUS
 10
-38.76547
 20
67.2157
 11
-38.76547
 21
69.0157
  0
LINE
  8
ゴム等
  6
CONTINUOUS
 10
-42.36547
 20
69.0157
 11
-38.76547
 21
69.0157
  0
LINE
  8
ゴム等
  6
CONTINUOUS
 10
-33.96547
 20
67.2157
 11
-33.96547
 21
69.0157
  0
LINE
  8
ゴム等
  6
CONTINUOUS
 10
-30.36547
 20
69.0157
 11
-33.96547
 21
69.0157
  0
LINE
  8
ゴム等
  6
CONTINUOUS
 10
-33.96547
 20
67.2157
 11
-32.965473
 21
67.2157
  0
LINE
  8
ゴム等
  6
CONTINUOUS
 10
-32.965473
 20
67.2157
 11
-32.965473
 21
66.715697
  0
LINE
  8
ゴム等
  6
CONTINUOUS
 10
-38.76547
 20
67.2157
 11
-39.765475
 21
67.2157
  0
LINE
  8
ゴム等
  6
CONTINUOUS
 10
-39.765475
 20
66.715697
 11
-39.765475
 21
67.2157
  0
ARC
  8
ゴム等
  6
CONTINUOUS
 10
-36.365473
 20
66.4157
 40
1.0
 50
-90.0
 51
0.0
  0
LINE
  8
ゴム等
  6
CONTINUOUS
 10
-36.36547
 20
65.4157
 11
-36.36547
 21
65.4157
  0
ARC
  8
ゴム等
  6
CONTINUOUS
 10
-36.365473
 20
66.4157
 40
1.0
 50
180.0
 51
270.0
  0
LINE
  8
ゴム等
  6
CONTINUOUS
 10
-37.365475
 20
68.015703
 11
-37.365475
 21
66.415697
  0
ARC
  8
ゴム等
  6
CONTINUOUS
 10
-36.365473
 20
68.0157
 40
1.0
 50
90.0
 51
180.0
  0
LINE
  8
ゴム等
  6
CONTINUOUS
 10
-36.36547
 20
69.0157
 11
-36.36547
 21
69.0157
  0
LINE
  8
ゴム等
  6
CONTINUOUS
 10
-35.365473
 20
68.015703
 11
-35.365473
 21
66.415697
  0
ARC
  8
ゴム等
  6
CONTINUOUS
 10
-36.365473
 20
68.0157
 40
1.0
 50
0.0
 51
90.0
  0
LINE
  8
ゴム等
  6
CONTINUOUS
 10
-42.1939
 20
69.0157
 11
-42.36547
 21
69.187277
  0
LINE
  8
ゴム等
  6
CONTINUOUS
 10
-33.322833
 20
67.2157
 11
-32.965473
 21
66.85834
  0
LINE
  8
ゴム等
  6
CONTINUOUS
 10
-42.36547
 20
70.601485
 11
-40.779685
 21
69.0157
  0
LINE
  8
ゴム等
  6
CONTINUOUS
 10
-38.979685
 20
67.2157
 11
-36.279685
 21
64.5157
  0
LINE
  8
ゴム等
  6
CONTINUOUS
 10
-42.36547
 20
72.0157
 11
-39.36547
 21
69.0157
  0
LINE
  8
ゴム等
  6
CONTINUOUS
 10
-38.76547
 20
68.4157
 11
-37.365475
 21
67.015697
  0
LINE
  8
ゴム等
  6
CONTINUOUS
 10
-32.365473
 20
73.015697
 11
-32.365473
 21
73.015697
  0
ARC
  8
ゴム等
  6
CONTINUOUS
 10
-32.865473
 20
74.0157
 40
0.5
 50
270.0
 51
360.0
  0
LINE
  8
ゴム等
  6
CONTINUOUS
 10
-39.865473
 20
73.5157
 11
-32.865475
 21
73.5157
  0
ARC
  8
ゴム等
  6
CONTINUOUS
 10
-39.865473
 20
74.0157
 40
0.5
 50
180.0
 51
270.0
  0
LINE
  8
ゴム等
  6
CONTINUOUS
 10
-40.365475
 20
74.015703
 11
-42.36547
 21
74.015703
  0
LINE
  8
ゴム等
  6
CONTINUOUS
 10
-42.36547
 20
69.0157
 11
-42.36547
 21
74.015703
  0
LINE
  8
ゴム等
  6
CONTINUOUS
 10
-37.301958
 20
68.366403
 11
-42.36547
 21
73.429915
  0
LINE
  8
ゴム等
  6
CONTINUOUS
 10
-36.52435
 20
69.003003
 11
-41.53705
 21
74.015703
  0
LINE
  8
ゴム等
  6
CONTINUOUS
 10
-33.96547
 20
67.858338
 11
-39.622833
 21
73.5157
  0
LINE
  8
ゴム等
  6
CONTINUOUS
 10
-33.708618
 20
69.0157
 11
-38.208618
 21
73.5157
  0
LINE
  8
ゴム等
  6
CONTINUOUS
 10
-32.294402
 20
69.0157
 11
-36.794402
 21
73.5157
  0
LINE
  8
ゴム等
  6
CONTINUOUS
 10
-30.880195
 20
69.0157
 11
-35.380195
 21
73.5157
  0
LINE
  8
ゴム等
  6
CONTINUOUS
 10
-30.36547
 20
69.915198
 11
-33.96598
 21
73.5157
  0
LINE
  8
ゴム等
  6
CONTINUOUS
 10
-30.36547
 20
71.329413
 11
-32.617555
 21
73.58149
  0
LINE
  8
ゴム等
  6
CONTINUOUS
 10
-30.36547
 20
72.74362
 11
-31.637553
 21
74.015703
  0
LINE
  8
ゴム等
  6
CONTINUOUS
 10
-30.36547
 20
69.0157
 11
-30.36547
 21
74.015703
  0
LINE
  8
ゴム等
  6
CONTINUOUS
 10
-32.365473
 20
74.015703
 11
-30.36547
 21
74.015703
  0
LINE
  8
ゴム等
  6
CONTINUOUS
 10
-32.965473
 20
66.715697
 11
-35.365473
 21
64.5157
  0
LINE
  8
ゴム等
  6
CONTINUOUS
 10
-39.765475
 20
66.715697
 11
-37.365475
 21
64.5157
  0
LINE
  8
ゴム等
  6
CONTINUOUS
 10
-35.365473
 20
64.5157
 11
-37.365475
 21
64.5157
  0
LINE
  8
ゴム等
  6
CONTINUOUS
 10
-35.365473
 20
66.429918
 11
-34.36675
 21
65.431195
  0
LINE
  8
ゴム等
  6
CONTINUOUS
 10
-35.88724
 20
65.53747
 11
-35.1046
 21
64.75483
  0
LINE
  8
ゴム等
  6
CONTINUOUS
 10
-35.365473
 20
67.844125
 11
-33.6289
 21
66.107553
  0
ENDBLK
  0
BLOCK
  2
*GRP_0054
 70
    65
 10
0.0
 20
0.0
  0
LINE
  8
ボルト／ビス
  6
CONTINUOUS
 62
    64
 10
-84.265653
 20
72.412075
 11
-85.313815
 21
72.320372
  0
ARC
  8
ボルト／ビス
  6
CONTINUOUS
 62
    64
 10
-85.165659
 20
70.626844
 40
1.7
 50
94.999989
 51
180.0
  0
LINE
  8
ボルト／ビス
  6
CONTINUOUS
 62
    64
 10
-86.865655
 20
70.626843
 11
-86.865655
 21
68.912073
  0
LINE
  8
ボルト／ビス
  6
CONTINUOUS
 62
    64
 10
-84.265653
 20
65.412077
 11
-85.313815
 21
65.50378
  0
ARC
  8
ボルト／ビス
  6
CONTINUOUS
 62
    64
 10
-85.165659
 20
67.197311
 40
1.7
 50
180.0
 51
265.000011
  0
LINE
  8
ボルト／ビス
  6
CONTINUOUS
 62
    64
 10
-86.865655
 20
67.19731
 11
-86.865655
 21
68.912073
  0
LINE
  8
ボルト／ビス
  6
CONTINUOUS
 62
    64
 10
-86.480747
 20
71.308712
 11
-86.722908
 21
71.308712
  0
LINE
  8
ボルト／ビス
  6
CONTINUOUS
 62
    64
 10
-85.830663
 20
69.612077
 11
-85.830663
 21
68.912073
  0
LINE
  8
ボルト／ビス
  6
CONTINUOUS
 62
    64
 10
-86.480747
 20
70.012075
 11
-86.480747
 21
71.308712
  0
LINE
  8
ボルト／ビス
  6
CONTINUOUS
 62
    64
 10
-85.830663
 20
69.612077
 11
-86.08075
 21
69.612077
  0
ARC
  8
ボルト／ビス
  6
CONTINUOUS
 62
    64
 10
-86.080754
 20
70.012077
 40
0.4
 50
180.0
 51
270.0
  0
LINE
  8
ボルト／ビス
  6
CONTINUOUS
 62
    64
 10
-86.480747
 20
66.515432
 11
-86.722908
 21
66.515432
  0
LINE
  8
ボルト／ビス
  6
CONTINUOUS
 62
    64
 10
-85.830663
 20
68.212075
 11
-85.830663
 21
68.912073
  0
LINE
  8
ボルト／ビス
  6
CONTINUOUS
 62
    64
 10
-86.480747
 20
67.812077
 11
-86.480747
 21
66.515432
  0
LINE
  8
ボルト／ビス
  6
CONTINUOUS
 62
    64
 10
-85.830663
 20
68.212075
 11
-86.08075
 21
68.212075
  0
ARC
  8
ボルト／ビス
  6
CONTINUOUS
 62
    64
 10
-86.080754
 20
67.812077
 40
0.4
 50
90.0
 51
180.0
  0
LINE
  8
ボルト／ビス
  6
CONTINUOUS
 62
    64
 10
-84.265653
 20
72.412075
 11
-84.265653
 21
65.412077
  0
LINE
  8
ボルト／ビス
  6
CONTINUOUS
 62
    64
 10
-88.837038
 20
68.912073
 11
-61.992775
 21
68.912073
  0
LINE
  8
ボルト／ビス
  6
CONTINUOUS
 62
    64
 10
-64.765653
 20
70.912075
 11
-64.26565
 21
70.412073
  0
LINE
  8
ボルト／ビス
  6
CONTINUOUS
 62
    64
 10
-64.765653
 20
66.912077
 11
-64.26565
 21
67.412073
  0
LINE
  8
ボルト／ビス
  6
CONTINUOUS
 62
    64
 10
-64.765653
 20
70.912075
 11
-64.765653
 21
66.912077
  0
LINE
  8
ボルト／ビス
  6
CONTINUOUS
 62
    64
 10
-64.26565
 20
70.412073
 11
-64.26565
 21
67.412073
  0
LINE
  8
ボルト／ビス
  6
CONTINUOUS
 62
    64
 10
-84.265653
 20
70.412073
 11
-64.26565
 21
70.412073
  0
LINE
  8
ボルト／ビス
  6
CONTINUOUS
 62
    64
 10
-84.265653
 20
67.412073
 11
-64.26565
 21
67.412073
  0
LINE
  8
ボルト／ビス
  6
CONTINUOUS
 62
    64
 10
-84.265653
 20
70.912075
 11
-64.765653
 21
70.912075
  0
LINE
  8
ボルト／ビス
  6
CONTINUOUS
 62
    64
 10
-84.265653
 20
66.912077
 11
-64.765653
 21
66.912077
  0
ENDBLK
  0
BLOCK
  2
*GRP_0055
 70
    65
 10
0.0
 20
0.0
  0
LINE
  8
曲げ物
  6
CONTINUOUS
 10
-77.265647
 20
67.412073
 11
-77.265647
 21
70.412073
  0
LINE
  8
曲げ物
  6
CONTINUOUS
 10
-78.765647
 20
68.912073
 11
-75.765647
 21
68.912073
  0
LINE
  8
曲げ物
  6
CONTINUOUS
 10
-82.265643
 20
73.912075
 11
-72.265645
 21
73.912075
  0
LINE
  8
曲げ物
  6
CONTINUOUS
 10
-81.265645
 20
72.912077
 11
-73.265643
 21
72.912077
  0
LINE
  8
曲げ物
  6
CONTINUOUS
 10
-73.265643
 20
72.912077
 11
-73.265643
 21
64.912075
  0
LINE
  8
曲げ物
  6
CONTINUOUS
 10
-72.265645
 20
73.912075
 11
-72.265645
 21
63.912077
  0
LINE
  8
曲げ物
  6
CONTINUOUS
 10
-81.265645
 20
72.912077
 11
-81.265645
 21
64.912075
  0
LINE
  8
曲げ物
  6
CONTINUOUS
 10
-73.265643
 20
64.912075
 11
-81.265645
 21
64.912075
  0
LINE
  8
曲げ物
  6
CONTINUOUS
 10
-82.265643
 20
73.912075
 11
-82.265643
 21
63.912077
  0
LINE
  8
曲げ物
  6
CONTINUOUS
 10
-72.265645
 20
63.912077
 11
-82.265643
 21
63.912077
  0
ENDBLK
  0
BLOCK
  2
*GRP_0056
 70
    65
 10
0.0
 20
0.0
  0
LINE
  8
曲げ物
  6
CONTINUOUS
 10
-54.765647
 20
95.912073
 11
-54.765647
 21
88.912075
  0
LINE
  8
曲げ物
  6
CONTINUOUS
 10
-54.765647
 20
88.912075
 11
-81.765647
 21
88.912075
  0
LINE
  8
曲げ物
  6
CONTINUOUS
 10
-81.765647
 20
88.912075
 11
-81.765647
 21
95.912073
  0
LINE
  8
曲げ物
  6
CONTINUOUS
 10
-54.765647
 20
95.912073
 11
-81.765647
 21
95.912073
  0
LINE
  8
曲げ物
  6
CONTINUOUS
 10
-83.265647
 20
97.412073
 11
-83.265647
 21
87.412075
  0
LINE
  8
曲げ物
  6
CONTINUOUS
 10
-83.265647
 20
87.412075
 11
-53.265647
 21
87.412075
  0
LINE
  8
曲げ物
  6
CONTINUOUS
 10
-53.265647
 20
87.412075
 11
-53.265647
 21
97.412073
  0
LINE
  8
曲げ物
  6
CONTINUOUS
 10
-83.265647
 20
97.412073
 11
-53.265647
 21
97.412073
  0
ENDBLK
  0
BLOCK
  2
*GRP_0057
 70
    65
 10
0.0
 20
0.0
  0
LINE
  8
別途部材
  6
CONTINUOUS
 10
-95.961295
 20
100.412095
 11
-94.461295
 21
100.412095
  0
LINE
  8
別途部材
  6
CONTINUOUS
 10
-95.961295
 20
102.412097
 11
-95.961295
 21
100.412095
  0
ARC
  8
別途部材
  6
CONTINUOUS
 10
-92.961294
 20
102.412106
 40
3.0
 50
90.0
 51
180.0
  0
LINE
  8
別途部材
  6
CONTINUOUS
 10
-94.461295
 20
102.412097
 11
-94.461295
 21
100.412095
  0
ARC
  8
別途部材
  6
CONTINUOUS
 10
-92.961294
 20
102.412106
 40
1.5
 50
90.0
 51
180.0
  0
LINE
  8
別途部材
  6
CONTINUOUS
 10
-92.961295
 20
103.912097
 11
-91.26565
 21
103.912097
  0
LINE
  8
別途部材
  6
CONTINUOUS
 10
-28.961298
 20
102.212095
 11
-28.961298
 21
103.412095
  0
LINE
  8
別途部材
  6
CONTINUOUS
 10
-20.961295
 20
104.4121
 11
-20.961295
 21
102.212095
  0
ARC
  8
別途部材
  6
CONTINUOUS
 10
-21.961294
 20
104.412106
 40
1.0
 50
0.0
 51
90.0
  0
LINE
  8
別途部材
  6
CONTINUOUS
 10
-20.961295
 20
102.212095
 11
-28.961298
 21
102.212095
  0
LINE
  8
別途部材
  6
CONTINUOUS
 10
-92.961295
 20
105.412097
 11
-21.961293
 21
105.412097
  0
LINE
  8
別途部材
  6
CONTINUOUS
 10
-48.765647
 20
103.412095
 11
-28.961298
 21
103.412095
  0
ARC
  8
別途部材
  6
CONTINUOUS
 10
-48.765651
 20
100.412095
 40
3.0
 50
90.0
 51
180.0
  0
LINE
  8
別途部材
  6
CONTINUOUS
 10
-52.065647
 20
92.412077
 11
-51.765647
 21
92.712077
  0
LINE
  8
別途部材
  6
CONTINUOUS
 10
-52.065647
 20
92.412077
 11
-51.765647
 21
92.112077
  0
LINE
  8
別途部材
  6
CONTINUOUS
 10
-51.765647
 20
100.412095
 11
-51.765647
 21
92.712077
  0
LINE
  8
別途部材
  6
CONTINUOUS
 10
-51.765647
 20
92.112077
 11
-51.765647
 21
85.912075
  0
LINE
  8
別途部材
  6
CONTINUOUS
 10
-90.96565
 20
68.912073
 11
-91.26565
 21
69.212073
  0
LINE
  8
別途部材
  6
CONTINUOUS
 10
-90.96565
 20
68.912073
 11
-91.26565
 21
68.612073
  0
LINE
  8
別途部材
  6
CONTINUOUS
 10
-91.26565
 20
103.912097
 11
-91.26565
 21
69.212073
  0
LINE
  8
別途部材
  6
CONTINUOUS
 10
-91.26565
 20
68.612073
 11
-91.26565
 21
55.412095
  0
LINE
  8
別途部材
  6
CONTINUOUS
 10
-82.765653
 20
80.912073
 11
-82.765653
 21
63.91207
  0
LINE
  8
別途部材
  6
CONTINUOUS
 10
-84.265653
 20
63.91207
 11
-82.765653
 21
63.91207
  0
LINE
  8
別途部材
  6
CONTINUOUS
 10
-91.26565
 20
55.412095
 11
-89.76565
 21
55.412095
  0
LINE
  8
別途部材
  6
CONTINUOUS
 10
-82.765653
 20
80.912073
 11
-89.76565
 21
80.912073
  0
LINE
  8
別途部材
  6
CONTINUOUS
 10
-84.265653
 20
79.412073
 11
-89.76565
 21
79.412073
  0
LINE
  8
別途部材
  6
CONTINUOUS
 10
-89.76565
 20
79.412073
 11
-89.76565
 21
55.412095
  0
LINE
  8
別途部材
  6
CONTINUOUS
 10
-89.76565
 20
85.912075
 11
-89.76565
 21
80.912073
  0
LINE
  8
別途部材
  6
CONTINUOUS
 10
-83.965653
 20
68.912073
 11
-84.265653
 21
69.212073
  0
LINE
  8
別途部材
  6
CONTINUOUS
 10
-83.965653
 20
68.912073
 11
-84.265653
 21
68.612073
  0
LINE
  8
別途部材
  6
CONTINUOUS
 10
-84.265653
 20
79.412073
 11
-84.265653
 21
69.212073
  0
LINE
  8
別途部材
  6
CONTINUOUS
 10
-84.265653
 20
68.612073
 11
-84.265653
 21
63.91207
  0
LINE
  8
別途部材
  6
DOT
 10
-91.26565
 20
73.912075
 11
-89.76565
 21
73.912075
  0
LINE
  8
別途部材
  6
DOT
 10
-91.26565
 20
63.91207
 11
-89.76565
 21
63.91207
  0
LINE
  8
別途部材
  6
CONTINUOUS
 10
-89.76565
 20
103.912097
 11
-53.265647
 21
103.912097
  0
LINE
  8
別途部材
  6
DOT
 10
-90.89065
 20
73.912075
 11
-90.89065
 21
63.91207
  0
LINE
  8
別途部材
  6
DOT
 10
-90.51565
 20
73.912075
 11
-90.51565
 21
63.91207
  0
LINE
  8
別途部材
  6
DOT
 10
-90.14065
 20
73.912075
 11
-90.14065
 21
63.91207
  0
LINE
  8
別途部材
  6
CONTINUOUS
 10
-89.76565
 20
103.912097
 11
-89.76565
 21
87.412075
  0
LINE
  8
別途部材
  6
CONTINUOUS
 10
-53.265647
 20
103.912097
 11
-53.265647
 21
87.412075
  0
LINE
  8
別途部材
  6
CONTINUOUS
 10
-53.265647
 20
87.412075
 11
-89.76565
 21
87.412075
  0
LINE
  8
別途部材
  6
CONTINUOUS
 10
-75.015655
 20
86.212075
 11
-74.715655
 21
85.912075
  0
LINE
  8
別途部材
  6
CONTINUOUS
 10
-75.015655
 20
86.212075
 11
-75.315655
 21
85.912075
  0
LINE
  8
別途部材
  6
CONTINUOUS
 10
-62.515653
 20
86.212075
 11
-62.215653
 21
85.912075
  0
LINE
  8
別途部材
  6
CONTINUOUS
 10
-62.515653
 20
86.212075
 11
-62.815653
 21
85.912075
  0
LINE
  8
別途部材
  6
CONTINUOUS
 10
-74.715655
 20
85.912075
 11
-62.815653
 21
85.912075
  0
LINE
  8
別途部材
  6
CONTINUOUS
 10
-51.765647
 20
85.912075
 11
-62.215653
 21
85.912075
  0
LINE
  8
別途部材
  6
CONTINUOUS
 10
-89.76565
 20
85.912075
 11
-75.315655
 21
85.912075
  0
ENDBLK
  0
BLOCK
  2
*DIM_0058
 70
    65
 10
0.0
 20
0.0
  0
LINE
  8
寸法
  6
CONTINUOUS
 10
-85.365345
 20
54.915827
 11
-163.044458
 21
54.915827
  0
LINE
  8
寸法
  6
CONTINUOUS
 10
-97.113608
 20
105.412097
 11
-163.044458
 21
105.412097
  0
LINE
  8
寸法
  6
CONTINUOUS
 10
-163.044458
 20
54.915827
 11
-163.044458
 21
105.412097
  0
POINT
  8
寸法
 10
-163.044458
 20
54.915827
  0
POINT
  8
寸法
 10
-163.044458
 20
105.412097
  0
TEXT
  7
TextStyle03
  8
寸法
  6
CONTINUOUS
 10
-163.425
 20
76.86875
  1
50.5
 40
3.0
 50
90.0
 72
     5
 11
-163.425
 21
83.43125
  0
ENDBLK
  0
BLOCK
  2
*DIM_0059
 70
    65
 10
0.0
 20
0.0
  0
LINE
  8
寸法
  6
CONTINUOUS
 10
-95.961295
 20
116.417653
 11
-40.365343
 21
116.417653
  0
POINT
  8
寸法
 10
-40.365343
 20
116.417653
  0
TEXT
  7
TextStyle03
  8
寸法
  6
CONTINUOUS
 10
-71.45625
 20
116.775
  1
55.6
 40
3.0
 72
     5
 11
-64.89375
 21
116.775
  0
ENDBLK
  0
BLOCK
  2
*DIM_0060
 70
    65
 10
0.0
 20
0.0
  0
LINE
  8
寸法
  6
CONTINUOUS
 10
-118.369615
 20
4.92552
 11
-118.369615
 21
116.417653
  0
LINE
  8
寸法
  6
CONTINUOUS
 10
-95.961295
 20
106.412097
 11
-95.961295
 21
116.417653
  0
LINE
  8
寸法
  6
CONTINUOUS
 10
-118.369615
 20
116.417653
 11
-95.961295
 21
116.417653
  0
POINT
  8
寸法
 10
-118.369615
 20
116.417653
  0
POINT
  8
寸法
 10
-95.961295
 20
116.417653
  0
TEXT
  7
TextStyle03
  8
寸法
  6
CONTINUOUS
 10
-110.45625
 20
116.775
  1
22.4
 40
3.0
 72
     5
 11
-103.89375
 21
116.775
  0
ENDBLK
  0
BLOCK
  2
*DIM_0061
 70
    65
 10
0.0
 20
0.0
  0
LINE
  8
寸法
  6
CONTINUOUS
 10
-20.961295
 20
108.805502
 11
-20.961295
 21
116.417653
  0
LINE
  8
寸法
  6
CONTINUOUS
 10
-25.365343
 20
116.417653
 11
-20.961295
 21
116.417653
  0
POINT
  8
寸法
 10
-25.365343
 20
116.417653
  0
POINT
  8
寸法
 10
-20.961295
 20
116.417653
  0
TEXT
  7
TextStyle03
  8
寸法
  6
CONTINUOUS
 10
-25.6125
 20
116.775
  1
4.4
 40
3.0
 72
     5
 11
-20.7375
 21
116.775
  0
ENDBLK
  0
BLOCK
  2
*DIM_0062
 70
    65
 10
0.0
 20
0.0
  0
LINE
  8
寸法
  6
CONTINUOUS
 10
-24.86546
 20
69.015738
 11
34.54983
 21
69.015738
  0
LINE
  8
寸法
  6
CONTINUOUS
 10
30.160448
 20
74.015703
 11
34.54983
 21
74.015703
  0
LINE
  8
寸法
  6
CONTINUOUS
 10
34.54983
 20
69.015738
 11
34.54983
 21
74.015703
  0
POINT
  8
寸法
 10
34.54983
 20
69.015738
  0
POINT
  8
寸法
 10
34.54983
 20
74.015703
  0
TEXT
  7
TextStyle03
  8
寸法
  6
CONTINUOUS
 10
34.15
 20
70.75
  1
5
 40
3.0
 50
90.0
 72
     5
 11
34.15
 21
72.25
  0
ENDBLK
  0
BLOCK
  2
*DIM_0063
 70
    65
 10
0.0
 20
0.0
  0
LINE
  8
寸法
  6
CONTINUOUS
 10
29.688608
 20
91.815707
 11
34.54983
 21
91.815707
  0
LINE
  8
寸法
  6
CONTINUOUS
 10
34.54983
 20
74.015703
 11
34.54983
 21
91.815707
  0
POINT
  8
寸法
 10
34.54983
 20
91.815707
  0
TEXT
  7
TextStyle03
  8
寸法
  6
CONTINUOUS
 10
34.15
 20
79.61875
  1
17.8
 40
3.0
 50
90.0
 72
     5
 11
34.15
 21
86.18125
  0
ENDBLK
  0
BLOCK
  2
*DIM_0064
 70
    65
 10
0.0
 20
0.0
  0
LINE
  8
寸法
  6
CONTINUOUS
 10
-15.961295
 20
102.212095
 11
34.54983
 21
102.212095
  0
LINE
  8
寸法
  6
CONTINUOUS
 10
34.54983
 20
91.815707
 11
34.54983
 21
102.212095
  0
POINT
  8
寸法
 10
34.54983
 20
102.212095
  0
TEXT
  7
TextStyle03
  8
寸法
  6
CONTINUOUS
 10
34.15
 20
93.71875
  1
10.4
 40
3.0
 50
90.0
 72
     5
 11
34.15
 21
100.28125
  0
ENDBLK
  0
BLOCK
  2
*DIM_0065
 70
    65
 10
0.0
 20
0.0
  0
LINE
  8
寸法
  6
CONTINUOUS
 10
-17.834865
 20
105.412097
 11
34.54983
 21
105.412097
  0
LINE
  8
寸法
  6
CONTINUOUS
 10
34.54983
 20
102.212095
 11
34.54983
 21
105.412097
  0
POINT
  8
寸法
 10
34.54983
 20
105.412097
  0
TEXT
  7
TextStyle03
  8
寸法
  6
CONTINUOUS
 10
36.225
 20
106.6375
  1
3.2
 40
3.0
 50
90.0
 72
     5
 11
36.225
 21
111.5125
  0
ENDBLK
  0
ENDSEC
  0
SECTION
  2
ENTITIES
  0
POLYLINE
  8
通り芯
  6
CONTINUOUS
 66
     1
 70
     1
  0
VERTEX
  8
通り芯
 10
-210.0
 20
-148.5
  0
VERTEX
  8
通り芯
 10
210.0
 20
-148.5
  0
VERTEX
  8
通り芯
 10
210.0
 20
148.5
  0
VERTEX
  8
通り芯
 10
-210.0
 20
148.5
  0
SEQEND
  0
INSERT
  2
*GRP_0001
  8
型材断面
  6
CONTINUOUS
 10
0.0
 20
0.0
  0
INSERT
  2
*GRP_0002
  8
型材断面
  6
CONTINUOUS
 62
    47
 10
0.0
 20
0.0
  0
LINE
  8
型材断面
  6
DASHDOT
 10
-40.365327
 20
91.919223
 11
-40.365327
 21
128.95056
  0
LINE
  8
型材断面
  6
DOT
 10
-72.369575
 20
-59.084297
 11
-74.369575
 21
-59.084297
  0
LINE
  8
型材断面
  6
DOT
 10
-72.369575
 20
-65.084297
 11
-74.369575
 21
-65.084297
  0
LINE
  8
型材断面
  6
DOT
 10
-73.869575
 20
-65.084297
 11
-73.869575
 21
-59.084297
  0
LINE
  8
型材断面
  6
DOT
 10
-73.369575
 20
-65.084297
 11
-73.369575
 21
-59.084297
  0
LINE
  8
型材断面
  6
DOT
 10
-72.869575
 20
-65.084297
 11
-72.869575
 21
-59.084297
  0
LINE
  8
型材断面
  6
DOT
 10
-50.365327
 20
-59.084297
 11
-52.365327
 21
-59.084297
  0
LINE
  8
型材断面
  6
DOT
 10
-50.365327
 20
-65.084297
 11
-52.365327
 21
-65.084297
  0
LINE
  8
型材断面
  6
DOT
 10
-51.865327
 20
-65.084297
 11
-51.865327
 21
-59.084297
  0
LINE
  8
型材断面
  6
DOT
 10
-51.365327
 20
-65.084297
 11
-51.365327
 21
-59.084297
  0
LINE
  8
型材断面
  6
DOT
 10
-50.865327
 20
-65.084297
 11
-50.865327
 21
-59.084297
  0
INSERT
  2
*GRP_0003
  8
型材断面
  6
CONTINUOUS
 62
    47
 10
0.0
 20
0.0
  0
INSERT
  2
*GRP_0004
  8
ガラス
  6
CONTINUOUS
 10
0.0
 20
0.0
  0
INSERT
  2
*GRP_0005
  8
ガラス
  6
CONTINUOUS
 10
0.0
 20
0.0
  0
INSERT
  2
*GRP_0006
  8
ガラス
  6
CONTINUOUS
 10
0.0
 20
0.0
  0
INSERT
  2
*GRP_0007
  8
ガラス
  6
CONTINUOUS
 10
0.0
 20
0.0
  0
LINE
  8
ガラス
  6
CONTINUOUS
 10
-42.86545
 20
91.815707
 11
-42.86545
 21
74.015703
  0
LINE
  8
ガラス
  6
CONTINUOUS
 10
-36.86545
 20
86.815705
 11
-36.86545
 21
80.815705
  0
LINE
  8
ガラス
  6
CONTINUOUS
 10
-42.86545
 20
80.815705
 11
-36.86545
 21
86.815705
  0
LINE
  8
ガラス
  6
CONTINUOUS
 10
-42.86545
 20
86.815705
 11
-36.86545
 21
80.815705
  0
LINE
  8
ガラス
  6
CONTINUOUS
 10
-42.86545
 20
74.515705
 11
34.54983
 21
74.515705
  0
LINE
  8
ガラス
  6
CONTINUOUS
 10
-42.86545
 20
74.015703
 11
34.54983
 21
74.015703
  0
LINE
  8
ガラス
  6
CONTINUOUS
 10
-42.86545
 20
80.815705
 11
34.54983
 21
80.815705
  0
LINE
  8
ガラス
  6
CONTINUOUS
 10
-42.86545
 20
80.31571
 11
34.54983
 21
80.31571
  0
LINE
  8
ガラス
  6
CONTINUOUS
 10
-42.86545
 20
87.315707
 11
34.54983
 21
87.315707
  0
LINE
  8
ガラス
  6
CONTINUOUS
 10
-42.86545
 20
86.815705
 11
34.54983
 21
86.815705
  0
LINE
  8
ガラス
  6
CONTINUOUS
 10
-42.86545
 20
91.315705
 11
34.54983
 21
91.315705
  0
LINE
  8
ガラス
  6
CONTINUOUS
 10
-42.86545
 20
91.815707
 11
34.54983
 21
91.815707
  0
INSERT
  2
*GRP_0008
  8
ゴム等
  6
CONTINUOUS
 10
0.0
 20
0.0
  0
INSERT
  2
*GRP_0009
  8
ゴム等
  6
CONTINUOUS
 10
0.0
 20
0.0
  0
INSERT
  2
*GRP_0010
  8
ゴム等
  6
DOT
 10
0.0
 20
0.0
  0
INSERT
  2
*GRP_0053
  8
ゴム等
  6
CONTINUOUS
 10
0.0
 20
0.0
  0
INSERT
  2
*GRP_0011
  8
ボルト／ビス
  6
CONTINUOUS
 62
    64
 10
0.0
 20
0.0
  0
INSERT
  2
*GRP_0012
  8
ボルト／ビス
  6
CONTINUOUS
 62
    64
 10
0.0
 20
0.0
  0
INSERT
  2
*GRP_0013
  8
ボルト／ビス
  6
CONTINUOUS
 62
    64
 10
0.0
 20
0.0
  0
INSERT
  2
*GRP_0014
  8
ボルト／ビス
  6
CONTINUOUS
 62
    64
 10
0.0
 20
0.0
  0
INSERT
  2
*GRP_0054
  8
ボルト／ビス
  6
CONTINUOUS
 62
    64
 10
0.0
 20
0.0
  0
TEXT
  7
TextStyle03
  8
文字
  6
CONTINUOUS
 10
68.025
 20
69.4
  1
ＮＳコード：ＮＳＦＨＺ
 40
5.0
 72
     5
 11
129.275
 21
69.4
  0
TEXT
  7
TextStyle03
  8
文字
  6
CONTINUOUS
 10
18.075
 20
128.95
  1
呼称寸法
 40
3.0
 72
     5
 11
31.2
 21
128.95
  0
TEXT
  7
TextStyle03
  8
文字
  6
CONTINUOUS
 10
13.075
 20
122.45
  1
有効開口寸法
 40
3.0
 72
     5
 11
32.95
 21
122.45
  0
TEXT
  7
TextStyle03
  8
文字
  6
CONTINUOUS
 10
-121.65
 20
-57.425
  1
コーナーシール
 40
3.0
 72
     5
 11
-98.4
 21
-57.425
  0
TEXT
  7
TextStyle03
  8
文字
  6
CONTINUOUS
 10
-121.65
 20
-60.8
  1
（工場）
 40
3.0
 72
     5
 11
-108.525
 21
-60.8
  0
TEXT
  7
TextStyle03
  8
文字
  6
CONTINUOUS
 10
-130.475
 20
-48.4
  1
コーナージョイント金物
 40
3.0
 72
     5
 11
-93.725
 21
-48.4
  0
TEXT
  7
TextStyle03
  8
文字
  6
CONTINUOUS
 10
-130.475
 20
-51.775
  1
St-1.6t
 40
3.0
 72
     5
 11
-118.85
 21
-51.775
  0
TEXT
  7
TextStyle03
  8
文字
  6
CONTINUOUS
 10
-134.425
 20
-34.45
  1
滑車・ダンパー裏板
 40
4.0
 72
     5
 11
-94.425
 21
-34.45
  0
TEXT
  7
TextStyle03
  8
文字
  6
CONTINUOUS
 10
-134.425
 20
-38.95
  1
St-2.3t
 40
4.0
 72
     5
 11
-118.925
 21
-38.95
  0
TEXT
  7
TextStyle03
  8
文字
  6
CONTINUOUS
 10
-150.725
 20
-24.275
  1
St-2.3t（電気メッキ）
 40
3.0
 72
     5
 11
-115.6625
 21
-24.275
  0
TEXT
  7
TextStyle03
  8
文字
  6
CONTINUOUS
 10
-150.725
 20
-27.65
  1
Ｌ＝60
 40
3.0
 72
     5
 11
-140.7875
 21
-27.65
  0
TEXT
  7
TextStyle03
  8
文字
  6
CONTINUOUS
 10
-160.325
 20
-113.175
  1
KA-50C　末栄金属
 40
4.0
 72
     5
 11
-124.825
 21
-113.175
  0
TEXT
  7
TextStyle03
  8
文字
  6
CONTINUOUS
 10
-126.1
 20
-123.625
  1
ダンパーブラケット：St-3.2t
 40
4.0
 72
     5
 11
-65.6
 21
-123.625
  0
TEXT
  7
TextStyle03
  8
文字
  6
CONTINUOUS
 10
-126.1
 20
-128.125
  1
　　　　　　　　　(メッキ＋塗装)
 40
4.0
 72
     5
 11
-54.35
 21
-128.125
  0
TEXT
  7
TextStyle03
  8
文字
  6
CONTINUOUS
 10
-16.625
 20
48.5
  1
TK-1161
 40
3.0
 72
     5
 11
-5.0
 21
48.5
  0
TEXT
  7
TextStyle03
  8
文字
  6
CONTINUOUS
 10
16.025
 20
3.975
  1
ガスダンパー
 40
4.0
 72
     5
 11
42.525
 21
3.975
  0
TEXT
  7
TextStyle03
  8
文字
  6
CONTINUOUS
 10
-135.975
 20
21.6
  1
滑車・ダンパー裏板
 40
4.0
 72
     5
 11
-95.975
 21
21.6
  0
TEXT
  7
TextStyle03
  8
文字
  6
CONTINUOUS
 10
-135.975
 20
17.1
  1
St-3.2t
 40
4.0
 72
     5
 11
-120.475
 21
17.1
  0
TEXT
  7
TextStyle03
  8
文字
  6
CONTINUOUS
 10
68.85
 20
95.675
  1
シリーズ：ＴＦ２ＦＨ
 40
5.0
 72
     5
 11
124.475
 21
95.675
  0
TEXT
  7
TextStyle03
  8
文字
  6
CONTINUOUS
 10
68.85
 20
90.05
  1
　　　　　（片側開閉）
 40
5.0
 72
     5
 11
130.1
 21
90.05
  0
TEXT
  7
TextStyle03
  8
文字
  6
CONTINUOUS
 10
68.85
 20
84.425
  1

 40
5.0
 41
1.125
  0
TEXT
  7
TextStyle03
  8
文字
  6
CONTINUOUS
 10
68.85
 20
78.8
  1
図面名　：下枠断面詳細図(ダンパー側)
 40
5.0
 72
     5
 11
169.7875
 21
78.8
  0
INSERT
  2
*DIM_0015
  8
寸法
  6
CONTINUOUS
 10
0.0
 20
0.0
  0
INSERT
  2
*DIM_0016
  8
寸法
  6
CONTINUOUS
 10
0.0
 20
0.0
  0
INSERT
  2
*DIM_0017
  8
寸法
  6
CONTINUOUS
 10
0.0
 20
0.0
  0
INSERT
  2
*DIM_0018
  8
寸法
  6
CONTINUOUS
 10
0.0
 20
0.0
  0
INSERT
  2
*DIM_0019
  8
寸法
  6
CONTINUOUS
 10
0.0
 20
0.0
  0
INSERT
  2
*DIM_0020
  8
寸法
  6
CONTINUOUS
 10
0.0
 20
0.0
  0
INSERT
  2
*DIM_0021
  8
寸法
  6
CONTINUOUS
 10
0.0
 20
0.0
  0
INSERT
  2
*DIM_0022
  8
寸法
  6
CONTINUOUS
 10
0.0
 20
0.0
  0
LINE
  8
寸法
  6
CONTINUOUS
 10
-40.365327
 20
128.95056
 11
58.505857
 21
128.95056
  0
POLYLINE
  8
寸法
  6
CONTINUOUS
 66
     1
  0
VERTEX
  8
寸法
 10
58.505857
 20
128.95056
  0
VERTEX
  8
寸法
 10
49.915725
 20
126.382798
  0
VERTEX
  8
寸法
 10
49.915725
 20
128.95056
  0
SEQEND
  0
POLYLINE
  8
寸法
  6
CONTINUOUS
 66
     1
  0
VERTEX
  8
寸法
 10
56.913753
 20
128.95056
  0
VERTEX
  8
寸法
 10
48.32362
 20
126.382798
  0
VERTEX
  8
寸法
 10
48.32362
 20
128.95056
  0
SEQEND
  0
POLYLINE
  8
寸法
  6
CONTINUOUS
 66
     1
  0
VERTEX
  8
寸法
 10
58.505857
 20
128.95056
  0
VERTEX
  8
寸法
 10
49.915725
 20
131.518323
  0
VERTEX
  8
寸法
 10
49.915725
 20
128.95056
  0
SEQEND
  0
POLYLINE
  8
寸法
  6
CONTINUOUS
 66
     1
  0
VERTEX
  8
寸法
 10
56.913753
 20
128.95056
  0
VERTEX
  8
寸法
 10
48.32362
 20
131.518323
  0
VERTEX
  8
寸法
 10
48.32362
 20
128.95056
  0
SEQEND
  0
POLYLINE
  8
寸法
  6
CONTINUOUS
 66
     1
  0
VERTEX
  8
寸法
 10
58.505857
 20
122.443323
  0
VERTEX
  8
寸法
 10
49.915725
 20
125.011085
  0
VERTEX
  8
寸法
 10
49.915725
 20
122.443323
  0
SEQEND
  0
POLYLINE
  8
寸法
  6
CONTINUOUS
 66
     1
  0
VERTEX
  8
寸法
 10
56.913753
 20
122.443323
  0
VERTEX
  8
寸法
 10
48.32362
 20
125.011085
  0
VERTEX
  8
寸法
 10
48.32362
 20
122.443323
  0
SEQEND
  0
INSERT
  2
*DIM_0023
  8
寸法
  6
CONTINUOUS
 10
0.0
 20
0.0
  0
INSERT
  2
*DIM_0024
  8
寸法
  6
CONTINUOUS
 10
0.0
 20
0.0
  0
LINE
  8
寸法
  6
CONTINUOUS
 10
58.505857
 20
122.443323
 11
-25.365327
 21
122.443323
  0
INSERT
  2
*DIM_0025
  8
寸法
  6
CONTINUOUS
 10
0.0
 20
0.0
  0
INSERT
  2
*DIM_0026
  8
寸法
  6
CONTINUOUS
 10
0.0
 20
0.0
  0
INSERT
  2
*DIM_0027
  8
寸法
  6
CONTINUOUS
 10
0.0
 20
0.0
  0
INSERT
  2
*DIM_0028
  8
寸法
  6
CONTINUOUS
 10
0.0
 20
0.0
  0
INSERT
  2
*DIM_0029
  8
寸法
  6
CONTINUOUS
 10
0.0
 20
0.0
  0
INSERT
  2
*GRP_0030
  8
寸法
  6
CONTINUOUS
 10
0.0
 20
0.0
  0
INSERT
  2
*GRP_0031
  8
寸法
  6
CONTINUOUS
 10
0.0
 20
0.0
  0
INSERT
  2
*GRP_0032
  8
寸法
  6
CONTINUOUS
 10
0.0
 20
0.0
  0
INSERT
  2
*GRP_0033
  8
寸法
  6
CONTINUOUS
 10
0.0
 20
0.0
  0
INSERT
  2
*DIM_0034
  8
寸法
  6
CONTINUOUS
 10
0.0
 20
0.0
  0
INSERT
  2
*DIM_0035
  8
寸法
  6
CONTINUOUS
 10
0.0
 20
0.0
  0
INSERT
  2
*DIM_0036
  8
寸法
  6
CONTINUOUS
 10
0.0
 20
0.0
  0
INSERT
  2
*DIM_0037
  8
寸法
  6
CONTINUOUS
 10
0.0
 20
0.0
  0
INSERT
  2
*GRP_0038
  8
寸法
  6
CONTINUOUS
 10
0.0
 20
0.0
  0
INSERT
  2
*DIM_0039
  8
寸法
  6
CONTINUOUS
 10
0.0
 20
0.0
  0
INSERT
  2
*DIM_0040
  8
寸法
  6
CONTINUOUS
 10
0.0
 20
0.0
  0
INSERT
  2
*DIM_0041
  8
寸法
  6
CONTINUOUS
 10
0.0
 20
0.0
  0
INSERT
  2
*DIM_0042
  8
寸法
  6
CONTINUOUS
 10
0.0
 20
0.0
  0
INSERT
  2
*GRP_0043
  8
寸法
  6
CONTINUOUS
 10
0.0
 20
0.0
  0
INSERT
  2
*GRP_0044
  8
寸法
  6
CONTINUOUS
 10
0.0
 20
0.0
  0
INSERT
  2
*DIM_0045
  8
寸法
  6
CONTINUOUS
 10
0.0
 20
0.0
  0
INSERT
  2
*GRP_0046
  8
寸法
  6
CONTINUOUS
 10
0.0
 20
0.0
  0
INSERT
  2
*GRP_0047
  8
寸法
  6
CONTINUOUS
 10
0.0
 20
0.0
  0
INSERT
  2
*DIM_0051
  8
寸法
  6
CONTINUOUS
 10
0.0
 20
0.0
  0
INSERT
  2
*DIM_0052
  8
寸法
  6
CONTINUOUS
 10
0.0
 20
0.0
  0
INSERT
  2
*DIM_0058
  8
寸法
  6
CONTINUOUS
 10
0.0
 20
0.0
  0
INSERT
  2
*DIM_0059
  8
寸法
  6
CONTINUOUS
 10
0.0
 20
0.0
  0
INSERT
  2
*DIM_0060
  8
寸法
  6
CONTINUOUS
 10
0.0
 20
0.0
  0
INSERT
  2
*DIM_0061
  8
寸法
  6
CONTINUOUS
 10
0.0
 20
0.0
  0
INSERT
  2
*DIM_0062
  8
寸法
  6
CONTINUOUS
 10
0.0
 20
0.0
  0
INSERT
  2
*DIM_0063
  8
寸法
  6
CONTINUOUS
 10
0.0
 20
0.0
  0
INSERT
  2
*DIM_0064
  8
寸法
  6
CONTINUOUS
 10
0.0
 20
0.0
  0
INSERT
  2
*DIM_0065
  8
寸法
  6
CONTINUOUS
 10
0.0
 20
0.0
  0
INSERT
  2
*HAT_0003
  8
ﾊｯﾁﾝｸﾞ
 10
0.0
 20
0.0
  0
INSERT
  2
*GRP_0048
  8
別途部材
  6
CONTINUOUS
 10
0.0
 20
0.0
  0
INSERT
  2
*GRP_0055
  8
別途部材
  6
CONTINUOUS
 10
0.0
 20
0.0
  0
INSERT
  2
*GRP_0056
  8
曲げ物
  6
CONTINUOUS
 10
0.0
 20
0.0
  0
LINE
  8
St
  6
CONTINUOUS
 10
-70.26563
 20
70.113793
 11
-67.26563
 21
70.113793
  0
LINE
  8
St
  6
CONTINUOUS
 10
-67.26563
 20
54.815827
 11
-67.26563
 21
70.113793
  0
LINE
  8
St
  6
CONTINUOUS
 10
-55.565327
 20
-0.084173
 11
-52.365327
 21
-0.084173
  0
LINE
  8
St
  6
CONTINUOUS
 10
-55.565327
 20
-0.084173
 11
-55.565327
 21
45.915827
  0
LINE
  8
St
  6
CONTINUOUS
 10
-55.565327
 20
45.915827
 11
-52.365327
 21
45.915827
  0
LINE
  8
St
  6
CONTINUOUS
 10
-52.365327
 20
-0.084173
 11
-52.365327
 21
45.915827
  0
LINE
  8
St
  6
CONTINUOUS
 10
-55.565327
 20
35.657863
 11
-52.365327
 21
38.857865
  0
LINE
  8
St
  6
CONTINUOUS
 10
-55.565327
 20
34.950757
 11
-52.365327
 21
38.15076
  0
LINE
  8
St
  6
CONTINUOUS
 10
-55.565327
 20
8.00564
 11
-52.365327
 21
11.205643
  0
LINE
  8
St
  6
CONTINUOUS
 10
-55.565327
 20
7.298535
 11
-52.365327
 21
10.498538
  0
LINE
  8
St
  6
CONTINUOUS
 10
-71.865327
 20
-14.084297
 11
-71.865327
 21
-16.384297
  0
LINE
  8
St
  6
CONTINUOUS
 10
-71.865327
 20
-62.787242
 11
-71.865327
 21
-65.087242
  0
ARC
  8
St
  6
CONTINUOUS
 10
-54.665323
 20
-16.384295
 40
2.3
 50
0.0
 51
90.0
  0
LINE
  8
St
  6
CONTINUOUS
 10
-54.665327
 20
-25.717617
 11
-52.365343
 21
-28.017602
  0
LINE
  8
St
  6
CONTINUOUS
 10
-54.665327
 20
-25.010517
 11
-52.365343
 21
-27.310498
  0
ARC
  8
St
  6
CONTINUOUS
 10
-54.665323
 20
-62.78724
 40
2.3
 50
270.0
 51
360.0
  0
LINE
  8
St
  6
CONTINUOUS
 10
-54.665327
 20
-53.541727
 11
-52.365343
 21
-55.841712
  0
LINE
  8
St
  6
CONTINUOUS
 10
-54.665327
 20
-52.834627
 11
-52.365343
 21
-55.134608
  0
LINE
  8
St
  6
CONTINUOUS
 10
-54.665327
 20
-16.384297
 11
-54.665327
 21
-62.787242
  0
LINE
  8
St
  6
CONTINUOUS
 10
-52.365327
 20
-16.384297
 11
-52.365327
 21
-62.787242
  0
LINE
  8
St
  6
CONTINUOUS
 10
-71.865327
 20
-16.384297
 11
-54.665327
 21
-16.384297
  0
LINE
  8
St
  6
CONTINUOUS
 10
-71.865327
 20
-14.084297
 11
-54.665327
 21
-14.084297
  0
LINE
  8
St
  6
CONTINUOUS
 10
-71.865327
 20
-62.787242
 11
-54.665327
 21
-62.787242
  0
LINE
  8
St
  6
CONTINUOUS
 10
-71.865327
 20
-65.087242
 11
-54.665327
 21
-65.087242
  0
LINE
  8
St
  6
CONTINUOUS
 10
-58.594082
 20
-65.084297
 11
-60.89114
 21
-62.787242
  0
LINE
  8
St
  6
CONTINUOUS
 10
-59.301185
 20
-65.084297
 11
-61.598245
 21
-62.787242
  0
LINE
  8
St
  6
CONTINUOUS
 10
-65.20418
 20
-14.084297
 11
-62.904177
 21
-16.384297
  0
LINE
  8
St
  6
CONTINUOUS
 10
-64.497075
 20
-14.084297
 11
-62.197073
 21
-16.384297
  0
LINE
  8
St
  6
CONTINUOUS
 10
-133.769578
 20
-81.484353
 11
-75.776998
 21
-81.484353
  0
ARC
  8
St
  6
CONTINUOUS
 10
-75.768569
 20
-81.484351
 40
1.6
 50
-90.0
 51
0.0
  0
LINE
  8
St
  6
CONTINUOUS
 10
-135.369578
 20
-83.084353
 11
-54.369578
 21
-83.084353
  0
LINE
  8
St
  6
DOT
 10
-75.776998
 20
-81.484353
 11
-54.369578
 21
-81.484353
  0
LINE
  8
St
  6
CONTINUOUS
 10
-106.80217
 20
-83.084353
 11
-105.202165
 21
-81.484353
  0
LINE
  8
St
  6
CONTINUOUS
 10
-106.095065
 20
-83.084353
 11
-104.49506
 21
-81.484353
  0
LINE
  8
St
  6
CONTINUOUS
 10
-79.780893
 20
-83.084353
 11
-78.180887
 21
-81.484353
  0
LINE
  8
St
  6
CONTINUOUS
 10
-79.073787
 20
-83.084353
 11
-77.473783
 21
-81.484353
  0
LINE
  8
St
  6
CONTINUOUS
 10
-133.769578
 20
-83.084353
 11
-133.769578
 21
-76.067713
  0
LINE
  8
St
  6
CONTINUOUS
 10
-135.369578
 20
-83.084353
 11
-135.369578
 21
-76.067715
  0
ARC
  8
St
  6
CONTINUOUS
 10
-133.769576
 20
-76.067715
 40
1.6
 50
94.332724
 51
180.0
  0
LINE
  8
St
  6
CONTINUOUS
 10
-133.890455
 20
-74.472288
 11
-54.369578
 21
-68.447405
  0
LINE
  8
St
  6
CONTINUOUS
 10
-133.769578
 20
-76.067713
 11
-54.369578
 21
-70.051992
  0
LINE
  8
St
  6
CONTINUOUS
 10
-56.281462
 20
-68.592257
 11
-56.281462
 21
-70.196845
  0
LINE
  8
St
  6
CONTINUOUS
 10
-75.776998
 20
-81.484353
 11
-75.776998
 21
-71.67392
  0
LINE
  8
St
  6
CONTINUOUS
 10
-74.168567
 20
-83.084353
 11
-74.168567
 21
-71.552057
  0
LINE
  8
St
  6
CONTINUOUS
 10
-76.641773
 20
-70.134853
 11
-78.3779
 21
-71.870978
  0
LINE
  8
St
  6
CONTINUOUS
 10
-77.406843
 20
-70.192818
 11
-79.142972
 21
-71.928942
  0
LINE
  8
St
  6
CONTINUOUS
 10
-104.126385
 20
-72.21722
 11
-105.862515
 21
-73.95334
  0
LINE
  8
St
  6
CONTINUOUS
 10
-104.89146
 20
-72.275185
 11
-106.627588
 21
-74.011308
  0
INSERT
  2
*GRP_0049
  8
St
  6
DASHDOT
 62
    47
 10
0.0
 20
0.0
  0
INSERT
  2
*GRP_0050
  8
St
  6
DASHDOT
 62
    47
 10
0.0
 20
0.0
  0
LINE
  8
St
  6
CONTINUOUS
 62
   127
 10
-118.359828
 20
-13.094525
 11
-118.359828
 21
0.916427
  0
ARC
  8
St
  6
CONTINUOUS
 62
   127
 10
-118.359827
 20
0.91642
 40
2.3
 50
92.997019
 51
180.0
  0
ARC
  8
St
  6
CONTINUOUS
 62
   127
 10
-118.359827
 20
-13.09452
 40
2.3
 50
180.0
 51
270.0
  0
LINE
  8
St
  6
CONTINUOUS
 62
   127
 10
-118.359828
 20
0.916427
 11
-105.560095
 21
1.586552
  0
LINE
  8
St
  6
CONTINUOUS
 62
   127
 10
-105.560095
 20
1.586552
 11
-105.68035
 21
3.883412
  0
LINE
  8
St
  6
CONTINUOUS
 62
   127
 10
-120.65983
 20
3.099152
 11
-105.68035
 21
3.883412
  0
LINE
  8
St
  6
CONTINUOUS
 62
   127
 10
-120.65983
 20
3.099152
 11
-120.65983
 21
-15.394528
  0
LINE
  8
St
  6
CONTINUOUS
 62
   127
 10
-74.369567
 20
-15.394528
 11
-120.65983
 21
-15.394528
  0
LINE
  8
St
  6
CONTINUOUS
 10
-113.17009
 20
3.491282
 11
-110.981523
 21
1.302715
  0
LINE
  8
St
  6
CONTINUOUS
 10
-111.653448
 20
1.26754
 11
-113.842007
 21
3.4561
  0
LINE
  8
St
  6
CONTINUOUS
 10
-118.359828
 20
-10.03016
 11
-120.65983
 21
-7.730158
  0
LINE
  8
St
  6
CONTINUOUS
 10
-118.359828
 20
-9.32306
 11
-120.65983
 21
-7.023057
  0
LINE
  8
St
  6
CONTINUOUS
 10
-107.823752
 20
-13.084055
 11
-105.51328
 21
-15.394528
  0
LINE
  8
St
  6
CONTINUOUS
 10
-108.530853
 20
-13.084055
 11
-106.22038
 21
-15.394528
  0
LINE
  8
St
  6
CONTINUOUS
 10
-70.265645
 20
70.113793
 11
-67.265645
 21
70.113793
  0
INSERT
  2
*GRP_0057
  8
St
  6
CONTINUOUS
 10
0.0
 20
0.0
  0
INSERT
  2
*HAT_0004
  8
その他部品等
 10
0.0
 20
0.0
  0
INSERT
  2
*HAT_0005
  8
その他部品等
 10
0.0
 20
0.0
  0
LINE
  8
その他部品等
  6
CONTINUOUS
 10
-30.961293
 20
103.412095
 11
-30.961293
 21
91.815707
  0
LINE
  8
その他部品等
  6
CONTINUOUS
 10
-27.961293
 20
102.212095
 11
-27.961293
 21
91.815707
  0
LINE
  8
その他部品等
  6
CONTINUOUS
 10
-20.961295
 20
102.212095
 11
-20.961295
 21
91.815707
  0
LINE
  8
その他部品等
  6
CONTINUOUS
 10
-30.961293
 20
103.412095
 11
-27.961293
 21
91.815707
  0
ENDSEC
  0
EOF
