  0
SECTION
  2
HEADER
  9
$EXTMIN
 10
-210.0
 20
-148.5
  9
$EXTMAX
 10
210.0
 20
148.5
  9
$PDMODE
 70
    32
  9
$PDSIZE
 40
1.5
  9
$LTSCALE
 40
10.0
  0
ENDSEC
  0
SECTION
  2
TABLES
  0
TABLE
  2
LTYPE
 70
    15
  0
LTYPE
  2
CONTINUOUS
 70
    64
  3
実線
 72
    65
 73
     0
 40
0.0
  0
LTYPE
  2
DASHED
 70
    64
  3
破線A
 72
    65
 73
     2
 40
0.6
 49
0.4
 49
-0.2
  0
LTYPE
  2
DASHEDX2
 70
    64
  3
破線B
 72
    65
 73
     2
 40
1.3
 49
0.9
 49
-0.4
  0
LTYPE
  2
DASHDOT
 70
    64
  3
１点鎖線A
 72
    65
 73
     4
 40
0.5375
 49
0.375
 49
-0.05
 49
0.0625
 49
-0.05
  0
LTYPE
  2
DASHDOTX2
 70
    64
  3
１点鎖線B
 72
    65
 73
     4
 40
1.075
 49
0.75
 49
-0.1
 49
0.125
 49
-0.1
  0
LTYPE
  2
DIVIDE2
 70
    64
  3
２点鎖線A
 72
    65
 73
     6
 40
0.5125
 49
0.3
 49
-0.0375
 49
0.05
 49
-0.0375
 49
0.05
 49
-0.0375
  0
LTYPE
  2
DIVIDE
 70
    64
  3
２点鎖線B
 72
    65
 73
     6
 40
1.05
 49
0.55
 49
-0.1
 49
0.1
 49
-0.1
 49
0.1
 49
-0.1
  0
LTYPE
  2
DOT
 70
    64
  3
点線A
 72
    65
 73
     2
 40
0.1125
 49
0.0625
 49
-0.05
  0
LTYPE
  2
DOTX2
 70
    64
  3
点線B
 72
    65
 73
     2
 40
0.275
 49
0.15
 49
-0.125
  0
LTYPE
  2
CONTINUOUS
 70
    64
  3
実線
 72
    65
 73
     0
 40
0.0
  0
LTYPE
  2
CONTINUOUS
 70
    64
  3
実線
 72
    65
 73
     0
 40
0.0
  0
LTYPE
  2
CONTINUOUS
 70
    64
  3
実線
 72
    65
 73
     0
 40
0.0
  0
LTYPE
  2
CONTINUOUS
 70
    64
  3
実線
 72
    65
 73
     0
 40
0.0
  0
LTYPE
  2
CONTINUOUS
 70
    64
  3
実線
 72
    65
 73
     0
 40
0.0
  0
LTYPE
  2
CONTINUOUS
 70
    64
  3
実線
 72
    65
 73
     0
 40
0.0
  0
ENDTAB
  0
TABLE
  2
LAYER
 70
    34
  0
LAYER
  2
通り芯
 70
     0
 62
    15
  6
CONTINUOUS
  0
LAYER
  2
補助線
 70
     0
 62
    16
  6
DOT
  0
LAYER
  2
躯体
 70
     0
 62
    31
  6
CONTINUOUS
  0
LAYER
  2
型材
 70
     0
 62
    32
  6
CONTINUOUS
  0
LAYER
  2
型材断面
 70
     0
 62
    47
  6
CONTINUOUS
  0
LAYER
  2
ガラス
 70
     0
 62
    48
  6
CONTINUOUS
  0
LAYER
  2
ゴム等
 70
     0
 62
    63
  6
CONTINUOUS
  0
LAYER
  2
ボルト／ビス
 70
     0
 62
    64
  6
CONTINUOUS
  0
LAYER
  2
文字
 70
     0
 62
    79
  6
CONTINUOUS
  0
LAYER
  2
寸法
 70
     0
 62
    80
  6
CONTINUOUS
  0
LAYER
  2
ﾊｯﾁﾝｸﾞ
 70
     0
 62
    95
  6
CONTINUOUS
  0
LAYER
  2
別途部材
 70
     0
 62
    96
  6
CONTINUOUS
  0
LAYER
  2
曲げ物
 70
     0
 62
   111
  6
CONTINUOUS
  0
LAYER
  2
鉄骨等
 70
     0
 62
   112
  6
CONTINUOUS
  0
LAYER
  2
St
 70
     0
 62
   127
  6
CONTINUOUS
  0
LAYER
  2
その他部品等
 70
     0
 62
   128
  6
CONTINUOUS
  0
LAYER
  2
ｶﾞｽｹｯﾄ
 70
     0
 62
   143
  6
CONTINUOUS
  0
LAYER
  2
ｽｹｯﾁ
 70
     0
 62
    14
  6
CONTINUOUS
  0
LAYER
  2
0
 70
     0
 62
    17
  6
CONTINUOUS
  0
LAYER
  2
1
 70
     0
 62
    30
  6
CONTINUOUS
  0
LAYER
  2
4
 70
     0
 62
    33
  6
CONTINUOUS
  0
LAYER
  2
ﾚｲﾔ3
 70
     0
 62
    46
  6
CONTINUOUS
  0
LAYER
  2
外形線
 70
     0
 62
    49
  6
CONTINUOUS
  0
LAYER
  2
部品
 70
     0
 62
    14
  6
CONTINUOUS
  0
LAYER
  2
サッシ芯
 70
     0
 62
    17
  6
DASHDOTX2
  0
LAYER
  2
寸法線
 70
     0
 62
    62
  6
CONTINUOUS
  0
LAYER
  2
姿図外形線
 70
     0
 62
    65
  6
CONTINUOUS
  0
LAYER
  2
姿補助線
 70
     0
 62
    30
  6
CONTINUOUS
  0
LAYER
  2
透視線
 70
     0
 62
    78
  6
DOT
  0
LAYER
  2
用紙
 70
     0
 62
    81
  6
CONTINUOUS
  0
LAYER
  2
実線図枠
 70
     0
 62
    94
  6
CONTINUOUS
  0
LAYER
  2
補助図枠
 70
     0
 62
    97
  6
CONTINUOUS
  0
LAYER
  2
建具記号
 70
     0
 62
   110
  6
CONTINUOUS
  0
LAYER
  2
補助文字
 70
     0
 62
   113
  6
CONTINUOUS
  0
ENDTAB
  0
TABLE
  2
STYLE
 70
    10
  0
STYLE
  2
STANDARD
 70
     0
 40
1.0
 41
1.0
 42
1.0
 50
0.0
 71
     0
  3
TXT
  4
BIGFONT
  0
STYLE
  2
TATE
 70
     4
 40
1.0
 41
1.0
 42
1.0
 50
0.0
 71
     0
  3
TXT
  4
BIGFONT
  0
STYLE
  2
TextStyle03
 70
     0
 40
1.0
 41
1.0
 42
1.0
 50
0.0
 71
     0
  3
MONOTXT
  4
BIGFONT
  0
STYLE
  2
TextStyle04
 70
     0
 40
1.0
 41
1.0
 42
1.0
 50
0.0
 71
     0
  3
MONOTXT
  4
BIGFONT
  0
STYLE
  2
TextStyle05
 70
     0
 40
1.0
 41
1.0
 42
1.0
 50
0.0
 71
     0
  3
MONOTXT
  4
BIGFONT
  0
STYLE
  2
TextStyle06
 70
     0
 40
1.0
 41
1.0
 42
1.0
 50
0.0
 71
     0
  3
MONOTXT
  4
BIGFONT
  0
STYLE
  2
TextStyle07
 70
     0
 40
1.0
 41
1.0
 42
1.0
 50
0.0
 71
     0
  3
MONOTXT
  4
BIGFONT
  0
STYLE
  2
TextStyle08
 70
     0
 40
1.0
 41
1.0
 42
1.0
 50
0.0
 71
     0
  3
MONOTXT
  4
BIGFONT
  0
STYLE
  2
TextStyle09
 70
     0
 40
1.0
 41
1.0
 42
1.0
 50
0.0
 71
     0
  3
MONOTXT
  4
BIGFONT
  0
STYLE
  2
TextStyle10
 70
     0
 40
1.0
 41
1.0
 42
1.0
 50
0.0
 71
     0
  3
MONOTXT
  4
BIGFONT
  0
ENDTAB
  0
ENDSEC
  0
SECTION
  2
BLOCKS
  0
BLOCK
  2
*HAT_0001
 70
    65
 10
0.0
 20
0.0
  0
LINE
  8
ゴム等
 10
-49.2
 20
-11.125
 11
-50.75
 21
-9.625
  0
LINE
  8
ゴム等
 10
-47.55
 20
-11.125
 11
-50.75
 21
-7.925
  0
LINE
  8
ゴム等
 10
-45.85
 20
-11.125
 11
-50.75
 21
-6.225
  0
LINE
  8
ゴム等
 10
-44.15
 20
-11.125
 11
-50.15
 21
-5.125
  0
LINE
  8
ゴム等
 10
-42.45
 20
-11.125
 11
-48.45
 21
-5.125
  0
LINE
  8
ゴム等
 10
-40.75
 20
-11.125
 11
-46.75
 21
-5.125
  0
LINE
  8
ゴム等
 10
-39.05
 20
-11.125
 11
-45.05
 21
-5.125
  0
LINE
  8
ゴム等
 10
-37.35
 20
-11.125
 11
-43.35
 21
-5.125
  0
LINE
  8
ゴム等
 10
-35.75
 20
-11.075
 11
-41.65
 21
-5.125
  0
LINE
  8
ゴム等
 10
-35.75
 20
-9.375
 11
-39.95
 21
-5.125
  0
LINE
  8
ゴム等
 10
-35.75
 20
-7.675
 11
-38.25
 21
-5.125
  0
LINE
  8
ゴム等
 10
-35.75
 20
-5.975
 11
-36.6
 21
-5.125
  0
ENDBLK
  0
BLOCK
  2
*HAT_0002
 70
    65
 10
0.0
 20
0.0
  0
LINE
  8
ゴム等
 10
-19.7
 20
-11.1
 11
-20.85
 21
-9.95
  0
LINE
  8
ゴム等
 10
-21.2
 20
-9.65
 11
-22.35
 21
-8.5
  0
LINE
  8
ゴム等
 10
-18.0
 20
-11.1
 11
-19.0
 21
-10.1
  0
LINE
  8
ゴム等
 10
-21.35
 20
-7.8
 11
-22.3
 21
-6.8
  0
LINE
  8
ゴム等
 10
-16.3
 20
-11.1
 11
-17.3
 21
-10.1
  0
LINE
  8
ゴム等
 10
-21.05
 20
-6.4
 11
-21.75
 21
-5.7
  0
LINE
  8
ゴム等
 10
-14.65
 20
-11.1
 11
-15.65
 21
-10.1
  0
LINE
  8
ゴム等
 10
-19.65
 20
-6.1
 11
-20.6
 21
-5.15
  0
LINE
  8
ゴム等
 10
-12.95
 20
-11.1
 11
-13.95
 21
-10.1
  0
LINE
  8
ゴム等
 10
-17.95
 20
-6.1
 11
-18.95
 21
-5.1
  0
LINE
  8
ゴム等
 10
-11.45
 20
-10.9
 11
-12.25
 21
-10.1
  0
LINE
  8
ゴム等
 10
-16.25
 20
-6.1
 11
-19.45
 21
-2.9
  0
LINE
  8
ゴム等
 10
-10.6
 20
-10.1
 11
-11.35
 21
-9.3
  0
LINE
  8
ゴム等
 10
-14.55
 20
-6.1
 11
-18.55
 21
-2.1
  0
LINE
  8
ゴム等
 10
-10.35
 20
-8.65
 11
-11.35
 21
-7.65
  0
LINE
  8
ゴム等
 10
-12.85
 20
-6.1
 11
-13.85
 21
-5.1
  0
LINE
  8
ゴム等
 10
-14.2
 20
-4.8
 11
-16.85
 21
-2.1
  0
LINE
  8
ゴム等
 10
-10.35
 20
-6.95
 11
-12.15
 21
-5.15
  0
LINE
  8
ゴム等
 10
-13.6
 20
-3.65
 11
-15.15
 21
-2.1
  0
LINE
  8
ゴム等
 10
-13.05
 20
-2.55
 11
-13.45
 21
-2.1
  0
ENDBLK
  0
BLOCK
  2
*HAT_0003
 70
    65
 10
0.0
 20
0.0
  0
LINE
  8
ﾊｯﾁﾝｸﾞ
 10
-98.275
 20
91.775
 11
-97.075
 21
92.975
  0
LINE
  8
ﾊｯﾁﾝｸﾞ
 10
-100.375
 20
91.775
 11
-97.075
 21
95.075
  0
LINE
  8
ﾊｯﾁﾝｸﾞ
 10
-102.475
 20
91.775
 11
-97.075
 21
97.175
  0
LINE
  8
ﾊｯﾁﾝｸﾞ
 10
-104.05
 20
92.3
 11
-97.075
 21
99.275
  0
LINE
  8
ﾊｯﾁﾝｸﾞ
 10
-104.05
 20
94.4
 11
-97.075
 21
101.45
  0
LINE
  8
ﾊｯﾁﾝｸﾞ
 10
-104.05
 20
96.575
 11
-98.425
 21
102.2
  0
LINE
  8
ﾊｯﾁﾝｸﾞ
 10
-104.05
 20
98.675
 11
-100.6
 21
102.2
  0
LINE
  8
ﾊｯﾁﾝｸﾞ
 10
-104.05
 20
100.775
 11
-102.7
 21
102.2
  0
LINE
  8
ﾊｯﾁﾝｸﾞ
 10
-104.05
 20
92.225
 11
-103.6
 21
91.775
  0
LINE
  8
ﾊｯﾁﾝｸﾞ
 10
-104.05
 20
94.4
 11
-101.5
 21
91.775
  0
LINE
  8
ﾊｯﾁﾝｸﾞ
 10
-104.05
 20
96.5
 11
-99.4
 21
91.775
  0
LINE
  8
ﾊｯﾁﾝｸﾞ
 10
-104.05
 20
98.6
 11
-97.225
 21
91.775
  0
LINE
  8
ﾊｯﾁﾝｸﾞ
 10
-104.05
 20
100.7
 11
-97.075
 21
93.725
  0
LINE
  8
ﾊｯﾁﾝｸﾞ
 10
-103.45
 20
102.2
 11
-97.075
 21
95.825
  0
LINE
  8
ﾊｯﾁﾝｸﾞ
 10
-101.275
 20
102.2
 11
-97.075
 21
98.0
  0
LINE
  8
ﾊｯﾁﾝｸﾞ
 10
-99.175
 20
102.2
 11
-97.075
 21
100.1
  0
ENDBLK
  0
BLOCK
  2
*HAT_0004
 70
    65
 10
0.0
 20
0.0
  0
LINE
  8
その他部品等
 10
-70.4
 20
-68.45
 11
-70.5
 21
-68.35
  0
LINE
  8
その他部品等
 10
-68.875
 20
-68.575
 11
-70.375
 21
-67.075
  0
LINE
  8
その他部品等
 10
-67.35
 20
-68.675
 11
-68.95
 21
-67.075
  0
LINE
  8
その他部品等
 10
-65.825
 20
-68.8
 11
-67.55
 21
-67.075
  0
LINE
  8
その他部品等
 10
-64.3
 20
-68.925
 11
-66.125
 21
-67.075
  0
LINE
  8
その他部品等
 10
-62.775
 20
-69.025
 11
-64.725
 21
-67.075
  0
LINE
  8
その他部品等
 10
-61.25
 20
-69.15
 11
-63.3
 21
-67.075
  0
LINE
  8
その他部品等
 10
-59.725
 20
-69.275
 11
-61.9
 21
-67.075
  0
LINE
  8
その他部品等
 10
-58.2
 20
-69.375
 11
-60.475
 21
-67.075
  0
LINE
  8
その他部品等
 10
-56.65
 20
-69.5
 11
-59.075
 21
-67.075
  0
LINE
  8
その他部品等
 10
-55.125
 20
-69.6
 11
-57.65
 21
-67.075
  0
LINE
  8
その他部品等
 10
-53.6
 20
-69.725
 11
-56.25
 21
-67.075
  0
LINE
  8
その他部品等
 10
-52.075
 20
-69.85
 11
-54.825
 21
-67.075
  0
LINE
  8
その他部品等
 10
-50.55
 20
-69.95
 11
-53.425
 21
-67.075
  0
LINE
  8
その他部品等
 10
-49.025
 20
-70.075
 11
-52.025
 21
-67.075
  0
LINE
  8
その他部品等
 10
-47.5
 20
-70.2
 11
-50.6
 21
-67.075
  0
LINE
  8
その他部品等
 10
-45.975
 20
-70.3
 11
-49.075
 21
-67.2
  0
LINE
  8
その他部品等
 10
-44.45
 20
-70.425
 11
-47.55
 21
-67.3
  0
LINE
  8
その他部品等
 10
-42.9
 20
-70.525
 11
-46.025
 21
-67.425
  0
LINE
  8
その他部品等
 10
-41.375
 20
-70.65
 11
-44.5
 21
-67.55
  0
LINE
  8
その他部品等
 10
-39.85
 20
-70.775
 11
-42.975
 21
-67.65
  0
LINE
  8
その他部品等
 10
-38.325
 20
-70.875
 11
-41.425
 21
-67.775
  0
LINE
  8
その他部品等
 10
-36.8
 20
-71.0
 11
-39.9
 21
-67.9
  0
LINE
  8
その他部品等
 10
-35.275
 20
-71.125
 11
-38.375
 21
-68.0
  0
LINE
  8
その他部品等
 10
-33.75
 20
-71.225
 11
-36.85
 21
-68.125
  0
LINE
  8
その他部品等
 10
-32.225
 20
-71.35
 11
-35.325
 21
-68.225
  0
LINE
  8
その他部品等
 10
-30.7
 20
-71.45
 11
-33.8
 21
-68.35
  0
LINE
  8
その他部品等
 10
-29.15
 20
-71.575
 11
-32.275
 21
-68.475
  0
LINE
  8
その他部品等
 10
-27.625
 20
-71.7
 11
-30.75
 21
-68.575
  0
LINE
  8
その他部品等
 10
-26.1
 20
-71.8
 11
-29.225
 21
-68.7
  0
LINE
  8
その他部品等
 10
-24.575
 20
-71.925
 11
-27.7
 21
-68.825
  0
LINE
  8
その他部品等
 10
-23.05
 20
-72.05
 11
-26.15
 21
-68.925
  0
LINE
  8
その他部品等
 10
-21.525
 20
-72.15
 11
-24.625
 21
-69.05
  0
LINE
  8
その他部品等
 10
-20.0
 20
-72.275
 11
-23.1
 21
-69.175
  0
LINE
  8
その他部品等
 10
-18.475
 20
-72.375
 11
-21.575
 21
-69.275
  0
LINE
  8
その他部品等
 10
-16.95
 20
-72.5
 11
-20.05
 21
-69.4
  0
LINE
  8
その他部品等
 10
-15.425
 20
-72.625
 11
-18.525
 21
-69.5
  0
LINE
  8
その他部品等
 10
-13.875
 20
-72.725
 11
-17.0
 21
-69.625
  0
LINE
  8
その他部品等
 10
-12.35
 20
-72.85
 11
-15.475
 21
-69.75
  0
LINE
  8
その他部品等
 10
-10.825
 20
-72.975
 11
-13.95
 21
-69.85
  0
LINE
  8
その他部品等
 10
-9.3
 20
-73.075
 11
-12.4
 21
-69.975
  0
LINE
  8
その他部品等
 10
-7.775
 20
-73.2
 11
-10.875
 21
-70.1
  0
LINE
  8
その他部品等
 10
-6.25
 20
-73.325
 11
-9.35
 21
-70.2
  0
LINE
  8
その他部品等
 10
-4.725
 20
-73.425
 11
-7.825
 21
-70.325
  0
LINE
  8
その他部品等
 10
-3.2
 20
-73.55
 11
-6.3
 21
-70.425
  0
LINE
  8
その他部品等
 10
-1.675
 20
-73.65
 11
-4.775
 21
-70.55
  0
LINE
  8
その他部品等
 10
-0.125
 20
-73.775
 11
-3.25
 21
-70.675
  0
LINE
  8
その他部品等
 10
10.575
 20
-83.075
 11
10.5
 21
-83.0
  0
LINE
  8
その他部品等
 10
12.0
 20
-83.075
 11
10.5
 21
-81.575
  0
LINE
  8
その他部品等
 10
13.4
 20
-83.075
 11
10.5
 21
-80.175
  0
LINE
  8
その他部品等
 10
1.4
 20
-73.9
 11
-1.725
 21
-70.775
  0
LINE
  8
その他部品等
 10
2.925
 20
-74.0
 11
-0.2
 21
-70.9
  0
LINE
  8
その他部品等
 10
4.45
 20
-74.125
 11
1.35
 21
-71.025
  0
LINE
  8
その他部品等
 10
13.5
 20
-81.75
 11
10.5
 21
-78.75
  0
LINE
  8
その他部品等
 10
13.5
 20
-80.35
 11
10.5
 21
-77.35
  0
LINE
  8
その他部品等
 10
5.975
 20
-74.25
 11
2.875
 21
-71.125
  0
LINE
  8
その他部品等
 10
7.5
 20
-74.35
 11
4.4
 21
-71.25
  0
LINE
  8
その他部品等
 10
13.5
 20
-78.95
 11
10.425
 21
-75.85
  0
LINE
  8
その他部品等
 10
9.05
 20
-74.475
 11
5.925
 21
-71.375
  0
LINE
  8
その他部品等
 10
13.5
 20
-77.525
 11
7.45
 21
-71.475
  0
LINE
  8
その他部品等
 10
13.5
 20
-76.125
 11
8.975
 21
-71.6
  0
LINE
  8
その他部品等
 10
13.5
 20
-74.7
 11
10.5
 21
-71.7
  0
LINE
  8
その他部品等
 10
13.5
 20
-73.3
 11
12.025
 21
-71.825
  0
LINE
  8
その他部品等
 10
13.5
 20
-82.275
 11
12.7
 21
-83.075
  0
LINE
  8
その他部品等
 10
13.5
 20
-80.875
 11
11.3
 21
-83.075
  0
LINE
  8
その他部品等
 10
13.5
 20
-79.475
 11
10.5
 21
-82.475
  0
LINE
  8
その他部品等
 10
13.5
 20
-78.05
 11
10.5
 21
-81.05
  0
LINE
  8
その他部品等
 10
13.5
 20
-76.65
 11
10.5
 21
-79.65
  0
LINE
  8
その他部品等
 10
13.5
 20
-75.225
 11
10.5
 21
-78.225
  0
LINE
  8
その他部品等
 10
13.5
 20
-73.825
 11
10.5
 21
-76.825
  0
LINE
  8
その他部品等
 10
13.5
 20
-72.4
 11
10.3
 21
-75.6
  0
LINE
  8
その他部品等
 10
12.625
 20
-71.875
 11
9.7
 21
-74.775
  0
LINE
  8
その他部品等
 10
11.325
 20
-71.775
 11
8.65
 21
-74.425
  0
LINE
  8
その他部品等
 10
10.0
 20
-71.675
 11
7.325
 21
-74.35
  0
LINE
  8
その他部品等
 10
8.7
 20
-71.575
 11
6.025
 21
-74.25
  0
LINE
  8
その他部品等
 10
7.375
 20
-71.475
 11
4.7
 21
-74.15
  0
LINE
  8
その他部品等
 10
6.075
 20
-71.375
 11
3.4
 21
-74.05
  0
LINE
  8
その他部品等
 10
4.75
 20
-71.275
 11
2.075
 21
-73.95
  0
LINE
  8
その他部品等
 10
3.45
 20
-71.175
 11
0.775
 21
-73.85
  0
LINE
  8
その他部品等
 10
2.125
 20
-71.075
 11
-0.55
 21
-73.75
  0
LINE
  8
その他部品等
 10
0.825
 20
-70.975
 11
-1.85
 21
-73.65
  0
LINE
  8
その他部品等
 10
-0.5
 20
-70.875
 11
-3.175
 21
-73.55
  0
LINE
  8
その他部品等
 10
-1.8
 20
-70.775
 11
-4.475
 21
-73.45
  0
LINE
  8
その他部品等
 10
-3.125
 20
-70.675
 11
-5.8
 21
-73.35
  0
LINE
  8
その他部品等
 10
-4.45
 20
-70.575
 11
-7.1
 21
-73.25
  0
LINE
  8
その他部品等
 10
-5.75
 20
-70.475
 11
-8.425
 21
-73.15
  0
LINE
  8
その他部品等
 10
-7.05
 20
-70.375
 11
-9.725
 21
-73.05
  0
LINE
  8
その他部品等
 10
-8.375
 20
-70.275
 11
-11.05
 21
-72.95
  0
LINE
  8
その他部品等
 10
-9.675
 20
-70.175
 11
-12.35
 21
-72.85
  0
LINE
  8
その他部品等
 10
-11.0
 20
-70.075
 11
-13.675
 21
-72.75
  0
LINE
  8
その他部品等
 10
-12.3
 20
-69.975
 11
-14.975
 21
-72.65
  0
LINE
  8
その他部品等
 10
-13.625
 20
-69.875
 11
-16.3
 21
-72.55
  0
LINE
  8
その他部品等
 10
-14.925
 20
-69.775
 11
-17.6
 21
-72.45
  0
LINE
  8
その他部品等
 10
-16.25
 20
-69.675
 11
-18.925
 21
-72.35
  0
LINE
  8
その他部品等
 10
-17.55
 20
-69.575
 11
-20.225
 21
-72.25
  0
LINE
  8
その他部品等
 10
-18.875
 20
-69.475
 11
-21.55
 21
-72.15
  0
LINE
  8
その他部品等
 10
-20.175
 20
-69.375
 11
-22.85
 21
-72.05
  0
LINE
  8
その他部品等
 10
-21.5
 20
-69.275
 11
-24.175
 21
-71.95
  0
LINE
  8
その他部品等
 10
-22.8
 20
-69.175
 11
-25.475
 21
-71.85
  0
LINE
  8
その他部品等
 10
-24.125
 20
-69.075
 11
-26.8
 21
-71.75
  0
LINE
  8
その他部品等
 10
-25.425
 20
-68.975
 11
-28.1
 21
-71.65
  0
LINE
  8
その他部品等
 10
-26.75
 20
-68.875
 11
-29.425
 21
-71.55
  0
LINE
  8
その他部品等
 10
-28.05
 20
-68.775
 11
-30.725
 21
-71.45
  0
LINE
  8
その他部品等
 10
-29.375
 20
-68.675
 11
-32.05
 21
-71.35
  0
LINE
  8
その他部品等
 10
-30.675
 20
-68.575
 11
-33.35
 21
-71.25
  0
LINE
  8
その他部品等
 10
-32.0
 20
-68.475
 11
-34.675
 21
-71.15
  0
LINE
  8
その他部品等
 10
-33.3
 20
-68.4
 11
-35.975
 21
-71.05
  0
LINE
  8
その他部品等
 10
-34.625
 20
-68.3
 11
-37.3
 21
-70.95
  0
LINE
  8
その他部品等
 10
-35.925
 20
-68.2
 11
-38.6
 21
-70.85
  0
LINE
  8
その他部品等
 10
-37.25
 20
-68.1
 11
-39.925
 21
-70.75
  0
LINE
  8
その他部品等
 10
-38.55
 20
-68.0
 11
-41.225
 21
-70.65
  0
LINE
  8
その他部品等
 10
-39.875
 20
-67.9
 11
-42.55
 21
-70.55
  0
LINE
  8
その他部品等
 10
-41.175
 20
-67.8
 11
-43.85
 21
-70.45
  0
LINE
  8
その他部品等
 10
-42.5
 20
-67.7
 11
-45.175
 21
-70.35
  0
LINE
  8
その他部品等
 10
-43.825
 20
-67.6
 11
-46.475
 21
-70.25
  0
LINE
  8
その他部品等
 10
-45.125
 20
-67.5
 11
-47.8
 21
-70.15
  0
LINE
  8
その他部品等
 10
-46.425
 20
-67.4
 11
-49.1
 21
-70.05
  0
LINE
  8
その他部品等
 10
-47.75
 20
-67.3
 11
-50.425
 21
-69.975
  0
LINE
  8
その他部品等
 10
-49.05
 20
-67.2
 11
-51.725
 21
-69.875
  0
LINE
  8
その他部品等
 10
-50.375
 20
-67.1
 11
-53.05
 21
-69.775
  0
LINE
  8
その他部品等
 10
-51.775
 20
-67.075
 11
-54.35
 21
-69.675
  0
LINE
  8
その他部品等
 10
-53.175
 20
-67.075
 11
-55.675
 21
-69.575
  0
LINE
  8
その他部品等
 10
-54.6
 20
-67.075
 11
-56.975
 21
-69.475
  0
LINE
  8
その他部品等
 10
-56.0
 20
-67.075
 11
-58.3
 21
-69.375
  0
LINE
  8
その他部品等
 10
-57.425
 20
-67.075
 11
-59.6
 21
-69.275
  0
LINE
  8
その他部品等
 10
-58.825
 20
-67.075
 11
-60.925
 21
-69.175
  0
LINE
  8
その他部品等
 10
-60.25
 20
-67.075
 11
-62.225
 21
-69.075
  0
LINE
  8
その他部品等
 10
-61.65
 20
-67.075
 11
-63.55
 21
-68.975
  0
LINE
  8
その他部品等
 10
-63.075
 20
-67.075
 11
-64.85
 21
-68.875
  0
LINE
  8
その他部品等
 10
-64.475
 20
-67.075
 11
-66.175
 21
-68.775
  0
LINE
  8
その他部品等
 10
-65.9
 20
-67.075
 11
-67.475
 21
-68.675
  0
LINE
  8
その他部品等
 10
-67.3
 20
-67.075
 11
-68.8
 21
-68.575
  0
LINE
  8
その他部品等
 10
-68.725
 20
-67.075
 11
-70.1
 21
-68.475
  0
LINE
  8
その他部品等
 10
-70.125
 20
-67.075
 11
-70.5
 21
-67.45
  0
ENDBLK
  0
BLOCK
  2
*HAT_0005
 70
    65
 10
0.0
 20
0.0
  0
LINE
  8
その他部品等
 10
-70.075
 20
-81.475
 11
-70.5
 21
-81.075
  0
LINE
  8
その他部品等
 10
-68.675
 20
-81.475
 11
-70.5
 21
-79.65
  0
LINE
  8
その他部品等
 10
-67.275
 20
-81.475
 11
-70.5
 21
-78.25
  0
LINE
  8
その他部品等
 10
-65.85
 20
-81.475
 11
-70.5
 21
-76.825
  0
LINE
  8
その他部品等
 10
-64.45
 20
-81.475
 11
-70.5
 21
-75.425
  0
LINE
  8
その他部品等
 10
-63.025
 20
-81.475
 11
-70.5
 21
-74.0
  0
LINE
  8
その他部品等
 10
-61.625
 20
-81.475
 11
-70.5
 21
-72.6
  0
LINE
  8
その他部品等
 10
-60.2
 20
-81.475
 11
-70.5
 21
-71.175
  0
LINE
  8
その他部品等
 10
-58.8
 20
-81.475
 11
-70.2
 21
-70.075
  0
LINE
  8
その他部品等
 10
-57.375
 20
-81.475
 11
-68.675
 21
-70.2
  0
LINE
  8
その他部品等
 10
-55.975
 20
-81.475
 11
-67.15
 21
-70.3
  0
LINE
  8
その他部品等
 10
-54.55
 20
-81.475
 11
-65.625
 21
-70.425
  0
LINE
  8
その他部品等
 10
-53.15
 20
-81.475
 11
-64.1
 21
-70.525
  0
LINE
  8
その他部品等
 10
-51.725
 20
-81.475
 11
-62.575
 21
-70.65
  0
LINE
  8
その他部品等
 10
-50.7
 20
-81.1
 11
-61.025
 21
-70.775
  0
LINE
  8
その他部品等
 10
-50.7
 20
-79.675
 11
-59.5
 21
-70.875
  0
LINE
  8
その他部品等
 10
-50.7
 20
-78.275
 11
-57.975
 21
-71.0
  0
LINE
  8
その他部品等
 10
-50.7
 20
-76.85
 11
-56.45
 21
-71.125
  0
LINE
  8
その他部品等
 10
-50.7
 20
-75.45
 11
-54.925
 21
-71.225
  0
LINE
  8
その他部品等
 10
-50.7
 20
-74.05
 11
-53.4
 21
-71.35
  0
LINE
  8
その他部品等
 10
-50.7
 20
-72.625
 11
-51.875
 21
-71.475
  0
LINE
  8
その他部品等
 10
-50.7
 20
-80.125
 11
-52.05
 21
-81.475
  0
LINE
  8
その他部品等
 10
-50.7
 20
-78.725
 11
-53.475
 21
-81.475
  0
LINE
  8
その他部品等
 10
-50.7
 20
-77.3
 11
-54.875
 21
-81.475
  0
LINE
  8
その他部品等
 10
-50.7
 20
-75.9
 11
-56.3
 21
-81.475
  0
LINE
  8
その他部品等
 10
-50.7
 20
-74.475
 11
-57.7
 21
-81.475
  0
LINE
  8
その他部品等
 10
-50.7
 20
-73.075
 11
-59.1
 21
-81.475
  0
LINE
  8
その他部品等
 10
-50.7
 20
-71.65
 11
-60.525
 21
-81.475
  0
LINE
  8
その他部品等
 10
-51.925
 20
-71.45
 11
-61.925
 21
-81.475
  0
LINE
  8
その他部品等
 10
-53.225
 20
-71.35
 11
-63.35
 21
-81.475
  0
LINE
  8
その他部品等
 10
-54.525
 20
-71.25
 11
-64.75
 21
-81.475
  0
LINE
  8
その他部品等
 10
-55.85
 20
-71.15
 11
-66.175
 21
-81.475
  0
LINE
  8
その他部品等
 10
-57.15
 20
-71.05
 11
-67.575
 21
-81.475
  0
LINE
  8
その他部品等
 10
-58.475
 20
-70.95
 11
-69.0
 21
-81.475
  0
LINE
  8
その他部品等
 10
-59.8
 20
-70.85
 11
-70.4
 21
-81.475
  0
LINE
  8
その他部品等
 10
-61.1
 20
-70.75
 11
-70.5
 21
-80.15
  0
LINE
  8
その他部品等
 10
-62.425
 20
-70.65
 11
-70.5
 21
-78.75
  0
LINE
  8
その他部品等
 10
-63.725
 20
-70.575
 11
-70.5
 21
-77.325
  0
LINE
  8
その他部品等
 10
-65.05
 20
-70.475
 11
-70.5
 21
-75.925
  0
LINE
  8
その他部品等
 10
-66.35
 20
-70.375
 11
-70.5
 21
-74.5
  0
LINE
  8
その他部品等
 10
-67.65
 20
-70.275
 11
-70.5
 21
-73.1
  0
LINE
  8
その他部品等
 10
-68.975
 20
-70.175
 11
-70.5
 21
-71.675
  0
LINE
  8
その他部品等
 10
-70.3
 20
-70.075
 11
-70.5
 21
-70.275
  0
ENDBLK
  0
BLOCK
  2
*GRP_0001
 70
    65
 10
0.0
 20
0.0
  0
LINE
  8
型材断面
  6
CONTINUOUS
 10
195.0
 20
133.5
 11
195.0
 21
-133.5
  0
LINE
  8
型材断面
  6
CONTINUOUS
 10
195.0
 20
-133.5
 11
-185.0
 21
-133.5
  0
LINE
  8
型材断面
  6
CONTINUOUS
 10
-185.0
 20
-133.5
 11
-185.0
 21
133.5
  0
LINE
  8
型材断面
  6
CONTINUOUS
 10
195.0
 20
133.5
 11
-185.0
 21
133.5
  0
LINE
  8
型材断面
  6
CONTINUOUS
 10
145.0
 20
-133.5
 11
145.0
 21
-118.5
  0
LINE
  8
型材断面
  6
CONTINUOUS
 10
195.0
 20
-118.5
 11
145.0
 21
-118.5
  0
ENDBLK
  0
BLOCK
  2
*GRP_0002
 70
    65
 10
0.0
 20
0.0
  0
LINE
  8
別途部材
  6
CONTINUOUS
 62
    47
 10
-63.430742
 20
-83.084418
 11
-5.930768
 21
-83.084418
  0
LINE
  8
別途部材
  6
CONTINUOUS
 62
    47
 10
-63.430742
 20
-81.484418
 11
-5.930768
 21
-81.484418
  0
LINE
  8
別途部材
  6
CONTINUOUS
 62
    47
 10
-20.430742
 20
-83.084418
 11
-14.195367
 21
-86.684418
  0
LINE
  8
別途部材
  6
CONTINUOUS
 62
    47
 10
-5.930768
 20
-86.684418
 11
-14.195367
 21
-86.684418
  0
LINE
  8
別途部材
  6
CONTINUOUS
 62
    47
 10
-5.930768
 20
-85.084418
 11
-13.766643
 21
-85.084418
  0
LINE
  8
別途部材
  6
CONTINUOUS
 62
    47
 10
-17.230742
 20
-83.084418
 11
-13.766643
 21
-85.084418
  0
LINE
  8
別途部材
  6
CONTINUOUS
 62
    47
 10
-5.930768
 20
-83.084418
 11
-5.930768
 21
-81.484418
  0
LINE
  8
別途部材
  6
CONTINUOUS
 62
    47
 10
-5.930768
 20
-85.084418
 11
-5.930768
 21
-86.684418
  0
LINE
  8
別途部材
  6
CONTINUOUS
 62
    47
 10
-48.930742
 20
-83.084418
 11
-55.166118
 21
-86.684418
  0
LINE
  8
別途部材
  6
CONTINUOUS
 62
    47
 10
-63.430742
 20
-86.684418
 11
-55.166118
 21
-86.684418
  0
LINE
  8
別途部材
  6
CONTINUOUS
 62
    47
 10
-63.430742
 20
-85.084418
 11
-55.594867
 21
-85.084418
  0
LINE
  8
別途部材
  6
CONTINUOUS
 62
    47
 10
-52.130768
 20
-83.084418
 11
-55.594867
 21
-85.084418
  0
LINE
  8
別途部材
  6
CONTINUOUS
 62
    47
 10
-63.430742
 20
-85.084418
 11
-63.430742
 21
-86.684418
  0
LINE
  8
別途部材
  6
CONTINUOUS
 62
    47
 10
-26.930768
 20
-99.484418
 11
-26.930768
 21
-83.084418
  0
LINE
  8
別途部材
  6
CONTINUOUS
 62
    47
 10
-28.530742
 20
-99.484418
 11
-28.530742
 21
-83.084418
  0
LINE
  8
別途部材
  6
CONTINUOUS
 62
    47
 10
-26.930768
 20
-99.484418
 11
-28.530742
 21
-99.484418
  0
LINE
  8
別途部材
  6
CONTINUOUS
 62
    47
 10
-63.430742
 20
-81.484418
 11
-63.430742
 21
-83.084418
  0
ENDBLK
  0
BLOCK
  2
*GRP_0003
 70
    65
 10
0.0
 20
0.0
  0
LINE
  8
型材
  6
CONTINUOUS
 62
    47
 10
-91.08509
 20
68.41573
 11
-91.08509
 21
67.51573
  0
LINE
  8
型材
  6
CONTINUOUS
 62
    47
 10
-91.68509
 20
69.01573
 11
-91.08509
 21
68.41573
  0
LINE
  8
型材
  6
CONTINUOUS
 62
    47
 10
-91.08509
 20
67.51573
 11
-93.585095
 21
67.515745
  0
LINE
  8
型材
  6
CONTINUOUS
 62
    47
 10
-91.68509
 20
69.01573
 11
-95.085095
 21
69.015738
  0
LINE
  8
型材
  6
CONTINUOUS
 62
    47
 10
-95.085095
 20
66.015738
 11
-87.185195
 21
58.115838
  0
LINE
  8
型材
  6
CONTINUOUS
 62
    47
 10
-95.085095
 20
69.015745
 11
-95.08511
 21
66.015753
  0
LINE
  8
型材
  6
CONTINUOUS
 62
    47
 10
-93.585095
 20
67.515738
 11
-93.585095
 21
66.63706
  0
LINE
  8
型材
  6
CONTINUOUS
 62
    47
 10
-85.585205
 20
57.41584
 11
-85.585205
 21
58.63717
  0
LINE
  8
型材
  6
CONTINUOUS
 62
    47
 10
-87.18521
 20
55.91584
 11
-87.18521
 21
58.115853
  0
LINE
  8
型材
  6
CONTINUOUS
 62
    47
 10
-86.085095
 20
68.415715
 11
-86.085095
 21
67.515715
  0
LINE
  8
型材
  6
CONTINUOUS
 62
    47
 10
-86.085095
 20
68.415715
 11
-85.485095
 21
69.015707
  0
LINE
  8
型材
  6
CONTINUOUS
 62
    47
 10
-85.485095
 20
69.015707
 11
-82.08509
 21
69.0157
  0
LINE
  8
型材
  6
CONTINUOUS
 62
    47
 10
-86.085095
 20
67.515715
 11
-83.585105
 21
67.5157
  0
LINE
  8
型材
  6
CONTINUOUS
 62
    47
 10
-83.0852
 20
54.815845
 11
-83.0852
 21
57.41584
  0
LINE
  8
型材
  6
CONTINUOUS
 62
    47
 10
-84.5852
 20
54.815845
 11
-84.5852
 21
55.91584
  0
LINE
  8
型材
  6
CONTINUOUS
 62
    47
 10
-84.5852
 20
54.815845
 11
-83.0852
 21
54.815845
  0
LINE
  8
型材
  6
CONTINUOUS
 62
    47
 10
-85.585205
 20
57.41584
 11
-83.0852
 21
57.41584
  0
LINE
  8
型材
  6
CONTINUOUS
 62
    47
 10
-73.28486
 20
56.815833
 11
-71.288225
 21
56.815833
  0
LINE
  8
型材
  6
CONTINUOUS
 62
    47
 10
-73.28486
 20
56.815833
 11
-73.28486
 21
54.815838
  0
LINE
  8
型材
  6
CONTINUOUS
 62
    47
 10
-73.28486
 20
54.815838
 11
-69.788225
 21
54.815838
  0
LINE
  8
型材
  6
CONTINUOUS
 62
    47
 10
-69.788225
 20
54.815838
 11
-69.788225
 21
69.01567
  0
LINE
  8
型材
  6
CONTINUOUS
 62
    47
 10
-69.788225
 20
69.01567
 11
-71.288225
 21
69.015677
  0
LINE
  8
型材
  6
CONTINUOUS
 62
    47
 10
-85.585205
 20
58.63717
 11
-89.463755
 21
62.515712
  0
LINE
  8
型材
  6
CONTINUOUS
 62
    47
 10
-93.58508
 20
66.637045
 11
-90.963755
 21
64.01572
  0
LINE
  8
型材
  6
CONTINUOUS
 62
    47
 10
-83.585105
 20
67.515753
 11
-83.585105
 21
64.015705
  0
LINE
  8
型材
  6
CONTINUOUS
 62
    47
 10
-71.288225
 20
69.015677
 11
-71.288225
 21
64.015682
  0
LINE
  8
型材
  6
CONTINUOUS
 62
    47
 10
-89.463755
 20
62.515712
 11
-71.288225
 21
62.515675
  0
LINE
  8
型材
  6
CONTINUOUS
 62
    47
 10
-71.288225
 20
56.815833
 11
-71.288225
 21
62.515675
  0
LINE
  8
型材
  6
CONTINUOUS
 62
    47
 10
-82.08509
 20
69.015753
 11
-82.08512
 21
64.015705
  0
LINE
  8
型材
  6
CONTINUOUS
 62
    47
 10
-90.963755
 20
64.01572
 11
-83.585105
 21
64.015705
  0
LINE
  8
型材
  6
CONTINUOUS
 62
    47
 10
-77.78486
 20
63.715697
 11
-77.48486
 21
64.015697
  0
LINE
  8
型材
  6
CONTINUOUS
 62
    47
 10
-77.78486
 20
63.715697
 11
-78.08486
 21
64.015697
  0
LINE
  8
型材
  6
CONTINUOUS
 62
    47
 10
-82.08512
 20
64.015705
 11
-78.08486
 21
64.015697
  0
LINE
  8
型材
  6
CONTINUOUS
 62
    47
 10
-77.48486
 20
64.015697
 11
-71.288225
 21
64.015682
  0
LINE
  8
型材
  6
CONTINUOUS
 62
    47
 10
-84.5852
 20
55.91584
 11
-87.18521
 21
55.91584
  0
ENDBLK
  0
BLOCK
  2
*GRP_0004
 70
    65
 10
0.0
 20
0.0
  0
POLYLINE
  8
ガラス
  6
CONTINUOUS
 66
     1
 70
     4
  0
VERTEX
  8
ガラス
 10
-91.05
 20
-63.125
 70
     8
  0
VERTEX
  8
ガラス
 10
-91.15
 20
-63.1
 70
     8
  0
VERTEX
  8
ガラス
 10
-91.25
 20
-63.1
 70
     8
  0
VERTEX
  8
ガラス
 10
-91.325
 20
-63.075
 70
     8
  0
VERTEX
  8
ガラス
 10
-91.425
 20
-63.075
 70
     8
  0
VERTEX
  8
ガラス
 10
-91.525
 20
-63.075
 70
     8
  0
VERTEX
  8
ガラス
 10
-91.6
 20
-63.05
 70
     8
  0
VERTEX
  8
ガラス
 10
-91.7
 20
-63.05
 70
     8
  0
VERTEX
  8
ガラス
 10
-91.8
 20
-63.05
 70
     8
  0
VERTEX
  8
ガラス
 10
-91.875
 20
-63.05
 70
     8
  0
VERTEX
  8
ガラス
 10
-91.975
 20
-63.05
 70
     8
  0
VERTEX
  8
ガラス
 10
-92.075
 20
-63.05
 70
     8
  0
VERTEX
  8
ガラス
 10
-92.15
 20
-63.05
 70
     8
  0
VERTEX
  8
ガラス
 10
-92.25
 20
-63.05
 70
     8
  0
VERTEX
  8
ガラス
 10
-92.325
 20
-63.05
 70
     8
  0
VERTEX
  8
ガラス
 10
-92.4
 20
-63.075
 70
     8
  0
VERTEX
  8
ガラス
 10
-92.5
 20
-63.075
 70
     8
  0
VERTEX
  8
ガラス
 10
-92.575
 20
-63.1
 70
     8
  0
VERTEX
  8
ガラス
 10
-92.65
 20
-63.125
 70
     8
  0
VERTEX
  8
ガラス
 10
-92.725
 20
-63.125
 70
     8
  0
VERTEX
  8
ガラス
 10
-92.825
 20
-63.175
 70
     8
  0
VERTEX
  8
ガラス
 10
-92.9
 20
-63.2
 70
     8
  0
VERTEX
  8
ガラス
 10
-92.975
 20
-63.225
 70
     8
  0
VERTEX
  8
ガラス
 10
-93.05
 20
-63.275
 70
     8
  0
VERTEX
  8
ガラス
 10
-93.125
 20
-63.3
 70
     8
  0
VERTEX
  8
ガラス
 10
-93.175
 20
-63.35
 70
     8
  0
VERTEX
  8
ガラス
 10
-93.25
 20
-63.4
 70
     8
  0
VERTEX
  8
ガラス
 10
-93.325
 20
-63.45
 70
     8
  0
VERTEX
  8
ガラス
 10
-93.4
 20
-63.5
 70
     8
  0
VERTEX
  8
ガラス
 10
-93.45
 20
-63.55
 70
     8
  0
VERTEX
  8
ガラス
 10
-93.525
 20
-63.625
 70
     8
  0
VERTEX
  8
ガラス
 10
-93.575
 20
-63.675
 70
     8
  0
VERTEX
  8
ガラス
 10
-93.65
 20
-63.75
 70
     8
  0
VERTEX
  8
ガラス
 10
-93.725
 20
-63.8
 70
     8
  0
VERTEX
  8
ガラス
 10
-93.775
 20
-63.875
 70
     8
  0
VERTEX
  8
ガラス
 10
-93.85
 20
-63.95
 70
     8
  0
VERTEX
  8
ガラス
 10
-93.9
 20
-64.0
 70
     8
  0
VERTEX
  8
ガラス
 10
-93.975
 20
-64.075
 70
     8
  0
VERTEX
  8
ガラス
 10
-94.025
 20
-64.15
 70
     8
  0
VERTEX
  8
ガラス
 10
-94.075
 20
-64.225
 70
     8
  0
VERTEX
  8
ガラス
 10
-94.15
 20
-64.275
 70
     8
  0
SEQEND
  0
POLYLINE
  8
ガラス
  6
CONTINUOUS
 66
     1
 70
     4
  0
VERTEX
  8
ガラス
 10
-94.15
 20
-64.275
 70
     8
  0
VERTEX
  8
ガラス
 10
-94.075
 20
-64.3
 70
     8
  0
VERTEX
  8
ガラス
 10
-94.025
 20
-64.3
 70
     8
  0
VERTEX
  8
ガラス
 10
-93.975
 20
-64.3
 70
     8
  0
VERTEX
  8
ガラス
 10
-93.9
 20
-64.3
 70
     8
  0
VERTEX
  8
ガラス
 10
-93.85
 20
-64.325
 70
     8
  0
VERTEX
  8
ガラス
 10
-93.775
 20
-64.325
 70
     8
  0
VERTEX
  8
ガラス
 10
-93.725
 20
-64.325
 70
     8
  0
VERTEX
  8
ガラス
 10
-93.65
 20
-64.35
 70
     8
  0
VERTEX
  8
ガラス
 10
-93.6
 20
-64.35
 70
     8
  0
VERTEX
  8
ガラス
 10
-93.525
 20
-64.35
 70
     8
  0
VERTEX
  8
ガラス
 10
-93.475
 20
-64.375
 70
     8
  0
VERTEX
  8
ガラス
 10
-93.425
 20
-64.375
 70
     8
  0
VERTEX
  8
ガラス
 10
-93.35
 20
-64.375
 70
     8
  0
VERTEX
  8
ガラス
 10
-93.3
 20
-64.4
 70
     8
  0
VERTEX
  8
ガラス
 10
-93.225
 20
-64.4
 70
     8
  0
VERTEX
  8
ガラス
 10
-93.175
 20
-64.425
 70
     8
  0
VERTEX
  8
ガラス
 10
-93.125
 20
-64.425
 70
     8
  0
VERTEX
  8
ガラス
 10
-93.05
 20
-64.45
 70
     8
  0
VERTEX
  8
ガラス
 10
-93.0
 20
-64.45
 70
     8
  0
VERTEX
  8
ガラス
 10
-92.925
 20
-64.475
 70
     8
  0
VERTEX
  8
ガラス
 10
-92.875
 20
-64.475
 70
     8
  0
VERTEX
  8
ガラス
 10
-92.825
 20
-64.5
 70
     8
  0
VERTEX
  8
ガラス
 10
-92.75
 20
-64.525
 70
     8
  0
VERTEX
  8
ガラス
 10
-92.7
 20
-64.525
 70
     8
  0
VERTEX
  8
ガラス
 10
-92.65
 20
-64.55
 70
     8
  0
VERTEX
  8
ガラス
 10
-92.575
 20
-64.575
 70
     8
  0
VERTEX
  8
ガラス
 10
-92.525
 20
-64.6
 70
     8
  0
VERTEX
  8
ガラス
 10
-92.475
 20
-64.625
 70
     8
  0
VERTEX
  8
ガラス
 10
-92.4
 20
-64.625
 70
     8
  0
VERTEX
  8
ガラス
 10
-92.35
 20
-64.65
 70
     8
  0
VERTEX
  8
ガラス
 10
-92.3
 20
-64.675
 70
     8
  0
VERTEX
  8
ガラス
 10
-92.225
 20
-64.7
 70
     8
  0
VERTEX
  8
ガラス
 10
-92.175
 20
-64.725
 70
     8
  0
VERTEX
  8
ガラス
 10
-92.125
 20
-64.75
 70
     8
  0
VERTEX
  8
ガラス
 10
-92.075
 20
-64.775
 70
     8
  0
VERTEX
  8
ガラス
 10
-92.0
 20
-64.8
 70
     8
  0
VERTEX
  8
ガラス
 10
-91.95
 20
-64.825
 70
     8
  0
VERTEX
  8
ガラス
 10
-91.9
 20
-64.825
 70
     8
  0
VERTEX
  8
ガラス
 10
-91.85
 20
-64.85
 70
     8
  0
VERTEX
  8
ガラス
 10
-91.775
 20
-64.875
 70
     8
  0
SEQEND
  0
ARC
  8
ガラス
  6
CONTINUOUS
 10
-91.406856
 20
-63.987931
 40
0.955135
 50
247.735412
 51
427.735412
  0
ENDBLK
  0
BLOCK
  2
*GRP_0005
 70
    65
 10
0.0
 20
0.0
  0
POLYLINE
  8
ガラス
  6
CONTINUOUS
 66
     1
 70
     4
  0
VERTEX
  8
ガラス
 10
-76.725
 20
-63.125
 70
     8
  0
VERTEX
  8
ガラス
 10
-76.825
 20
-63.1
 70
     8
  0
VERTEX
  8
ガラス
 10
-76.925
 20
-63.1
 70
     8
  0
VERTEX
  8
ガラス
 10
-77.025
 20
-63.075
 70
     8
  0
VERTEX
  8
ガラス
 10
-77.1
 20
-63.075
 70
     8
  0
VERTEX
  8
ガラス
 10
-77.2
 20
-63.075
 70
     8
  0
VERTEX
  8
ガラス
 10
-77.3
 20
-63.05
 70
     8
  0
VERTEX
  8
ガラス
 10
-77.375
 20
-63.05
 70
     8
  0
VERTEX
  8
ガラス
 10
-77.475
 20
-63.05
 70
     8
  0
VERTEX
  8
ガラス
 10
-77.575
 20
-63.05
 70
     8
  0
VERTEX
  8
ガラス
 10
-77.65
 20
-63.05
 70
     8
  0
VERTEX
  8
ガラス
 10
-77.75
 20
-63.05
 70
     8
  0
VERTEX
  8
ガラス
 10
-77.825
 20
-63.05
 70
     8
  0
VERTEX
  8
ガラス
 10
-77.925
 20
-63.05
 70
     8
  0
VERTEX
  8
ガラス
 10
-78.0
 20
-63.05
 70
     8
  0
VERTEX
  8
ガラス
 10
-78.1
 20
-63.075
 70
     8
  0
VERTEX
  8
ガラス
 10
-78.175
 20
-63.075
 70
     8
  0
VERTEX
  8
ガラス
 10
-78.25
 20
-63.1
 70
     8
  0
VERTEX
  8
ガラス
 10
-78.325
 20
-63.125
 70
     8
  0
VERTEX
  8
ガラス
 10
-78.425
 20
-63.125
 70
     8
  0
VERTEX
  8
ガラス
 10
-78.5
 20
-63.175
 70
     8
  0
VERTEX
  8
ガラス
 10
-78.575
 20
-63.2
 70
     8
  0
VERTEX
  8
ガラス
 10
-78.65
 20
-63.225
 70
     8
  0
VERTEX
  8
ガラス
 10
-78.725
 20
-63.275
 70
     8
  0
VERTEX
  8
ガラス
 10
-78.8
 20
-63.3
 70
     8
  0
VERTEX
  8
ガラス
 10
-78.875
 20
-63.35
 70
     8
  0
VERTEX
  8
ガラス
 10
-78.925
 20
-63.4
 70
     8
  0
VERTEX
  8
ガラス
 10
-79.0
 20
-63.45
 70
     8
  0
VERTEX
  8
ガラス
 10
-79.075
 20
-63.5
 70
     8
  0
VERTEX
  8
ガラス
 10
-79.125
 20
-63.55
 70
     8
  0
VERTEX
  8
ガラス
 10
-79.2
 20
-63.625
 70
     8
  0
VERTEX
  8
ガラス
 10
-79.275
 20
-63.675
 70
     8
  0
VERTEX
  8
ガラス
 10
-79.325
 20
-63.75
 70
     8
  0
VERTEX
  8
ガラス
 10
-79.4
 20
-63.8
 70
     8
  0
VERTEX
  8
ガラス
 10
-79.45
 20
-63.875
 70
     8
  0
VERTEX
  8
ガラス
 10
-79.525
 20
-63.95
 70
     8
  0
VERTEX
  8
ガラス
 10
-79.575
 20
-64.0
 70
     8
  0
VERTEX
  8
ガラス
 10
-79.65
 20
-64.075
 70
     8
  0
VERTEX
  8
ガラス
 10
-79.7
 20
-64.15
 70
     8
  0
VERTEX
  8
ガラス
 10
-79.775
 20
-64.225
 70
     8
  0
VERTEX
  8
ガラス
 10
-79.825
 20
-64.275
 70
     8
  0
SEQEND
  0
POLYLINE
  8
ガラス
  6
CONTINUOUS
 66
     1
 70
     4
  0
VERTEX
  8
ガラス
 10
-79.825
 20
-64.275
 70
     8
  0
VERTEX
  8
ガラス
 10
-79.775
 20
-64.3
 70
     8
  0
VERTEX
  8
ガラス
 10
-79.7
 20
-64.3
 70
     8
  0
VERTEX
  8
ガラス
 10
-79.65
 20
-64.3
 70
     8
  0
VERTEX
  8
ガラス
 10
-79.575
 20
-64.3
 70
     8
  0
VERTEX
  8
ガラス
 10
-79.525
 20
-64.325
 70
     8
  0
VERTEX
  8
ガラス
 10
-79.45
 20
-64.325
 70
     8
  0
VERTEX
  8
ガラス
 10
-79.4
 20
-64.325
 70
     8
  0
VERTEX
  8
ガラス
 10
-79.325
 20
-64.35
 70
     8
  0
VERTEX
  8
ガラス
 10
-79.275
 20
-64.35
 70
     8
  0
VERTEX
  8
ガラス
 10
-79.225
 20
-64.35
 70
     8
  0
VERTEX
  8
ガラス
 10
-79.15
 20
-64.375
 70
     8
  0
VERTEX
  8
ガラス
 10
-79.1
 20
-64.375
 70
     8
  0
VERTEX
  8
ガラス
 10
-79.025
 20
-64.375
 70
     8
  0
VERTEX
  8
ガラス
 10
-78.975
 20
-64.4
 70
     8
  0
VERTEX
  8
ガラス
 10
-78.925
 20
-64.4
 70
     8
  0
VERTEX
  8
ガラス
 10
-78.85
 20
-64.425
 70
     8
  0
VERTEX
  8
ガラス
 10
-78.8
 20
-64.425
 70
     8
  0
VERTEX
  8
ガラス
 10
-78.725
 20
-64.45
 70
     8
  0
VERTEX
  8
ガラス
 10
-78.675
 20
-64.45
 70
     8
  0
VERTEX
  8
ガラス
 10
-78.625
 20
-64.475
 70
     8
  0
VERTEX
  8
ガラス
 10
-78.55
 20
-64.475
 70
     8
  0
VERTEX
  8
ガラス
 10
-78.5
 20
-64.5
 70
     8
  0
VERTEX
  8
ガラス
 10
-78.425
 20
-64.525
 70
     8
  0
VERTEX
  8
ガラス
 10
-78.375
 20
-64.525
 70
     8
  0
VERTEX
  8
ガラス
 10
-78.325
 20
-64.55
 70
     8
  0
VERTEX
  8
ガラス
 10
-78.275
 20
-64.575
 70
     8
  0
VERTEX
  8
ガラス
 10
-78.2
 20
-64.6
 70
     8
  0
VERTEX
  8
ガラス
 10
-78.15
 20
-64.625
 70
     8
  0
VERTEX
  8
ガラス
 10
-78.1
 20
-64.625
 70
     8
  0
VERTEX
  8
ガラス
 10
-78.025
 20
-64.65
 70
     8
  0
VERTEX
  8
ガラス
 10
-77.975
 20
-64.675
 70
     8
  0
VERTEX
  8
ガラス
 10
-77.925
 20
-64.7
 70
     8
  0
VERTEX
  8
ガラス
 10
-77.85
 20
-64.725
 70
     8
  0
VERTEX
  8
ガラス
 10
-77.8
 20
-64.75
 70
     8
  0
VERTEX
  8
ガラス
 10
-77.75
 20
-64.775
 70
     8
  0
VERTEX
  8
ガラス
 10
-77.7
 20
-64.8
 70
     8
  0
VERTEX
  8
ガラス
 10
-77.625
 20
-64.825
 70
     8
  0
VERTEX
  8
ガラス
 10
-77.575
 20
-64.825
 70
     8
  0
VERTEX
  8
ガラス
 10
-77.525
 20
-64.85
 70
     8
  0
VERTEX
  8
ガラス
 10
-77.45
 20
-64.875
 70
     8
  0
SEQEND
  0
ARC
  8
ガラス
  6
CONTINUOUS
 10
-77.086468
 20
-63.987931
 40
0.955135
 50
247.735412
 51
427.735412
  0
ENDBLK
  0
BLOCK
  2
*GRP_0006
 70
    65
 10
0.0
 20
0.0
  0
POLYLINE
  8
ガラス
  6
CONTINUOUS
 66
     1
 70
     4
  0
VERTEX
  8
ガラス
 10
-59.25
 20
-63.125
 70
     8
  0
VERTEX
  8
ガラス
 10
-59.325
 20
-63.1
 70
     8
  0
VERTEX
  8
ガラス
 10
-59.425
 20
-63.1
 70
     8
  0
VERTEX
  8
ガラス
 10
-59.525
 20
-63.075
 70
     8
  0
VERTEX
  8
ガラス
 10
-59.6
 20
-63.075
 70
     8
  0
VERTEX
  8
ガラス
 10
-59.7
 20
-63.075
 70
     8
  0
VERTEX
  8
ガラス
 10
-59.8
 20
-63.05
 70
     8
  0
VERTEX
  8
ガラス
 10
-59.875
 20
-63.05
 70
     8
  0
VERTEX
  8
ガラス
 10
-59.975
 20
-63.05
 70
     8
  0
VERTEX
  8
ガラス
 10
-60.075
 20
-63.05
 70
     8
  0
VERTEX
  8
ガラス
 10
-60.15
 20
-63.05
 70
     8
  0
VERTEX
  8
ガラス
 10
-60.25
 20
-63.05
 70
     8
  0
VERTEX
  8
ガラス
 10
-60.325
 20
-63.05
 70
     8
  0
VERTEX
  8
ガラス
 10
-60.425
 20
-63.05
 70
     8
  0
VERTEX
  8
ガラス
 10
-60.5
 20
-63.05
 70
     8
  0
VERTEX
  8
ガラス
 10
-60.6
 20
-63.075
 70
     8
  0
VERTEX
  8
ガラス
 10
-60.675
 20
-63.075
 70
     8
  0
VERTEX
  8
ガラス
 10
-60.75
 20
-63.1
 70
     8
  0
VERTEX
  8
ガラス
 10
-60.85
 20
-63.125
 70
     8
  0
VERTEX
  8
ガラス
 10
-60.925
 20
-63.125
 70
     8
  0
VERTEX
  8
ガラス
 10
-61.0
 20
-63.175
 70
     8
  0
VERTEX
  8
ガラス
 10
-61.075
 20
-63.2
 70
     8
  0
VERTEX
  8
ガラス
 10
-61.15
 20
-63.225
 70
     8
  0
VERTEX
  8
ガラス
 10
-61.225
 20
-63.275
 70
     8
  0
VERTEX
  8
ガラス
 10
-61.3
 20
-63.3
 70
     8
  0
VERTEX
  8
ガラス
 10
-61.375
 20
-63.35
 70
     8
  0
VERTEX
  8
ガラス
 10
-61.425
 20
-63.4
 70
     8
  0
VERTEX
  8
ガラス
 10
-61.5
 20
-63.45
 70
     8
  0
VERTEX
  8
ガラス
 10
-61.575
 20
-63.5
 70
     8
  0
VERTEX
  8
ガラス
 10
-61.65
 20
-63.55
 70
     8
  0
VERTEX
  8
ガラス
 10
-61.7
 20
-63.625
 70
     8
  0
VERTEX
  8
ガラス
 10
-61.775
 20
-63.675
 70
     8
  0
VERTEX
  8
ガラス
 10
-61.825
 20
-63.75
 70
     8
  0
VERTEX
  8
ガラス
 10
-61.9
 20
-63.8
 70
     8
  0
VERTEX
  8
ガラス
 10
-61.95
 20
-63.875
 70
     8
  0
VERTEX
  8
ガラス
 10
-62.025
 20
-63.95
 70
     8
  0
VERTEX
  8
ガラス
 10
-62.075
 20
-64.0
 70
     8
  0
VERTEX
  8
ガラス
 10
-62.15
 20
-64.075
 70
     8
  0
VERTEX
  8
ガラス
 10
-62.2
 20
-64.15
 70
     8
  0
VERTEX
  8
ガラス
 10
-62.275
 20
-64.225
 70
     8
  0
VERTEX
  8
ガラス
 10
-62.325
 20
-64.275
 70
     8
  0
SEQEND
  0
POLYLINE
  8
ガラス
  6
CONTINUOUS
 66
     1
 70
     4
  0
VERTEX
  8
ガラス
 10
-62.325
 20
-64.275
 70
     8
  0
VERTEX
  8
ガラス
 10
-62.275
 20
-64.3
 70
     8
  0
VERTEX
  8
ガラス
 10
-62.2
 20
-64.3
 70
     8
  0
VERTEX
  8
ガラス
 10
-62.15
 20
-64.3
 70
     8
  0
VERTEX
  8
ガラス
 10
-62.075
 20
-64.3
 70
     8
  0
VERTEX
  8
ガラス
 10
-62.025
 20
-64.325
 70
     8
  0
VERTEX
  8
ガラス
 10
-61.975
 20
-64.325
 70
     8
  0
VERTEX
  8
ガラス
 10
-61.9
 20
-64.325
 70
     8
  0
VERTEX
  8
ガラス
 10
-61.85
 20
-64.35
 70
     8
  0
VERTEX
  8
ガラス
 10
-61.775
 20
-64.35
 70
     8
  0
VERTEX
  8
ガラス
 10
-61.725
 20
-64.35
 70
     8
  0
VERTEX
  8
ガラス
 10
-61.65
 20
-64.375
 70
     8
  0
VERTEX
  8
ガラス
 10
-61.6
 20
-64.375
 70
     8
  0
VERTEX
  8
ガラス
 10
-61.525
 20
-64.375
 70
     8
  0
VERTEX
  8
ガラス
 10
-61.475
 20
-64.4
 70
     8
  0
VERTEX
  8
ガラス
 10
-61.425
 20
-64.4
 70
     8
  0
VERTEX
  8
ガラス
 10
-61.35
 20
-64.425
 70
     8
  0
VERTEX
  8
ガラス
 10
-61.3
 20
-64.425
 70
     8
  0
VERTEX
  8
ガラス
 10
-61.225
 20
-64.45
 70
     8
  0
VERTEX
  8
ガラス
 10
-61.175
 20
-64.45
 70
     8
  0
VERTEX
  8
ガラス
 10
-61.125
 20
-64.475
 70
     8
  0
VERTEX
  8
ガラス
 10
-61.05
 20
-64.475
 70
     8
  0
VERTEX
  8
ガラス
 10
-61.0
 20
-64.5
 70
     8
  0
VERTEX
  8
ガラス
 10
-60.95
 20
-64.525
 70
     8
  0
VERTEX
  8
ガラス
 10
-60.875
 20
-64.525
 70
     8
  0
VERTEX
  8
ガラス
 10
-60.825
 20
-64.55
 70
     8
  0
VERTEX
  8
ガラス
 10
-60.775
 20
-64.575
 70
     8
  0
VERTEX
  8
ガラス
 10
-60.7
 20
-64.6
 70
     8
  0
VERTEX
  8
ガラス
 10
-60.65
 20
-64.625
 70
     8
  0
VERTEX
  8
ガラス
 10
-60.6
 20
-64.625
 70
     8
  0
VERTEX
  8
ガラス
 10
-60.525
 20
-64.65
 70
     8
  0
VERTEX
  8
ガラス
 10
-60.475
 20
-64.675
 70
     8
  0
VERTEX
  8
ガラス
 10
-60.425
 20
-64.7
 70
     8
  0
VERTEX
  8
ガラス
 10
-60.375
 20
-64.725
 70
     8
  0
VERTEX
  8
ガラス
 10
-60.3
 20
-64.75
 70
     8
  0
VERTEX
  8
ガラス
 10
-60.25
 20
-64.775
 70
     8
  0
VERTEX
  8
ガラス
 10
-60.2
 20
-64.8
 70
     8
  0
VERTEX
  8
ガラス
 10
-60.125
 20
-64.825
 70
     8
  0
VERTEX
  8
ガラス
 10
-60.075
 20
-64.825
 70
     8
  0
VERTEX
  8
ガラス
 10
-60.025
 20
-64.85
 70
     8
  0
VERTEX
  8
ガラス
 10
-59.975
 20
-64.875
 70
     8
  0
SEQEND
  0
ARC
  8
ガラス
  6
CONTINUOUS
 10
-59.589962
 20
-63.987931
 40
0.955135
 50
247.735412
 51
427.735412
  0
ENDBLK
  0
BLOCK
  2
*GRP_0007
 70
    65
 10
0.0
 20
0.0
  0
POLYLINE
  8
ガラス
  6
CONTINUOUS
 66
     1
 70
     4
  0
VERTEX
  8
ガラス
 10
-45.25
 20
-63.125
 70
     8
  0
VERTEX
  8
ガラス
 10
-45.35
 20
-63.1
 70
     8
  0
VERTEX
  8
ガラス
 10
-45.45
 20
-63.1
 70
     8
  0
VERTEX
  8
ガラス
 10
-45.525
 20
-63.075
 70
     8
  0
VERTEX
  8
ガラス
 10
-45.625
 20
-63.075
 70
     8
  0
VERTEX
  8
ガラス
 10
-45.725
 20
-63.075
 70
     8
  0
VERTEX
  8
ガラス
 10
-45.8
 20
-63.05
 70
     8
  0
VERTEX
  8
ガラス
 10
-45.9
 20
-63.05
 70
     8
  0
VERTEX
  8
ガラス
 10
-46.0
 20
-63.05
 70
     8
  0
VERTEX
  8
ガラス
 10
-46.075
 20
-63.05
 70
     8
  0
VERTEX
  8
ガラス
 10
-46.175
 20
-63.05
 70
     8
  0
VERTEX
  8
ガラス
 10
-46.25
 20
-63.05
 70
     8
  0
VERTEX
  8
ガラス
 10
-46.35
 20
-63.05
 70
     8
  0
VERTEX
  8
ガラス
 10
-46.425
 20
-63.05
 70
     8
  0
VERTEX
  8
ガラス
 10
-46.525
 20
-63.05
 70
     8
  0
VERTEX
  8
ガラス
 10
-46.6
 20
-63.075
 70
     8
  0
VERTEX
  8
ガラス
 10
-46.7
 20
-63.075
 70
     8
  0
VERTEX
  8
ガラス
 10
-46.775
 20
-63.1
 70
     8
  0
VERTEX
  8
ガラス
 10
-46.85
 20
-63.125
 70
     8
  0
VERTEX
  8
ガラス
 10
-46.925
 20
-63.125
 70
     8
  0
VERTEX
  8
ガラス
 10
-47.0
 20
-63.175
 70
     8
  0
VERTEX
  8
ガラス
 10
-47.1
 20
-63.2
 70
     8
  0
VERTEX
  8
ガラス
 10
-47.175
 20
-63.225
 70
     8
  0
VERTEX
  8
ガラス
 10
-47.25
 20
-63.275
 70
     8
  0
VERTEX
  8
ガラス
 10
-47.3
 20
-63.3
 70
     8
  0
VERTEX
  8
ガラス
 10
-47.375
 20
-63.35
 70
     8
  0
VERTEX
  8
ガラス
 10
-47.45
 20
-63.4
 70
     8
  0
VERTEX
  8
ガラス
 10
-47.525
 20
-63.45
 70
     8
  0
VERTEX
  8
ガラス
 10
-47.575
 20
-63.5
 70
     8
  0
VERTEX
  8
ガラス
 10
-47.65
 20
-63.55
 70
     8
  0
VERTEX
  8
ガラス
 10
-47.725
 20
-63.625
 70
     8
  0
VERTEX
  8
ガラス
 10
-47.775
 20
-63.675
 70
     8
  0
VERTEX
  8
ガラス
 10
-47.85
 20
-63.75
 70
     8
  0
VERTEX
  8
ガラス
 10
-47.9
 20
-63.8
 70
     8
  0
VERTEX
  8
ガラス
 10
-47.975
 20
-63.875
 70
     8
  0
VERTEX
  8
ガラス
 10
-48.025
 20
-63.95
 70
     8
  0
VERTEX
  8
ガラス
 10
-48.1
 20
-64.0
 70
     8
  0
VERTEX
  8
ガラス
 10
-48.15
 20
-64.075
 70
     8
  0
VERTEX
  8
ガラス
 10
-48.225
 20
-64.15
 70
     8
  0
VERTEX
  8
ガラス
 10
-48.275
 20
-64.225
 70
     8
  0
VERTEX
  8
ガラス
 10
-48.35
 20
-64.275
 70
     8
  0
SEQEND
  0
POLYLINE
  8
ガラス
  6
CONTINUOUS
 66
     1
 70
     4
  0
VERTEX
  8
ガラス
 10
-48.35
 20
-64.275
 70
     8
  0
VERTEX
  8
ガラス
 10
-48.275
 20
-64.3
 70
     8
  0
VERTEX
  8
ガラス
 10
-48.225
 20
-64.3
 70
     8
  0
VERTEX
  8
ガラス
 10
-48.15
 20
-64.3
 70
     8
  0
VERTEX
  8
ガラス
 10
-48.1
 20
-64.3
 70
     8
  0
VERTEX
  8
ガラス
 10
-48.05
 20
-64.325
 70
     8
  0
VERTEX
  8
ガラス
 10
-47.975
 20
-64.325
 70
     8
  0
VERTEX
  8
ガラス
 10
-47.925
 20
-64.325
 70
     8
  0
VERTEX
  8
ガラス
 10
-47.85
 20
-64.35
 70
     8
  0
VERTEX
  8
ガラス
 10
-47.8
 20
-64.35
 70
     8
  0
VERTEX
  8
ガラス
 10
-47.725
 20
-64.35
 70
     8
  0
VERTEX
  8
ガラス
 10
-47.675
 20
-64.375
 70
     8
  0
VERTEX
  8
ガラス
 10
-47.6
 20
-64.375
 70
     8
  0
VERTEX
  8
ガラス
 10
-47.55
 20
-64.375
 70
     8
  0
VERTEX
  8
ガラス
 10
-47.5
 20
-64.4
 70
     8
  0
VERTEX
  8
ガラス
 10
-47.425
 20
-64.4
 70
     8
  0
VERTEX
  8
ガラス
 10
-47.375
 20
-64.425
 70
     8
  0
VERTEX
  8
ガラス
 10
-47.3
 20
-64.425
 70
     8
  0
VERTEX
  8
ガラス
 10
-47.25
 20
-64.45
 70
     8
  0
VERTEX
  8
ガラス
 10
-47.2
 20
-64.45
 70
     8
  0
VERTEX
  8
ガラス
 10
-47.125
 20
-64.475
 70
     8
  0
VERTEX
  8
ガラス
 10
-47.075
 20
-64.475
 70
     8
  0
VERTEX
  8
ガラス
 10
-47.025
 20
-64.5
 70
     8
  0
VERTEX
  8
ガラス
 10
-46.95
 20
-64.525
 70
     8
  0
VERTEX
  8
ガラス
 10
-46.9
 20
-64.525
 70
     8
  0
VERTEX
  8
ガラス
 10
-46.85
 20
-64.55
 70
     8
  0
VERTEX
  8
ガラス
 10
-46.775
 20
-64.575
 70
     8
  0
VERTEX
  8
ガラス
 10
-46.725
 20
-64.6
 70
     8
  0
VERTEX
  8
ガラス
 10
-46.675
 20
-64.625
 70
     8
  0
VERTEX
  8
ガラス
 10
-46.6
 20
-64.625
 70
     8
  0
VERTEX
  8
ガラス
 10
-46.55
 20
-64.65
 70
     8
  0
VERTEX
  8
ガラス
 10
-46.5
 20
-64.675
 70
     8
  0
VERTEX
  8
ガラス
 10
-46.425
 20
-64.7
 70
     8
  0
VERTEX
  8
ガラス
 10
-46.375
 20
-64.725
 70
     8
  0
VERTEX
  8
ガラス
 10
-46.325
 20
-64.75
 70
     8
  0
VERTEX
  8
ガラス
 10
-46.275
 20
-64.775
 70
     8
  0
VERTEX
  8
ガラス
 10
-46.2
 20
-64.8
 70
     8
  0
VERTEX
  8
ガラス
 10
-46.15
 20
-64.825
 70
     8
  0
VERTEX
  8
ガラス
 10
-46.1
 20
-64.825
 70
     8
  0
VERTEX
  8
ガラス
 10
-46.025
 20
-64.85
 70
     8
  0
VERTEX
  8
ガラス
 10
-45.975
 20
-64.875
 70
     8
  0
SEQEND
  0
ARC
  8
ガラス
  6
CONTINUOUS
 10
-45.603902
 20
-63.987931
 40
0.955135
 50
247.735412
 51
427.735412
  0
ENDBLK
  0
BLOCK
  2
*GRP_0008
 70
    65
 10
0.0
 20
0.0
  0
INSERT
  2
*HAT_0001
  8
ゴム等
 10
0.0
 20
0.0
  0
LINE
  8
ゴム等
  6
CONTINUOUS
 10
-50.884767
 20
-5.083798
 11
-50.884767
 21
-11.083798
  0
LINE
  8
ゴム等
  6
CONTINUOUS
 10
-50.884767
 20
-11.083798
 11
-35.884767
 21
-11.083798
  0
LINE
  8
ゴム等
  6
CONTINUOUS
 10
-35.884767
 20
-11.083798
 11
-35.884767
 21
-5.083798
  0
LINE
  8
ゴム等
  6
CONTINUOUS
 10
-50.884767
 20
-5.083798
 11
-35.884767
 21
-5.083798
  0
ENDBLK
  0
BLOCK
  2
*GRP_0009
 70
    65
 10
0.0
 20
0.0
  0
INSERT
  2
*HAT_0002
  8
ゴム等
 10
0.0
 20
0.0
  0
LINE
  8
ゴム等
  6
CONTINUOUS
 10
-12.890135
 20
-2.084173
 11
-19.88921
 21
-2.084173
  0
LINE
  8
ゴム等
  6
CONTINUOUS
 10
-19.88921
 20
-2.084173
 11
-18.389235
 21
-5.084173
  0
LINE
  8
ゴム等
  6
CONTINUOUS
 10
-12.890135
 20
-2.084173
 11
-14.389935
 21
-5.083798
  0
LINE
  8
ゴム等
  6
CONTINUOUS
 10
-12.389685
 20
-5.083798
 11
-14.389935
 21
-5.083798
  0
ARC
  8
ゴム等
  6
CONTINUOUS
 10
-12.389691
 20
-7.08377
 40
2.0
 50
0.0
 51
90.0
  0
LINE
  8
ゴム等
  6
CONTINUOUS
 10
-10.38966
 20
-9.083773
 11
-10.38966
 21
-7.083773
  0
ARC
  8
ゴム等
  6
CONTINUOUS
 10
-12.389691
 20
-9.08377
 40
2.0
 50
270.0
 51
360.0
  0
LINE
  8
ゴム等
  6
CONTINUOUS
 10
-12.389685
 20
-11.083798
 11
-20.389685
 21
-11.083798
  0
ARC
  8
ゴム等
  6
CONTINUOUS
 10
-20.389691
 20
-9.08377
 40
2.0
 50
180.0
 51
270.0
  0
LINE
  8
ゴム等
  6
CONTINUOUS
 10
-22.38966
 20
-9.083773
 11
-22.38966
 21
-7.084173
  0
LINE
  8
ゴム等
  6
CONTINUOUS
 10
-20.389685
 20
-5.084173
 11
-18.389235
 21
-5.084173
  0
ARC
  8
ゴム等
  6
CONTINUOUS
 10
-20.389691
 20
-7.08416
 40
2.0
 50
90.0
 51
180.0
  0
ARC
  8
ゴム等
  6
CONTINUOUS
 10
-12.389689
 20
-7.083768
 40
1.0
 50
0.0
 51
90.0
  0
LINE
  8
ゴム等
  6
CONTINUOUS
 10
-11.389685
 20
-9.083798
 11
-11.389685
 21
-7.083773
  0
ARC
  8
ゴム等
  6
CONTINUOUS
 10
-12.389689
 20
-9.083773
 40
1.0
 50
270.0
 51
360.0
  0
LINE
  8
ゴム等
  6
CONTINUOUS
 10
-20.389685
 20
-10.083773
 11
-12.38966
 21
-10.083773
  0
ARC
  8
ゴム等
  6
CONTINUOUS
 10
-20.389694
 20
-9.083773
 40
1.0
 50
180.0
 51
270.0
  0
LINE
  8
ゴム等
  6
CONTINUOUS
 10
-21.389685
 20
-7.083773
 11
-21.389685
 21
-9.083798
  0
LINE
  8
ゴム等
  6
CONTINUOUS
 10
-20.389685
 20
-6.083773
 11
-12.38966
 21
-6.083773
  0
ARC
  8
ゴム等
  6
CONTINUOUS
 10
-20.389694
 20
-7.083768
 40
1.0
 50
90.0
 51
180.0
  0
ENDBLK
  0
BLOCK
  2
*GRP_0010
 70
    65
 10
0.0
 20
0.0
  0
LINE
  8
ゴム等
  6
DOT
 10
-74.585225
 20
88.015547
 11
-78.085085
 21
88.01557
  0
LINE
  8
ゴム等
  6
DOT
 10
-82.08521
 20
93.515883
 11
-78.085115
 21
93.515875
  0
LINE
  8
ゴム等
  6
DOT
 10
-78.085085
 20
88.01557
 11
-78.085115
 21
93.515875
  0
LINE
  8
ゴム等
  6
DOT
 10
-82.085113
 20
93.515905
 11
-82.08512
 21
64.01569
  0
LINE
  8
ゴム等
  6
DOT
 10
-78.585222
 20
64.015682
 11
-74.585232
 21
68.015673
  0
LINE
  8
ゴム等
  6
DOT
 10
-82.08521
 20
93.515883
 11
-75.396035
 21
67.20487
  0
LINE
  8
ゴム等
  6
DOT
 10
-74.585225
 20
88.015547
 11
-74.585232
 21
68.015673
  0
LINE
  8
ゴム等
  6
DOT
 10
-82.08512
 20
64.01569
 11
-78.585222
 21
64.015682
  0
ENDBLK
  0
BLOCK
  2
*GRP_0011
 70
    65
 10
0.0
 20
0.0
  0
LINE
  8
ボルト／ビス
  6
CONTINUOUS
 62
    64
 10
-60.180738
 20
-83.284353
 11
-64.180738
 21
-83.284353
  0
LINE
  8
ボルト／ビス
  6
CONTINUOUS
 62
    64
 10
-59.180738
 20
-85.084353
 11
-60.180738
 21
-83.284353
  0
LINE
  8
ボルト／ビス
  6
CONTINUOUS
 62
    64
 10
-59.180738
 20
-85.084353
 11
-65.180738
 21
-85.084353
  0
LINE
  8
ボルト／ビス
  6
CONTINUOUS
 62
    64
 10
-65.180738
 20
-85.084353
 11
-64.180738
 21
-83.284353
  0
LINE
  8
ボルト／ビス
  6
CONTINUOUS
 62
    64
 10
-62.180738
 20
-86.567885
 11
-62.180738
 21
-76.205325
  0
LINE
  8
ボルト／ビス
  6
CONTINUOUS
 62
    64
 10
-60.180738
 20
-77.584353
 11
-60.680738
 21
-77.084353
  0
LINE
  8
ボルト／ビス
  6
CONTINUOUS
 62
    64
 10
-64.180738
 20
-77.584353
 11
-63.680738
 21
-77.084353
  0
LINE
  8
ボルト／ビス
  6
CONTINUOUS
 62
    64
 10
-60.680738
 20
-77.084353
 11
-63.680738
 21
-77.084353
  0
LINE
  8
ボルト／ビス
  6
CONTINUOUS
 62
    64
 10
-60.180738
 20
-77.584353
 11
-64.180738
 21
-77.584353
  0
LINE
  8
ボルト／ビス
  6
CONTINUOUS
 62
    64
 10
-60.680738
 20
-83.284353
 11
-60.680738
 21
-77.084353
  0
LINE
  8
ボルト／ビス
  6
CONTINUOUS
 62
    64
 10
-63.680738
 20
-83.284353
 11
-63.680738
 21
-77.084353
  0
LINE
  8
ボルト／ビス
  6
CONTINUOUS
 62
    64
 10
-64.180738
 20
-83.284353
 11
-64.180738
 21
-77.584353
  0
LINE
  8
ボルト／ビス
  6
CONTINUOUS
 62
    64
 10
-60.180738
 20
-83.284353
 11
-60.180738
 21
-77.584353
  0
ENDBLK
  0
BLOCK
  2
*GRP_0012
 70
    65
 10
0.0
 20
0.0
  0
LINE
  8
ボルト／ビス
  6
CONTINUOUS
 62
    64
 10
-52.68505
 20
59.214812
 11
-51.636885
 21
59.306517
  0
ARC
  8
ボルト／ビス
  6
CONTINUOUS
 62
    64
 10
-51.785054
 20
61.00005
 40
1.7
 50
274.999989
 51
360.0
  0
LINE
  8
ボルト／ビス
  6
CONTINUOUS
 62
    64
 10
-50.08505
 20
61.000048
 11
-50.08505
 21
62.714812
  0
LINE
  8
ボルト／ビス
  6
CONTINUOUS
 62
    64
 10
-52.68505
 20
66.214812
 11
-51.636885
 21
66.123113
  0
ARC
  8
ボルト／ビス
  6
CONTINUOUS
 62
    64
 10
-51.785054
 20
64.429583
 40
1.7
 50
0.0
 51
85.000011
  0
LINE
  8
ボルト／ビス
  6
CONTINUOUS
 62
    64
 10
-50.08505
 20
64.429582
 11
-50.08505
 21
62.714812
  0
LINE
  8
ボルト／ビス
  6
CONTINUOUS
 62
    64
 10
-50.469955
 20
60.318173
 11
-50.227795
 21
60.318173
  0
LINE
  8
ボルト／ビス
  6
CONTINUOUS
 62
    64
 10
-51.12004
 20
62.014812
 11
-51.12004
 21
62.714812
  0
LINE
  8
ボルト／ビス
  6
CONTINUOUS
 62
    64
 10
-50.469955
 20
61.614812
 11
-50.469955
 21
60.318173
  0
LINE
  8
ボルト／ビス
  6
CONTINUOUS
 62
    64
 10
-51.12004
 20
62.014812
 11
-50.869955
 21
62.014812
  0
ARC
  8
ボルト／ビス
  6
CONTINUOUS
 62
    64
 10
-50.869959
 20
61.614816
 40
0.4
 50
0.0
 51
90.0
  0
LINE
  8
ボルト／ビス
  6
CONTINUOUS
 62
    64
 10
-50.469955
 20
65.111453
 11
-50.227795
 21
65.111453
  0
LINE
  8
ボルト／ビス
  6
CONTINUOUS
 62
    64
 10
-51.12004
 20
63.414812
 11
-51.12004
 21
62.714812
  0
LINE
  8
ボルト／ビス
  6
CONTINUOUS
 62
    64
 10
-50.469955
 20
63.814812
 11
-50.469955
 21
65.111453
  0
LINE
  8
ボルト／ビス
  6
CONTINUOUS
 62
    64
 10
-51.12004
 20
63.414812
 11
-50.869955
 21
63.414812
  0
ARC
  8
ボルト／ビス
  6
CONTINUOUS
 62
    64
 10
-50.869959
 20
63.814816
 40
0.4
 50
270.0
 51
360.0
  0
LINE
  8
ボルト／ビス
  6
CONTINUOUS
 62
    64
 10
-52.68505
 20
59.214812
 11
-52.68505
 21
66.214812
  0
LINE
  8
ボルト／ビス
  6
CONTINUOUS
 62
    64
 10
-62.18505
 20
60.714812
 11
-62.68505
 21
61.214812
  0
LINE
  8
ボルト／ビス
  6
CONTINUOUS
 62
    64
 10
-62.18505
 20
64.714812
 11
-62.68505
 21
64.214812
  0
LINE
  8
ボルト／ビス
  6
CONTINUOUS
 62
    64
 10
-62.18505
 20
60.714812
 11
-62.18505
 21
64.714812
  0
LINE
  8
ボルト／ビス
  6
CONTINUOUS
 62
    64
 10
-62.68505
 20
61.214812
 11
-62.68505
 21
64.214812
  0
LINE
  8
ボルト／ビス
  6
CONTINUOUS
 62
    64
 10
-48.113665
 20
62.714812
 11
-64.259925
 21
62.714812
  0
LINE
  8
ボルト／ビス
  6
CONTINUOUS
 62
    64
 10
-52.68505
 20
60.714812
 11
-62.18505
 21
60.714812
  0
LINE
  8
ボルト／ビス
  6
CONTINUOUS
 62
    64
 10
-52.68505
 20
64.714812
 11
-62.18505
 21
64.714812
  0
LINE
  8
ボルト／ビス
  6
CONTINUOUS
 62
    64
 10
-52.68505
 20
64.214812
 11
-62.68505
 21
64.214812
  0
LINE
  8
ボルト／ビス
  6
CONTINUOUS
 62
    64
 10
-52.68505
 20
61.214812
 11
-62.68505
 21
61.214812
  0
ENDBLK
  0
BLOCK
  2
*GRP_0013
 70
    65
 10
0.0
 20
0.0
  0
LINE
  8
ボルト／ビス
  6
CONTINUOUS
 62
    64
 10
8.419023
 20
-83.284477
 11
4.419023
 21
-83.284477
  0
LINE
  8
ボルト／ビス
  6
CONTINUOUS
 62
    64
 10
9.419023
 20
-85.084477
 11
8.419023
 21
-83.284477
  0
LINE
  8
ボルト／ビス
  6
CONTINUOUS
 62
    64
 10
9.419023
 20
-85.084477
 11
3.419023
 21
-85.084477
  0
LINE
  8
ボルト／ビス
  6
CONTINUOUS
 62
    64
 10
3.419023
 20
-85.084477
 11
4.419023
 21
-83.284477
  0
LINE
  8
ボルト／ビス
  6
CONTINUOUS
 62
    64
 10
6.419023
 20
-86.56801
 11
6.419023
 21
-76.20545
  0
LINE
  8
ボルト／ビス
  6
CONTINUOUS
 62
    64
 10
8.419023
 20
-77.584477
 11
7.919023
 21
-77.084477
  0
LINE
  8
ボルト／ビス
  6
CONTINUOUS
 62
    64
 10
4.419023
 20
-77.584477
 11
4.919023
 21
-77.084477
  0
LINE
  8
ボルト／ビス
  6
CONTINUOUS
 62
    64
 10
7.919023
 20
-77.084477
 11
4.919023
 21
-77.084477
  0
LINE
  8
ボルト／ビス
  6
CONTINUOUS
 62
    64
 10
8.419023
 20
-77.584477
 11
4.419023
 21
-77.584477
  0
LINE
  8
ボルト／ビス
  6
CONTINUOUS
 62
    64
 10
7.919023
 20
-83.284477
 11
7.919023
 21
-77.084477
  0
LINE
  8
ボルト／ビス
  6
CONTINUOUS
 62
    64
 10
4.919023
 20
-83.284477
 11
4.919023
 21
-77.084477
  0
LINE
  8
ボルト／ビス
  6
CONTINUOUS
 62
    64
 10
4.419023
 20
-83.284477
 11
4.419023
 21
-77.584477
  0
LINE
  8
ボルト／ビス
  6
CONTINUOUS
 62
    64
 10
8.419023
 20
-83.284477
 11
8.419023
 21
-77.584477
  0
ENDBLK
  0
BLOCK
  2
*GRP_0014
 70
    65
 10
0.0
 20
0.0
  0
LINE
  8
ボルト／ビス
  6
CONTINUOUS
 62
    64
 10
-34.101987
 20
-21.794045
 11
-35.064238
 21
-21.443818
  0
ARC
  8
ボルト／ビス
  6
CONTINUOUS
 62
    64
 10
-33.620859
 20
-18.644689
 40
3.149353
 50
270.0
 51
297.278033
  0
ARC
  8
ボルト／ビス
  6
CONTINUOUS
 62
    64
 10
-29.290731
 20
-9.721974
 40
12.072067
 50
256.165015
 51
283.834998
  0
LINE
  8
ボルト／ビス
  6
CONTINUOUS
 62
    64
 10
-24.479472
 20
-21.794045
 11
-23.517223
 21
-21.443818
  0
ARC
  8
ボルト／ビス
  6
CONTINUOUS
 62
    64
 10
-24.960604
 20
-18.644689
 40
3.149353
 50
242.721967
 51
270.0
  0
LINE
  8
ボルト／ビス
  6
CONTINUOUS
 62
    64
 10
-34.101987
 20
-21.794045
 11
-24.479472
 21
-21.794045
  0
LINE
  8
ボルト／ビス
  6
CONTINUOUS
 62
    64
 10
-23.517223
 20
-21.443818
 11
-23.517223
 21
-17.794048
  0
LINE
  8
ボルト／ビス
  6
CONTINUOUS
 62
    64
 10
-26.403972
 20
-21.443818
 11
-26.403972
 21
-17.794048
  0
LINE
  8
ボルト／ビス
  6
CONTINUOUS
 62
    64
 10
-35.064238
 20
-21.443818
 11
-35.064238
 21
-17.794048
  0
LINE
  8
ボルト／ビス
  6
CONTINUOUS
 62
    64
 10
-32.177473
 20
-21.443818
 11
-32.177473
 21
-17.794048
  0
LINE
  8
ボルト／ビス
  6
CONTINUOUS
 62
    64
 10
-23.117225
 20
-16.294048
 11
-23.117225
 21
-17.794048
  0
LINE
  8
ボルト／ビス
  6
CONTINUOUS
 62
    64
 10
-22.290725
 20
-15.394048
 11
-22.290725
 21
-16.294048
  0
LINE
  8
ボルト／ビス
  6
CONTINUOUS
 62
    64
 10
-35.464228
 20
-16.294048
 11
-35.464228
 21
-17.794048
  0
LINE
  8
ボルト／ビス
  6
CONTINUOUS
 62
    64
 10
-36.290727
 20
-15.394048
 11
-36.290727
 21
-16.294048
  0
LINE
  8
ボルト／ビス
  6
CONTINUOUS
 62
    64
 10
-22.290725
 20
-16.294048
 11
-36.290727
 21
-16.294048
  0
LINE
  8
ボルト／ビス
  6
CONTINUOUS
 62
    64
 10
-22.290725
 20
-15.394048
 11
-36.290727
 21
-15.394048
  0
LINE
  8
ボルト／ビス
  6
CONTINUOUS
 62
    64
 10
-23.117225
 20
-17.794048
 11
-35.464228
 21
-17.794048
  0
LINE
  8
ボルト／ビス
  6
CONTINUOUS
 62
    64
 10
-29.290722
 20
-16.294048
 11
-29.290722
 21
-17.794048
  0
LINE
  8
ボルト／ビス
  6
CONTINUOUS
 62
    64
 10
-26.290722
 20
-8.794048
 11
-26.990727
 21
-7.794042
  0
LINE
  8
ボルト／ビス
  6
CONTINUOUS
 62
    64
 10
-32.290722
 20
-8.794048
 11
-31.590725
 21
-7.794042
  0
LINE
  8
ボルト／ビス
  6
CONTINUOUS
 62
    64
 10
-32.290722
 20
-8.794048
 11
-26.290722
 21
-8.794048
  0
LINE
  8
ボルト／ビス
  6
CONTINUOUS
 62
    64
 10
-31.590725
 20
-7.794042
 11
-26.990727
 21
-7.794042
  0
LINE
  8
ボルト／ビス
  6
CONTINUOUS
 62
    64
 10
-29.290722
 20
-26.794048
 11
-29.290722
 21
-4.547232
  0
LINE
  8
ボルト／ビス
  6
CONTINUOUS
 62
    64
 10
-26.290722
 20
-8.794048
 11
-26.290722
 21
-15.394048
  0
LINE
  8
ボルト／ビス
  6
CONTINUOUS
 62
    64
 10
-26.990727
 20
-7.794042
 11
-26.990727
 21
-15.394048
  0
LINE
  8
ボルト／ビス
  6
CONTINUOUS
 62
    64
 10
-31.590725
 20
-7.794042
 11
-31.590725
 21
-15.394048
  0
LINE
  8
ボルト／ビス
  6
CONTINUOUS
 62
    64
 10
-32.290722
 20
-8.794048
 11
-32.290722
 21
-15.394048
  0
ENDBLK
  0
BLOCK
  2
*GRP_0015
 70
    65
 10
0.0
 20
0.0
  0
LINE
  8
ボルト／ビス
  6
CONTINUOUS
 10
-82.58523
 20
19.91583
 11
-80.285228
 21
21.41583
  0
LINE
  8
ボルト／ビス
  6
CONTINUOUS
 10
-82.58523
 20
27.915825
 11
-80.285228
 21
26.415825
  0
LINE
  8
ボルト／ビス
  6
CONTINUOUS
 10
-82.58523
 20
19.91583
 11
-82.58523
 21
27.915825
  0
LINE
  8
ボルト／ビス
  6
CONTINUOUS
 10
-80.285228
 20
21.41583
 11
-80.285228
 21
26.415825
  0
LINE
  8
ボルト／ビス
  6
CONTINUOUS
 10
-84.970432
 20
23.915827
 11
-67.58523
 21
23.915827
  0
LINE
  8
ボルト／ビス
  6
CONTINUOUS
 10
-68.085232
 20
21.41583
 11
-67.58523
 21
21.915825
  0
LINE
  8
ボルト／ビス
  6
CONTINUOUS
 10
-68.085232
 20
26.415825
 11
-67.58523
 21
25.91583
  0
LINE
  8
ボルト／ビス
  6
CONTINUOUS
 10
-67.58523
 20
25.91583
 11
-67.58523
 21
21.915825
  0
LINE
  8
ボルト／ビス
  6
CONTINUOUS
 10
-68.085232
 20
26.415825
 11
-68.085232
 21
21.41583
  0
LINE
  8
ボルト／ビス
  6
CONTINUOUS
 10
-80.285228
 20
21.915825
 11
-67.58523
 21
21.915825
  0
LINE
  8
ボルト／ビス
  6
CONTINUOUS
 10
-80.285228
 20
25.91583
 11
-67.58523
 21
25.91583
  0
LINE
  8
ボルト／ビス
  6
CONTINUOUS
 10
-80.285228
 20
26.415825
 11
-68.085232
 21
26.415825
  0
LINE
  8
ボルト／ビス
  6
CONTINUOUS
 10
-80.285228
 20
21.41583
 11
-68.085232
 21
21.41583
  0
ENDBLK
  0
BLOCK
  2
*GRP_0016
 70
    65
 10
0.0
 20
0.0
  0
LINE
  8
ボルト／ビス
  6
CONTINUOUS
 10
-82.58523
 20
-0.08417
 11
-80.285228
 21
1.41583
  0
LINE
  8
ボルト／ビス
  6
CONTINUOUS
 10
-82.58523
 20
7.915825
 11
-80.285228
 21
6.415825
  0
LINE
  8
ボルト／ビス
  6
CONTINUOUS
 10
-82.58523
 20
-0.08417
 11
-82.58523
 21
7.915825
  0
LINE
  8
ボルト／ビス
  6
CONTINUOUS
 10
-80.285228
 20
1.41583
 11
-80.285228
 21
6.415825
  0
LINE
  8
ボルト／ビス
  6
CONTINUOUS
 10
-84.970432
 20
3.915827
 11
-67.58523
 21
3.915827
  0
LINE
  8
ボルト／ビス
  6
CONTINUOUS
 10
-68.085232
 20
1.41583
 11
-67.58523
 21
1.915825
  0
LINE
  8
ボルト／ビス
  6
CONTINUOUS
 10
-68.085232
 20
6.415825
 11
-67.58523
 21
5.91583
  0
LINE
  8
ボルト／ビス
  6
CONTINUOUS
 10
-67.58523
 20
5.91583
 11
-67.58523
 21
1.915825
  0
LINE
  8
ボルト／ビス
  6
CONTINUOUS
 10
-68.085232
 20
6.415825
 11
-68.085232
 21
1.41583
  0
LINE
  8
ボルト／ビス
  6
CONTINUOUS
 10
-80.285228
 20
1.915825
 11
-67.58523
 21
1.915825
  0
LINE
  8
ボルト／ビス
  6
CONTINUOUS
 10
-80.285228
 20
5.91583
 11
-67.58523
 21
5.91583
  0
LINE
  8
ボルト／ビス
  6
CONTINUOUS
 10
-80.285228
 20
6.415825
 11
-68.085232
 21
6.415825
  0
LINE
  8
ボルト／ビス
  6
CONTINUOUS
 10
-80.285228
 20
1.41583
 11
-68.085232
 21
1.41583
  0
ENDBLK
  0
BLOCK
  2
*GRP_0017
 70
    65
 10
0.0
 20
0.0
  0
LINE
  8
ボルト／ビス
  6
CONTINUOUS
 10
-82.58523
 20
-27.084295
 11
-80.285228
 21
-25.584295
  0
LINE
  8
ボルト／ビス
  6
CONTINUOUS
 10
-82.58523
 20
-19.0843
 11
-80.285228
 21
-20.5843
  0
LINE
  8
ボルト／ビス
  6
CONTINUOUS
 10
-82.58523
 20
-27.084295
 11
-82.58523
 21
-19.0843
  0
LINE
  8
ボルト／ビス
  6
CONTINUOUS
 10
-80.285228
 20
-25.584295
 11
-80.285228
 21
-20.5843
  0
LINE
  8
ボルト／ビス
  6
CONTINUOUS
 10
-84.970432
 20
-23.084297
 11
-67.58523
 21
-23.084297
  0
LINE
  8
ボルト／ビス
  6
CONTINUOUS
 10
-68.085232
 20
-25.584295
 11
-67.58523
 21
-25.0843
  0
LINE
  8
ボルト／ビス
  6
CONTINUOUS
 10
-68.085232
 20
-20.5843
 11
-67.58523
 21
-21.084295
  0
LINE
  8
ボルト／ビス
  6
CONTINUOUS
 10
-67.58523
 20
-21.084295
 11
-67.58523
 21
-25.0843
  0
LINE
  8
ボルト／ビス
  6
CONTINUOUS
 10
-68.085232
 20
-20.5843
 11
-68.085232
 21
-25.584295
  0
LINE
  8
ボルト／ビス
  6
CONTINUOUS
 10
-80.285228
 20
-25.0843
 11
-67.58523
 21
-25.0843
  0
LINE
  8
ボルト／ビス
  6
CONTINUOUS
 10
-80.285228
 20
-21.084295
 11
-67.58523
 21
-21.084295
  0
LINE
  8
ボルト／ビス
  6
CONTINUOUS
 10
-80.285228
 20
-20.5843
 11
-68.085232
 21
-20.5843
  0
LINE
  8
ボルト／ビス
  6
CONTINUOUS
 10
-80.285228
 20
-25.584295
 11
-68.085232
 21
-25.584295
  0
ENDBLK
  0
BLOCK
  2
*GRP_0018
 70
    65
 10
0.0
 20
0.0
  0
LINE
  8
ボルト／ビス
  6
CONTINUOUS
 10
-82.58523
 20
-47.084295
 11
-80.285228
 21
-45.584295
  0
LINE
  8
ボルト／ビス
  6
CONTINUOUS
 10
-82.58523
 20
-39.0843
 11
-80.285228
 21
-40.5843
  0
LINE
  8
ボルト／ビス
  6
CONTINUOUS
 10
-82.58523
 20
-47.084295
 11
-82.58523
 21
-39.0843
  0
LINE
  8
ボルト／ビス
  6
CONTINUOUS
 10
-80.285228
 20
-45.584295
 11
-80.285228
 21
-40.5843
  0
LINE
  8
ボルト／ビス
  6
CONTINUOUS
 10
-84.970432
 20
-43.084297
 11
-67.58523
 21
-43.084297
  0
LINE
  8
ボルト／ビス
  6
CONTINUOUS
 10
-68.085232
 20
-45.584295
 11
-67.58523
 21
-45.0843
  0
LINE
  8
ボルト／ビス
  6
CONTINUOUS
 10
-68.085232
 20
-40.5843
 11
-67.58523
 21
-41.084295
  0
LINE
  8
ボルト／ビス
  6
CONTINUOUS
 10
-67.58523
 20
-41.084295
 11
-67.58523
 21
-45.0843
  0
LINE
  8
ボルト／ビス
  6
CONTINUOUS
 10
-68.085232
 20
-40.5843
 11
-68.085232
 21
-45.584295
  0
LINE
  8
ボルト／ビス
  6
CONTINUOUS
 10
-80.285228
 20
-45.0843
 11
-67.58523
 21
-45.0843
  0
LINE
  8
ボルト／ビス
  6
CONTINUOUS
 10
-80.285228
 20
-41.084295
 11
-67.58523
 21
-41.084295
  0
LINE
  8
ボルト／ビス
  6
CONTINUOUS
 10
-80.285228
 20
-40.5843
 11
-68.085232
 21
-40.5843
  0
LINE
  8
ボルト／ビス
  6
CONTINUOUS
 10
-80.285228
 20
-45.584295
 11
-68.085232
 21
-45.584295
  0
ENDBLK
  0
BLOCK
  2
*DIM_0019
 70
    65
 10
0.0
 20
0.0
  0
LINE
  8
寸法
  6
BYBLOCK
 62
     0
 10
-43.585228
 20
1.915263
 11
38.093902
 21
1.915263
  0
LINE
  8
寸法
  6
BYBLOCK
 62
     0
 10
-5.380958
 20
-0.084952
 11
38.093902
 21
-0.084952
  0
LINE
  8
寸法
  6
BYBLOCK
 62
     0
 10
38.093902
 20
1.915263
 11
38.093902
 21
-0.084952
  0
POINT
  8
寸法
 62
     0
 10
38.093902
 20
-0.084952
  0
TEXT
  7
TextStyle03
  8
寸法
  6
CONTINUOUS
 62
     0
 10
37.725
 20
0.15
  1
2
 40
3.0
 50
90.0
 72
     5
 11
37.725
 21
1.65
  0
ENDBLK
  0
BLOCK
  2
*DIM_0020
 70
    65
 10
0.0
 20
0.0
  0
LINE
  8
寸法
  6
BYBLOCK
 62
     0
 10
-5.380958
 20
-0.084952
 11
38.093902
 21
-0.084952
  0
LINE
  8
寸法
  6
BYBLOCK
 62
     0
 10
-5.380987
 20
-13.084047
 11
38.093902
 21
-13.084047
  0
LINE
  8
寸法
  6
BYBLOCK
 62
     0
 10
38.093902
 20
-0.084952
 11
38.093902
 21
-13.084047
  0
POINT
  8
寸法
 62
     0
 10
38.093902
 20
-13.084047
  0
TEXT
  7
TextStyle03
  8
寸法
  6
CONTINUOUS
 62
     0
 10
37.725
 20
-8.19375
  1
13
 40
3.0
 50
90.0
 72
     5
 11
37.725
 21
-5.00625
  0
ENDBLK
  0
BLOCK
  2
*DIM_0021
 70
    65
 10
0.0
 20
0.0
  0
LINE
  8
寸法
  6
BYBLOCK
 62
     0
 10
-5.380987
 20
-13.084047
 11
38.093902
 21
-13.084047
  0
LINE
  8
寸法
  6
BYBLOCK
 62
     0
 10
-49.58098
 20
-65.084297
 11
38.093902
 21
-65.084297
  0
LINE
  8
寸法
  6
BYBLOCK
 62
     0
 10
38.093902
 20
-13.084047
 11
38.093902
 21
-65.084297
  0
POINT
  8
寸法
 62
     0
 10
38.093902
 20
-65.084297
  0
TEXT
  7
TextStyle03
  8
寸法
  6
CONTINUOUS
 62
     0
 10
37.725
 20
-40.69375
  1
52
 40
3.0
 50
90.0
 72
     5
 11
37.725
 21
-37.50625
  0
ENDBLK
  0
BLOCK
  2
*DIM_0022
 70
    65
 10
0.0
 20
0.0
  0
LINE
  8
寸法
  6
BYBLOCK
 62
     0
 10
-49.58098
 20
-65.084297
 11
38.093902
 21
-65.084297
  0
LINE
  8
寸法
  6
BYBLOCK
 62
     0
 10
16.419023
 20
-70.084297
 11
38.093902
 21
-70.084297
  0
LINE
  8
寸法
  6
BYBLOCK
 62
     0
 10
38.093902
 20
-65.084297
 11
38.093902
 21
-70.084297
  0
POINT
  8
寸法
 62
     0
 10
38.093902
 20
-70.084297
  0
TEXT
  7
TextStyle03
  8
寸法
  6
CONTINUOUS
 62
     0
 10
37.725
 20
-68.35
  1
5
 40
3.0
 50
90.0
 72
     5
 11
37.725
 21
-66.85
  0
ENDBLK
  0
BLOCK
  2
*DIM_0023
 70
    65
 10
0.0
 20
0.0
  0
LINE
  8
寸法
  6
BYBLOCK
 62
     0
 10
16.419023
 20
-70.084297
 11
38.093902
 21
-70.084297
  0
LINE
  8
寸法
  6
BYBLOCK
 62
     0
 10
16.419023
 20
-85.084353
 11
38.093902
 21
-85.084353
  0
LINE
  8
寸法
  6
BYBLOCK
 62
     0
 10
38.093902
 20
-70.084297
 11
38.093902
 21
-85.084353
  0
POINT
  8
寸法
 62
     0
 10
38.093902
 20
-85.084353
  0
TEXT
  7
TextStyle03
  8
寸法
  6
CONTINUOUS
 62
     0
 10
37.725
 20
-79.19375
  1
15
 40
3.0
 50
90.0
 72
     5
 11
37.725
 21
-76.00625
  0
ENDBLK
  0
BLOCK
  2
*DIM_0024
 70
    65
 10
0.0
 20
0.0
  0
LINE
  8
寸法
  6
BYBLOCK
 62
     0
 10
29.065105
 20
-0.084952
 11
29.960675
 21
-0.084952
  0
LINE
  8
寸法
  6
BYBLOCK
 62
     0
 10
-5.68095
 20
-5.083767
 11
29.960675
 21
-5.083767
  0
LINE
  8
寸法
  6
BYBLOCK
 62
     0
 10
29.960675
 20
-0.084952
 11
29.960675
 21
-5.083767
  0
POINT
  8
寸法
 62
     0
 10
29.960675
 20
-0.084952
  0
POINT
  8
寸法
 62
     0
 10
29.960675
 20
-5.083767
  0
TEXT
  7
TextStyle03
  8
寸法
  6
CONTINUOUS
 62
     0
 10
29.575
 20
-3.35
  1
5
 40
3.0
 50
90.0
 72
     5
 11
29.575
 21
-1.85
  0
ENDBLK
  0
BLOCK
  2
*DIM_0025
 70
    65
 10
0.0
 20
0.0
  0
LINE
  8
寸法
  6
BYBLOCK
 62
     0
 10
-5.68095
 20
-5.083767
 11
29.960675
 21
-5.083767
  0
LINE
  8
寸法
  6
BYBLOCK
 62
     0
 10
-5.680987
 20
-9.084555
 11
29.960675
 21
-9.084555
  0
LINE
  8
寸法
  6
BYBLOCK
 62
     0
 10
29.960675
 20
-5.083767
 11
29.960675
 21
-9.084555
  0
POINT
  8
寸法
 62
     0
 10
29.960675
 20
-9.084555
  0
TEXT
  7
TextStyle03
  8
寸法
  6
CONTINUOUS
 62
     0
 10
29.575
 20
-7.85
  1
4
 40
3.0
 50
90.0
 72
     5
 11
29.575
 21
-6.35
  0
ENDBLK
  0
BLOCK
  2
*DIM_0026
 70
    65
 10
0.0
 20
0.0
  0
LINE
  8
寸法
  6
BYBLOCK
 62
     0
 10
-5.680987
 20
-9.084555
 11
29.960675
 21
-9.084555
  0
LINE
  8
寸法
  6
BYBLOCK
 62
     0
 10
-4.380987
 20
-13.084047
 11
29.960675
 21
-13.084047
  0
LINE
  8
寸法
  6
BYBLOCK
 62
     0
 10
29.960675
 20
-9.084555
 11
29.960675
 21
-13.084047
  0
POINT
  8
寸法
 62
     0
 10
29.960675
 20
-13.084047
  0
TEXT
  7
TextStyle03
  8
寸法
  6
CONTINUOUS
 62
     0
 10
29.575
 20
-11.85
  1
4
 40
3.0
 50
90.0
 72
     5
 11
29.575
 21
-10.35
  0
ENDBLK
  0
BLOCK
  2
*DIM_0027
 70
    65
 10
0.0
 20
0.0
  0
LINE
  8
寸法
  6
BYBLOCK
 62
     0
 10
15.419023
 20
-69.084297
 11
15.419023
 21
128.95056
  0
LINE
  8
寸法
  6
BYBLOCK
 62
     0
 10
-84.585228
 20
128.95056
 11
15.419023
 21
128.95056
  0
POINT
  8
寸法
 62
     0
 10
-84.585228
 20
128.95056
  0
POINT
  8
寸法
 62
     0
 10
15.419023
 20
128.95056
  0
TEXT
  7
TextStyle03
  8
寸法
  6
CONTINUOUS
 62
     0
 10
-37.0125
 20
129.325
  1
100
 40
3.0
 72
     5
 11
-32.1375
 21
129.325
  0
ENDBLK
  0
BLOCK
  2
*DIM_0028
 70
    65
 10
0.0
 20
0.0
  0
LINE
  8
寸法
  6
BYBLOCK
 62
     0
 10
15.419023
 20
122.664168
 11
15.419023
 21
122.443323
  0
LINE
  8
寸法
  6
BYBLOCK
 62
     0
 10
-99.585228
 20
-58.084297
 11
-99.585228
 21
122.443323
  0
LINE
  8
寸法
  6
BYBLOCK
 62
     0
 10
15.419023
 20
122.443323
 11
-99.585228
 21
122.443323
  0
POINT
  8
寸法
 62
     0
 10
15.419023
 20
122.443323
  0
POINT
  8
寸法
 62
     0
 10
-99.585228
 20
122.443323
  0
TEXT
  7
TextStyle03
  8
寸法
  6
CONTINUOUS
 62
     0
 10
-44.5125
 20
122.8
  1
115
 40
3.0
 72
     5
 11
-39.6375
 21
122.8
  0
ENDBLK
  0
BLOCK
  2
*DIM_0029
 70
    65
 10
0.0
 20
0.0
  0
LINE
  8
寸法
  6
BYBLOCK
 62
     0
 10
-75.285228
 20
-5.083798
 11
-159.5004
 21
-5.083798
  0
LINE
  8
寸法
  6
BYBLOCK
 62
     0
 10
-75.285228
 20
-9.084548
 11
-159.5004
 21
-9.084548
  0
LINE
  8
寸法
  6
BYBLOCK
 62
     0
 10
-159.5004
 20
-5.083798
 11
-159.5004
 21
-9.084548
  0
POINT
  8
寸法
 62
     0
 10
-159.5004
 20
-9.084548
  0
TEXT
  7
TextStyle03
  8
寸法
  6
CONTINUOUS
 62
     0
 10
-159.875
 20
-7.85
  1
4
 40
3.0
 50
90.0
 72
     5
 11
-159.875
 21
-6.35
  0
ENDBLK
  0
BLOCK
  2
*DIM_0030
 70
    65
 10
0.0
 20
0.0
  0
LINE
  8
寸法
  6
BYBLOCK
 62
     0
 10
-75.285228
 20
-9.084548
 11
-159.5004
 21
-9.084548
  0
LINE
  8
寸法
  6
BYBLOCK
 62
     0
 10
-100.585228
 20
-67.084297
 11
-159.5004
 21
-67.084297
  0
LINE
  8
寸法
  6
BYBLOCK
 62
     0
 10
-159.5004
 20
-9.084548
 11
-159.5004
 21
-67.084297
  0
POINT
  8
寸法
 62
     0
 10
-159.5004
 20
-67.084297
  0
TEXT
  7
TextStyle03
  8
寸法
  6
CONTINUOUS
 62
     0
 10
-159.875
 20
-39.69375
  1
58
 40
3.0
 50
90.0
 72
     5
 11
-159.875
 21
-36.50625
  0
ENDBLK
  0
BLOCK
  2
*DIM_0031
 70
    65
 10
0.0
 20
0.0
  0
LINE
  8
寸法
  6
BYBLOCK
 62
     0
 10
-86.585228
 20
55.915827
 11
-159.5004
 21
55.915827
  0
LINE
  8
寸法
  6
BYBLOCK
 62
     0
 10
-85.585228
 20
45.915827
 11
-159.5004
 21
45.915827
  0
LINE
  8
寸法
  6
BYBLOCK
 62
     0
 10
-159.5004
 20
55.915827
 11
-159.5004
 21
45.915827
  0
POINT
  8
寸法
 62
     0
 10
-159.5004
 20
45.915827
  0
TEXT
  7
TextStyle03
  8
寸法
  6
CONTINUOUS
 62
     0
 10
-159.875
 20
49.30625
  1
10
 40
3.0
 50
90.0
 72
     5
 11
-159.875
 21
52.49375
  0
ENDBLK
  0
BLOCK
  2
*DIM_0032
 70
    65
 10
0.0
 20
0.0
  0
LINE
  8
寸法
  6
BYBLOCK
 62
     0
 10
-85.585228
 20
45.915827
 11
-159.5004
 21
45.915827
  0
LINE
  8
寸法
  6
BYBLOCK
 62
     0
 10
-75.285228
 20
-5.083798
 11
-159.5004
 21
-5.083798
  0
LINE
  8
寸法
  6
BYBLOCK
 62
     0
 10
-159.5004
 20
45.915827
 11
-159.5004
 21
-5.083798
  0
POINT
  8
寸法
 62
     0
 10
-159.5004
 20
-5.083798
  0
TEXT
  7
TextStyle03
  8
寸法
  6
CONTINUOUS
 62
     0
 10
-159.875
 20
18.80625
  1
51
 40
3.0
 50
90.0
 72
     5
 11
-159.875
 21
21.99375
  0
ENDBLK
  0
BLOCK
  2
*DIM_0033
 70
    65
 10
0.0
 20
0.0
  0
LINE
  8
寸法
  6
BYBLOCK
 62
     0
 10
-43.585228
 20
1.915263
 11
38.093902
 21
1.915263
  0
LINE
  8
寸法
  6
BYBLOCK
 62
     0
 10
-43.585228
 20
54.915827
 11
38.093902
 21
54.915827
  0
LINE
  8
寸法
  6
BYBLOCK
 62
     0
 10
38.093902
 20
1.915263
 11
38.093902
 21
54.915827
  0
POINT
  8
寸法
 62
     0
 10
38.093902
 20
1.915263
  0
POINT
  8
寸法
 62
     0
 10
38.093902
 20
54.915827
  0
TEXT
  7
TextStyle03
  8
寸法
  6
CONTINUOUS
 62
     0
 10
37.725
 20
26.80625
  1
53
 40
3.0
 50
90.0
 72
     5
 11
37.725
 21
29.99375
  0
ENDBLK
  0
BLOCK
  2
*GRP_0034
 70
    65
 10
0.0
 20
0.0
  0
POLYLINE
  8
寸法
  6
BYBLOCK
 62
     0
 66
     1
  0
VERTEX
  8
寸法
 10
-41.735873
 20
-68.00993
  0
VERTEX
  8
寸法
 10
-43.398812
 20
-70.506852
  0
VERTEX
  8
寸法
 10
-43.207125
 20
-67.512985
  0
SEQEND
  0
POLYLINE
  8
寸法
  6
BYBLOCK
 62
     0
 66
     1
  0
VERTEX
  8
寸法
 10
-43.398812
 20
-70.506852
  0
VERTEX
  8
寸法
 10
-35.81944
 20
-48.06743
  0
VERTEX
  8
寸法
 10
-32.643322
 20
-48.06743
  0
SEQEND
  0
ENDBLK
  0
BLOCK
  2
*GRP_0035
 70
    65
 10
0.0
 20
0.0
  0
POLYLINE
  8
寸法
  6
BYBLOCK
 62
     0
 66
     1
  0
VERTEX
  8
寸法
 10
-33.361132
 20
-67.482333
  0
VERTEX
  8
寸法
 10
-34.97358
 20
-70.012158
  0
VERTEX
  8
寸法
 10
-34.84207
 20
-67.01504
  0
SEQEND
  0
POLYLINE
  8
寸法
  6
BYBLOCK
 62
     0
 66
     1
  0
VERTEX
  8
寸法
 10
-34.97358
 20
-70.012158
  0
VERTEX
  8
寸法
 10
-30.973915
 20
-57.336455
  0
VERTEX
  8
寸法
 10
-27.296307
 20
-57.336455
  0
SEQEND
  0
ENDBLK
  0
BLOCK
  2
*GRP_0036
 70
    65
 10
0.0
 20
0.0
  0
POLYLINE
  8
寸法
  6
BYBLOCK
 62
     0
 66
     1
  0
VERTEX
  8
寸法
 10
-67.885228
 20
28.469935
  0
VERTEX
  8
寸法
 10
-69.385228
 20
31.068013
  0
VERTEX
  8
寸法
 10
-66.787152
 20
29.568013
  0
SEQEND
  0
POLYLINE
  8
寸法
  6
BYBLOCK
 62
     0
 66
     1
  0
VERTEX
  8
寸法
 10
-69.385228
 20
31.068013
  0
VERTEX
  8
寸法
 10
-61.656578
 20
23.339363
  0
VERTEX
  8
寸法
 10
-30.105163
 20
23.339363
  0
SEQEND
  0
ENDBLK
  0
BLOCK
  2
*GRP_0037
 70
    65
 10
0.0
 20
0.0
  0
POLYLINE
  8
寸法
  6
BYBLOCK
 62
     0
 66
     1
  0
VERTEX
  8
寸法
 10
-69.454392
 20
-27.600888
  0
VERTEX
  8
寸法
 10
-70.954392
 20
-25.00281
  0
VERTEX
  8
寸法
 10
-68.356318
 20
-26.50281
  0
SEQEND
  0
POLYLINE
  8
寸法
  6
BYBLOCK
 62
     0
 66
     1
  0
VERTEX
  8
寸法
 10
-70.954392
 20
-25.00281
  0
VERTEX
  8
寸法
 10
-63.225742
 20
-32.73146
  0
VERTEX
  8
寸法
 10
-31.674327
 20
-32.73146
  0
SEQEND
  0
ENDBLK
  0
BLOCK
  2
*DIM_0038
 70
    65
 10
0.0
 20
0.0
  0
LINE
  8
寸法
  6
BYBLOCK
 62
     0
 10
-73.58098
 20
-85.084227
 11
-159.5004
 21
-85.084227
  0
LINE
  8
寸法
  6
BYBLOCK
 62
     0
 10
-159.5004
 20
-67.084297
 11
-159.5004
 21
-85.084227
  0
POINT
  8
寸法
 62
     0
 10
-159.5004
 20
-67.084297
  0
POINT
  8
寸法
 62
     0
 10
-159.5004
 20
-85.084227
  0
TEXT
  7
TextStyle03
  8
寸法
  6
CONTINUOUS
 62
     0
 10
-159.875
 20
-77.69375
  1
18
 40
3.0
 50
90.0
 72
     5
 11
-159.875
 21
-74.50625
  0
ENDBLK
  0
BLOCK
  2
*DIM_0039
 70
    65
 10
0.0
 20
0.0
  0
LINE
  8
寸法
  6
BYBLOCK
 62
     0
 10
-73.58098
 20
-85.084227
 11
-159.5004
 21
-85.084227
  0
LINE
  8
寸法
  6
BYBLOCK
 62
     0
 10
-2.080732
 20
-95.084332
 11
-159.5004
 21
-95.084332
  0
LINE
  8
寸法
  6
BYBLOCK
 62
     0
 10
-159.5004
 20
-85.084227
 11
-159.5004
 21
-95.084332
  0
POINT
  8
寸法
 62
     0
 10
-159.5004
 20
-95.084332
  0
TEXT
  7
TextStyle03
  8
寸法
  6
CONTINUOUS
 62
     0
 10
-159.875
 20
-91.69375
  1
10
 40
3.0
 50
90.0
 72
     5
 11
-159.875
 21
-88.50625
  0
ENDBLK
  0
BLOCK
  2
*DIM_0040
 70
    65
 10
0.0
 20
0.0
  0
LINE
  8
寸法
  6
BYBLOCK
 62
     0
 10
1.419268
 20
-95.084332
 11
47.65751
 21
-95.084332
  0
LINE
  8
寸法
  6
BYBLOCK
 62
     0
 10
47.65751
 20
-85.084353
 11
47.65751
 21
-95.084332
  0
POINT
  8
寸法
 62
     0
 10
47.65751
 20
-85.084353
  0
POINT
  8
寸法
 62
     0
 10
47.65751
 20
-95.084332
  0
TEXT
  7
TextStyle03
  8
寸法
  6
CONTINUOUS
 62
     0
 10
47.275
 20
-91.69375
  1
10
 40
3.0
 50
90.0
 72
     5
 11
47.275
 21
-88.50625
  0
ENDBLK
  0
BLOCK
  2
*DIM_0041
 70
    65
 10
0.0
 20
0.0
  0
LINE
  8
寸法
  6
BYBLOCK
 62
     0
 10
15.419023
 20
-86.084353
 11
15.419023
 21
-106.048875
  0
LINE
  8
寸法
  6
BYBLOCK
 62
     0
 10
0.419268
 20
-96.084332
 11
0.419268
 21
-106.048875
  0
LINE
  8
寸法
  6
BYBLOCK
 62
     0
 10
15.419023
 20
-106.048875
 11
0.419268
 21
-106.048875
  0
POINT
  8
寸法
 62
     0
 10
15.419023
 20
-106.048875
  0
POINT
  8
寸法
 62
     0
 10
0.419268
 20
-106.048875
  0
TEXT
  7
TextStyle03
  8
寸法
  6
CONTINUOUS
 62
     0
 10
6.33125
 20
-105.675
  1
15
 40
3.0
 72
     5
 11
9.51875
 21
-105.675
  0
ENDBLK
  0
BLOCK
  2
*GRP_0042
 70
    65
 10
0.0
 20
0.0
  0
POLYLINE
  8
寸法
  6
BYBLOCK
 62
     0
 66
     1
  0
VERTEX
  8
寸法
 10
-18.812755
 20
-15.394528
  0
VERTEX
  8
寸法
 10
-10.996413
 20
-23.21087
  0
VERTEX
  8
寸法
 10
-8.270222
 20
-23.21087
  0
SEQEND
  0
ENDBLK
  0
BLOCK
  2
*DIM_0043
 70
    65
 10
0.0
 20
0.0
  0
LINE
  8
寸法
  6
BYBLOCK
 62
     0
 10
-148.598327
 20
-9.084548
 11
-149.431163
 21
-9.084548
  0
LINE
  8
寸法
  6
BYBLOCK
 62
     0
 10
-102.585218
 20
-57.083773
 11
-149.431163
 21
-57.083773
  0
LINE
  8
寸法
  6
BYBLOCK
 62
     0
 10
-149.431163
 20
-9.084548
 11
-149.431163
 21
-57.083773
  0
POINT
  8
寸法
 62
     0
 10
-149.431163
 20
-9.084548
  0
POINT
  8
寸法
 62
     0
 10
-149.431163
 20
-57.083773
  0
TEXT
  7
TextStyle03
  8
寸法
  6
CONTINUOUS
 62
     0
 10
-149.8
 20
-34.69375
  1
48
 40
3.0
 50
90.0
 72
     5
 11
-149.8
 21
-31.50625
  0
ENDBLK
  0
BLOCK
  2
*DIM_0044
 70
    65
 10
0.0
 20
0.0
  0
LINE
  8
寸法
  6
BYBLOCK
 62
     0
 10
-102.585218
 20
-57.083773
 11
-149.431163
 21
-57.083773
  0
LINE
  8
寸法
  6
BYBLOCK
 62
     0
 10
-105.585218
 20
-67.084297
 11
-149.431163
 21
-67.084297
  0
LINE
  8
寸法
  6
BYBLOCK
 62
     0
 10
-149.431163
 20
-57.083773
 11
-149.431163
 21
-67.084297
  0
POINT
  8
寸法
 62
     0
 10
-149.431163
 20
-67.084297
  0
TEXT
  7
TextStyle03
  8
寸法
  6
CONTINUOUS
 62
     0
 10
-149.8
 20
-63.69375
  1
10
 40
3.0
 50
90.0
 72
     5
 11
-149.8
 21
-60.50625
  0
ENDBLK
  0
BLOCK
  2
*DIM_0045
 70
    65
 10
0.0
 20
0.0
  0
LINE
  8
寸法
  6
BYBLOCK
 62
     0
 10
-72.58097
 20
-86.084235
 11
-72.58097
 21
-106.048875
  0
LINE
  8
寸法
  6
BYBLOCK
 62
     0
 10
0.419268
 20
-106.048875
 11
-72.58097
 21
-106.048875
  0
POINT
  8
寸法
 62
     0
 10
0.419268
 20
-106.048875
  0
POINT
  8
寸法
 62
     0
 10
-72.58097
 20
-106.048875
  0
TEXT
  7
TextStyle03
  8
寸法
  6
CONTINUOUS
 62
     0
 10
-37.66875
 20
-105.675
  1
73
 40
3.0
 72
     5
 11
-34.48125
 21
-105.675
  0
ENDBLK
  0
BLOCK
  2
*DIM_0046
 70
    65
 10
0.0
 20
0.0
  0
LINE
  8
寸法
  6
BYBLOCK
 62
     0
 10
-72.58097
 20
-86.084235
 11
-72.58097
 21
-106.048875
  0
LINE
  8
寸法
  6
BYBLOCK
 62
     0
 10
-99.585215
 20
-68.084303
 11
-99.585215
 21
-106.048875
  0
LINE
  8
寸法
  6
BYBLOCK
 62
     0
 10
-72.58097
 20
-106.048875
 11
-99.585215
 21
-106.048875
  0
POINT
  8
寸法
 62
     0
 10
-99.585215
 20
-106.048875
  0
TEXT
  7
TextStyle03
  8
寸法
  6
CONTINUOUS
 62
     0
 10
-87.66875
 20
-105.675
  1
27
 40
3.0
 72
     5
 11
-84.48125
 21
-105.675
  0
ENDBLK
  0
BLOCK
  2
*GRP_0047
 70
    65
 10
0.0
 20
0.0
  0
POLYLINE
  8
寸法
  6
BYBLOCK
 62
     0
 66
     1
  0
VERTEX
  8
寸法
 10
-26.930768
 20
-91.284418
  0
VERTEX
  8
寸法
 10
-6.738307
 20
-111.476877
  0
VERTEX
  8
寸法
 10
-0.568148
 20
-111.476877
  0
SEQEND
  0
ENDBLK
  0
BLOCK
  2
*GRP_0048
 70
    65
 10
0.0
 20
0.0
  0
POLYLINE
  8
寸法
  6
BYBLOCK
 62
     0
 66
     1
  0
VERTEX
  8
寸法
 10
-97.085228
 20
17.415838
  0
VERTEX
  8
寸法
 10
-107.789603
 20
6.711463
  0
VERTEX
  8
寸法
 10
-112.977563
 20
6.711463
  0
SEQEND
  0
ENDBLK
  0
BLOCK
  2
*GRP_0049
 70
    65
 10
0.0
 20
0.0
  0
POLYLINE
  8
寸法
  6
BYBLOCK
 62
     0
 66
     1
  0
VERTEX
  8
寸法
 10
-97.085228
 20
-34.57996
  0
VERTEX
  8
寸法
 10
-107.789603
 20
-45.284335
  0
VERTEX
  8
寸法
 10
-112.977563
 20
-45.284335
  0
SEQEND
  0
ENDBLK
  0
BLOCK
  2
*DIM_0050
 70
    65
 10
0.0
 20
0.0
  0
LINE
  8
寸法
  6
BYBLOCK
 62
     0
 10
-90.18521
 20
55.91584
 11
-159.500385
 21
55.91584
  0
LINE
  8
寸法
  6
BYBLOCK
 62
     0
 10
-98.085095
 20
69.015738
 11
-159.500385
 21
69.015738
  0
LINE
  8
寸法
  6
BYBLOCK
 62
     0
 10
-159.500385
 20
55.91584
 11
-159.500385
 21
69.015738
  0
POINT
  8
寸法
 62
     0
 10
-159.500385
 20
55.91584
  0
POINT
  8
寸法
 62
     0
 10
-159.500385
 20
69.015738
  0
TEXT
  7
TextStyle03
  8
寸法
  6
CONTINUOUS
 62
     0
 10
-159.875
 20
59.16875
  1
13.1
 40
3.0
 50
90.0
 72
     5
 11
-159.875
 21
65.73125
  0
ENDBLK
  0
BLOCK
  2
*GRP_0051
 70
    65
 10
0.0
 20
0.0
  0
POLYLINE
  8
寸法
  6
BYBLOCK
 62
     0
 66
     1
  0
VERTEX
  8
寸法
 10
-91.135145
 20
62.065788
  0
VERTEX
  8
寸法
 10
-103.174
 20
50.026932
  0
VERTEX
  8
寸法
 10
-107.281315
 20
50.026932
  0
SEQEND
  0
ENDBLK
  0
BLOCK
  2
*GRP_0052
 70
    65
 10
0.0
 20
0.0
  0
LINE
  8
別途部材
  6
CONTINUOUS
 10
-85.085228
 20
-58.584303
 11
-85.085228
 21
-14.5843
  0
ARC
  8
別途部材
  6
CONTINUOUS
 10
-91.085242
 20
-58.584299
 40
6.0
 50
270.0
 51
360.0
  0
LINE
  8
別途部材
  6
CONTINUOUS
 10
-97.085228
 20
-58.584303
 11
-97.085228
 21
-14.5843
  0
ARC
  8
別途部材
  6
CONTINUOUS
 10
-91.085242
 20
-58.584299
 40
6.0
 50
180.0
 51
270.0
  0
CIRCLE
  8
別途部材
  6
CONTINUOUS
 10
-91.085228
 20
-58.584303
 40
3.0
  0
LINE
  8
別途部材
  6
CONTINUOUS
 10
-88.085228
 20
-58.584303
 11
-94.085228
 21
-58.584303
  0
LINE
  8
別途部材
  6
CONTINUOUS
 10
-91.085228
 20
-61.584303
 11
-91.085228
 21
-55.584303
  0
LINE
  8
別途部材
  6
CONTINUOUS
 10
-85.085228
 20
-14.5843
 11
-87.085238
 21
-14.5843
  0
LINE
  8
別途部材
  6
CONTINUOUS
 10
-95.085232
 20
-14.5843
 11
-97.085228
 21
-14.5843
  0
LINE
  8
別途部材
  6
CONTINUOUS
 10
-87.085238
 20
-14.5843
 11
-87.085238
 21
-52.584303
  0
LINE
  8
別途部材
  6
CONTINUOUS
 10
-87.085238
 20
-52.584303
 11
-95.085232
 21
-52.584303
  0
LINE
  8
別途部材
  6
CONTINUOUS
 10
-95.085232
 20
-14.5843
 11
-95.085232
 21
-52.584303
  0
ARC
  8
別途部材
  6
CONTINUOUS
 10
-91.085242
 20
-15.042631
 40
2.541667
 50
190.38896
 51
349.61104
  0
LINE
  8
別途部材
  6
CONTINUOUS
 10
-94.585238
 20
-14.5843
 11
-93.585232
 21
-14.5843
  0
LINE
  8
別途部材
  6
CONTINUOUS
 10
-87.585232
 20
-14.5843
 11
-88.585238
 21
-14.5843
  0
CIRCLE
  8
別途部材
  6
CONTINUOUS
 10
-91.085228
 20
-48.584305
 40
0.999997
  0
LINE
  8
別途部材
  6
CONTINUOUS
 10
-92.085232
 20
-48.584305
 11
-90.085238
 21
-48.584305
  0
LINE
  8
別途部材
  6
CONTINUOUS
 10
-91.085228
 20
-49.584303
 11
-91.085228
 21
-47.5843
  0
ARC
  8
別途部材
  6
CONTINUOUS
 10
-91.085242
 20
-50.125971
 40
2.541667
 50
10.38896
 51
169.61104
  0
LINE
  8
別途部材
  6
CONTINUOUS
 10
-94.585238
 20
-50.5843
 11
-93.585232
 21
-50.5843
  0
LINE
  8
別途部材
  6
CONTINUOUS
 10
-88.585238
 20
-50.5843
 11
-87.585232
 21
-50.5843
  0
LINE
  8
別途部材
  6
CONTINUOUS
 10
-93.585232
 20
-14.5843
 11
-93.585232
 21
-50.5843
  0
LINE
  8
別途部材
  6
CONTINUOUS
 10
-94.585238
 20
-14.5843
 11
-94.585238
 21
-50.5843
  0
LINE
  8
別途部材
  6
CONTINUOUS
 10
-88.585238
 20
-14.5843
 11
-88.585238
 21
-50.5843
  0
LINE
  8
別途部材
  6
CONTINUOUS
 10
-87.585232
 20
-14.5843
 11
-87.585232
 21
-50.5843
  0
ENDBLK
  0
BLOCK
  2
*GRP_0053
 70
    65
 10
0.0
 20
0.0
  0
LINE
  8
別途部材
  6
CONTINUOUS
 10
-91.085228
 20
-64.584303
 11
-91.085228
 21
-64.584303
  0
LINE
  8
別途部材
  6
CONTINUOUS
 10
-85.085228
 20
-51.584297
 11
-82.58523
 21
-51.584297
  0
LINE
  8
別途部材
  6
CONTINUOUS
 10
-91.085228
 20
-65.084297
 11
-91.085235
 21
-64.584295
  0
LINE
  8
別途部材
  6
CONTINUOUS
 10
-74.585228
 20
-52.584303
 11
-82.58523
 21
-52.584303
  0
ARC
  8
別途部材
  6
CONTINUOUS
 10
-75.585235
 20
-15.584301
 40
1.0
 50
0.0
 51
90.0
  0
LINE
  8
別途部材
  6
CONTINUOUS
 10
-81.585232
 20
-14.5843
 11
-75.585232
 21
-14.5843
  0
ARC
  8
別途部材
  6
CONTINUOUS
 10
-81.585235
 20
-15.584301
 40
1.0
 50
90.0
 51
180.0
  0
LINE
  8
別途部材
  6
CONTINUOUS
 10
-74.585228
 20
-15.584297
 11
-74.585228
 21
-64.0843
  0
ARC
  8
別途部材
  6
CONTINUOUS
 10
-75.585235
 20
-64.084301
 40
1.0
 50
270.0
 51
360.0
  0
LINE
  8
別途部材
  6
CONTINUOUS
 10
-82.58523
 20
-15.584297
 11
-82.58523
 21
-64.0843
  0
ARC
  8
別途部材
  6
CONTINUOUS
 10
-81.585235
 20
-64.084301
 40
1.0
 50
180.0
 51
270.0
  0
LINE
  8
別途部材
  6
CONTINUOUS
 10
-75.585232
 20
-65.084297
 11
-91.085228
 21
-65.084297
  0
LINE
  8
別途部材
  6
CONTINUOUS
 10
-80.285228
 20
-45.584297
 11
-80.285228
 21
-40.584303
  0
LINE
  8
別途部材
  6
CONTINUOUS
 10
-80.285228
 20
-25.584303
 11
-80.285228
 21
-20.584292
  0
POLYLINE
  8
別途部材
  6
CONTINUOUS
 66
     1
  0
VERTEX
  8
別途部材
 10
-82.58523
 20
-47.084297
  0
VERTEX
  8
別途部材
 10
-80.285228
 20
-45.584297
  0
VERTEX
  8
別途部材
 10
-74.585228
 20
-45.584297
  0
SEQEND
  0
LINE
  8
別途部材
  6
CONTINUOUS
 10
-82.58523
 20
-43.084292
 11
-74.585228
 21
-43.084292
  0
POLYLINE
  8
別途部材
  6
CONTINUOUS
 66
     1
  0
VERTEX
  8
別途部材
 10
-82.58523
 20
-39.084303
  0
VERTEX
  8
別途部材
 10
-80.285228
 20
-40.584303
  0
VERTEX
  8
別途部材
 10
-74.585228
 20
-40.584303
  0
SEQEND
  0
POLYLINE
  8
別途部材
  6
CONTINUOUS
 66
     1
  0
VERTEX
  8
別途部材
 10
-82.58523
 20
-27.084303
  0
VERTEX
  8
別途部材
 10
-80.285228
 20
-25.584303
  0
VERTEX
  8
別途部材
 10
-74.585228
 20
-25.584303
  0
SEQEND
  0
LINE
  8
別途部材
  6
CONTINUOUS
 10
-82.58523
 20
-23.084297
 11
-74.585228
 21
-23.084297
  0
POLYLINE
  8
別途部材
  6
CONTINUOUS
 66
     1
  0
VERTEX
  8
別途部材
 10
-82.58523
 20
-19.084292
  0
VERTEX
  8
別途部材
 10
-80.285228
 20
-20.584292
  0
VERTEX
  8
別途部材
 10
-74.585228
 20
-20.584292
  0
SEQEND
  0
ENDBLK
  0
BLOCK
  2
*GRP_0054
 70
    65
 10
0.0
 20
0.0
  0
LINE
  8
別途部材
  6
CONTINUOUS
 10
-85.085228
 20
39.415838
 11
-85.085228
 21
-4.584165
  0
ARC
  8
別途部材
  6
CONTINUOUS
 10
-91.085242
 20
39.415834
 40
6.0
 50
0.0
 51
90.0
  0
LINE
  8
別途部材
  6
CONTINUOUS
 10
-97.085228
 20
39.415838
 11
-97.085228
 21
-4.584165
  0
ARC
  8
別途部材
  6
CONTINUOUS
 10
-91.085242
 20
39.415834
 40
6.0
 50
90.0
 51
180.0
  0
CIRCLE
  8
別途部材
  6
CONTINUOUS
 10
-91.085228
 20
39.415838
 40
3.0
  0
LINE
  8
別途部材
  6
CONTINUOUS
 10
-88.085228
 20
39.415838
 11
-94.085228
 21
39.415838
  0
LINE
  8
別途部材
  6
CONTINUOUS
 10
-91.085228
 20
42.415838
 11
-91.085228
 21
36.415838
  0
LINE
  8
別途部材
  6
CONTINUOUS
 10
-85.085228
 20
-4.584165
 11
-87.085238
 21
-4.584165
  0
LINE
  8
別途部材
  6
CONTINUOUS
 10
-95.085232
 20
-4.584165
 11
-97.085228
 21
-4.584165
  0
LINE
  8
別途部材
  6
CONTINUOUS
 10
-87.085238
 20
-4.584165
 11
-87.085238
 21
33.415838
  0
LINE
  8
別途部材
  6
CONTINUOUS
 10
-87.085238
 20
33.415838
 11
-95.085232
 21
33.415838
  0
LINE
  8
別途部材
  6
CONTINUOUS
 10
-95.085232
 20
-4.584165
 11
-95.085232
 21
33.415838
  0
ARC
  8
別途部材
  6
CONTINUOUS
 10
-91.085242
 20
-4.125834
 40
2.541667
 50
10.38896
 51
169.61104
  0
LINE
  8
別途部材
  6
CONTINUOUS
 10
-94.585238
 20
-4.584165
 11
-93.585232
 21
-4.584165
  0
LINE
  8
別途部材
  6
CONTINUOUS
 10
-87.585232
 20
-4.584165
 11
-88.585238
 21
-4.584165
  0
CIRCLE
  8
別途部材
  6
CONTINUOUS
 10
-91.085228
 20
29.41584
 40
0.999997
  0
LINE
  8
別途部材
  6
CONTINUOUS
 10
-92.085232
 20
29.41584
 11
-90.085238
 21
29.41584
  0
LINE
  8
別途部材
  6
CONTINUOUS
 10
-91.085228
 20
30.415838
 11
-91.085228
 21
28.415835
  0
ARC
  8
別途部材
  6
CONTINUOUS
 10
-91.085242
 20
30.957506
 40
2.541667
 50
190.38896
 51
349.61104
  0
LINE
  8
別途部材
  6
CONTINUOUS
 10
-94.585238
 20
31.415835
 11
-93.585232
 21
31.415835
  0
LINE
  8
別途部材
  6
CONTINUOUS
 10
-88.585238
 20
31.415835
 11
-87.585232
 21
31.415835
  0
LINE
  8
別途部材
  6
CONTINUOUS
 10
-93.585232
 20
-4.584165
 11
-93.585232
 21
31.415835
  0
LINE
  8
別途部材
  6
CONTINUOUS
 10
-94.585238
 20
-4.584165
 11
-94.585238
 21
31.415835
  0
LINE
  8
別途部材
  6
CONTINUOUS
 10
-88.585238
 20
-4.584165
 11
-88.585238
 21
31.415835
  0
LINE
  8
別途部材
  6
CONTINUOUS
 10
-87.585232
 20
-4.584165
 11
-87.585232
 21
31.415835
  0
ENDBLK
  0
BLOCK
  2
*GRP_0055
 70
    65
 10
0.0
 20
0.0
  0
LINE
  8
別途部材
  6
CONTINUOUS
 10
-91.085228
 20
45.415838
 11
-91.085228
 21
45.415838
  0
LINE
  8
別途部材
  6
CONTINUOUS
 10
-85.085228
 20
32.415833
 11
-82.58523
 21
32.415833
  0
LINE
  8
別途部材
  6
CONTINUOUS
 10
-91.085228
 20
45.915833
 11
-91.085235
 21
45.41583
  0
LINE
  8
別途部材
  6
CONTINUOUS
 10
-74.585228
 20
33.415838
 11
-82.58523
 21
33.415838
  0
ARC
  8
別途部材
  6
CONTINUOUS
 10
-75.585235
 20
-3.584164
 40
1.0
 50
270.0
 51
360.0
  0
LINE
  8
別途部材
  6
CONTINUOUS
 10
-81.585232
 20
-4.584165
 11
-75.585232
 21
-4.584165
  0
ARC
  8
別途部材
  6
CONTINUOUS
 10
-81.585235
 20
-3.584164
 40
1.0
 50
180.0
 51
270.0
  0
LINE
  8
別途部材
  6
CONTINUOUS
 10
-74.585228
 20
-3.584167
 11
-74.585228
 21
44.915835
  0
ARC
  8
別途部材
  6
CONTINUOUS
 10
-75.585235
 20
44.915836
 40
1.0
 50
0.0
 51
90.0
  0
LINE
  8
別途部材
  6
CONTINUOUS
 10
-82.58523
 20
-3.584167
 11
-82.58523
 21
44.915835
  0
ARC
  8
別途部材
  6
CONTINUOUS
 10
-81.585235
 20
44.915836
 40
1.0
 50
90.0
 51
180.0
  0
LINE
  8
別途部材
  6
CONTINUOUS
 10
-75.585232
 20
45.915833
 11
-91.085228
 21
45.915833
  0
LINE
  8
別途部材
  6
CONTINUOUS
 10
-80.285228
 20
26.415833
 11
-80.285228
 21
21.415838
  0
LINE
  8
別途部材
  6
CONTINUOUS
 10
-80.285228
 20
6.415838
 11
-80.285228
 21
1.415827
  0
POLYLINE
  8
別途部材
  6
CONTINUOUS
 66
     1
  0
VERTEX
  8
別途部材
 10
-82.58523
 20
27.915833
  0
VERTEX
  8
別途部材
 10
-80.285228
 20
26.415833
  0
VERTEX
  8
別途部材
 10
-74.585228
 20
26.415833
  0
SEQEND
  0
LINE
  8
別途部材
  6
CONTINUOUS
 10
-82.58523
 20
23.915827
 11
-74.585228
 21
23.915827
  0
POLYLINE
  8
別途部材
  6
CONTINUOUS
 66
     1
  0
VERTEX
  8
別途部材
 10
-82.58523
 20
19.915838
  0
VERTEX
  8
別途部材
 10
-80.285228
 20
21.415838
  0
VERTEX
  8
別途部材
 10
-74.585228
 20
21.415838
  0
SEQEND
  0
POLYLINE
  8
別途部材
  6
CONTINUOUS
 66
     1
  0
VERTEX
  8
別途部材
 10
-82.58523
 20
7.915838
  0
VERTEX
  8
別途部材
 10
-80.285228
 20
6.415838
  0
VERTEX
  8
別途部材
 10
-74.585228
 20
6.415838
  0
SEQEND
  0
LINE
  8
別途部材
  6
CONTINUOUS
 10
-82.58523
 20
3.915833
 11
-74.585228
 21
3.915833
  0
POLYLINE
  8
別途部材
  6
CONTINUOUS
 66
     1
  0
VERTEX
  8
別途部材
 10
-82.58523
 20
-0.084173
  0
VERTEX
  8
別途部材
 10
-80.285228
 20
1.415827
  0
VERTEX
  8
別途部材
 10
-74.585228
 20
1.415827
  0
SEQEND
  0
ENDBLK
  0
BLOCK
  2
*GRP_0056
 70
    65
 10
0.0
 20
0.0
  0
ARC
  8
型材断面
  6
CONTINUOUS
 62
    47
 10
-18.712984
 20
-4.883791
 40
0.199974
 50
270.0
 51
386.565051
  0
ARC
  8
型材断面
  6
CONTINUOUS
 62
    47
 10
-14.066372
 20
-4.883791
 40
0.199974
 50
153.434949
 51
270.0
  0
LINE
  8
型材断面
  6
CONTINUOUS
 62
    47
 10
-11.690262
 20
-5.083798
 11
-14.066345
 21
-5.083798
  0
ARC
  8
型材断面
  6
CONTINUOUS
 62
    47
 10
-11.690287
 20
-4.783804
 40
0.299961
 50
270.0
 51
360.0
  0
LINE
  8
型材断面
  6
CONTINUOUS
 62
    47
 10
-21.388993
 20
-3.884173
 11
-23.388987
 21
-3.884173
  0
LINE
  8
型材断面
  6
CONTINUOUS
 62
    47
 10
-43.08521
 20
-4.583795
 11
-43.08521
 21
-3.884173
  0
ARC
  8
型材断面
  6
CONTINUOUS
 62
    47
 10
-43.585214
 20
-4.583792
 40
0.5
 50
270.0
 51
360.0
  0
LINE
  8
型材断面
  6
CONTINUOUS
 62
    47
 10
-46.08521
 20
-5.083798
 11
-43.585213
 21
-5.083798
  0
LINE
  8
型材断面
  6
CONTINUOUS
 62
    47
 10
-46.585213
 20
-2.084173
 11
-46.585213
 21
-4.583795
  0
ARC
  8
型材断面
  6
CONTINUOUS
 62
    47
 10
-46.085214
 20
-4.583792
 40
0.5
 50
180.0
 51
270.0
  0
LINE
  8
型材断面
  6
CONTINUOUS
 62
    47
 10
-18.71297
 20
-5.083798
 11
-22.888993
 21
-5.083798
  0
LINE
  8
型材断面
  6
CONTINUOUS
 62
    47
 10
-23.388987
 20
-4.583795
 11
-23.388987
 21
-3.884173
  0
ARC
  8
型材断面
  6
CONTINUOUS
 62
    47
 10
-22.888994
 20
-4.583792
 40
0.5
 50
180.0
 51
270.0
  0
LINE
  8
型材断面
  6
CONTINUOUS
 62
    47
 10
-23.388987
 20
-1.19723
 11
-23.388987
 21
-2.084173
  0
LINE
  8
型材断面
  6
CONTINUOUS
 62
    47
 10
-21.388993
 20
-2.084173
 11
-23.388987
 21
-2.084173
  0
LINE
  8
型材断面
  6
CONTINUOUS
 62
    47
 10
-43.08521
 20
-0.16601
 11
-43.08521
 21
-2.084173
  0
LINE
  8
型材断面
  6
CONTINUOUS
 62
    47
 10
-21.388993
 20
-3.884173
 11
-21.388993
 21
-2.084173
  0
LINE
  8
型材断面
  6
CONTINUOUS
 62
    47
 10
-32.237105
 20
-2.084173
 11
-34.2371
 21
-2.084173
  0
LINE
  8
型材断面
  6
CONTINUOUS
 62
    47
 10
-32.237105
 20
-2.084173
 11
-32.237105
 21
-0.733978
  0
LINE
  8
型材断面
  6
CONTINUOUS
 62
    47
 10
-34.2371
 20
-2.084173
 11
-34.2371
 21
-0.629263
  0
LINE
  8
型材断面
  6
CONTINUOUS
 62
    47
 10
-43.08521
 20
-0.16601
 11
-34.2371
 21
-0.629263
  0
LINE
  8
型材断面
  6
CONTINUOUS
 62
    47
 10
-11.390293
 20
-4.78382
 11
-11.390293
 21
-1.82543
  0
LINE
  8
型材断面
  6
CONTINUOUS
 62
    47
 10
-32.237105
 20
-0.733978
 11
-23.388987
 21
-1.19723
  0
LINE
  8
型材断面
  6
CONTINUOUS
 62
    47
 10
-12.872157
 20
-2.048255
 11
-20.09627
 21
-1.67003
  0
LINE
  8
型材断面
  6
CONTINUOUS
 62
    47
 10
-18.534095
 20
-4.794373
 11
-20.09627
 21
-1.67003
  0
LINE
  8
型材断面
  6
CONTINUOUS
 62
    47
 10
-14.24522
 20
-4.794373
 11
-12.872157
 21
-2.048255
  0
LINE
  8
型材断面
  6
CONTINUOUS
 62
    47
 10
-43.08521
 20
-2.084173
 11
-45.085213
 21
-2.084173
  0
LINE
  8
型材断面
  6
CONTINUOUS
 62
    47
 10
-45.085213
 20
-2.084173
 11
-45.085213
 21
-3.884173
  0
LINE
  8
型材断面
  6
CONTINUOUS
 62
    47
 10
-43.08521
 20
-3.884173
 11
-45.085213
 21
-3.884173
  0
LINE
  8
型材断面
  6
CONTINUOUS
 62
    47
 10
-16.093355
 20
0.123137
 11
-16.37726
 21
0.438415
  0
LINE
  8
型材断面
  6
CONTINUOUS
 62
    47
 10
-16.093355
 20
0.123137
 11
-15.778085
 21
0.407042
  0
LINE
  8
型材断面
  6
CONTINUOUS
 62
    47
 10
-44.58521
 20
1.915263
 11
-16.37726
 21
0.438415
  0
LINE
  8
型材断面
  6
CONTINUOUS
 62
    47
 10
-73.08521
 20
-4.783798
 11
-73.08521
 21
-2.084173
  0
ARC
  8
型材断面
  6
CONTINUOUS
 62
    47
 10
-73.385214
 20
-4.783792
 40
0.3
 50
270.0
 51
360.0
  0
LINE
  8
型材断面
  6
CONTINUOUS
 62
    47
 10
-74.28521
 20
-5.083798
 11
-73.38521
 21
-5.083798
  0
ARC
  8
型材断面
  6
CONTINUOUS
 62
    47
 10
-74.285214
 20
-4.783792
 40
0.3
 50
180.0
 51
270.0
  0
LINE
  8
型材断面
  6
CONTINUOUS
 62
    47
 10
-46.585213
 20
-2.084173
 11
-73.08521
 21
-2.084173
  0
LINE
  8
型材断面
  6
CONTINUOUS
 62
    47
 10
-44.88521
 20
33.715285
 11
-44.58521
 21
34.015285
  0
LINE
  8
型材断面
  6
CONTINUOUS
 62
    47
 10
-44.88521
 20
33.715285
 11
-44.58521
 21
33.415285
  0
LINE
  8
型材断面
  6
CONTINUOUS
 62
    47
 10
-44.88521
 20
14.448355
 11
-44.58521
 21
14.748355
  0
LINE
  8
型材断面
  6
CONTINUOUS
 62
    47
 10
-44.88521
 20
14.448355
 11
-44.58521
 21
14.148355
  0
LINE
  8
型材断面
  6
CONTINUOUS
 62
    47
 10
-44.58521
 20
1.915263
 11
-44.58521
 21
14.148355
  0
LINE
  8
型材断面
  6
CONTINUOUS
 62
    47
 10
-44.58521
 20
14.748355
 11
-44.58521
 21
33.415285
  0
LINE
  8
型材断面
  6
CONTINUOUS
 62
    47
 10
-72.585207
 20
47.91583
 11
-82.585213
 21
47.91583
  0
LINE
  8
型材断面
  6
CONTINUOUS
 62
    47
 10
-74.58521
 20
45.915827
 11
-84.585207
 21
45.915827
  0
LINE
  8
型材断面
  6
CONTINUOUS
 62
    47
 10
-82.585213
 20
52.815827
 11
-82.585213
 21
47.91583
  0
LINE
  8
型材断面
  6
CONTINUOUS
 62
    47
 10
-46.585213
 20
52.815827
 11
-82.585213
 21
52.815827
  0
LINE
  8
型材断面
  6
CONTINUOUS
 62
    47
 10
-59.684908
 20
55.815302
 11
-59.684908
 21
54.81583
  0
LINE
  8
型材断面
  6
CONTINUOUS
 62
    47
 10
-64.585205
 20
85.612075
 11
-64.885205
 21
85.912075
  0
LINE
  8
型材断面
  6
CONTINUOUS
 62
    47
 10
-64.585205
 20
85.612075
 11
-64.285205
 21
85.912075
  0
LINE
  8
型材断面
  6
CONTINUOUS
 62
    47
 10
-64.888782
 20
85.915645
 11
-74.58521
 21
85.915645
  0
LINE
  8
型材断面
  6
CONTINUOUS
 62
    47
 10
-74.085207
 20
84.412045
 11
-74.58521
 21
84.912047
  0
LINE
  8
型材断面
  6
CONTINUOUS
 62
    47
 10
-69.085213
 20
82.915645
 11
-70.581613
 21
84.412045
  0
LINE
  8
型材断面
  6
CONTINUOUS
 62
    47
 10
-74.085207
 20
84.412045
 11
-70.581613
 21
84.412045
  0
LINE
  8
型材断面
  6
CONTINUOUS
 62
    47
 10
-74.58521
 20
85.915645
 11
-74.58521
 21
84.912047
  0
LINE
  8
型材断面
  6
CONTINUOUS
 62
    47
 10
-74.78486
 20
54.81583
 11
-83.58521
 21
54.81583
  0
LINE
  8
型材断面
  6
CONTINUOUS
 62
    47
 10
-75.684905
 20
54.81583
 11
-83.58521
 21
54.81583
  0
LINE
  8
型材断面
  6
CONTINUOUS
 62
    47
 10
-52.68491
 20
64.364523
 11
-52.68491
 21
84.415645
  0
LINE
  8
型材断面
  6
CONTINUOUS
 62
    47
 10
-58.184908
 20
54.81583
 11
-58.184908
 21
56.815825
  0
LINE
  8
型材断面
  6
CONTINUOUS
 62
    47
 10
-59.684908
 20
54.81583
 11
-59.684908
 21
56.815825
  0
LINE
  8
型材断面
  6
CONTINUOUS
 62
    47
 10
-58.184908
 20
56.815825
 11
-59.684908
 21
56.815825
  0
LINE
  8
型材断面
  6
CONTINUOUS
 62
    47
 10
-58.184908
 20
68.61379
 11
-59.684908
 21
68.61379
  0
LINE
  8
型材断面
  6
CONTINUOUS
 62
    47
 10
-54.684905
 20
54.81583
 11
-58.184908
 21
54.81583
  0
LINE
  8
型材断面
  6
CONTINUOUS
 62
    47
 10
-73.28486
 20
54.81583
 11
-59.684908
 21
54.81583
  0
LINE
  8
型材断面
  6
CONTINUOUS
 62
    47
 10
-69.085213
 20
82.915645
 11
-54.684905
 21
82.915645
  0
LINE
  8
型材断面
  6
CONTINUOUS
 62
    47
 10
-54.684905
 20
72.113793
 11
-54.684905
 21
82.915645
  0
LINE
  8
型材断面
  6
CONTINUOUS
 62
    47
 10
-52.98491
 20
62.714815
 11
-52.68491
 21
63.014815
  0
LINE
  8
型材断面
  6
CONTINUOUS
 62
    47
 10
-52.98491
 20
62.714815
 11
-52.68491
 21
62.414815
  0
LINE
  8
型材断面
  6
CONTINUOUS
 62
    47
 10
-52.68491
 20
65.315305
 11
-52.68491
 21
63.014815
  0
LINE
  8
型材断面
  6
CONTINUOUS
 62
    47
 10
-48.585207
 20
85.912068
 11
-48.585207
 21
84.415645
  0
LINE
  8
型材断面
  6
CONTINUOUS
 62
    47
 10
-52.68491
 20
84.415645
 11
-48.585207
 21
84.415645
  0
LINE
  8
型材断面
  6
CONTINUOUS
 62
    47
 10
-74.58521
 20
-4.783798
 11
-74.58521
 21
45.915827
  0
LINE
  8
型材断面
  6
CONTINUOUS
 62
    47
 10
-72.585207
 20
46.41583
 11
-72.585207
 21
-0.08417
  0
LINE
  8
型材断面
  6
CONTINUOUS
 62
    47
 10
-46.585213
 20
52.815827
 11
-46.585213
 21
-0.08417
  0
LINE
  8
型材断面
  6
CONTINUOUS
 62
    47
 10
-85.585213
 20
53.815825
 11
-84.585207
 21
53.815825
  0
LINE
  8
型材断面
  6
CONTINUOUS
 62
    47
 10
-84.585207
 20
45.915827
 11
-84.585207
 21
53.815825
  0
LINE
  8
型材断面
  6
CONTINUOUS
 62
    47
 10
-83.58521
 20
54.81583
 11
-84.585207
 21
54.81583
  0
LINE
  8
型材断面
  6
CONTINUOUS
 62
    47
 10
-52.68491
 20
62.414815
 11
-52.68491
 21
54.915827
  0
LINE
  8
型材断面
  6
CONTINUOUS
 62
    47
 10
-52.68491
 20
54.915827
 11
-44.58521
 21
54.915827
  0
LINE
  8
型材断面
  6
CONTINUOUS
 62
    47
 10
-44.58521
 20
34.015285
 11
-44.58521
 21
54.915827
  0
LINE
  8
型材断面
  6
CONTINUOUS
 62
    47
 10
-85.585213
 20
53.815825
 11
-85.585213
 21
55.915825
  0
LINE
  8
型材断面
  6
CONTINUOUS
 62
    47
 10
-85.585213
 20
55.915825
 11
-84.585207
 21
55.915825
  0
LINE
  8
型材断面
  6
CONTINUOUS
 62
    47
 10
-84.585207
 20
54.81583
 11
-84.585207
 21
55.915825
  0
ARC
  8
型材断面
  6
CONTINUOUS
 62
    47
 10
-6.880934
 20
-4.773334
 40
0.299961
 50
270.0
 51
360.0
  0
LINE
  8
型材断面
  6
CONTINUOUS
 62
    47
 10
-8.280717
 20
-5.073327
 11
-6.880918
 21
-5.073327
  0
ARC
  8
型材断面
  6
CONTINUOUS
 62
    47
 10
-8.280753
 20
-4.773334
 40
0.299961
 50
180.0
 51
270.0
  0
LINE
  8
型材断面
  6
CONTINUOUS
 62
    47
 10
-6.58094
 20
-4.77335
 11
-6.58094
 21
-0.07448
  0
LINE
  8
型材断面
  6
CONTINUOUS
 62
    47
 10
-8.580695
 20
-4.77335
 11
-8.580695
 21
-1.972535
  0
LINE
  8
型材断面
  6
CONTINUOUS
 62
    47
 10
-15.778085
 20
0.407042
 11
-6.58094
 21
-0.07448
  0
LINE
  8
型材断面
  6
CONTINUOUS
 62
    47
 10
-11.390293
 20
-1.82543
 11
-8.580695
 21
-1.972535
  0
LINE
  8
型材断面
  6
CONTINUOUS
 62
    47
 10
-65.285697
 20
70.313793
 11
-59.684908
 21
70.313793
  0
LINE
  8
型材断面
  6
CONTINUOUS
 62
    47
 10
-54.684905
 20
70.313793
 11
-58.184908
 21
70.313793
  0
LINE
  8
型材断面
  6
CONTINUOUS
 62
    47
 10
-54.684905
 20
54.81583
 11
-54.684905
 21
70.313793
  0
LINE
  8
型材断面
  6
CONTINUOUS
 62
    47
 10
-58.184908
 20
68.61379
 11
-58.184908
 21
70.313793
  0
LINE
  8
型材断面
  6
CONTINUOUS
 62
    47
 10
-59.684908
 20
68.61379
 11
-59.684908
 21
70.313793
  0
ARC
  8
型材断面
  6
CONTINUOUS
 62
    47
 10
-67.985699
 20
70.713794
 40
0.1
 50
135.0
 51
270.0
  0
LINE
  8
型材断面
  6
CONTINUOUS
 62
    47
 10
-66.785697
 20
70.613793
 11
-67.985697
 21
70.613793
  0
LINE
  8
型材断面
  6
CONTINUOUS
 62
    47
 10
-68.056408
 20
70.7845
 11
-66.727123
 21
72.113793
  0
LINE
  8
型材断面
  6
CONTINUOUS
 62
    47
 10
-66.785697
 20
70.613793
 11
-67.985697
 21
70.613793
  0
LINE
  8
型材断面
  6
CONTINUOUS
 62
    47
 10
-54.684905
 20
72.113793
 11
-66.727123
 21
72.113793
  0
LINE
  8
型材断面
  6
CONTINUOUS
 62
    47
 10
-65.285697
 20
70.313793
 11
-65.285743
 21
62.31379
  0
LINE
  8
型材断面
  6
CONTINUOUS
 62
    47
 10
-66.785697
 20
70.6138
 11
-66.785743
 21
62.31379
  0
LINE
  8
型材断面
  6
CONTINUOUS
 62
    47
 10
-66.785743
 20
62.31379
 11
-65.285743
 21
62.31379
  0
LINE
  8
型材断面
  6
CONTINUOUS
 62
    47
 10
-73.28486
 20
54.81583
 11
-73.28486
 21
57.115825
  0
ARC
  8
型材断面
  6
CONTINUOUS
 62
    47
 10
-71.884859
 20
57.215829
 40
0.1
 50
270.0
 51
405.0
  0
LINE
  8
型材断面
  6
CONTINUOUS
 62
    47
 10
-73.28486
 20
57.115825
 11
-71.884857
 21
57.115825
  0
LINE
  8
型材断面
  6
CONTINUOUS
 62
    47
 10
-71.814148
 20
57.28654
 11
-73.14344
 21
58.615825
  0
LINE
  8
型材断面
  6
CONTINUOUS
 62
    47
 10
-73.14344
 20
58.615825
 11
-74.78486
 21
58.615825
  0
LINE
  8
型材断面
  6
CONTINUOUS
 62
    47
 10
-74.78486
 20
54.81583
 11
-74.78486
 21
58.615825
  0
LINE
  8
型材断面
  6
CONTINUOUS
 62
    47
 10
-82.08521
 20
47.91583
 11
-66.585207
 21
47.91583
  0
LINE
  8
型材断面
  6
CONTINUOUS
 62
    47
 10
-66.585207
 20
47.91583
 11
-66.585207
 21
44.415827
  0
LINE
  8
型材断面
  6
CONTINUOUS
 62
    47
 10
-66.585207
 20
44.415827
 11
-68.085207
 21
44.415827
  0
LINE
  8
型材断面
  6
CONTINUOUS
 62
    47
 10
-68.085207
 20
44.415827
 11
-68.085207
 21
46.41583
  0
LINE
  8
型材断面
  6
CONTINUOUS
 62
    47
 10
-72.585207
 20
46.41583
 11
-68.085207
 21
46.41583
  0
LINE
  8
型材断面
  6
CONTINUOUS
 62
    47
 10
-66.585207
 20
-0.08417
 11
-66.585207
 21
1.41583
  0
LINE
  8
型材断面
  6
CONTINUOUS
 62
    47
 10
-68.085207
 20
-0.08417
 11
-68.085207
 21
1.41583
  0
LINE
  8
型材断面
  6
CONTINUOUS
 62
    47
 10
-46.585213
 20
-0.08417
 11
-66.585207
 21
-0.08417
  0
LINE
  8
型材断面
  6
CONTINUOUS
 62
    47
 10
-72.585207
 20
-0.08417
 11
-68.085207
 21
-0.08417
  0
LINE
  8
型材断面
  6
CONTINUOUS
 62
    47
 10
-48.585207
 20
85.912068
 11
-64.285213
 21
85.912068
  0
LINE
  8
寸法
  6
CONTINUOUS
 62
    47
 10
-66.585207
 20
1.41583
 11
-68.085207
 21
1.41583
  0
ENDBLK
  0
BLOCK
  2
*GRP_0057
 70
    65
 10
0.0
 20
0.0
  0
LINE
  8
型材断面
  6
CONTINUOUS
 62
    47
 10
-40.18163
 20
-11.08433
 11
-20.484177
 21
-11.08433
  0
LINE
  8
型材断面
  6
CONTINUOUS
 62
    47
 10
-40.18163
 20
-11.08433
 11
-20.484177
 21
-11.08433
  0
LINE
  8
型材断面
  6
CONTINUOUS
 62
    47
 10
-44.680588
 20
-11.08433
 11
-48.480365
 21
-11.08433
  0
ARC
  8
型材断面
  6
CONTINUOUS
 62
    47
 10
-51.181132
 20
-9.384489
 40
0.299961
 50
0.0
 51
90.0
  0
LINE
  8
型材断面
  6
CONTINUOUS
 62
    47
 10
-51.781017
 20
-9.084552
 11
-51.181092
 21
-9.084552
  0
ARC
  8
型材断面
  6
CONTINUOUS
 62
    47
 10
-51.781054
 20
-9.384489
 40
0.299961
 50
90.0
 51
180.0
  0
LINE
  8
型材断面
  6
CONTINUOUS
 62
    47
 10
-50.881138
 20
-9.3845
 11
-50.881138
 21
-11.0843
  0
LINE
  8
型材断面
  6
CONTINUOUS
 62
    47
 10
-52.080965
 20
-9.3845
 11
-52.080965
 21
-11.0843
  0
LINE
  8
型材断面
  6
CONTINUOUS
 62
    47
 10
-35.277237
 20
-11.0843
 11
-50.881138
 21
-11.0843
  0
LINE
  8
型材断面
  6
CONTINUOUS
 62
    47
 10
-48.781835
 20
-11.0843
 11
-50.881138
 21
-11.0843
  0
ARC
  8
型材断面
  6
CONTINUOUS
 62
    47
 10
-73.385219
 20
-9.384546
 40
0.3
 50
0.0
 51
90.0
  0
LINE
  8
型材断面
  6
CONTINUOUS
 62
    47
 10
-74.285218
 20
-9.084552
 11
-73.385217
 21
-9.084552
  0
ARC
  8
型材断面
  6
CONTINUOUS
 62
    47
 10
-74.285219
 20
-9.384546
 40
0.3
 50
90.0
 51
180.0
  0
LINE
  8
型材断面
  6
CONTINUOUS
 62
    47
 10
-73.085217
 20
-11.0843
 11
-73.085217
 21
-9.384552
  0
LINE
  8
型材断面
  6
CONTINUOUS
 62
    47
 10
-52.080965
 20
-11.0843
 11
-73.085217
 21
-11.0843
  0
LINE
  8
型材断面
  6
CONTINUOUS
 62
    47
 10
-50.880965
 20
-32.0846
 11
-50.580965
 21
-31.7846
  0
LINE
  8
型材断面
  6
CONTINUOUS
 62
    47
 10
-50.880965
 20
-32.0846
 11
-50.580965
 21
-32.3846
  0
LINE
  8
型材断面
  6
CONTINUOUS
 62
    47
 10
-50.880965
 20
-46.08482
 11
-50.580965
 21
-45.78482
  0
LINE
  8
型材断面
  6
CONTINUOUS
 62
    47
 10
-50.880965
 20
-46.08482
 11
-50.580965
 21
-46.38482
  0
LINE
  8
型材断面
  6
CONTINUOUS
 62
    47
 10
-50.580965
 20
-13.084055
 11
-50.580965
 21
-31.7846
  0
LINE
  8
型材断面
  6
CONTINUOUS
 62
    47
 10
-50.580965
 20
-32.3846
 11
-50.580965
 21
-45.78482
  0
LINE
  8
型材断面
  6
CONTINUOUS
 62
    47
 10
-16.380973
 20
-11.38433
 11
-16.680973
 21
-11.08433
  0
LINE
  8
型材断面
  6
CONTINUOUS
 62
    47
 10
-16.380973
 20
-11.38433
 11
-16.080973
 21
-11.08433
  0
LINE
  8
型材断面
  6
CONTINUOUS
 62
    47
 10
-27.283993
 20
-11.08433
 11
-16.680973
 21
-11.08433
  0
LINE
  8
型材断面
  6
CONTINUOUS
 62
    47
 10
-74.585217
 20
-65.0843
 11
-98.085215
 21
-65.0843
  0
LINE
  8
型材断面
  6
CONTINUOUS
 62
    47
 10
0.419283
 20
-95.084338
 11
-1.080717
 21
-95.084338
  0
LINE
  8
型材断面
  6
CONTINUOUS
 62
    47
 10
-1.080717
 20
-95.084338
 11
-1.080717
 21
-85.084235
  0
LINE
  8
型材断面
  6
CONTINUOUS
 62
    47
 10
15.419035
 20
-70.084303
 11
15.419035
 21
-85.084355
  0
LINE
  8
型材断面
  6
CONTINUOUS
 62
    47
 10
0.419283
 20
-95.084338
 11
0.419283
 21
-85.084355
  0
ARC
  8
型材断面
  6
CONTINUOUS
 62
    47
 10
-58.684991
 20
-83.584353
 40
0.5
 50
0.0
 51
90.0
  0
LINE
  8
型材断面
  6
CONTINUOUS
 62
    47
 10
-58.18499
 20
-83.584355
 11
-58.18499
 21
-84.584232
  0
ARC
  8
型材断面
  6
CONTINUOUS
 62
    47
 10
-58.684991
 20
-84.584228
 40
0.5
 50
270.0
 51
360.0
  0
LINE
  8
型材断面
  6
CONTINUOUS
 62
    47
 10
13.419032
 20
-83.08436
 11
13.419032
 21
-71.93852
  0
LINE
  8
型材断面
  6
CONTINUOUS
 62
    47
 10
-70.580968
 20
-83.08436
 11
-70.580968
 21
-67.084303
  0
LINE
  8
型材断面
  6
CONTINUOUS
 62
    47
 10
-58.684993
 20
-83.08436
 11
-70.580968
 21
-83.08436
  0
LINE
  8
型材断面
  6
CONTINUOUS
 62
    47
 10
15.419035
 20
-70.084303
 11
-50.580965
 21
-65.0843
  0
LINE
  8
型材断面
  6
CONTINUOUS
 62
    47
 10
-72.585215
 20
-65.0843
 11
-52.580968
 21
-65.0843
  0
ARC
  8
型材断面
  6
CONTINUOUS
 62
    47
 10
-10.684991
 20
-83.584353
 40
0.5
 50
90.0
 51
180.0
  0
LINE
  8
型材断面
  6
CONTINUOUS
 62
    47
 10
-11.184995
 20
-83.584355
 11
-11.184995
 21
-84.584232
  0
ARC
  8
型材断面
  6
CONTINUOUS
 62
    47
 10
-10.684991
 20
-84.584228
 40
0.5
 50
180.0
 51
270.0
  0
LINE
  8
型材断面
  6
CONTINUOUS
 62
    47
 10
-1.080717
 20
-85.084235
 11
-10.684993
 21
-85.084235
  0
LINE
  8
型材断面
  6
CONTINUOUS
 62
    47
 10
13.419032
 20
-83.08436
 11
-10.684993
 21
-83.08436
  0
LINE
  8
型材断面
  6
CONTINUOUS
 62
    47
 10
-50.880965
 20
-62.0843
 11
-50.580965
 21
-61.7843
  0
LINE
  8
型材断面
  6
CONTINUOUS
 62
    47
 10
-50.880965
 20
-62.0843
 11
-50.580965
 21
-62.3843
  0
LINE
  8
型材断面
  6
CONTINUOUS
 62
    47
 10
-50.580965
 20
-65.0843
 11
-50.580965
 21
-62.3843
  0
LINE
  8
型材断面
  6
CONTINUOUS
 62
    47
 10
13.419032
 20
-71.93852
 11
-50.65661
 21
-67.084303
  0
LINE
  8
型材断面
  6
CONTINUOUS
 62
    47
 10
-74.585217
 20
-9.384545
 11
-74.585217
 21
-65.0843
  0
LINE
  8
型材断面
  6
CONTINUOUS
 62
    47
 10
-50.580965
 20
-46.38482
 11
-50.580965
 21
-61.7843
  0
LINE
  8
型材断面
  6
CONTINUOUS
 62
    47
 10
-52.580968
 20
-13.084303
 11
-72.585215
 21
-13.084303
  0
LINE
  8
型材断面
  6
CONTINUOUS
 62
    47
 10
-52.580968
 20
-65.0843
 11
-52.580968
 21
-13.084303
  0
LINE
  8
型材断面
  6
CONTINUOUS
 62
    47
 10
-72.585215
 20
-65.0843
 11
-72.585215
 21
-13.084303
  0
LINE
  8
型材断面
  6
CONTINUOUS
 62
    47
 10
-50.65661
 20
-67.084303
 11
-70.580968
 21
-67.084303
  0
LINE
  8
型材断面
  6
CONTINUOUS
 62
    47
 10
-72.58097
 20
-67.084303
 11
-99.585215
 21
-67.084303
  0
LINE
  8
型材断面
  6
CONTINUOUS
 62
    47
 10
-72.58097
 20
-85.084235
 11
-72.58097
 21
-67.084303
  0
LINE
  8
型材断面
  6
CONTINUOUS
 62
    47
 10
-62.180728
 20
-84.784235
 11
-62.480728
 21
-85.084235
  0
LINE
  8
型材断面
  6
CONTINUOUS
 62
    47
 10
-62.180728
 20
-84.784235
 11
-61.880728
 21
-85.084235
  0
LINE
  8
型材断面
  6
CONTINUOUS
 62
    47
 10
-58.684993
 20
-85.084235
 11
-61.880728
 21
-85.084235
  0
LINE
  8
型材断面
  6
CONTINUOUS
 62
    47
 10
-72.58097
 20
-85.084235
 11
-62.480728
 21
-85.084235
  0
LINE
  8
型材断面
  6
CONTINUOUS
 62
    47
 10
6.419035
 20
-84.784355
 11
6.119035
 21
-85.084355
  0
LINE
  8
型材断面
  6
CONTINUOUS
 62
    47
 10
6.419035
 20
-84.784355
 11
6.719035
 21
-85.084355
  0
LINE
  8
型材断面
  6
CONTINUOUS
 62
    47
 10
0.419283
 20
-85.084355
 11
6.119035
 21
-85.084355
  0
LINE
  8
型材断面
  6
CONTINUOUS
 62
    47
 10
15.419035
 20
-85.084355
 11
6.719035
 21
-85.084355
  0
ARC
  8
型材断面
  6
CONTINUOUS
 62
    47
 10
-6.880976
 20
-9.384519
 40
0.299961
 50
0.0
 51
90.0
  0
LINE
  8
型材断面
  6
CONTINUOUS
 62
    47
 10
-7.48088
 20
-9.084583
 11
-6.880955
 21
-9.084583
  0
ARC
  8
型材断面
  6
CONTINUOUS
 62
    47
 10
-7.480899
 20
-9.384519
 40
0.299961
 50
90.0
 51
180.0
  0
LINE
  8
型材断面
  6
CONTINUOUS
 62
    47
 10
-7.780828
 20
-9.38453
 11
-7.780828
 21
-11.08433
  0
LINE
  8
型材断面
  6
CONTINUOUS
 62
    47
 10
-6.580977
 20
-9.38453
 11
-6.580977
 21
-13.084055
  0
LINE
  8
型材断面
  6
CONTINUOUS
 62
    47
 10
-50.580965
 20
-13.084055
 11
-6.580977
 21
-13.084055
  0
LINE
  8
型材断面
  6
CONTINUOUS
 62
    47
 10
-16.080973
 20
-11.08433
 11
-7.780828
 21
-11.08433
  0
LINE
  8
型材断面
  6
CONTINUOUS
 62
    47
 10
-98.085215
 20
-65.0843
 11
-98.085215
 21
-57.084305
  0
LINE
  8
型材断面
  6
CONTINUOUS
 62
    47
 10
-99.585215
 20
-67.084303
 11
-99.585215
 21
-57.084305
  0
LINE
  8
St
  6
DASHDOT
 62
    47
 10
-98.085215
 20
-57.084305
 11
-99.585215
 21
-57.084305
  0
ENDBLK
  0
BLOCK
  2
*DIM_0058
 70
    65
 10
0.0
 20
0.0
  0
LINE
  8
寸法
  6
CONTINUOUS
 10
-99.585228
 20
116.417653
 11
-84.585228
 21
116.417653
  0
POINT
  8
寸法
 10
-84.585228
 20
116.417653
  0
TEXT
  7
TextStyle03
  8
寸法
  6
CONTINUOUS
 10
-94.225
 20
116.775
  1
15
 40
4.0
 72
     5
 11
-89.975
 21
116.775
  0
ENDBLK
  0
BLOCK
  2
*DIM_0059
 70
    65
 10
0.0
 20
0.0
  0
LINE
  8
寸法
  6
CONTINUOUS
 10
-6.58094
 20
116.417653
 11
15.419023
 21
116.417653
  0
POINT
  8
寸法
 10
15.419023
 20
116.417653
  0
TEXT
  7
TextStyle03
  8
寸法
  6
CONTINUOUS
 10
2.275
 20
116.775
  1
22
 40
4.0
 72
     5
 11
6.525
 21
116.775
  0
ENDBLK
  0
BLOCK
  2
*GRP_0060
 70
    65
 10
0.0
 20
0.0
  0
LINE
  8
ゴム等
  6
CONTINUOUS
 10
-86.185085
 20
67.2157
 11
-86.185085
 21
69.0157
  0
LINE
  8
ゴム等
  6
CONTINUOUS
 10
-82.585085
 20
69.0157
 11
-86.185085
 21
69.0157
  0
LINE
  8
ゴム等
  6
CONTINUOUS
 10
-90.985085
 20
67.2157
 11
-90.985085
 21
69.0157
  0
LINE
  8
ゴム等
  6
CONTINUOUS
 10
-94.585085
 20
69.0157
 11
-90.985085
 21
69.0157
  0
LINE
  8
ゴム等
  6
CONTINUOUS
 10
-90.985085
 20
67.2157
 11
-91.985083
 21
67.2157
  0
LINE
  8
ゴム等
  6
CONTINUOUS
 10
-91.985083
 20
67.2157
 11
-91.985083
 21
66.715697
  0
LINE
  8
ゴム等
  6
CONTINUOUS
 10
-86.185085
 20
67.2157
 11
-85.18508
 21
67.2157
  0
LINE
  8
ゴム等
  6
CONTINUOUS
 10
-85.18508
 20
66.715697
 11
-85.18508
 21
67.2157
  0
ARC
  8
ゴム等
  6
CONTINUOUS
 10
-88.585083
 20
66.415701
 40
1.0
 50
180.0
 51
270.0
  0
LINE
  8
ゴム等
  6
CONTINUOUS
 10
-88.585085
 20
65.4157
 11
-88.585085
 21
65.4157
  0
ARC
  8
ゴム等
  6
CONTINUOUS
 10
-88.585083
 20
66.415701
 40
1.0
 50
270.0
 51
360.0
  0
LINE
  8
ゴム等
  6
CONTINUOUS
 10
-87.58508
 20
68.015703
 11
-87.58508
 21
66.415697
  0
ARC
  8
ゴム等
  6
CONTINUOUS
 10
-88.585083
 20
68.015701
 40
1.0
 50
0.0
 51
90.0
  0
LINE
  8
ゴム等
  6
CONTINUOUS
 10
-88.585085
 20
69.0157
 11
-88.585085
 21
69.0157
  0
LINE
  8
ゴム等
  6
CONTINUOUS
 10
-89.585083
 20
68.015703
 11
-89.585083
 21
66.415697
  0
ARC
  8
ゴム等
  6
CONTINUOUS
 10
-88.585083
 20
68.015701
 40
1.0
 50
90.0
 51
180.0
  0
LINE
  8
ゴム等
  6
CONTINUOUS
 10
-82.756655
 20
69.0157
 11
-82.585085
 21
69.187277
  0
LINE
  8
ゴム等
  6
CONTINUOUS
 10
-91.627722
 20
67.2157
 11
-91.985083
 21
66.85834
  0
LINE
  8
ゴム等
  6
CONTINUOUS
 10
-82.585085
 20
70.601485
 11
-84.17087
 21
69.0157
  0
LINE
  8
ゴム等
  6
CONTINUOUS
 10
-85.97087
 20
67.2157
 11
-88.67087
 21
64.5157
  0
LINE
  8
ゴム等
  6
CONTINUOUS
 10
-82.585085
 20
72.0157
 11
-85.585085
 21
69.0157
  0
LINE
  8
ゴム等
  6
CONTINUOUS
 10
-86.185085
 20
68.4157
 11
-87.58508
 21
67.015697
  0
LINE
  8
ゴム等
  6
CONTINUOUS
 10
-92.585083
 20
73.015697
 11
-92.585083
 21
73.015697
  0
ARC
  8
ゴム等
  6
CONTINUOUS
 10
-92.085083
 20
74.015701
 40
0.5
 50
180.0
 51
270.0
  0
LINE
  8
ゴム等
  6
CONTINUOUS
 10
-85.085083
 20
73.5157
 11
-92.08508
 21
73.5157
  0
ARC
  8
ゴム等
  6
CONTINUOUS
 10
-85.085083
 20
74.015701
 40
0.5
 50
270.0
 51
360.0
  0
LINE
  8
ゴム等
  6
CONTINUOUS
 10
-84.58508
 20
74.015703
 11
-82.585085
 21
74.015703
  0
LINE
  8
ゴム等
  6
CONTINUOUS
 10
-82.585085
 20
69.0157
 11
-82.585085
 21
74.015703
  0
LINE
  8
ゴム等
  6
CONTINUOUS
 10
-87.648597
 20
68.366403
 11
-82.585085
 21
73.429915
  0
LINE
  8
ゴム等
  6
CONTINUOUS
 10
-88.426205
 20
69.003003
 11
-83.413505
 21
74.015703
  0
LINE
  8
ゴム等
  6
CONTINUOUS
 10
-90.985085
 20
67.858338
 11
-85.327722
 21
73.5157
  0
LINE
  8
ゴム等
  6
CONTINUOUS
 10
-91.241938
 20
69.0157
 11
-86.741938
 21
73.5157
  0
LINE
  8
ゴム等
  6
CONTINUOUS
 10
-92.656153
 20
69.0157
 11
-88.156153
 21
73.5157
  0
LINE
  8
ゴム等
  6
CONTINUOUS
 10
-94.07036
 20
69.0157
 11
-89.57036
 21
73.5157
  0
LINE
  8
ゴム等
  6
CONTINUOUS
 10
-94.585085
 20
69.915198
 11
-90.984575
 21
73.5157
  0
LINE
  8
ゴム等
  6
CONTINUOUS
 10
-94.585085
 20
71.329413
 11
-92.333
 21
73.58149
  0
LINE
  8
ゴム等
  6
CONTINUOUS
 10
-94.585085
 20
72.74362
 11
-93.313003
 21
74.015703
  0
LINE
  8
ゴム等
  6
CONTINUOUS
 10
-94.585085
 20
69.0157
 11
-94.585085
 21
74.015703
  0
LINE
  8
ゴム等
  6
CONTINUOUS
 10
-92.585083
 20
74.015703
 11
-94.585085
 21
74.015703
  0
LINE
  8
ゴム等
  6
CONTINUOUS
 10
-91.985083
 20
66.715697
 11
-89.585083
 21
64.5157
  0
LINE
  8
ゴム等
  6
CONTINUOUS
 10
-85.18508
 20
66.715697
 11
-87.58508
 21
64.5157
  0
LINE
  8
ゴム等
  6
CONTINUOUS
 10
-89.585083
 20
64.5157
 11
-87.58508
 21
64.5157
  0
LINE
  8
ゴム等
  6
CONTINUOUS
 10
-89.585083
 20
66.429918
 11
-90.583805
 21
65.431195
  0
LINE
  8
ゴム等
  6
CONTINUOUS
 10
-89.063315
 20
65.53747
 11
-89.845955
 21
64.75483
  0
LINE
  8
ゴム等
  6
CONTINUOUS
 10
-89.585083
 20
67.844125
 11
-91.321655
 21
66.107553
  0
ENDBLK
  0
BLOCK
  2
*GRP_0061
 70
    65
 10
0.0
 20
0.0
  0
LINE
  8
ボルト／ビス
  6
CONTINUOUS
 62
    64
 10
-40.684903
 20
72.415645
 11
-39.63674
 21
72.323942
  0
ARC
  8
ボルト／ビス
  6
CONTINUOUS
 62
    64
 10
-39.784896
 20
70.630411
 40
1.7
 50
0.0
 51
85.000011
  0
LINE
  8
ボルト／ビス
  6
CONTINUOUS
 62
    64
 10
-38.0849
 20
70.630413
 11
-38.0849
 21
68.915642
  0
LINE
  8
ボルト／ビス
  6
CONTINUOUS
 62
    64
 10
-40.684903
 20
65.415647
 11
-39.63674
 21
65.50735
  0
ARC
  8
ボルト／ビス
  6
CONTINUOUS
 62
    64
 10
-39.784896
 20
67.200877
 40
1.7
 50
274.999989
 51
360.0
  0
LINE
  8
ボルト／ビス
  6
CONTINUOUS
 62
    64
 10
-38.0849
 20
67.20088
 11
-38.0849
 21
68.915642
  0
LINE
  8
ボルト／ビス
  6
CONTINUOUS
 62
    64
 10
-38.469808
 20
71.312283
 11
-38.227647
 21
71.312283
  0
LINE
  8
ボルト／ビス
  6
CONTINUOUS
 62
    64
 10
-39.119892
 20
69.615647
 11
-39.119892
 21
68.915642
  0
LINE
  8
ボルト／ビス
  6
CONTINUOUS
 62
    64
 10
-38.469808
 20
70.015645
 11
-38.469808
 21
71.312283
  0
LINE
  8
ボルト／ビス
  6
CONTINUOUS
 62
    64
 10
-39.119892
 20
69.615647
 11
-38.869805
 21
69.615647
  0
ARC
  8
ボルト／ビス
  6
CONTINUOUS
 62
    64
 10
-38.869801
 20
70.015644
 40
0.4
 50
270.0
 51
360.0
  0
LINE
  8
ボルト／ビス
  6
CONTINUOUS
 62
    64
 10
-38.469808
 20
66.519002
 11
-38.227647
 21
66.519002
  0
LINE
  8
ボルト／ビス
  6
CONTINUOUS
 62
    64
 10
-39.119892
 20
68.215645
 11
-39.119892
 21
68.915642
  0
LINE
  8
ボルト／ビス
  6
CONTINUOUS
 62
    64
 10
-38.469808
 20
67.815647
 11
-38.469808
 21
66.519002
  0
LINE
  8
ボルト／ビス
  6
CONTINUOUS
 62
    64
 10
-39.119892
 20
68.215645
 11
-38.869805
 21
68.215645
  0
ARC
  8
ボルト／ビス
  6
CONTINUOUS
 62
    64
 10
-38.869801
 20
67.815644
 40
0.4
 50
0.0
 51
90.0
  0
LINE
  8
ボルト／ビス
  6
CONTINUOUS
 62
    64
 10
-40.684903
 20
72.415645
 11
-40.684903
 21
65.415647
  0
LINE
  8
ボルト／ビス
  6
CONTINUOUS
 62
    64
 10
-36.113518
 20
68.915642
 11
-62.95778
 21
68.915642
  0
LINE
  8
ボルト／ビス
  6
CONTINUOUS
 62
    64
 10
-60.184903
 20
70.915645
 11
-60.684905
 21
70.415642
  0
LINE
  8
ボルト／ビス
  6
CONTINUOUS
 62
    64
 10
-60.184903
 20
66.915647
 11
-60.684905
 21
67.415642
  0
LINE
  8
ボルト／ビス
  6
CONTINUOUS
 62
    64
 10
-60.184903
 20
70.915645
 11
-60.184903
 21
66.915647
  0
LINE
  8
ボルト／ビス
  6
CONTINUOUS
 62
    64
 10
-60.684905
 20
70.415642
 11
-60.684905
 21
67.415642
  0
LINE
  8
ボルト／ビス
  6
CONTINUOUS
 62
    64
 10
-40.684903
 20
70.415642
 11
-60.684905
 21
70.415642
  0
LINE
  8
ボルト／ビス
  6
CONTINUOUS
 62
    64
 10
-40.684903
 20
67.415642
 11
-60.684905
 21
67.415642
  0
LINE
  8
ボルト／ビス
  6
CONTINUOUS
 62
    64
 10
-40.684903
 20
70.915645
 11
-60.184903
 21
70.915645
  0
LINE
  8
ボルト／ビス
  6
CONTINUOUS
 62
    64
 10
-40.684903
 20
66.915647
 11
-60.184903
 21
66.915647
  0
ENDBLK
  0
BLOCK
  2
*GRP_0062
 70
    65
 10
0.0
 20
0.0
  0
LINE
  8
曲げ物
  6
CONTINUOUS
 10
-47.684908
 20
67.415642
 11
-47.684908
 21
70.415642
  0
LINE
  8
曲げ物
  6
CONTINUOUS
 10
-46.184908
 20
68.915642
 11
-49.184908
 21
68.915642
  0
LINE
  8
曲げ物
  6
CONTINUOUS
 10
-42.684912
 20
73.915645
 11
-52.68491
 21
73.915645
  0
LINE
  8
曲げ物
  6
CONTINUOUS
 10
-43.68491
 20
72.915647
 11
-51.684912
 21
72.915647
  0
LINE
  8
曲げ物
  6
CONTINUOUS
 10
-51.684912
 20
72.915647
 11
-51.684912
 21
64.915645
  0
LINE
  8
曲げ物
  6
CONTINUOUS
 10
-52.68491
 20
73.915645
 11
-52.68491
 21
63.915647
  0
LINE
  8
曲げ物
  6
CONTINUOUS
 10
-43.68491
 20
72.915647
 11
-43.68491
 21
64.915645
  0
LINE
  8
曲げ物
  6
CONTINUOUS
 10
-51.684912
 20
64.915645
 11
-43.68491
 21
64.915645
  0
LINE
  8
曲げ物
  6
CONTINUOUS
 10
-42.684912
 20
73.915645
 11
-42.684912
 21
63.915647
  0
LINE
  8
曲げ物
  6
CONTINUOUS
 10
-52.68491
 20
63.915647
 11
-42.684912
 21
63.915647
  0
ENDBLK
  0
BLOCK
  2
*GRP_0063
 70
    65
 10
0.0
 20
0.0
  0
LINE
  8
曲げ物
  6
CONTINUOUS
 10
-70.184908
 20
95.915642
 11
-70.184908
 21
88.915645
  0
LINE
  8
曲げ物
  6
CONTINUOUS
 10
-70.184908
 20
88.915645
 11
-43.184908
 21
88.915645
  0
LINE
  8
曲げ物
  6
CONTINUOUS
 10
-43.184908
 20
88.915645
 11
-43.184908
 21
95.915642
  0
LINE
  8
曲げ物
  6
CONTINUOUS
 10
-70.184908
 20
95.915642
 11
-43.184908
 21
95.915642
  0
LINE
  8
曲げ物
  6
CONTINUOUS
 10
-41.684908
 20
97.415642
 11
-41.684908
 21
87.415645
  0
LINE
  8
曲げ物
  6
CONTINUOUS
 10
-41.684908
 20
87.415645
 11
-71.684908
 21
87.415645
  0
LINE
  8
曲げ物
  6
CONTINUOUS
 10
-71.684908
 20
87.415645
 11
-71.684908
 21
97.415642
  0
LINE
  8
曲げ物
  6
CONTINUOUS
 10
-41.684908
 20
97.415642
 11
-71.684908
 21
97.415642
  0
ENDBLK
  0
BLOCK
  2
*GRP_0064
 70
    65
 10
0.0
 20
0.0
  0
LINE
  8
別途部材
  6
CONTINUOUS
 10
-28.98926
 20
100.415665
 11
-30.48926
 21
100.415665
  0
LINE
  8
別途部材
  6
CONTINUOUS
 10
-28.98926
 20
102.415668
 11
-28.98926
 21
100.415665
  0
ARC
  8
別途部材
  6
CONTINUOUS
 10
-31.989261
 20
102.415672
 40
3.0
 50
0.0
 51
90.0
  0
LINE
  8
別途部材
  6
CONTINUOUS
 10
-30.48926
 20
102.415668
 11
-30.48926
 21
100.415665
  0
ARC
  8
別途部材
  6
CONTINUOUS
 10
-31.989261
 20
102.415672
 40
1.5
 50
0.0
 51
90.0
  0
LINE
  8
別途部材
  6
CONTINUOUS
 10
-31.98926
 20
103.915668
 11
-33.684905
 21
103.915668
  0
LINE
  8
別途部材
  6
CONTINUOUS
 10
-95.989257
 20
102.215665
 11
-95.989257
 21
103.415665
  0
LINE
  8
別途部材
  6
CONTINUOUS
 10
-103.98926
 20
104.41567
 11
-103.98926
 21
102.215665
  0
ARC
  8
別途部材
  6
CONTINUOUS
 10
-102.989261
 20
104.415672
 40
1.0
 50
90.0
 51
180.0
  0
LINE
  8
別途部材
  6
CONTINUOUS
 10
-103.98926
 20
102.215665
 11
-95.989257
 21
102.215665
  0
LINE
  8
別途部材
  6
CONTINUOUS
 10
-31.98926
 20
105.415668
 11
-102.989263
 21
105.415668
  0
LINE
  8
別途部材
  6
CONTINUOUS
 10
-76.184908
 20
103.415665
 11
-95.989257
 21
103.415665
  0
ARC
  8
別途部材
  6
CONTINUOUS
 10
-76.184904
 20
100.415662
 40
3.0
 50
0.0
 51
90.0
  0
LINE
  8
別途部材
  6
CONTINUOUS
 10
-72.884908
 20
92.415647
 11
-73.184908
 21
92.715647
  0
LINE
  8
別途部材
  6
CONTINUOUS
 10
-72.884908
 20
92.415647
 11
-73.184908
 21
92.115647
  0
LINE
  8
別途部材
  6
CONTINUOUS
 10
-73.184908
 20
100.415665
 11
-73.184908
 21
92.715647
  0
LINE
  8
別途部材
  6
CONTINUOUS
 10
-73.184908
 20
92.115647
 11
-73.184908
 21
85.915645
  0
LINE
  8
別途部材
  6
CONTINUOUS
 10
-33.984905
 20
68.915642
 11
-33.684905
 21
69.215642
  0
LINE
  8
別途部材
  6
CONTINUOUS
 10
-33.984905
 20
68.915642
 11
-33.684905
 21
68.615642
  0
LINE
  8
別途部材
  6
CONTINUOUS
 10
-33.684905
 20
103.915668
 11
-33.684905
 21
69.215642
  0
LINE
  8
別途部材
  6
CONTINUOUS
 10
-33.684905
 20
68.615642
 11
-33.684905
 21
55.415665
  0
LINE
  8
別途部材
  6
CONTINUOUS
 10
-42.184903
 20
80.915642
 11
-42.184903
 21
63.91564
  0
LINE
  8
別途部材
  6
CONTINUOUS
 10
-40.684903
 20
63.91564
 11
-42.184903
 21
63.91564
  0
LINE
  8
別途部材
  6
CONTINUOUS
 10
-33.684905
 20
55.415665
 11
-35.184905
 21
55.415665
  0
LINE
  8
別途部材
  6
CONTINUOUS
 10
-42.184903
 20
80.915642
 11
-35.184905
 21
80.915642
  0
LINE
  8
別途部材
  6
CONTINUOUS
 10
-40.684903
 20
79.415642
 11
-35.184905
 21
79.415642
  0
LINE
  8
別途部材
  6
CONTINUOUS
 10
-35.184905
 20
79.415642
 11
-35.184905
 21
55.415665
  0
LINE
  8
別途部材
  6
CONTINUOUS
 10
-35.184905
 20
85.915645
 11
-35.184905
 21
80.915642
  0
LINE
  8
別途部材
  6
CONTINUOUS
 10
-40.984903
 20
68.915642
 11
-40.684903
 21
69.215642
  0
LINE
  8
別途部材
  6
CONTINUOUS
 10
-40.984903
 20
68.915642
 11
-40.684903
 21
68.615642
  0
LINE
  8
別途部材
  6
CONTINUOUS
 10
-40.684903
 20
79.415642
 11
-40.684903
 21
69.215642
  0
LINE
  8
別途部材
  6
CONTINUOUS
 10
-40.684903
 20
68.615642
 11
-40.684903
 21
63.91564
  0
LINE
  8
別途部材
  6
DOT
 10
-33.684905
 20
73.915645
 11
-35.184905
 21
73.915645
  0
LINE
  8
別途部材
  6
DOT
 10
-33.684905
 20
63.91564
 11
-35.184905
 21
63.91564
  0
LINE
  8
別途部材
  6
CONTINUOUS
 10
-35.184905
 20
103.915668
 11
-71.684908
 21
103.915668
  0
LINE
  8
別途部材
  6
DOT
 10
-34.059905
 20
73.915645
 11
-34.059905
 21
63.91564
  0
LINE
  8
別途部材
  6
DOT
 10
-34.434905
 20
73.915645
 11
-34.434905
 21
63.91564
  0
LINE
  8
別途部材
  6
DOT
 10
-34.809905
 20
73.915645
 11
-34.809905
 21
63.91564
  0
LINE
  8
別途部材
  6
CONTINUOUS
 10
-35.184905
 20
103.915668
 11
-35.184905
 21
87.415645
  0
LINE
  8
別途部材
  6
CONTINUOUS
 10
-71.684908
 20
103.915668
 11
-71.684908
 21
87.415645
  0
LINE
  8
別途部材
  6
CONTINUOUS
 10
-71.684908
 20
87.415645
 11
-35.184905
 21
87.415645
  0
LINE
  8
別途部材
  6
CONTINUOUS
 10
-49.9349
 20
86.215645
 11
-50.2349
 21
85.915645
  0
LINE
  8
別途部材
  6
CONTINUOUS
 10
-49.9349
 20
86.215645
 11
-49.6349
 21
85.915645
  0
LINE
  8
別途部材
  6
CONTINUOUS
 10
-62.434903
 20
86.215645
 11
-62.734903
 21
85.915645
  0
LINE
  8
別途部材
  6
CONTINUOUS
 10
-62.434903
 20
86.215645
 11
-62.134903
 21
85.915645
  0
LINE
  8
別途部材
  6
CONTINUOUS
 10
-50.2349
 20
85.915645
 11
-62.134903
 21
85.915645
  0
LINE
  8
別途部材
  6
CONTINUOUS
 10
-73.184908
 20
85.915645
 11
-62.734903
 21
85.915645
  0
LINE
  8
別途部材
  6
CONTINUOUS
 10
-35.184905
 20
85.915645
 11
-49.6349
 21
85.915645
  0
ENDBLK
  0
BLOCK
  2
*DIM_0065
 70
    65
 10
0.0
 20
0.0
  0
LINE
  8
寸法
  6
CONTINUOUS
 10
-103.98926
 20
108.625
 11
-103.98926
 21
116.417653
  0
LINE
  8
寸法
  6
CONTINUOUS
 10
-99.585228
 20
116.417653
 11
-103.98926
 21
116.417653
  0
POINT
  8
寸法
 10
-99.585228
 20
116.417653
  0
POINT
  8
寸法
 10
-103.98926
 20
116.417653
  0
TEXT
  7
TextStyle03
  8
寸法
  6
CONTINUOUS
 10
-104.2375
 20
116.775
  1
4.4
 40
3.0
 72
     5
 11
-99.3625
 21
116.775
  0
ENDBLK
  0
BLOCK
  2
*DIM_0066
 70
    65
 10
0.0
 20
0.0
  0
LINE
  8
寸法
  6
CONTINUOUS
 10
-28.98926
 20
106.415668
 11
-28.98926
 21
116.417653
  0
LINE
  8
寸法
  6
CONTINUOUS
 10
-84.585228
 20
116.417653
 11
-28.98926
 21
116.417653
  0
POINT
  8
寸法
 10
-84.585228
 20
116.417653
  0
POINT
  8
寸法
 10
-28.98926
 20
116.417653
  0
TEXT
  7
TextStyle03
  8
寸法
  6
CONTINUOUS
 10
-60.08125
 20
116.775
  1
55.6
 40
3.0
 72
     5
 11
-53.51875
 21
116.775
  0
ENDBLK
  0
BLOCK
  2
*DIM_0067
 70
    65
 10
0.0
 20
0.0
  0
LINE
  8
寸法
  6
CONTINUOUS
 10
-6.590727
 20
5.916427
 11
-6.590727
 21
116.417653
  0
LINE
  8
寸法
  6
CONTINUOUS
 10
-28.98926
 20
116.417653
 11
-6.590727
 21
116.417653
  0
POINT
  8
寸法
 10
-6.590727
 20
116.417653
  0
TEXT
  7
TextStyle03
  8
寸法
  6
CONTINUOUS
 10
-21.08125
 20
116.775
  1
22.4
 40
3.0
 72
     5
 11
-14.51875
 21
116.775
  0
ENDBLK
  0
BLOCK
  2
*DIM_0068
 70
    65
 10
0.0
 20
0.0
  0
LINE
  8
寸法
  6
CONTINUOUS
 10
20.419035
 20
-85.084355
 11
47.65751
 21
-85.084355
  0
LINE
  8
寸法
  6
CONTINUOUS
 10
-27.29925
 20
105.415668
 11
47.65751
 21
105.415668
  0
LINE
  8
寸法
  6
CONTINUOUS
 10
47.65751
 20
-85.084355
 11
47.65751
 21
105.415668
  0
POINT
  8
寸法
 10
47.65751
 20
-85.084355
  0
POINT
  8
寸法
 10
47.65751
 20
105.415668
  0
TEXT
  7
TextStyle03
  8
寸法
  6
CONTINUOUS
 10
47.275
 20
6.025
  1
190.5
 40
3.0
 50
90.0
 72
     5
 11
47.275
 21
14.275
  0
ENDBLK
  0
BLOCK
  2
*DIM_0069
 70
    65
 10
0.0
 20
0.0
  0
LINE
  8
寸法
  6
CONTINUOUS
 10
-39.58521
 20
54.915827
 11
38.093902
 21
54.915827
  0
LINE
  8
寸法
  6
CONTINUOUS
 10
-27.355353
 20
105.415668
 11
38.093902
 21
105.415668
  0
LINE
  8
寸法
  6
CONTINUOUS
 10
38.093902
 20
54.915827
 11
38.093902
 21
105.415668
  0
POINT
  8
寸法
 10
38.093902
 20
54.915827
  0
POINT
  8
寸法
 10
38.093902
 20
105.415668
  0
TEXT
  7
TextStyle03
  8
寸法
  6
CONTINUOUS
 10
37.7
 20
76.86875
  1
50.5
 40
3.0
 50
90.0
 72
     5
 11
37.7
 21
83.43125
  0
ENDBLK
  0
BLOCK
  2
*DIM_0070
 70
    65
 10
0.0
 20
0.0
  0
LINE
  8
寸法
  6
CONTINUOUS
 10
-100.085095
 20
69.015738
 11
-159.500385
 21
69.015738
  0
LINE
  8
寸法
  6
CONTINUOUS
 10
-153.831785
 20
74.01636
 11
-159.500385
 21
74.01636
  0
LINE
  8
寸法
  6
CONTINUOUS
 10
-159.500385
 20
69.015738
 11
-159.500385
 21
74.01636
  0
POINT
  8
寸法
 10
-159.500385
 20
69.015738
  0
POINT
  8
寸法
 10
-159.500385
 20
74.01636
  0
TEXT
  7
TextStyle03
  8
寸法
  6
CONTINUOUS
 10
-159.9
 20
70.75
  1
5
 40
3.0
 50
90.0
 72
     5
 11
-159.9
 21
72.25
  0
ENDBLK
  0
BLOCK
  2
*DIM_0071
 70
    65
 10
0.0
 20
0.0
  0
LINE
  8
寸法
  6
CONTINUOUS
 10
-153.831785
 20
91.816365
 11
-159.500385
 21
91.816365
  0
LINE
  8
寸法
  6
CONTINUOUS
 10
-159.500385
 20
74.01636
 11
-159.500385
 21
91.816365
  0
POINT
  8
寸法
 10
-159.500385
 20
91.816365
  0
TEXT
  7
TextStyle03
  8
寸法
  6
CONTINUOUS
 10
-159.9
 20
79.61875
  1
17.8
 40
3.0
 50
90.0
 72
     5
 11
-159.9
 21
86.18125
  0
ENDBLK
  0
BLOCK
  2
*DIM_0072
 70
    65
 10
0.0
 20
0.0
  0
LINE
  8
寸法
  6
CONTINUOUS
 10
-108.98926
 20
102.215665
 11
-159.500385
 21
102.215665
  0
LINE
  8
寸法
  6
CONTINUOUS
 10
-159.500385
 20
91.816365
 11
-159.500385
 21
102.215665
  0
POINT
  8
寸法
 10
-159.500385
 20
102.215665
  0
TEXT
  7
TextStyle03
  8
寸法
  6
CONTINUOUS
 10
-159.9
 20
93.71875
  1
10.4
 40
3.0
 50
90.0
 72
     5
 11
-159.9
 21
100.28125
  0
ENDBLK
  0
BLOCK
  2
*DIM_0073
 70
    65
 10
0.0
 20
0.0
  0
LINE
  8
寸法
  6
CONTINUOUS
 10
-107.421778
 20
105.415668
 11
-159.500385
 21
105.415668
  0
LINE
  8
寸法
  6
CONTINUOUS
 10
-159.500385
 20
102.215665
 11
-159.500385
 21
105.415668
  0
POINT
  8
寸法
 10
-159.500385
 20
105.415668
  0
TEXT
  7
TextStyle03
  8
寸法
  6
CONTINUOUS
 10
-158.4
 20
107.3125
  1
3.2
 40
3.0
 50
90.0
 72
     5
 11
-158.4
 21
112.1875
  0
ENDBLK
  0
ENDSEC
  0
SECTION
  2
ENTITIES
  0
POLYLINE
  8
通り芯
  6
CONTINUOUS
 66
     1
 70
     1
  0
VERTEX
  8
通り芯
 10
-210.0
 20
-148.5
  0
VERTEX
  8
通り芯
 10
210.0
 20
-148.5
  0
VERTEX
  8
通り芯
 10
210.0
 20
148.5
  0
VERTEX
  8
通り芯
 10
-210.0
 20
148.5
  0
SEQEND
  0
INSERT
  2
*GRP_0001
  8
型材断面
  6
CONTINUOUS
 10
0.0
 20
0.0
  0
INSERT
  2
*GRP_0002
  8
型材断面
  6
CONTINUOUS
 62
    47
 10
0.0
 20
0.0
  0
LINE
  8
型材断面
  6
DASHDOT
 10
-84.585228
 20
91.919223
 11
-84.585228
 21
128.95056
  0
LINE
  8
型材断面
  6
DOT
 10
-52.58098
 20
-59.084297
 11
-50.58098
 21
-59.084297
  0
LINE
  8
型材断面
  6
DOT
 10
-52.58098
 20
-65.084297
 11
-50.58098
 21
-65.084297
  0
LINE
  8
型材断面
  6
DOT
 10
-51.08098
 20
-65.084297
 11
-51.08098
 21
-59.084297
  0
LINE
  8
型材断面
  6
DOT
 10
-51.58098
 20
-65.084297
 11
-51.58098
 21
-59.084297
  0
LINE
  8
型材断面
  6
DOT
 10
-52.08098
 20
-65.084297
 11
-52.08098
 21
-59.084297
  0
LINE
  8
型材断面
  6
DOT
 10
-74.585228
 20
-59.084297
 11
-72.585228
 21
-59.084297
  0
LINE
  8
型材断面
  6
DOT
 10
-74.585228
 20
-65.084297
 11
-72.585228
 21
-65.084297
  0
LINE
  8
型材断面
  6
DOT
 10
-73.085228
 20
-65.084297
 11
-73.085228
 21
-59.084297
  0
LINE
  8
型材断面
  6
DOT
 10
-73.585228
 20
-65.084297
 11
-73.585228
 21
-59.084297
  0
LINE
  8
型材断面
  6
DOT
 10
-74.085228
 20
-65.084297
 11
-74.085228
 21
-59.084297
  0
INSERT
  2
*GRP_0003
  8
型材断面
  6
CONTINUOUS
 62
    47
 10
0.0
 20
0.0
  0
INSERT
  2
*GRP_0004
  8
ガラス
  6
CONTINUOUS
 10
0.0
 20
0.0
  0
INSERT
  2
*GRP_0005
  8
ガラス
  6
CONTINUOUS
 10
0.0
 20
0.0
  0
INSERT
  2
*GRP_0006
  8
ガラス
  6
CONTINUOUS
 10
0.0
 20
0.0
  0
INSERT
  2
*GRP_0007
  8
ガラス
  6
CONTINUOUS
 10
0.0
 20
0.0
  0
LINE
  8
ガラス
  6
CONTINUOUS
 10
-82.084822
 20
91.815697
 11
-82.085
 21
74.015692
  0
LINE
  8
ガラス
  6
CONTINUOUS
 10
-88.084872
 20
86.815755
 11
-88.084933
 21
80.815755
  0
LINE
  8
ガラス
  6
CONTINUOUS
 10
-82.084933
 20
80.815695
 11
-88.084872
 21
86.815755
  0
LINE
  8
ガラス
  6
CONTINUOUS
 10
-82.084872
 20
86.815695
 11
-88.084933
 21
80.815755
  0
LINE
  8
ガラス
  6
CONTINUOUS
 10
-82.084995
 20
74.515695
 11
-159.500275
 21
74.51647
  0
LINE
  8
ガラス
  6
CONTINUOUS
 10
-82.085
 20
74.015692
 11
-159.50028
 21
74.016468
  0
LINE
  8
ガラス
  6
CONTINUOUS
 10
-82.084933
 20
80.815695
 11
-159.500213
 21
80.81647
  0
LINE
  8
ガラス
  6
CONTINUOUS
 10
-82.084937
 20
80.3157
 11
-159.500217
 21
80.316475
  0
LINE
  8
ガラス
  6
CONTINUOUS
 10
-82.084868
 20
87.315697
 11
-159.500148
 21
87.316473
  0
LINE
  8
ガラス
  6
CONTINUOUS
 10
-82.084872
 20
86.815695
 11
-159.500152
 21
86.81647
  0
LINE
  8
ガラス
  6
CONTINUOUS
 10
-82.084828
 20
91.315695
 11
-159.500108
 21
91.31647
  0
LINE
  8
ガラス
  6
CONTINUOUS
 10
-82.084822
 20
91.815697
 11
-159.500102
 21
91.816473
  0
INSERT
  2
*GRP_0008
  8
ゴム等
  6
CONTINUOUS
 10
0.0
 20
0.0
  0
INSERT
  2
*GRP_0009
  8
ゴム等
  6
CONTINUOUS
 10
0.0
 20
0.0
  0
INSERT
  2
*GRP_0010
  8
ゴム等
  6
DOT
 10
0.0
 20
0.0
  0
INSERT
  2
*GRP_0060
  8
ゴム等
  6
CONTINUOUS
 10
0.0
 20
0.0
  0
INSERT
  2
*GRP_0011
  8
ボルト／ビス
  6
CONTINUOUS
 62
    64
 10
0.0
 20
0.0
  0
INSERT
  2
*GRP_0012
  8
ボルト／ビス
  6
CONTINUOUS
 62
    64
 10
0.0
 20
0.0
  0
INSERT
  2
*GRP_0013
  8
ボルト／ビス
  6
CONTINUOUS
 62
    64
 10
0.0
 20
0.0
  0
INSERT
  2
*GRP_0014
  8
ボルト／ビス
  6
CONTINUOUS
 62
    64
 10
0.0
 20
0.0
  0
INSERT
  2
*GRP_0015
  8
ボルト／ビス
  6
CONTINUOUS
 10
0.0
 20
0.0
  0
INSERT
  2
*GRP_0016
  8
ボルト／ビス
  6
CONTINUOUS
 10
0.0
 20
0.0
  0
INSERT
  2
*GRP_0017
  8
ボルト／ビス
  6
CONTINUOUS
 10
0.0
 20
0.0
  0
INSERT
  2
*GRP_0018
  8
ボルト／ビス
  6
CONTINUOUS
 10
0.0
 20
0.0
  0
INSERT
  2
*GRP_0061
  8
ボルト／ビス
  6
CONTINUOUS
 62
    64
 10
0.0
 20
0.0
  0
TEXT
  7
TextStyle03
  8
文字
  6
CONTINUOUS
 10
71.525
 20
69.4
  1
ＮＳコード：ＮＳＦＨＺ
 40
5.0
 72
     5
 11
132.775
 21
69.4
  0
TEXT
  7
TextStyle03
  8
文字
  6
CONTINUOUS
 10
-156.125
 20
128.95
  1
呼称寸法
 40
3.0
 72
     5
 11
-143.0
 21
128.95
  0
TEXT
  7
TextStyle03
  8
文字
  6
CONTINUOUS
 10
-157.875
 20
122.45
  1
有効開口寸法
 40
3.0
 72
     5
 11
-138.0
 21
122.45
  0
TEXT
  7
TextStyle03
  8
文字
  6
CONTINUOUS
 10
-26.525
 20
-57.425
  1
コーナーシール
 40
3.0
 72
     5
 11
-3.275
 21
-57.425
  0
TEXT
  7
TextStyle03
  8
文字
  6
CONTINUOUS
 10
-16.4
 20
-60.8
  1
（工場）
 40
3.0
 72
     5
 11
-3.275
 21
-60.8
  0
TEXT
  7
TextStyle03
  8
文字
  6
CONTINUOUS
 10
-31.2
 20
-48.4
  1
コーナージョイント金物
 40
3.0
 72
     5
 11
5.55
 21
-48.4
  0
TEXT
  7
TextStyle03
  8
文字
  6
CONTINUOUS
 10
-6.075
 20
-51.775
  1
St-1.6t
 40
3.0
 72
     5
 11
5.55
 21
-51.775
  0
TEXT
  7
TextStyle03
  8
文字
  6
CONTINUOUS
 10
-30.5
 20
-34.45
  1
滑車・ダンパー裏板
 40
4.0
 72
     5
 11
9.5
 21
-34.45
  0
TEXT
  7
TextStyle03
  8
文字
  6
CONTINUOUS
 10
-6.0
 20
-38.95
  1
St-2.3t
 40
4.0
 72
     5
 11
9.5
 21
-38.95
  0
TEXT
  7
TextStyle03
  8
文字
  6
CONTINUOUS
 10
-0.1
 20
-113.175
  1
KA-50C　末栄金属
 40
4.0
 72
     5
 11
35.4
 21
-113.175
  0
TEXT
  7
TextStyle03
  8
文字
  6
CONTINUOUS
 10
-7.5375
 20
-24.275
  1
St-2.3t（電気メッキ）
 40
3.0
 72
     5
 11
27.525
 21
-24.275
  0
TEXT
  7
TextStyle03
  8
文字
  6
CONTINUOUS
 10
17.5875
 20
-27.65
  1
Ｌ＝60
 40
3.0
 72
     5
 11
27.525
 21
-27.65
  0
TEXT
  7
TextStyle03
  8
文字
  6
CONTINUOUS
 10
-128.875
 20
5.125
  1
滑車(ZDC)
 40
3.0
 72
     5
 11
-113.875
 21
5.125
  0
TEXT
  7
TextStyle03
  8
文字
  6
CONTINUOUS
 10
-128.875
 20
-46.85
  1
滑車(ZDC)
 40
3.0
 72
     5
 11
-113.875
 21
-46.85
  0
TEXT
  7
TextStyle03
  8
文字
  6
CONTINUOUS
 10
-119.95
 20
48.5
  1
TK-1161
 40
3.0
 72
     5
 11
-108.325
 21
48.5
  0
TEXT
  7
TextStyle03
  8
文字
  6
CONTINUOUS
 10
-28.95
 20
21.6
  1
滑車・ダンパー裏板
 40
4.0
 72
     5
 11
11.05
 21
21.6
  0
TEXT
  7
TextStyle03
  8
文字
  6
CONTINUOUS
 10
-4.45
 20
17.1
  1
St-3.2t
 40
4.0
 72
     5
 11
11.05
 21
17.1
  0
TEXT
  7
TextStyle03
  8
文字
  6
CONTINUOUS
 10
72.35
 20
95.675
  1
シリーズ：ＴＦ２ＦＨ
 40
5.0
 72
     5
 11
127.975
 21
95.675
  0
TEXT
  7
TextStyle03
  8
文字
  6
CONTINUOUS
 10
72.35
 20
90.05
  1
　　　　　（片側開閉）
 40
5.0
 72
     5
 11
133.6
 21
90.05
  0
TEXT
  7
TextStyle03
  8
文字
  6
CONTINUOUS
 10
72.35
 20
84.425
  1

 40
5.0
 41
1.125
  0
TEXT
  7
TextStyle03
  8
文字
  6
CONTINUOUS
 10
72.35
 20
78.8
  1
図面名　：下枠断面詳細図(滑車側)
 40
5.0
 72
     5
 11
162.0375
 21
78.8
  0
INSERT
  2
*DIM_0019
  8
寸法
  6
CONTINUOUS
 10
0.0
 20
0.0
  0
INSERT
  2
*DIM_0020
  8
寸法
  6
CONTINUOUS
 10
0.0
 20
0.0
  0
INSERT
  2
*DIM_0021
  8
寸法
  6
CONTINUOUS
 10
0.0
 20
0.0
  0
INSERT
  2
*DIM_0022
  8
寸法
  6
CONTINUOUS
 10
0.0
 20
0.0
  0
INSERT
  2
*DIM_0023
  8
寸法
  6
CONTINUOUS
 10
0.0
 20
0.0
  0
INSERT
  2
*DIM_0024
  8
寸法
  6
CONTINUOUS
 10
0.0
 20
0.0
  0
INSERT
  2
*DIM_0025
  8
寸法
  6
CONTINUOUS
 10
0.0
 20
0.0
  0
INSERT
  2
*DIM_0026
  8
寸法
  6
CONTINUOUS
 10
0.0
 20
0.0
  0
LINE
  8
寸法
  6
CONTINUOUS
 10
-84.585228
 20
128.95056
 11
-183.456413
 21
128.95056
  0
POLYLINE
  8
寸法
  6
CONTINUOUS
 66
     1
  0
VERTEX
  8
寸法
 10
-183.456413
 20
128.95056
  0
VERTEX
  8
寸法
 10
-174.86628
 20
126.382798
  0
VERTEX
  8
寸法
 10
-174.86628
 20
128.95056
  0
SEQEND
  0
POLYLINE
  8
寸法
  6
CONTINUOUS
 66
     1
  0
VERTEX
  8
寸法
 10
-181.864308
 20
128.95056
  0
VERTEX
  8
寸法
 10
-173.274175
 20
126.382798
  0
VERTEX
  8
寸法
 10
-173.274175
 20
128.95056
  0
SEQEND
  0
POLYLINE
  8
寸法
  6
CONTINUOUS
 66
     1
  0
VERTEX
  8
寸法
 10
-183.456413
 20
128.95056
  0
VERTEX
  8
寸法
 10
-174.86628
 20
131.518323
  0
VERTEX
  8
寸法
 10
-174.86628
 20
128.95056
  0
SEQEND
  0
POLYLINE
  8
寸法
  6
CONTINUOUS
 66
     1
  0
VERTEX
  8
寸法
 10
-181.864308
 20
128.95056
  0
VERTEX
  8
寸法
 10
-173.274175
 20
131.518323
  0
VERTEX
  8
寸法
 10
-173.274175
 20
128.95056
  0
SEQEND
  0
POLYLINE
  8
寸法
  6
CONTINUOUS
 66
     1
  0
VERTEX
  8
寸法
 10
-183.456413
 20
122.443323
  0
VERTEX
  8
寸法
 10
-174.86628
 20
125.011085
  0
VERTEX
  8
寸法
 10
-174.86628
 20
122.443323
  0
SEQEND
  0
POLYLINE
  8
寸法
  6
CONTINUOUS
 66
     1
  0
VERTEX
  8
寸法
 10
-181.864308
 20
122.443323
  0
VERTEX
  8
寸法
 10
-173.274175
 20
125.011085
  0
VERTEX
  8
寸法
 10
-173.274175
 20
122.443323
  0
SEQEND
  0
INSERT
  2
*DIM_0027
  8
寸法
  6
CONTINUOUS
 10
0.0
 20
0.0
  0
INSERT
  2
*DIM_0028
  8
寸法
  6
CONTINUOUS
 10
0.0
 20
0.0
  0
LINE
  8
寸法
  6
CONTINUOUS
 10
-183.456413
 20
122.443323
 11
-99.585228
 21
122.443323
  0
INSERT
  2
*DIM_0029
  8
寸法
  6
CONTINUOUS
 10
0.0
 20
0.0
  0
INSERT
  2
*DIM_0030
  8
寸法
  6
CONTINUOUS
 10
0.0
 20
0.0
  0
INSERT
  2
*DIM_0031
  8
寸法
  6
CONTINUOUS
 10
0.0
 20
0.0
  0
INSERT
  2
*DIM_0032
  8
寸法
  6
CONTINUOUS
 10
0.0
 20
0.0
  0
INSERT
  2
*DIM_0033
  8
寸法
  6
CONTINUOUS
 10
0.0
 20
0.0
  0
INSERT
  2
*GRP_0034
  8
寸法
  6
CONTINUOUS
 10
0.0
 20
0.0
  0
INSERT
  2
*GRP_0035
  8
寸法
  6
CONTINUOUS
 10
0.0
 20
0.0
  0
INSERT
  2
*GRP_0036
  8
寸法
  6
CONTINUOUS
 10
0.0
 20
0.0
  0
INSERT
  2
*GRP_0037
  8
寸法
  6
CONTINUOUS
 10
0.0
 20
0.0
  0
INSERT
  2
*DIM_0038
  8
寸法
  6
CONTINUOUS
 10
0.0
 20
0.0
  0
INSERT
  2
*DIM_0039
  8
寸法
  6
CONTINUOUS
 10
0.0
 20
0.0
  0
INSERT
  2
*DIM_0040
  8
寸法
  6
CONTINUOUS
 10
0.0
 20
0.0
  0
INSERT
  2
*DIM_0041
  8
寸法
  6
CONTINUOUS
 10
0.0
 20
0.0
  0
INSERT
  2
*GRP_0042
  8
寸法
  6
CONTINUOUS
 10
0.0
 20
0.0
  0
INSERT
  2
*DIM_0043
  8
寸法
  6
CONTINUOUS
 10
0.0
 20
0.0
  0
INSERT
  2
*DIM_0044
  8
寸法
  6
CONTINUOUS
 10
0.0
 20
0.0
  0
INSERT
  2
*DIM_0045
  8
寸法
  6
CONTINUOUS
 10
0.0
 20
0.0
  0
INSERT
  2
*DIM_0046
  8
寸法
  6
CONTINUOUS
 10
0.0
 20
0.0
  0
INSERT
  2
*GRP_0047
  8
寸法
  6
CONTINUOUS
 10
0.0
 20
0.0
  0
INSERT
  2
*GRP_0048
  8
寸法
  6
CONTINUOUS
 10
0.0
 20
0.0
  0
INSERT
  2
*GRP_0049
  8
寸法
  6
CONTINUOUS
 10
0.0
 20
0.0
  0
INSERT
  2
*DIM_0050
  8
寸法
  6
CONTINUOUS
 10
0.0
 20
0.0
  0
INSERT
  2
*GRP_0051
  8
寸法
  6
CONTINUOUS
 10
0.0
 20
0.0
  0
INSERT
  2
*DIM_0058
  8
寸法
  6
CONTINUOUS
 10
0.0
 20
0.0
  0
INSERT
  2
*DIM_0059
  8
寸法
  6
CONTINUOUS
 10
0.0
 20
0.0
  0
INSERT
  2
*DIM_0065
  8
寸法
  6
CONTINUOUS
 10
0.0
 20
0.0
  0
INSERT
  2
*DIM_0066
  8
寸法
  6
CONTINUOUS
 10
0.0
 20
0.0
  0
INSERT
  2
*DIM_0067
  8
寸法
  6
CONTINUOUS
 10
0.0
 20
0.0
  0
INSERT
  2
*DIM_0068
  8
寸法
  6
CONTINUOUS
 10
0.0
 20
0.0
  0
INSERT
  2
*DIM_0069
  8
寸法
  6
CONTINUOUS
 10
0.0
 20
0.0
  0
INSERT
  2
*DIM_0070
  8
寸法
  6
CONTINUOUS
 10
0.0
 20
0.0
  0
INSERT
  2
*DIM_0071
  8
寸法
  6
CONTINUOUS
 10
0.0
 20
0.0
  0
INSERT
  2
*DIM_0072
  8
寸法
  6
CONTINUOUS
 10
0.0
 20
0.0
  0
INSERT
  2
*DIM_0073
  8
寸法
  6
CONTINUOUS
 10
0.0
 20
0.0
  0
INSERT
  2
*HAT_0003
  8
ﾊｯﾁﾝｸﾞ
 10
0.0
 20
0.0
  0
INSERT
  2
*GRP_0052
  8
別途部材
  6
CONTINUOUS
 10
0.0
 20
0.0
  0
INSERT
  2
*GRP_0053
  8
別途部材
  6
CONTINUOUS
 10
0.0
 20
0.0
  0
INSERT
  2
*GRP_0054
  8
別途部材
  6
CONTINUOUS
 10
0.0
 20
0.0
  0
INSERT
  2
*GRP_0055
  8
別途部材
  6
CONTINUOUS
 10
0.0
 20
0.0
  0
INSERT
  2
*GRP_0062
  8
別途部材
  6
CONTINUOUS
 10
0.0
 20
0.0
  0
INSERT
  2
*GRP_0063
  8
曲げ物
  6
CONTINUOUS
 10
0.0
 20
0.0
  0
LINE
  8
St
  6
CONTINUOUS
 10
-54.684925
 20
70.113793
 11
-57.684925
 21
70.113793
  0
LINE
  8
St
  6
CONTINUOUS
 10
-57.684925
 20
54.815827
 11
-57.684925
 21
70.113793
  0
LINE
  8
St
  6
CONTINUOUS
 10
-69.385228
 20
-0.084173
 11
-72.585228
 21
-0.084173
  0
LINE
  8
St
  6
CONTINUOUS
 10
-69.385228
 20
-0.084173
 11
-69.385228
 21
45.915827
  0
LINE
  8
St
  6
CONTINUOUS
 10
-69.385228
 20
45.915827
 11
-72.585228
 21
45.915827
  0
LINE
  8
St
  6
CONTINUOUS
 10
-72.585228
 20
-0.084173
 11
-72.585228
 21
45.915827
  0
LINE
  8
St
  6
CONTINUOUS
 10
-69.385228
 20
35.657863
 11
-72.585228
 21
38.857865
  0
LINE
  8
St
  6
CONTINUOUS
 10
-69.385228
 20
34.950757
 11
-72.585228
 21
38.15076
  0
LINE
  8
St
  6
CONTINUOUS
 10
-69.385228
 20
8.00564
 11
-72.585228
 21
11.205643
  0
LINE
  8
St
  6
CONTINUOUS
 10
-69.385228
 20
7.298535
 11
-72.585228
 21
10.498538
  0
LINE
  8
St
  6
CONTINUOUS
 10
-53.085228
 20
-14.084297
 11
-53.085228
 21
-16.384297
  0
LINE
  8
St
  6
CONTINUOUS
 10
-53.085228
 20
-62.787242
 11
-53.085228
 21
-65.087242
  0
ARC
  8
St
  6
CONTINUOUS
 10
-70.285233
 20
-16.384295
 40
2.3
 50
90.0
 51
180.0
  0
LINE
  8
St
  6
CONTINUOUS
 10
-70.285228
 20
-25.717617
 11
-72.585213
 21
-28.017602
  0
LINE
  8
St
  6
CONTINUOUS
 10
-70.285228
 20
-25.010517
 11
-72.585213
 21
-27.310498
  0
ARC
  8
St
  6
CONTINUOUS
 10
-70.285233
 20
-62.78724
 40
2.3
 50
180.0
 51
270.0
  0
LINE
  8
St
  6
CONTINUOUS
 10
-70.285228
 20
-53.541727
 11
-72.585213
 21
-55.841712
  0
LINE
  8
St
  6
CONTINUOUS
 10
-70.285228
 20
-52.834627
 11
-72.585213
 21
-55.134608
  0
LINE
  8
St
  6
CONTINUOUS
 10
-70.285228
 20
-16.384297
 11
-70.285228
 21
-62.787242
  0
LINE
  8
St
  6
CONTINUOUS
 10
-72.585228
 20
-16.384297
 11
-72.585228
 21
-62.787242
  0
LINE
  8
St
  6
CONTINUOUS
 10
-53.085228
 20
-16.384297
 11
-70.285228
 21
-16.384297
  0
LINE
  8
St
  6
CONTINUOUS
 10
-53.085228
 20
-14.084297
 11
-70.285228
 21
-14.084297
  0
LINE
  8
St
  6
CONTINUOUS
 10
-53.085228
 20
-62.787242
 11
-70.285228
 21
-62.787242
  0
LINE
  8
St
  6
CONTINUOUS
 10
-53.085228
 20
-65.087242
 11
-70.285228
 21
-65.087242
  0
LINE
  8
St
  6
CONTINUOUS
 10
-66.356473
 20
-65.084297
 11
-64.059415
 21
-62.787242
  0
LINE
  8
St
  6
CONTINUOUS
 10
-65.64937
 20
-65.084297
 11
-63.35231
 21
-62.787242
  0
LINE
  8
St
  6
CONTINUOUS
 10
-59.746375
 20
-14.084297
 11
-62.046378
 21
-16.384297
  0
LINE
  8
St
  6
CONTINUOUS
 10
-60.45348
 20
-14.084297
 11
-62.753482
 21
-16.384297
  0
LINE
  8
St
  6
CONTINUOUS
 10
8.819023
 20
-81.484353
 11
-49.173557
 21
-81.484353
  0
ARC
  8
St
  6
CONTINUOUS
 10
-49.181987
 20
-81.484351
 40
1.6
 50
180.0
 51
270.0
  0
LINE
  8
St
  6
CONTINUOUS
 10
10.419023
 20
-83.084353
 11
-70.580977
 21
-83.084353
  0
LINE
  8
St
  6
DOT
 10
-49.173557
 20
-81.484353
 11
-70.580977
 21
-81.484353
  0
LINE
  8
St
  6
CONTINUOUS
 10
-18.148385
 20
-83.084353
 11
-19.74839
 21
-81.484353
  0
LINE
  8
St
  6
CONTINUOUS
 10
-18.85549
 20
-83.084353
 11
-20.455495
 21
-81.484353
  0
LINE
  8
St
  6
CONTINUOUS
 10
-45.169662
 20
-83.084353
 11
-46.769668
 21
-81.484353
  0
LINE
  8
St
  6
CONTINUOUS
 10
-45.876768
 20
-83.084353
 11
-47.476772
 21
-81.484353
  0
LINE
  8
St
  6
CONTINUOUS
 10
8.819023
 20
-83.084353
 11
8.819023
 21
-76.067713
  0
LINE
  8
St
  6
CONTINUOUS
 10
10.419023
 20
-83.084353
 11
10.419023
 21
-76.067715
  0
ARC
  8
St
  6
CONTINUOUS
 10
8.81902
 20
-76.067715
 40
1.6
 50
360.0
 51
445.667276
  0
LINE
  8
St
  6
CONTINUOUS
 10
8.9399
 20
-74.472288
 11
-70.580977
 21
-68.447405
  0
LINE
  8
St
  6
CONTINUOUS
 10
8.819023
 20
-76.067713
 11
-70.580977
 21
-70.051992
  0
LINE
  8
St
  6
CONTINUOUS
 10
-68.669092
 20
-68.592257
 11
-68.669092
 21
-70.196845
  0
LINE
  8
St
  6
CONTINUOUS
 10
-49.173557
 20
-81.484353
 11
-49.173557
 21
-71.67392
  0
LINE
  8
St
  6
CONTINUOUS
 10
-50.781988
 20
-83.084353
 11
-50.781988
 21
-71.552057
  0
LINE
  8
St
  6
CONTINUOUS
 10
-48.308782
 20
-70.134853
 11
-46.572655
 21
-71.870978
  0
LINE
  8
St
  6
CONTINUOUS
 10
-47.543713
 20
-70.192818
 11
-45.807582
 21
-71.928942
  0
LINE
  8
St
  6
CONTINUOUS
 10
-20.82417
 20
-72.21722
 11
-19.08804
 21
-73.95334
  0
LINE
  8
St
  6
CONTINUOUS
 10
-20.059095
 20
-72.275185
 11
-18.322967
 21
-74.011308
  0
INSERT
  2
*GRP_0056
  8
St
  6
DASHDOT
 62
    47
 10
0.0
 20
0.0
  0
INSERT
  2
*GRP_0057
  8
St
  6
DASHDOT
 62
    47
 10
0.0
 20
0.0
  0
LINE
  8
St
  6
CONTINUOUS
 62
   127
 10
-6.590727
 20
-13.094525
 11
-6.590727
 21
0.916427
  0
ARC
  8
St
  6
CONTINUOUS
 62
   127
 10
-6.590729
 20
0.91642
 40
2.3
 50
0.0
 51
87.002981
  0
ARC
  8
St
  6
CONTINUOUS
 62
   127
 10
-6.590729
 20
-13.09452
 40
2.3
 50
270.0
 51
360.0
  0
LINE
  8
St
  6
CONTINUOUS
 62
   127
 10
-6.590727
 20
0.916427
 11
-19.39046
 21
1.586552
  0
LINE
  8
St
  6
CONTINUOUS
 62
   127
 10
-19.39046
 20
1.586552
 11
-19.270205
 21
3.883412
  0
LINE
  8
St
  6
CONTINUOUS
 62
   127
 10
-4.290725
 20
3.099152
 11
-19.270205
 21
3.883412
  0
LINE
  8
St
  6
CONTINUOUS
 62
   127
 10
-4.290725
 20
3.099152
 11
-4.290725
 21
-15.394528
  0
LINE
  8
St
  6
CONTINUOUS
 62
   127
 10
-50.580987
 20
-15.394528
 11
-4.290725
 21
-15.394528
  0
LINE
  8
St
  6
CONTINUOUS
 10
-11.780465
 20
3.491282
 11
-13.969032
 21
1.302715
  0
LINE
  8
St
  6
CONTINUOUS
 10
-13.297108
 20
1.26754
 11
-11.108547
 21
3.4561
  0
LINE
  8
St
  6
CONTINUOUS
 10
-6.590727
 20
-10.03016
 11
-4.290725
 21
-7.730158
  0
LINE
  8
St
  6
CONTINUOUS
 10
-6.590727
 20
-9.32306
 11
-4.290725
 21
-7.023057
  0
LINE
  8
St
  6
CONTINUOUS
 10
-17.126803
 20
-13.084055
 11
-19.437275
 21
-15.394528
  0
LINE
  8
St
  6
CONTINUOUS
 10
-16.419703
 20
-13.084055
 11
-18.730175
 21
-15.394528
  0
INSERT
  2
*GRP_0064
  8
St
  6
CONTINUOUS
 10
0.0
 20
0.0
  0
INSERT
  2
*HAT_0004
  8
その他部品等
 10
0.0
 20
0.0
  0
INSERT
  2
*HAT_0005
  8
その他部品等
 10
0.0
 20
0.0
  0
LINE
  8
その他部品等
  6
CONTINUOUS
 10
-93.989263
 20
103.415665
 11
-93.989263
 21
91.819277
  0
LINE
  8
その他部品等
  6
CONTINUOUS
 10
-96.989263
 20
102.215665
 11
-96.989263
 21
91.819277
  0
LINE
  8
その他部品等
  6
CONTINUOUS
 10
-103.98926
 20
102.215665
 11
-103.98926
 21
91.819277
  0
LINE
  8
その他部品等
  6
CONTINUOUS
 10
-93.989263
 20
103.415665
 11
-96.989263
 21
91.819277
  0
ENDSEC
  0
EOF
