  0
SECTION
  2
HEADER
  9
$EXTMIN
 10
-210.0
 20
-148.5
  9
$EXTMAX
 10
210.0
 20
148.5
  9
$PDMODE
 70
    32
  9
$PDSIZE
 40
1.5
  9
$LTSCALE
 40
10.0
  0
ENDSEC
  0
SECTION
  2
TABLES
  0
TABLE
  2
LTYPE
 70
    15
  0
LTYPE
  2
CONTINUOUS
 70
    64
  3
実線
 72
    65
 73
     0
 40
0.0
  0
LTYPE
  2
DASHED
 70
    64
  3
破線A
 72
    65
 73
     2
 40
0.6
 49
0.4
 49
-0.2
  0
LTYPE
  2
DASHEDX2
 70
    64
  3
破線B
 72
    65
 73
     2
 40
1.3
 49
0.9
 49
-0.4
  0
LTYPE
  2
DASHDOT
 70
    64
  3
１点鎖線A
 72
    65
 73
     4
 40
0.5375
 49
0.375
 49
-0.05
 49
0.0625
 49
-0.05
  0
LTYPE
  2
DASHDOTX2
 70
    64
  3
１点鎖線B
 72
    65
 73
     4
 40
1.075
 49
0.75
 49
-0.1
 49
0.125
 49
-0.1
  0
LTYPE
  2
DIVIDE2
 70
    64
  3
２点鎖線A
 72
    65
 73
     6
 40
0.5125
 49
0.3
 49
-0.0375
 49
0.05
 49
-0.0375
 49
0.05
 49
-0.0375
  0
LTYPE
  2
DIVIDE
 70
    64
  3
２点鎖線B
 72
    65
 73
     6
 40
1.05
 49
0.55
 49
-0.1
 49
0.1
 49
-0.1
 49
0.1
 49
-0.1
  0
LTYPE
  2
DOT
 70
    64
  3
点線A
 72
    65
 73
     2
 40
0.1125
 49
0.0625
 49
-0.05
  0
LTYPE
  2
DOTX2
 70
    64
  3
点線B
 72
    65
 73
     2
 40
0.275
 49
0.15
 49
-0.125
  0
LTYPE
  2
CONTINUOUS
 70
    64
  3
実線
 72
    65
 73
     0
 40
0.0
  0
LTYPE
  2
CONTINUOUS
 70
    64
  3
実線
 72
    65
 73
     0
 40
0.0
  0
LTYPE
  2
CONTINUOUS
 70
    64
  3
実線
 72
    65
 73
     0
 40
0.0
  0
LTYPE
  2
CONTINUOUS
 70
    64
  3
実線
 72
    65
 73
     0
 40
0.0
  0
LTYPE
  2
CONTINUOUS
 70
    64
  3
実線
 72
    65
 73
     0
 40
0.0
  0
LTYPE
  2
CONTINUOUS
 70
    64
  3
実線
 72
    65
 73
     0
 40
0.0
  0
ENDTAB
  0
TABLE
  2
LAYER
 70
    34
  0
LAYER
  2
通り芯
 70
     0
 62
    15
  6
CONTINUOUS
  0
LAYER
  2
補助線
 70
     0
 62
    16
  6
DOT
  0
LAYER
  2
躯体
 70
     0
 62
    31
  6
CONTINUOUS
  0
LAYER
  2
型材
 70
     0
 62
    32
  6
CONTINUOUS
  0
LAYER
  2
型材断面
 70
     0
 62
    47
  6
CONTINUOUS
  0
LAYER
  2
ガラス
 70
     0
 62
    48
  6
CONTINUOUS
  0
LAYER
  2
ゴム等
 70
     0
 62
    63
  6
CONTINUOUS
  0
LAYER
  2
ボルト／ビス
 70
     0
 62
    64
  6
CONTINUOUS
  0
LAYER
  2
文字
 70
     0
 62
    79
  6
CONTINUOUS
  0
LAYER
  2
寸法
 70
     0
 62
    80
  6
CONTINUOUS
  0
LAYER
  2
ﾊｯﾁﾝｸﾞ
 70
     0
 62
    95
  6
CONTINUOUS
  0
LAYER
  2
別途部材
 70
     0
 62
    96
  6
CONTINUOUS
  0
LAYER
  2
曲げ物
 70
     0
 62
   111
  6
CONTINUOUS
  0
LAYER
  2
鉄骨等
 70
     0
 62
   112
  6
CONTINUOUS
  0
LAYER
  2
St
 70
     0
 62
   127
  6
CONTINUOUS
  0
LAYER
  2
その他部品等
 70
     0
 62
   128
  6
CONTINUOUS
  0
LAYER
  2
ｶﾞｽｹｯﾄ
 70
     0
 62
   143
  6
CONTINUOUS
  0
LAYER
  2
ｽｹｯﾁ
 70
     0
 62
    14
  6
CONTINUOUS
  0
LAYER
  2
0
 70
     0
 62
    17
  6
CONTINUOUS
  0
LAYER
  2
1
 70
     0
 62
    30
  6
CONTINUOUS
  0
LAYER
  2
4
 70
     0
 62
    33
  6
CONTINUOUS
  0
LAYER
  2
ﾚｲﾔ3
 70
     0
 62
    46
  6
CONTINUOUS
  0
LAYER
  2
外形線
 70
     0
 62
    49
  6
CONTINUOUS
  0
LAYER
  2
部品
 70
     0
 62
    14
  6
CONTINUOUS
  0
LAYER
  2
サッシ芯
 70
     0
 62
    17
  6
DASHDOTX2
  0
LAYER
  2
寸法線
 70
     0
 62
    62
  6
CONTINUOUS
  0
LAYER
  2
姿図外形線
 70
     0
 62
    65
  6
CONTINUOUS
  0
LAYER
  2
姿補助線
 70
     0
 62
    30
  6
CONTINUOUS
  0
LAYER
  2
透視線
 70
     0
 62
    78
  6
DOT
  0
LAYER
  2
用紙
 70
     0
 62
    81
  6
CONTINUOUS
  0
LAYER
  2
実線図枠
 70
     0
 62
    94
  6
CONTINUOUS
  0
LAYER
  2
補助図枠
 70
     0
 62
    97
  6
CONTINUOUS
  0
LAYER
  2
建具記号
 70
     0
 62
   110
  6
CONTINUOUS
  0
LAYER
  2
補助文字
 70
     0
 62
   113
  6
CONTINUOUS
  0
ENDTAB
  0
TABLE
  2
STYLE
 70
    10
  0
STYLE
  2
STANDARD
 70
     0
 40
1.0
 41
1.0
 42
1.0
 50
0.0
 71
     0
  3
TXT
  4
BIGFONT
  0
STYLE
  2
TATE
 70
     4
 40
1.0
 41
1.0
 42
1.0
 50
0.0
 71
     0
  3
TXT
  4
BIGFONT
  0
STYLE
  2
TextStyle03
 70
     0
 40
1.0
 41
1.0
 42
1.0
 50
0.0
 71
     0
  3
MONOTXT
  4
BIGFONT
  0
STYLE
  2
TextStyle04
 70
     0
 40
1.0
 41
1.0
 42
1.0
 50
0.0
 71
     0
  3
MONOTXT
  4
BIGFONT
  0
STYLE
  2
TextStyle05
 70
     0
 40
1.0
 41
1.0
 42
1.0
 50
0.0
 71
     0
  3
MONOTXT
  4
BIGFONT
  0
STYLE
  2
TextStyle06
 70
     0
 40
1.0
 41
1.0
 42
1.0
 50
0.0
 71
     0
  3
MONOTXT
  4
BIGFONT
  0
STYLE
  2
TextStyle07
 70
     0
 40
1.0
 41
1.0
 42
1.0
 50
0.0
 71
     0
  3
MONOTXT
  4
BIGFONT
  0
STYLE
  2
TextStyle08
 70
     0
 40
1.0
 41
1.0
 42
1.0
 50
0.0
 71
     0
  3
MONOTXT
  4
BIGFONT
  0
STYLE
  2
TextStyle09
 70
     0
 40
1.0
 41
1.0
 42
1.0
 50
0.0
 71
     0
  3
MONOTXT
  4
BIGFONT
  0
STYLE
  2
TextStyle10
 70
     0
 40
1.0
 41
1.0
 42
1.0
 50
0.0
 71
     0
  3
MONOTXT
  4
BIGFONT
  0
ENDTAB
  0
ENDSEC
  0
SECTION
  2
BLOCKS
  0
BLOCK
  2
*GRP_0001
 70
    65
 10
0.0
 20
0.0
  0
LINE
  8
型材断面
  6
CONTINUOUS
 10
195.0
 20
133.5
 11
195.0
 21
-133.5
  0
LINE
  8
型材断面
  6
CONTINUOUS
 10
195.0
 20
-133.5
 11
-185.0
 21
-133.5
  0
LINE
  8
型材断面
  6
CONTINUOUS
 10
-185.0
 20
-133.5
 11
-185.0
 21
133.5
  0
LINE
  8
型材断面
  6
CONTINUOUS
 10
195.0
 20
133.5
 11
-185.0
 21
133.5
  0
LINE
  8
型材断面
  6
CONTINUOUS
 10
145.0
 20
-133.5
 11
145.0
 21
-118.5
  0
LINE
  8
型材断面
  6
CONTINUOUS
 10
195.0
 20
-118.5
 11
145.0
 21
-118.5
  0
ENDBLK
  0
BLOCK
  2
*DIM_0002
 70
    65
 10
0.0
 20
0.0
  0
LINE
  8
寸法
  6
BYBLOCK
 62
     0
 10
21.33489
 20
-22.536362
 11
-61.998442
 21
-22.536362
  0
POINT
  8
寸法
 62
     0
 10
21.33489
 20
-22.536362
  0
POINT
  8
寸法
 62
     0
 10
-61.998442
 20
-22.536362
  0
TEXT
  7
TextStyle03
  8
寸法
  6
CONTINUOUS
 62
     0
 10
-32.06875
 20
-22.175
  1
呼称寸法　2500
 40
3.0
 72
     5
 11
-8.63125
 21
-22.175
  0
ENDBLK
  0
BLOCK
  2
*DIM_0003
 70
    65
 10
0.0
 20
0.0
  0
LINE
  8
寸法
  6
BYBLOCK
 62
     0
 10
-45.331775
 20
9.76892
 11
-45.331775
 21
4.76579
  0
LINE
  8
寸法
  6
BYBLOCK
 62
     0
 10
4.66822
 20
9.76892
 11
4.66822
 21
4.76579
  0
LINE
  8
寸法
  6
BYBLOCK
 62
     0
 10
-45.331775
 20
4.76579
 11
4.66822
 21
4.76579
  0
POINT
  8
寸法
 62
     0
 10
-45.331775
 20
4.76579
  0
POINT
  8
寸法
 62
     0
 10
4.66822
 20
4.76579
  0
TEXT
  7
TextStyle03
  8
寸法
  6
CONTINUOUS
 62
     0
 10
-23.63125
 20
5.125
  1
1500
 40
3.0
 72
     5
 11
-17.06875
 21
5.125
  0
ENDBLK
  0
BLOCK
  2
*DIM_0004
 70
    65
 10
0.0
 20
0.0
  0
LINE
  8
寸法
  6
BYBLOCK
 62
     0
 10
55.35454
 20
13.399048
 11
55.35454
 21
56.73238
  0
POINT
  8
寸法
 62
     0
 10
55.35454
 20
13.399048
  0
POINT
  8
寸法
 62
     0
 10
55.35454
 20
56.73238
  0
TEXT
  7
TextStyle03
  8
寸法
  6
CONTINUOUS
 62
     0
 10
55.025
 20
23.33125
  1
呼称寸法　1300
 40
3.0
 50
90.0
 72
     5
 11
55.025
 21
46.76875
  0
ENDBLK
  0
BLOCK
  2
*DIM_0005
 70
    65
 10
0.0
 20
0.0
  0
LINE
  8
寸法
  6
BYBLOCK
 62
     0
 10
112.050583
 20
60.065853
 11
55.35454
 21
60.065853
  0
LINE
  8
寸法
  6
BYBLOCK
 62
     0
 10
55.35454
 20
56.73238
 11
55.35454
 21
60.065853
  0
POINT
  8
寸法
 62
     0
 10
55.35454
 20
56.73238
  0
POINT
  8
寸法
 62
     0
 10
55.35454
 20
60.065853
  0
TEXT
  7
TextStyle03
  8
寸法
  6
CONTINUOUS
 62
     0
 10
58.375
 20
61.1125
  1
100
 40
3.0
 50
90.0
 72
     5
 11
58.375
 21
65.9875
  0
ENDBLK
  0
BLOCK
  2
*DIM_0006
 70
    65
 10
0.0
 20
0.0
  0
LINE
  8
寸法
  6
BYBLOCK
 62
     0
 10
112.050583
 20
10.065577
 11
55.35454
 21
10.065577
  0
LINE
  8
寸法
  6
BYBLOCK
 62
     0
 10
55.35454
 20
13.39905
 11
55.35454
 21
10.065577
  0
POINT
  8
寸法
 62
     0
 10
55.35454
 20
13.39905
  0
POINT
  8
寸法
 62
     0
 10
55.35454
 20
10.065577
  0
TEXT
  7
TextStyle03
  8
寸法
  6
CONTINUOUS
 62
     0
 10
58.375
 20
4.1375
  1
100
 40
3.0
 50
90.0
 72
     5
 11
58.375
 21
9.0125
  0
ENDBLK
  0
BLOCK
  2
*DIM_0007
 70
    65
 10
0.0
 20
0.0
  0
LINE
  8
寸法
  6
BYBLOCK
 62
     0
 10
24.668362
 20
-82.024715
 11
24.668362
 21
-22.536362
  0
LINE
  8
寸法
  6
BYBLOCK
 62
     0
 10
21.33489
 20
-22.536362
 11
24.668362
 21
-22.536362
  0
POINT
  8
寸法
 62
     0
 10
21.33489
 20
-22.536362
  0
POINT
  8
寸法
 62
     0
 10
24.668362
 20
-22.536362
  0
TEXT
  7
TextStyle03
  8
寸法
  6
CONTINUOUS
 62
     0
 10
25.7875
 20
-25.7
  1
100
 40
3.0
 72
     5
 11
30.6625
 21
-25.7
  0
ENDBLK
  0
BLOCK
  2
*DIM_0008
 70
    65
 10
0.0
 20
0.0
  0
LINE
  8
寸法
  6
BYBLOCK
 62
     0
 10
-65.331917
 20
-82.024715
 11
-65.331917
 21
-22.536362
  0
LINE
  8
寸法
  6
BYBLOCK
 62
     0
 10
-61.998445
 20
-22.536362
 11
-65.331917
 21
-22.536362
  0
POINT
  8
寸法
 62
     0
 10
-61.998445
 20
-22.536362
  0
POINT
  8
寸法
 62
     0
 10
-65.331917
 20
-22.536362
  0
TEXT
  7
TextStyle03
  8
寸法
  6
CONTINUOUS
 62
     0
 10
-71.3375
 20
-25.7
  1
100
 40
3.0
 72
     5
 11
-66.4625
 21
-25.7
  0
ENDBLK
  0
BLOCK
  2
*DIM_0009
 70
    65
 10
0.0
 20
0.0
  0
LINE
  8
寸法
  6
BYBLOCK
 62
     0
 10
160.91659
 20
-84.654215
 11
166.877572
 21
-84.654215
  0
LINE
  8
寸法
  6
BYBLOCK
 62
     0
 10
160.91659
 20
-41.154215
 11
166.877572
 21
-41.154215
  0
LINE
  8
寸法
  6
BYBLOCK
 62
     0
 10
166.877572
 20
-84.654215
 11
166.877572
 21
-41.154215
  0
POINT
  8
寸法
 62
     0
 10
166.877572
 20
-84.654215
  0
POINT
  8
寸法
 62
     0
 10
166.877572
 20
-41.154215
  0
TEXT
  7
TextStyle03
  8
寸法
  6
CONTINUOUS
 62
     0
 10
166.5
 20
-66.20625
  1
1305
 40
3.0
 50
90.0
 72
     5
 11
166.5
 21
-59.64375
  0
ENDBLK
  0
BLOCK
  2
*DIM_0010
 70
    65
 10
0.0
 20
0.0
  0
LINE
  8
寸法
  6
BYBLOCK
 62
     0
 10
-64.998442
 20
23.399048
 11
-93.943607
 21
23.399048
  0
LINE
  8
寸法
  6
BYBLOCK
 62
     0
 10
-64.998442
 20
46.732382
 11
-93.943607
 21
46.732382
  0
LINE
  8
寸法
  6
BYBLOCK
 62
     0
 10
-93.943607
 20
23.399048
 11
-93.943607
 21
46.732382
  0
POINT
  8
寸法
 62
     0
 10
-93.943607
 20
23.399048
  0
POINT
  8
寸法
 62
     0
 10
-93.943607
 20
46.732382
  0
TEXT
  7
TextStyle03
  8
寸法
  6
CONTINUOUS
 62
     0
 10
-94.325
 20
32.6125
  1
700
 40
3.0
 50
90.0
 72
     5
 11
-94.325
 21
37.4875
  0
ENDBLK
  0
BLOCK
  2
*DIM_0011
 70
    65
 10
0.0
 20
0.0
  0
LINE
  8
寸法
  6
BYBLOCK
 62
     0
 10
-55.331778
 20
59.73238
 11
-55.331778
 21
89.48
  0
LINE
  8
寸法
  6
BYBLOCK
 62
     0
 10
-31.998445
 20
59.73238
 11
-31.998445
 21
89.48
  0
LINE
  8
寸法
  6
BYBLOCK
 62
     0
 10
-55.331778
 20
89.48
 11
-31.998445
 21
89.48
  0
POINT
  8
寸法
 62
     0
 10
-55.331778
 20
89.48
  0
POINT
  8
寸法
 62
     0
 10
-31.998445
 20
89.48
  0
TEXT
  7
TextStyle03
  8
寸法
  6
CONTINUOUS
 62
     0
 10
-46.1125
 20
89.85
  1
700
 40
3.0
 72
     5
 11
-41.2375
 21
89.85
  0
ENDBLK
  0
BLOCK
  2
*DIM_0012
 70
    65
 10
0.0
 20
0.0
  0
LINE
  8
寸法
  6
BYBLOCK
 62
     0
 10
-8.66511
 20
59.73238
 11
-8.66511
 21
89.48
  0
LINE
  8
寸法
  6
BYBLOCK
 62
     0
 10
-31.998445
 20
89.48
 11
-8.66511
 21
89.48
  0
POINT
  8
寸法
 62
     0
 10
-8.66511
 20
89.48
  0
TEXT
  7
TextStyle03
  8
寸法
  6
CONTINUOUS
 62
     0
 10
-22.7875
 20
89.85
  1
700
 40
3.0
 72
     5
 11
-17.9125
 21
89.85
  0
ENDBLK
  0
BLOCK
  2
*DIM_0013
 70
    65
 10
0.0
 20
0.0
  0
LINE
  8
寸法
  6
BYBLOCK
 62
     0
 10
14.668223
 20
59.73238
 11
14.668223
 21
89.48
  0
LINE
  8
寸法
  6
BYBLOCK
 62
     0
 10
-8.66511
 20
89.48
 11
14.668223
 21
89.48
  0
POINT
  8
寸法
 62
     0
 10
14.668223
 20
89.48
  0
TEXT
  7
TextStyle03
  8
寸法
  6
CONTINUOUS
 62
     0
 10
0.5625
 20
89.85
  1
700
 40
3.0
 72
     5
 11
5.4375
 21
89.85
  0
ENDBLK
  0
BLOCK
  2
*DIM_0014
 70
    65
 10
0.0
 20
0.0
  0
LINE
  8
寸法
  6
CONTINUOUS
 10
29.668362
 20
-85.524718
 11
35.30152
 21
-85.524718
  0
LINE
  8
寸法
  6
CONTINUOUS
 10
28.02142
 20
-79.008168
 11
35.30152
 21
-79.008168
  0
LINE
  8
寸法
  6
CONTINUOUS
 10
35.30152
 20
-85.524718
 11
35.30152
 21
-79.008168
  0
POINT
  8
寸法
 10
35.30152
 20
-85.524718
  0
POINT
  8
寸法
 10
35.30152
 20
-79.008168
  0
TEXT
  7
TextStyle03
  8
寸法
  6
CONTINUOUS
 10
39.425
 20
-87.775
  1
195.5
 40
4.0
 50
90.0
 72
     5
 11
39.425
 21
-76.775
  0
ENDBLK
  0
BLOCK
  2
*GRP_0015
 70
    65
 10
0.0
 20
0.0
  0
LINE
  8
別途部材
  6
CONTINUOUS
 62
    96
 10
114.73391
 20
57.966035
 11
114.73391
 21
57.866035
  0
LINE
  8
別途部材
  6
CONTINUOUS
 62
    96
 10
112.63283
 20
58.066035
 11
112.702503
 21
59.39684
  0
LINE
  8
別途部材
  6
CONTINUOUS
 62
    96
 10
113.250575
 20
59.406035
 11
113.13391
 21
59.672703
  0
LINE
  8
別途部材
  6
CONTINUOUS
 62
    96
 10
113.150575
 20
59.38512
 11
113.083055
 21
59.539452
  0
LINE
  8
別途部材
  6
CONTINUOUS
 62
    96
 10
112.603732
 20
59.422957
 11
112.734182
 21
59.68316
  0
LINE
  8
別途部材
  6
CONTINUOUS
 62
    96
 10
112.702503
 20
59.39684
 11
112.834663
 21
59.660453
  0
LINE
  8
別途部材
  6
CONTINUOUS
 62
    96
 10
112.870265
 20
59.59557
 11
112.806617
 21
59.51844
  0
LINE
  8
別途部材
  6
DASHDOTX2
 62
    96
 10
112.93391
 20
59.672703
 11
112.620425
 21
59.672703
  0
LINE
  8
別途部材
  6
DASHDOTX2
 62
    96
 10
112.93391
 20
59.672703
 11
113.26437
 21
59.672703
  0
LINE
  8
別途部材
  6
DASHDOTX2
 62
    96
 10
112.93391
 20
59.672703
 11
112.93391
 21
59.40923
  0
LINE
  8
別途部材
  6
DASHDOTX2
 62
    96
 10
112.93391
 20
59.672703
 11
112.93391
 21
59.951013
  0
LINE
  8
別途部材
  6
CONTINUOUS
 62
    96
 10
113.150575
 20
57.866035
 11
113.150575
 21
59.38512
  0
LINE
  8
別途部材
  6
CONTINUOUS
 62
    96
 10
113.250575
 20
57.966035
 11
113.250575
 21
59.406035
  0
LINE
  8
別途部材
  6
CONTINUOUS
 62
    96
 10
111.399495
 20
58.166037
 11
112.537927
 21
58.166037
  0
LINE
  8
別途部材
  6
CONTINUOUS
 62
    96
 10
111.399495
 20
58.066035
 11
111.399495
 21
58.166037
  0
LINE
  8
別途部材
  6
CONTINUOUS
 62
    96
 10
111.399495
 20
58.066035
 11
112.63283
 21
58.066035
  0
CIRCLE
  8
別途部材
  6
CONTINUOUS
 62
    96
 10
112.93391
 20
59.672703
 40
0.1
  0
ARC
  8
別途部材
  6
CONTINUOUS
 62
    96
 10
112.933908
 20
59.672705
 40
0.2
 50
218.780606
 51
537.001556
  0
LINE
  8
別途部材
  6
CONTINUOUS
 62
    96
 10
113.150575
 20
57.866035
 11
114.73391
 21
57.866035
  0
LINE
  8
別途部材
  6
CONTINUOUS
 62
    96
 10
113.250575
 20
57.966035
 11
114.73391
 21
57.966035
  0
LINE
  8
別途部材
  6
CONTINUOUS
 62
    96
 10
112.603732
 20
59.422957
 11
112.537927
 21
58.166037
  0
ENDBLK
  0
BLOCK
  2
*DIM_0016
 70
    65
 10
0.0
 20
0.0
  0
LINE
  8
寸法
  6
CONTINUOUS
 10
157.91659
 20
-32.644
 11
116.71659
 21
-32.644
  0
POINT
  8
寸法
 10
157.91659
 20
-32.644
  0
POINT
  8
寸法
 10
116.71659
 20
-32.644
  0
TEXT
  7
TextStyle03
  8
寸法
  6
CONTINUOUS
 10
134.01875
 20
-32.3
  1
1236
 40
3.0
 72
     5
 11
140.58125
 21
-32.3
  0
ENDBLK
  0
ENDSEC
  0
SECTION
  2
ENTITIES
  0
POLYLINE
  8
通り芯
  6
CONTINUOUS
 66
     1
 70
     1
  0
VERTEX
  8
通り芯
 10
-210.0
 20
-148.5
  0
VERTEX
  8
通り芯
 10
210.0
 20
-148.5
  0
VERTEX
  8
通り芯
 10
210.0
 20
148.5
  0
VERTEX
  8
通り芯
 10
-210.0
 20
148.5
  0
SEQEND
  0
INSERT
  2
*GRP_0001
  8
型材断面
  6
CONTINUOUS
 10
0.0
 20
0.0
  0
LINE
  8
型材断面
  6
DASHDOT
 10
21.33489
 20
-87.251428
 11
21.33489
 21
56.73238
  0
LINE
  8
型材断面
  6
DASHDOT
 10
-20.331778
 20
-87.251428
 11
-20.331778
 21
56.73238
  0
LINE
  8
型材断面
  6
DASHDOT
 10
-61.998442
 20
-87.251428
 11
-61.998442
 21
56.73238
  0
LINE
  8
型材断面
  6
DASHDOT
 10
119.011652
 20
56.73238
 11
-61.998442
 21
56.73238
  0
LINE
  8
型材断面
  6
DASHDOT
 10
119.011652
 20
35.065715
 11
-61.998442
 21
35.065715
  0
LINE
  8
型材断面
  6
DASHDOT
 10
119.011652
 20
13.399048
 11
-61.998442
 21
13.399048
  0
LINE
  8
型材断面
  6
CONTINUOUS
 10
-64.628572
 20
35.065715
 11
-67.21908
 21
36.561345
  0
LINE
  8
型材断面
  6
CONTINUOUS
 10
-64.628572
 20
35.065715
 11
-67.21908
 21
33.570085
  0
LINE
  8
型材断面
  6
CONTINUOUS
 10
-67.21908
 20
33.570085
 11
-67.21908
 21
36.561345
  0
LINE
  8
型材断面
  6
CONTINUOUS
 10
-45.331775
 20
59.36251
 11
-46.827405
 21
61.953017
  0
LINE
  8
型材断面
  6
CONTINUOUS
 10
-45.331775
 20
59.36251
 11
-43.836145
 21
61.953017
  0
LINE
  8
型材断面
  6
CONTINUOUS
 10
-43.836145
 20
61.953017
 11
-46.827405
 21
61.953017
  0
LINE
  8
型材断面
  6
CONTINUOUS
 10
-102.85065
 20
94.709852
 11
-102.254595
 21
92.119345
  0
LINE
  8
型材断面
  6
CONTINUOUS
 10
-102.85065
 20
94.709852
 11
-103.446707
 21
92.119345
  0
LINE
  8
型材断面
  6
CONTINUOUS
 10
-103.446707
 20
92.119345
 11
-102.254595
 21
92.119345
  0
LINE
  8
型材断面
  6
CONTINUOUS
 10
-108.873237
 20
88.840452
 11
-62.63146
 21
88.840452
  0
LINE
  8
型材断面
  6
CONTINUOUS
 10
-102.85065
 20
101.239727
 11
-104.34628
 21
98.64922
  0
LINE
  8
型材断面
  6
CONTINUOUS
 10
-102.85065
 20
101.239727
 11
-101.35502
 21
98.64922
  0
LINE
  8
型材断面
  6
CONTINUOUS
 10
-101.35502
 20
98.64922
 11
-104.34628
 21
98.64922
  0
LINE
  8
型材断面
  6
CONTINUOUS
 10
-108.873237
 20
97.710625
 11
-62.63146
 21
97.710625
  0
LINE
  8
型材断面
  6
CONTINUOUS
 10
-108.873237
 20
83.05242
 11
-62.63146
 21
83.05242
  0
LINE
  8
型材断面
  6
CONTINUOUS
 10
-45.331775
 20
10.76892
 11
-46.827405
 21
8.178413
  0
LINE
  8
型材断面
  6
CONTINUOUS
 10
-45.331775
 20
10.76892
 11
-43.836145
 21
8.178413
  0
LINE
  8
型材断面
  6
CONTINUOUS
 10
-43.836145
 20
8.178413
 11
-46.827405
 21
8.178413
  0
LINE
  8
型材断面
  6
CONTINUOUS
 10
23.965018
 20
35.065715
 11
26.555525
 21
36.561345
  0
LINE
  8
型材断面
  6
CONTINUOUS
 10
23.965018
 20
35.065715
 11
26.555525
 21
33.570085
  0
LINE
  8
型材断面
  6
CONTINUOUS
 10
26.555525
 20
33.570085
 11
26.555525
 21
36.561345
  0
LINE
  8
型材断面
  6
CONTINUOUS
 10
4.66822
 20
59.36251
 11
6.16385
 21
61.953017
  0
LINE
  8
型材断面
  6
CONTINUOUS
 10
4.66822
 20
59.36251
 11
3.17259
 21
61.953017
  0
LINE
  8
型材断面
  6
CONTINUOUS
 10
3.17259
 20
61.953017
 11
6.16385
 21
61.953017
  0
LINE
  8
型材断面
  6
CONTINUOUS
 10
4.66822
 20
10.76892
 11
6.16385
 21
8.178413
  0
LINE
  8
型材断面
  6
CONTINUOUS
 10
4.66822
 20
10.76892
 11
3.17259
 21
8.178413
  0
LINE
  8
型材断面
  6
CONTINUOUS
 10
3.17259
 20
8.178413
 11
6.16385
 21
8.178413
  0
POLYLINE
  8
型材断面
  6
DASHDOT
 66
     1
  0
VERTEX
  8
型材断面
 10
-61.998442
 20
13.399048
  0
VERTEX
  8
型材断面
 10
-20.331778
 20
56.73238
  0
VERTEX
  8
型材断面
 10
21.33489
 20
13.399048
  0
SEQEND
  0
LINE
  8
型材断面
  6
CONTINUOUS
 62
    47
 10
22.658223
 20
-81.564728
 11
22.668223
 21
-81.554727
  0
LINE
  8
型材断面
  6
CONTINUOUS
 62
    47
 10
22.658223
 20
-81.564728
 11
22.668223
 21
-81.574727
  0
LINE
  8
型材断面
  6
CONTINUOUS
 62
    47
 10
22.658223
 20
-82.20696
 11
22.668223
 21
-82.19696
  0
LINE
  8
型材断面
  6
CONTINUOUS
 62
    47
 10
22.658223
 20
-82.20696
 11
22.668223
 21
-82.21696
  0
LINE
  8
型材断面
  6
CONTINUOUS
 62
    47
 10
22.668223
 20
-82.624727
 11
22.668223
 21
-82.21696
  0
LINE
  8
型材断面
  6
CONTINUOUS
 62
    47
 10
22.668223
 20
-82.19696
 11
22.668223
 21
-81.574727
  0
LINE
  8
型材断面
  6
CONTINUOUS
 62
    47
 10
22.668223
 20
-81.554727
 11
22.668223
 21
-80.858043
  0
LINE
  8
型材断面
  6
CONTINUOUS
 62
    47
 10
23.93503
 20
-82.691053
 11
23.93503
 21
-82.857683
  0
LINE
  8
型材断面
  6
CONTINUOUS
 62
    47
 10
22.458362
 20
-83.758057
 11
22.468362
 21
-83.748057
  0
LINE
  8
型材断面
  6
CONTINUOUS
 62
    47
 10
22.458362
 20
-83.758057
 11
22.468362
 21
-83.768058
  0
LINE
  8
型材断面
  6
CONTINUOUS
 62
    47
 10
22.458362
 20
-84.224733
 11
22.468362
 21
-84.214732
  0
LINE
  8
型材断面
  6
CONTINUOUS
 62
    47
 10
22.458362
 20
-84.224733
 11
22.468362
 21
-84.234732
  0
LINE
  8
型材断面
  6
CONTINUOUS
 62
    47
 10
22.468362
 20
-83.124708
 11
22.468362
 21
-83.748057
  0
LINE
  8
型材断面
  6
CONTINUOUS
 62
    47
 10
22.468362
 20
-83.768058
 11
22.468362
 21
-84.214732
  0
LINE
  8
型材断面
  6
CONTINUOUS
 62
    47
 10
24.668362
 20
-85.024715
 11
24.668362
 21
-85.524718
  0
LINE
  8
型材断面
  6
CONTINUOUS
 62
    47
 10
24.16837
 20
-85.858047
 11
24.16837
 21
-85.524718
  0
LINE
  8
型材断面
  6
CONTINUOUS
 62
    47
 10
24.668362
 20
-85.024715
 11
22.468362
 21
-84.858047
  0
LINE
  8
型材断面
  6
CONTINUOUS
 62
    47
 10
21.734887
 20
-84.858047
 11
22.401695
 21
-84.858047
  0
LINE
  8
型材断面
  6
CONTINUOUS
 62
    47
 10
22.458362
 20
-84.758047
 11
22.468362
 21
-84.748048
  0
LINE
  8
型材断面
  6
CONTINUOUS
 62
    47
 10
22.458362
 20
-84.758047
 11
22.468362
 21
-84.768048
  0
LINE
  8
型材断面
  6
CONTINUOUS
 62
    47
 10
22.468362
 20
-84.858047
 11
22.468362
 21
-84.768048
  0
LINE
  8
型材断面
  6
CONTINUOUS
 62
    47
 10
22.468362
 20
-84.234732
 11
22.468362
 21
-84.748048
  0
LINE
  8
型材断面
  6
CONTINUOUS
 62
    47
 10
23.935028
 20
-83.124708
 11
23.935028
 21
-82.99139
  0
LINE
  8
型材断面
  6
CONTINUOUS
 62
    47
 10
22.668223
 20
-82.624727
 11
23.93503
 21
-82.691053
  0
LINE
  8
型材断面
  6
CONTINUOUS
 62
    47
 10
24.668362
 20
-85.524718
 11
-20.331778
 21
-85.524718
  0
LINE
  8
型材断面
  6
CONTINUOUS
 62
    47
 10
24.16837
 20
-85.858047
 11
-20.331778
 21
-85.858047
  0
LINE
  8
型材断面
  6
CONTINUOUS
 10
24.668362
 20
-85.024715
 11
-20.331778
 21
-85.024715
  0
LINE
  8
型材断面
  6
CONTINUOUS
 10
22.468362
 20
-84.858047
 11
-20.331778
 21
-84.858047
  0
LINE
  8
型材断面
  6
CONTINUOUS
 62
    47
 10
23.935028
 20
-83.124708
 11
-20.331778
 21
-83.124708
  0
LINE
  8
型材断面
  6
CONTINUOUS
 62
    47
 10
23.93503
 20
-82.857683
 11
-20.331778
 21
-82.857683
  0
LINE
  8
型材断面
  6
CONTINUOUS
 10
22.668223
 20
-82.624727
 11
-20.331778
 21
-82.624727
  0
LINE
  8
型材断面
  6
CONTINUOUS
 62
    47
 10
23.935028
 20
-82.99139
 11
-20.331778
 21
-82.99139
  0
LINE
  8
型材断面
  6
CONTINUOUS
 10
23.93503
 20
-82.691053
 11
-20.331778
 21
-82.691053
  0
LINE
  8
型材断面
  6
CONTINUOUS
 62
    47
 10
22.668223
 20
-80.858043
 11
-20.331778
 21
-80.858043
  0
LINE
  8
型材断面
  6
CONTINUOUS
 62
    47
 10
-63.321778
 20
-81.564728
 11
-63.331778
 21
-81.554727
  0
LINE
  8
型材断面
  6
CONTINUOUS
 62
    47
 10
-63.321778
 20
-81.564728
 11
-63.331778
 21
-81.574727
  0
LINE
  8
型材断面
  6
CONTINUOUS
 62
    47
 10
-63.321778
 20
-82.20696
 11
-63.331778
 21
-82.19696
  0
LINE
  8
型材断面
  6
CONTINUOUS
 62
    47
 10
-63.321778
 20
-82.20696
 11
-63.331778
 21
-82.21696
  0
LINE
  8
型材断面
  6
CONTINUOUS
 62
    47
 10
-63.331778
 20
-82.624727
 11
-63.331778
 21
-82.21696
  0
LINE
  8
型材断面
  6
CONTINUOUS
 62
    47
 10
-63.331778
 20
-82.19696
 11
-63.331778
 21
-81.574727
  0
LINE
  8
型材断面
  6
CONTINUOUS
 62
    47
 10
-63.331778
 20
-81.554727
 11
-63.331778
 21
-80.858043
  0
LINE
  8
型材断面
  6
CONTINUOUS
 62
    47
 10
-64.598585
 20
-82.691053
 11
-64.598585
 21
-82.857683
  0
LINE
  8
型材断面
  6
CONTINUOUS
 62
    47
 10
-63.121918
 20
-83.758057
 11
-63.131917
 21
-83.748057
  0
LINE
  8
型材断面
  6
CONTINUOUS
 62
    47
 10
-63.121918
 20
-83.758057
 11
-63.131917
 21
-83.768058
  0
LINE
  8
型材断面
  6
CONTINUOUS
 62
    47
 10
-63.121918
 20
-84.224733
 11
-63.131917
 21
-84.214732
  0
LINE
  8
型材断面
  6
CONTINUOUS
 62
    47
 10
-63.121918
 20
-84.224733
 11
-63.131917
 21
-84.234732
  0
LINE
  8
型材断面
  6
CONTINUOUS
 62
    47
 10
-63.131917
 20
-83.124708
 11
-63.131917
 21
-83.748057
  0
LINE
  8
型材断面
  6
CONTINUOUS
 62
    47
 10
-63.131917
 20
-83.768058
 11
-63.131917
 21
-84.214732
  0
LINE
  8
型材断面
  6
CONTINUOUS
 62
    47
 10
-65.331917
 20
-85.024715
 11
-65.331917
 21
-85.524718
  0
LINE
  8
型材断面
  6
CONTINUOUS
 62
    47
 10
-64.831925
 20
-85.858047
 11
-64.831925
 21
-85.524718
  0
LINE
  8
型材断面
  6
CONTINUOUS
 62
    47
 10
-65.331917
 20
-85.024715
 11
-63.131917
 21
-84.858047
  0
LINE
  8
型材断面
  6
CONTINUOUS
 62
    47
 10
-62.398442
 20
-84.858047
 11
-63.06525
 21
-84.858047
  0
LINE
  8
型材断面
  6
CONTINUOUS
 62
    47
 10
-63.121918
 20
-84.758047
 11
-63.131917
 21
-84.748048
  0
LINE
  8
型材断面
  6
CONTINUOUS
 62
    47
 10
-63.121918
 20
-84.758047
 11
-63.131917
 21
-84.768048
  0
LINE
  8
型材断面
  6
CONTINUOUS
 62
    47
 10
-63.131917
 20
-84.858047
 11
-63.131917
 21
-84.768048
  0
LINE
  8
型材断面
  6
CONTINUOUS
 62
    47
 10
-63.131917
 20
-84.234732
 11
-63.131917
 21
-84.748048
  0
LINE
  8
型材断面
  6
CONTINUOUS
 62
    47
 10
-64.598582
 20
-83.124708
 11
-64.598582
 21
-82.99139
  0
LINE
  8
型材断面
  6
CONTINUOUS
 62
    47
 10
-63.331778
 20
-82.624727
 11
-64.598585
 21
-82.691053
  0
LINE
  8
型材断面
  6
CONTINUOUS
 62
    47
 10
-65.331917
 20
-85.524718
 11
-20.331778
 21
-85.524718
  0
LINE
  8
型材断面
  6
CONTINUOUS
 62
    47
 10
-64.831925
 20
-85.858047
 11
-20.331778
 21
-85.858047
  0
LINE
  8
型材断面
  6
CONTINUOUS
 10
-65.331917
 20
-85.024715
 11
-20.331778
 21
-85.024715
  0
LINE
  8
型材断面
  6
CONTINUOUS
 10
-63.131917
 20
-84.858047
 11
-20.331778
 21
-84.858047
  0
LINE
  8
型材断面
  6
CONTINUOUS
 62
    47
 10
-64.598582
 20
-83.124708
 11
-20.331778
 21
-83.124708
  0
LINE
  8
型材断面
  6
CONTINUOUS
 62
    47
 10
-64.598585
 20
-82.857683
 11
-20.331778
 21
-82.857683
  0
LINE
  8
型材断面
  6
CONTINUOUS
 10
-63.331778
 20
-82.624727
 11
-20.331778
 21
-82.624727
  0
LINE
  8
型材断面
  6
CONTINUOUS
 62
    47
 10
-64.598582
 20
-82.99139
 11
-20.331778
 21
-82.99139
  0
LINE
  8
型材断面
  6
CONTINUOUS
 10
-64.598585
 20
-82.691053
 11
-20.331778
 21
-82.691053
  0
LINE
  8
型材断面
  6
CONTINUOUS
 62
    47
 10
-63.331778
 20
-80.858043
 11
-20.331778
 21
-80.858043
  0
LINE
  8
型材断面
  6
CONTINUOUS
 10
24.668223
 20
10.065715
 11
-20.331778
 21
10.065715
  0
LINE
  8
型材断面
  6
CONTINUOUS
 10
24.668223
 20
60.065715
 11
-20.331778
 21
60.065715
  0
LINE
  8
型材断面
  6
CONTINUOUS
 10
-65.331778
 20
60.065715
 11
-20.331778
 21
60.065715
  0
LINE
  8
型材断面
  6
CONTINUOUS
 10
-65.331778
 20
10.065715
 11
-20.331778
 21
10.065715
  0
LINE
  8
型材断面
  6
CONTINUOUS
 10
22.8649
 20
-79.174835
 11
22.8649
 21
-80.674835
  0
LINE
  8
型材断面
  6
CONTINUOUS
 10
23.02142
 20
-79.174835
 11
23.02142
 21
-79.008168
  0
LINE
  8
型材断面
  6
CONTINUOUS
 62
    47
 10
22.8649
 20
-80.674835
 11
-20.331778
 21
-80.674835
  0
LINE
  8
型材断面
  6
CONTINUOUS
 62
    47
 10
23.02142
 20
-79.008168
 11
-20.331778
 21
-79.008168
  0
LINE
  8
型材断面
  6
CONTINUOUS
 62
    47
 10
23.02142
 20
-79.174835
 11
-20.331778
 21
-79.174835
  0
LINE
  8
型材断面
  6
CONTINUOUS
 10
-63.528455
 20
-79.174835
 11
-63.528455
 21
-80.674835
  0
LINE
  8
型材断面
  6
CONTINUOUS
 10
-63.684975
 20
-79.174835
 11
-63.684975
 21
-79.008168
  0
LINE
  8
型材断面
  6
CONTINUOUS
 62
    47
 10
-63.528455
 20
-80.674835
 11
-20.331778
 21
-80.674835
  0
LINE
  8
型材断面
  6
CONTINUOUS
 62
    47
 10
-63.684975
 20
-79.008168
 11
-20.331778
 21
-79.008168
  0
LINE
  8
型材断面
  6
CONTINUOUS
 62
    47
 10
-63.684975
 20
-79.174835
 11
-20.331778
 21
-79.174835
  0
ARC
  8
型材断面
  6
DASHDOT
 10
112.933909
 20
59.672704
 40
48.873825
 50
224.940963
 51
269.940964
  0
LINE
  8
型材断面
  6
CONTINUOUS
 62
    47
 10
111.590597
 20
58.055712
 11
111.580597
 21
58.065712
  0
LINE
  8
型材断面
  6
CONTINUOUS
 62
    47
 10
111.590597
 20
58.055712
 11
111.600598
 21
58.065712
  0
LINE
  8
型材断面
  6
CONTINUOUS
 62
    47
 10
112.23283
 20
58.055712
 11
112.22283
 21
58.065712
  0
LINE
  8
型材断面
  6
CONTINUOUS
 62
    47
 10
112.23283
 20
58.055712
 11
112.24283
 21
58.065712
  0
LINE
  8
型材断面
  6
CONTINUOUS
 62
    47
 10
112.650598
 20
58.065712
 11
112.24283
 21
58.065712
  0
LINE
  8
型材断面
  6
CONTINUOUS
 62
    47
 10
112.22283
 20
58.065712
 11
111.600598
 21
58.065712
  0
LINE
  8
型材断面
  6
CONTINUOUS
 62
    47
 10
111.580597
 20
58.065712
 11
110.883913
 21
58.065712
  0
LINE
  8
型材断面
  6
CONTINUOUS
 62
    47
 10
112.716922
 20
59.33252
 11
112.88355
 21
59.33252
  0
LINE
  8
型材断面
  6
CONTINUOUS
 62
    47
 10
113.783928
 20
57.855853
 11
113.773927
 21
57.865853
  0
LINE
  8
型材断面
  6
CONTINUOUS
 62
    47
 10
113.783928
 20
57.855853
 11
113.793928
 21
57.865853
  0
LINE
  8
型材断面
  6
CONTINUOUS
 62
    47
 10
114.2506
 20
57.855853
 11
114.2406
 21
57.865853
  0
LINE
  8
型材断面
  6
CONTINUOUS
 62
    47
 10
114.2506
 20
57.855853
 11
114.2606
 21
57.865853
  0
LINE
  8
型材断面
  6
CONTINUOUS
 62
    47
 10
113.150575
 20
57.865853
 11
113.773927
 21
57.865853
  0
LINE
  8
型材断面
  6
CONTINUOUS
 62
    47
 10
113.793928
 20
57.865853
 11
114.2406
 21
57.865853
  0
LINE
  8
型材断面
  6
CONTINUOUS
 62
    47
 10
115.050585
 20
60.065853
 11
115.550585
 21
60.065853
  0
LINE
  8
型材断面
  6
CONTINUOUS
 62
    47
 10
115.883917
 20
59.56586
 11
115.550585
 21
59.56586
  0
LINE
  8
型材断面
  6
CONTINUOUS
 62
    47
 10
115.050585
 20
60.065853
 11
114.883917
 21
57.865853
  0
LINE
  8
型材断面
  6
CONTINUOUS
 62
    47
 10
114.883917
 20
57.132378
 11
114.883917
 21
57.799185
  0
LINE
  8
型材断面
  6
CONTINUOUS
 62
    47
 10
114.783917
 20
57.855853
 11
114.773918
 21
57.865853
  0
LINE
  8
型材断面
  6
CONTINUOUS
 62
    47
 10
114.783917
 20
57.855853
 11
114.793917
 21
57.865853
  0
LINE
  8
型材断面
  6
CONTINUOUS
 62
    47
 10
114.883917
 20
57.865853
 11
114.793917
 21
57.865853
  0
LINE
  8
型材断面
  6
CONTINUOUS
 62
    47
 10
114.2606
 20
57.865853
 11
114.773918
 21
57.865853
  0
LINE
  8
型材断面
  6
CONTINUOUS
 62
    47
 10
113.150575
 20
59.33252
 11
113.01726
 21
59.33252
  0
LINE
  8
型材断面
  6
CONTINUOUS
 62
    47
 10
112.650598
 20
58.065712
 11
112.716922
 21
59.33252
  0
LINE
  8
型材断面
  6
CONTINUOUS
 62
    47
 10
110.883913
 20
58.065712
 11
110.883913
 21
35.065712
  0
LINE
  8
型材断面
  6
CONTINUOUS
 10
112.650598
 20
58.065712
 11
112.650598
 21
35.065712
  0
LINE
  8
型材断面
  6
CONTINUOUS
 10
112.716922
 20
59.33252
 11
112.716922
 21
35.065712
  0
LINE
  8
型材断面
  6
CONTINUOUS
 62
    47
 10
113.01726
 20
59.33252
 11
113.01726
 21
35.065712
  0
LINE
  8
型材断面
  6
CONTINUOUS
 62
    47
 10
113.150575
 20
59.33252
 11
113.150575
 21
35.065712
  0
LINE
  8
型材断面
  6
CONTINUOUS
 62
    47
 10
112.88355
 20
59.33252
 11
112.88355
 21
35.065712
  0
LINE
  8
型材断面
  6
CONTINUOUS
 10
114.883917
 20
57.865853
 11
114.883917
 21
35.065712
  0
LINE
  8
型材断面
  6
CONTINUOUS
 10
115.050585
 20
60.065853
 11
115.050585
 21
35.065712
  0
LINE
  8
型材断面
  6
CONTINUOUS
 62
    47
 10
115.550585
 20
60.065853
 11
115.550585
 21
35.065712
  0
LINE
  8
型材断面
  6
CONTINUOUS
 62
    47
 10
115.883917
 20
59.56586
 11
115.883917
 21
35.065712
  0
LINE
  8
型材断面
  6
CONTINUOUS
 62
    47
 10
111.590597
 20
12.075713
 11
111.580597
 21
12.065712
  0
LINE
  8
型材断面
  6
CONTINUOUS
 62
    47
 10
111.590597
 20
12.075713
 11
111.600598
 21
12.065712
  0
LINE
  8
型材断面
  6
CONTINUOUS
 62
    47
 10
112.23283
 20
12.075713
 11
112.22283
 21
12.065712
  0
LINE
  8
型材断面
  6
CONTINUOUS
 62
    47
 10
112.23283
 20
12.075713
 11
112.24283
 21
12.065712
  0
LINE
  8
型材断面
  6
CONTINUOUS
 62
    47
 10
112.650598
 20
12.065712
 11
112.24283
 21
12.065712
  0
LINE
  8
型材断面
  6
CONTINUOUS
 62
    47
 10
112.22283
 20
12.065712
 11
111.600598
 21
12.065712
  0
LINE
  8
型材断面
  6
CONTINUOUS
 62
    47
 10
111.580597
 20
12.065712
 11
110.883913
 21
12.065712
  0
LINE
  8
型材断面
  6
CONTINUOUS
 62
    47
 10
112.716922
 20
10.798905
 11
112.88355
 21
10.798905
  0
LINE
  8
型材断面
  6
CONTINUOUS
 62
    47
 10
113.783928
 20
12.275573
 11
113.773927
 21
12.265573
  0
LINE
  8
型材断面
  6
CONTINUOUS
 62
    47
 10
113.783928
 20
12.275573
 11
113.793928
 21
12.265573
  0
LINE
  8
型材断面
  6
CONTINUOUS
 62
    47
 10
114.2506
 20
12.275573
 11
114.2406
 21
12.265573
  0
LINE
  8
型材断面
  6
CONTINUOUS
 62
    47
 10
114.2506
 20
12.275573
 11
114.2606
 21
12.265573
  0
LINE
  8
型材断面
  6
CONTINUOUS
 62
    47
 10
113.150575
 20
12.265573
 11
113.773927
 21
12.265573
  0
LINE
  8
型材断面
  6
CONTINUOUS
 62
    47
 10
113.793928
 20
12.265573
 11
114.2406
 21
12.265573
  0
LINE
  8
型材断面
  6
CONTINUOUS
 62
    47
 10
115.050585
 20
10.065573
 11
115.550585
 21
10.065573
  0
LINE
  8
型材断面
  6
CONTINUOUS
 62
    47
 10
115.883917
 20
10.565565
 11
115.550585
 21
10.565565
  0
LINE
  8
型材断面
  6
CONTINUOUS
 62
    47
 10
115.050585
 20
10.065573
 11
114.883917
 21
12.265573
  0
LINE
  8
型材断面
  6
CONTINUOUS
 62
    47
 10
114.883917
 20
12.999048
 11
114.883917
 21
12.33224
  0
LINE
  8
型材断面
  6
CONTINUOUS
 62
    47
 10
114.783917
 20
12.275573
 11
114.773918
 21
12.265573
  0
LINE
  8
型材断面
  6
CONTINUOUS
 62
    47
 10
114.783917
 20
12.275573
 11
114.793917
 21
12.265573
  0
LINE
  8
型材断面
  6
CONTINUOUS
 62
    47
 10
114.883917
 20
12.265573
 11
114.793917
 21
12.265573
  0
LINE
  8
型材断面
  6
CONTINUOUS
 62
    47
 10
114.2606
 20
12.265573
 11
114.773918
 21
12.265573
  0
LINE
  8
型材断面
  6
CONTINUOUS
 62
    47
 10
113.150575
 20
10.798905
 11
113.01726
 21
10.798905
  0
LINE
  8
型材断面
  6
CONTINUOUS
 62
    47
 10
112.650598
 20
12.065712
 11
112.716922
 21
10.798905
  0
LINE
  8
型材断面
  6
CONTINUOUS
 62
    47
 10
110.883913
 20
12.065712
 11
110.883913
 21
35.065712
  0
LINE
  8
型材断面
  6
CONTINUOUS
 10
112.650598
 20
12.065712
 11
112.650598
 21
35.065712
  0
LINE
  8
型材断面
  6
CONTINUOUS
 10
112.716922
 20
10.798905
 11
112.716922
 21
35.065712
  0
LINE
  8
型材断面
  6
CONTINUOUS
 62
    47
 10
113.01726
 20
10.798905
 11
113.01726
 21
35.065712
  0
LINE
  8
型材断面
  6
CONTINUOUS
 62
    47
 10
113.150575
 20
10.798905
 11
113.150575
 21
35.065712
  0
LINE
  8
型材断面
  6
CONTINUOUS
 62
    47
 10
112.88355
 20
10.798905
 11
112.88355
 21
35.065712
  0
LINE
  8
型材断面
  6
CONTINUOUS
 10
114.883917
 20
12.265573
 11
114.883917
 21
35.065712
  0
LINE
  8
型材断面
  6
CONTINUOUS
 10
115.050585
 20
10.065573
 11
115.050585
 21
35.065712
  0
LINE
  8
型材断面
  6
CONTINUOUS
 62
    47
 10
115.550585
 20
10.065573
 11
115.550585
 21
35.065712
  0
LINE
  8
型材断面
  6
CONTINUOUS
 62
    47
 10
115.883917
 20
10.565565
 11
115.883917
 21
35.065712
  0
LINE
  8
型材断面
  6
CONTINUOUS
 10
109.200705
 20
11.869035
 11
110.700705
 21
11.869035
  0
LINE
  8
型材断面
  6
CONTINUOUS
 10
109.200705
 20
11.712515
 11
109.034037
 21
11.712515
  0
LINE
  8
型材断面
  6
CONTINUOUS
 62
    47
 10
110.700705
 20
11.869035
 11
110.700705
 21
35.065712
  0
LINE
  8
型材断面
  6
CONTINUOUS
 62
    47
 10
109.034037
 20
11.712515
 11
109.034037
 21
35.065712
  0
LINE
  8
型材断面
  6
CONTINUOUS
 62
    47
 10
109.200705
 20
11.712515
 11
109.200705
 21
35.065712
  0
LINE
  8
型材断面
  6
CONTINUOUS
 10
109.200705
 20
58.26239
 11
110.700705
 21
58.26239
  0
LINE
  8
型材断面
  6
CONTINUOUS
 10
109.200705
 20
58.41891
 11
109.034037
 21
58.41891
  0
LINE
  8
型材断面
  6
CONTINUOUS
 62
    47
 10
110.700705
 20
58.26239
 11
110.700705
 21
35.065712
  0
LINE
  8
型材断面
  6
CONTINUOUS
 62
    47
 10
109.034037
 20
58.41891
 11
109.034037
 21
35.065712
  0
LINE
  8
型材断面
  6
CONTINUOUS
 62
    47
 10
109.200705
 20
58.41891
 11
109.200705
 21
35.065712
  0
LINE
  8
型材断面
  6
DOT
 62
    47
 10
110.84066
 20
59.479183
 11
110.84066
 21
59.493325
  0
LINE
  8
型材断面
  6
DOT
 62
    47
 10
110.84066
 20
59.479183
 11
110.854803
 21
59.479183
  0
LINE
  8
型材断面
  6
DOT
 62
    47
 10
111.294785
 20
59.025055
 11
111.294785
 21
59.0392
  0
LINE
  8
型材断面
  6
DOT
 62
    47
 10
111.294785
 20
59.025055
 11
111.308928
 21
59.025055
  0
LINE
  8
型材断面
  6
DOT
 62
    47
 10
111.597265
 20
58.73672
 11
111.308928
 21
59.025055
  0
LINE
  8
型材断面
  6
DOT
 62
    47
 10
111.294785
 20
59.0392
 11
110.854803
 21
59.479183
  0
LINE
  8
型材断面
  6
DOT
 62
    47
 10
110.84066
 20
59.493325
 11
110.34803
 21
59.985955
  0
LINE
  8
型材断面
  6
DOT
 62
    47
 10
112.53993
 20
59.58559
 11
112.657755
 21
59.467765
  0
LINE
  8
型材断面
  6
DOT
 62
    47
 10
111.597265
 20
58.73672
 11
112.53993
 21
59.58559
  0
LINE
  8
型材断面
  6
DOT
 62
    47
 10
110.34803
 20
59.985955
 11
94.084572
 21
43.7225
  0
LINE
  8
型材断面
  6
DOT
 10
111.597265
 20
58.73672
 11
95.333807
 21
42.473265
  0
LINE
  8
型材断面
  6
DOT
 10
112.53993
 20
59.58559
 11
95.380708
 21
42.426365
  0
LINE
  8
型材断面
  6
DOT
 62
    47
 10
112.657755
 20
59.467765
 11
95.49853
 21
42.308542
  0
LINE
  8
型材断面
  6
DOT
 62
    47
 10
78.32789
 20
26.966412
 11
78.313747
 21
26.966412
  0
LINE
  8
型材断面
  6
DOT
 62
    47
 10
78.32789
 20
26.966412
 11
78.32789
 21
26.95227
  0
LINE
  8
型材断面
  6
DOT
 62
    47
 10
78.782015
 20
26.512285
 11
78.767875
 21
26.512285
  0
LINE
  8
型材断面
  6
DOT
 62
    47
 10
78.782015
 20
26.512285
 11
78.782015
 21
26.498145
  0
LINE
  8
型材断面
  6
DOT
 62
    47
 10
79.070353
 20
26.20981
 11
78.782015
 21
26.498145
  0
LINE
  8
型材断面
  6
DOT
 62
    47
 10
78.767875
 20
26.512285
 11
78.32789
 21
26.95227
  0
LINE
  8
型材断面
  6
DOT
 62
    47
 10
78.313747
 20
26.966412
 11
77.821118
 21
27.459045
  0
LINE
  8
型材断面
  6
DOT
 62
    47
 10
78.221482
 20
25.26714
 11
78.339305
 21
25.149317
  0
LINE
  8
型材断面
  6
DOT
 62
    47
 10
79.070353
 20
26.20981
 11
78.221482
 21
25.26714
  0
LINE
  8
型材断面
  6
DOT
 62
    47
 10
78.01203
 20
27.649955
 11
77.846957
 21
27.815027
  0
LINE
  8
型材断面
  6
DOT
 62
    47
 10
77.821118
 20
27.459045
 11
94.084572
 21
43.7225
  0
LINE
  8
型材断面
  6
DOT
 10
79.070353
 20
26.20981
 11
95.333807
 21
42.473265
  0
LINE
  8
型材断面
  6
DOT
 10
78.221482
 20
25.26714
 11
95.380708
 21
42.426365
  0
LINE
  8
型材断面
  6
DOT
 62
    47
 10
78.339305
 20
25.149317
 11
95.49853
 21
42.308542
  0
LINE
  8
型材断面
  6
DOT
 62
    47
 10
110.157117
 20
59.795045
 11
109.88615
 21
60.06601
  0
LINE
  8
型材断面
  6
DOT
 10
76.491837
 20
28.51018
 11
77.552498
 21
27.44952
  0
LINE
  8
型材断面
  6
DOT
 10
76.38116
 20
28.399503
 11
76.26331
 21
28.517355
  0
LINE
  8
型材断面
  6
DOT
 62
    47
 10
77.552498
 20
27.44952
 11
93.955025
 21
43.852047
  0
LINE
  8
型材断面
  6
DOT
 62
    47
 10
76.26331
 20
28.517355
 11
92.776515
 21
45.03056
  0
LINE
  8
型材断面
  6
DOT
 62
    47
 10
76.38116
 20
28.399503
 11
92.894365
 21
44.912708
  0
LINE
  8
型材断面
  6
DOT
 10
109.296892
 20
61.315235
 11
110.357553
 21
60.254575
  0
LINE
  8
型材断面
  6
DOT
 10
109.40757
 20
61.425913
 11
109.28972
 21
61.543765
  0
LINE
  8
型材断面
  6
DOT
 62
    47
 10
110.357553
 20
60.254575
 11
93.955025
 21
43.852047
  0
LINE
  8
型材断面
  6
DOT
 62
    47
 10
109.28972
 20
61.543765
 11
92.776515
 21
45.03056
  0
LINE
  8
型材断面
  6
DOT
 62
    47
 10
109.40757
 20
61.425913
 11
92.894365
 21
44.912708
  0
LINE
  8
型材断面
  6
CONTINUOUS
 10
23.93489
 20
10.799048
 11
-20.331778
 21
10.79903
  0
LINE
  8
型材断面
  6
CONTINUOUS
 10
23.93489
 20
59.332382
 11
-20.331778
 21
59.3324
  0
LINE
  8
型材断面
  6
CONTINUOUS
 10
-64.598445
 20
59.332382
 11
-20.331778
 21
59.3324
  0
LINE
  8
型材断面
  6
CONTINUOUS
 10
-64.598445
 20
10.799048
 11
-20.331778
 21
10.79903
  0
LINE
  8
型材断面
  6
CONTINUOUS
 62
    47
 10
22.398233
 20
-80.858043
 11
22.398233
 21
-80.674835
  0
LINE
  8
型材断面
  6
CONTINUOUS
 62
    47
 10
-63.061787
 20
-80.858043
 11
-63.061787
 21
-80.674835
  0
LINE
  8
型材断面
  6
CONTINUOUS
 62
    47
 10
110.883913
 20
12.335702
 11
110.700705
 21
12.335702
  0
LINE
  8
型材断面
  6
CONTINUOUS
 62
    47
 10
110.883913
 20
57.795723
 11
110.700705
 21
57.795723
  0
LINE
  8
型材断面
  6
CONTINUOUS
 10
24.668362
 20
10.065575
 11
24.668362
 21
35.065715
  0
LINE
  8
型材断面
  6
CONTINUOUS
 10
24.668362
 20
60.065855
 11
24.668362
 21
35.065715
  0
LINE
  8
型材断面
  6
CONTINUOUS
 10
23.93503
 20
10.798907
 11
23.93503
 21
35.065715
  0
LINE
  8
型材断面
  6
CONTINUOUS
 10
23.93503
 20
59.332523
 11
23.93503
 21
35.065715
  0
LINE
  8
型材断面
  6
CONTINUOUS
 10
22.785722
 20
11.71251
 11
23.02142
 21
11.948217
  0
LINE
  8
型材断面
  6
CONTINUOUS
 10
24.668362
 20
10.065575
 11
22.903572
 21
11.830365
  0
LINE
  8
型材断面
  6
CONTINUOUS
 10
20.285717
 20
14.21251
 11
22.785715
 21
11.712517
  0
LINE
  8
型材断面
  6
CONTINUOUS
 10
20.52142
 20
14.448213
 11
23.02142
 21
11.948217
  0
LINE
  8
型材断面
  6
CONTINUOUS
 10
23.02142
 20
35.065715
 11
23.02142
 21
11.948217
  0
LINE
  8
型材断面
  6
CONTINUOUS
 10
20.285722
 20
14.212517
 11
20.52142
 21
14.448213
  0
LINE
  8
型材断面
  6
CONTINUOUS
 10
22.785722
 20
58.41892
 11
23.02142
 21
58.183213
  0
LINE
  8
型材断面
  6
CONTINUOUS
 10
20.52142
 20
55.683217
 11
20.285722
 21
55.918913
  0
LINE
  8
型材断面
  6
CONTINUOUS
 10
20.52142
 20
55.683217
 11
23.02142
 21
58.183213
  0
LINE
  8
型材断面
  6
CONTINUOUS
 10
23.02142
 20
35.065715
 11
23.02142
 21
58.183213
  0
LINE
  8
型材断面
  6
CONTINUOUS
 10
20.285717
 20
55.91892
 11
22.785715
 21
58.418913
  0
LINE
  8
型材断面
  6
CONTINUOUS
 10
24.668362
 20
60.065855
 11
22.903572
 21
58.301065
  0
LINE
  8
型材断面
  6
CONTINUOUS
 10
20.521428
 20
34.649048
 11
23.02143
 21
34.649048
  0
LINE
  8
型材断面
  6
CONTINUOUS
 10
20.521428
 20
35.482382
 11
23.02143
 21
35.482382
  0
LINE
  8
型材断面
  6
CONTINUOUS
 10
20.52142
 20
35.482382
 11
20.52142
 21
55.683217
  0
LINE
  8
型材断面
  6
CONTINUOUS
 10
20.52142
 20
14.448213
 11
20.52142
 21
34.649048
  0
LINE
  8
型材断面
  6
CONTINUOUS
 10
-20.331778
 20
11.71264
 11
-63.44913
 21
11.712658
  0
LINE
  8
型材断面
  6
CONTINUOUS
 10
-20.331778
 20
58.41879
 11
-63.44913
 21
58.418772
  0
LINE
  8
型材断面
  6
DOT
 10
-19.081778
 20
55.085455
 11
-19.081778
 21
15.045975
  0
LINE
  8
型材断面
  6
CONTINUOUS
 10
-19.081778
 20
55.085455
 11
-19.081778
 21
15.045975
  0
LINE
  8
型材断面
  6
CONTINUOUS
 10
-21.581778
 20
55.085455
 11
-21.581778
 21
15.045975
  0
LINE
  8
型材断面
  6
DOT
 10
-21.581778
 20
55.085455
 11
-21.581778
 21
15.045975
  0
LINE
  8
型材断面
  6
CONTINUOUS
 10
0.08489
 20
14.21265
 11
-20.331778
 21
14.212643
  0
LINE
  8
型材断面
  6
CONTINUOUS
 10
0.08489
 20
55.91878
 11
-20.331778
 21
55.918787
  0
LINE
  8
型材断面
  6
CONTINUOUS
 10
-65.331917
 20
10.065575
 11
-65.331917
 21
35.065715
  0
LINE
  8
型材断面
  6
CONTINUOUS
 10
-65.331917
 20
60.065855
 11
-65.331917
 21
35.065715
  0
LINE
  8
型材断面
  6
CONTINUOUS
 10
-64.598585
 20
10.798907
 11
-64.598585
 21
35.065715
  0
LINE
  8
型材断面
  6
CONTINUOUS
 10
-64.598585
 20
59.332523
 11
-64.598585
 21
35.065715
  0
LINE
  8
型材断面
  6
CONTINUOUS
 10
-63.449277
 20
11.71251
 11
-63.684975
 21
11.948217
  0
LINE
  8
型材断面
  6
CONTINUOUS
 10
-65.331917
 20
10.065575
 11
-63.567127
 21
11.830365
  0
LINE
  8
型材断面
  6
CONTINUOUS
 10
-60.949273
 20
14.21251
 11
-63.44927
 21
11.712517
  0
LINE
  8
型材断面
  6
CONTINUOUS
 10
-61.184975
 20
14.448213
 11
-63.684975
 21
11.948217
  0
LINE
  8
型材断面
  6
CONTINUOUS
 10
-63.684975
 20
35.065715
 11
-63.684975
 21
11.948217
  0
LINE
  8
型材断面
  6
CONTINUOUS
 10
-60.949277
 20
14.212517
 11
-61.184975
 21
14.448213
  0
LINE
  8
型材断面
  6
CONTINUOUS
 10
-63.449277
 20
58.41892
 11
-63.684975
 21
58.183213
  0
LINE
  8
型材断面
  6
CONTINUOUS
 10
-61.184975
 20
55.683217
 11
-60.949277
 21
55.918913
  0
LINE
  8
型材断面
  6
CONTINUOUS
 10
-61.184975
 20
55.683217
 11
-63.684975
 21
58.183213
  0
LINE
  8
型材断面
  6
CONTINUOUS
 10
-63.684975
 20
35.065715
 11
-63.684975
 21
58.183213
  0
LINE
  8
型材断面
  6
CONTINUOUS
 10
-60.949273
 20
55.91892
 11
-63.44927
 21
58.418913
  0
LINE
  8
型材断面
  6
CONTINUOUS
 10
-65.331917
 20
60.065855
 11
-63.567127
 21
58.301065
  0
LINE
  8
型材断面
  6
CONTINUOUS
 10
-61.184983
 20
34.649048
 11
-63.684985
 21
34.649048
  0
LINE
  8
型材断面
  6
CONTINUOUS
 10
-61.184983
 20
35.482382
 11
-63.684985
 21
35.482382
  0
LINE
  8
型材断面
  6
CONTINUOUS
 10
-61.184975
 20
35.482382
 11
-61.184975
 21
55.683217
  0
LINE
  8
型材断面
  6
CONTINUOUS
 10
-61.184975
 20
14.448213
 11
-61.184975
 21
34.649048
  0
LINE
  8
型材断面
  6
CONTINUOUS
 10
-20.331778
 20
14.212643
 11
-40.748445
 21
14.21265
  0
LINE
  8
型材断面
  6
CONTINUOUS
 10
-19.242912
 20
55.918787
 11
-40.748445
 21
55.91878
  0
LINE
  8
型材断面
  6
CONTINUOUS
 10
-41.58178
 20
55.91878
 11
-60.949125
 21
55.918772
  0
LINE
  8
型材断面
  6
CONTINUOUS
 10
-19.242912
 20
14.212643
 11
-60.949125
 21
14.212658
  0
LINE
  8
型材断面
  6
CONTINUOUS
 10
0.918225
 20
55.91878
 11
20.28557
 21
55.918772
  0
LINE
  8
型材断面
  6
CONTINUOUS
 10
0.918225
 20
14.21265
 11
20.28557
 21
14.212658
  0
LINE
  8
型材断面
  6
CONTINUOUS
 10
-20.331778
 20
11.71264
 11
22.785575
 21
11.712658
  0
LINE
  8
型材断面
  6
CONTINUOUS
 10
-20.331778
 20
58.41879
 11
22.785575
 21
58.418772
  0
LINE
  8
ガラス
  6
CONTINUOUS
 10
157.91659
 20
-84.654215
 11
157.91659
 21
-41.154215
  0
LINE
  8
ガラス
  6
CONTINUOUS
 10
157.91659
 20
-41.154215
 11
116.71659
 21
-41.154215
  0
LINE
  8
ガラス
  6
CONTINUOUS
 10
116.71659
 20
-41.154215
 11
116.71659
 21
-84.654215
  0
LINE
  8
ガラス
  6
CONTINUOUS
 10
157.91659
 20
-84.654215
 11
116.71659
 21
-84.654215
  0
TEXT
  7
TextStyle03
  8
文字
  6
CONTINUOUS
 10
-100.1
 20
98.85
  1
は排水穴位置を示す
 40
3.0
 72
     5
 11
-70.1
 21
98.85
  0
TEXT
  7
TextStyle03
  8
文字
  6
CONTINUOUS
 10
-103.825
 20
83.975
  1
アンカー数量　１２ヶ所
 40
3.0
 72
     5
 11
-67.075
 21
83.975
  0
TEXT
  7
TextStyle03
  8
文字
  6
CONTINUOUS
 10
-100.1
 20
93.325
  1
はケーシング位置を示す
 40
3.0
 72
     5
 11
-63.35
 21
93.325
  0
TEXT
  7
TextStyle03
  8
文字
  6
CONTINUOUS
 10
-100.1
 20
89.95
  1
２ヶ所中1ヶ所に設定
 40
3.0
 72
     5
 11
-68.4125
 21
89.95
  0
TEXT
  7
TextStyle03
  8
文字
  6
CONTINUOUS
 10
67.45
 20
97.05
  1
ＮＳコード：ＮＳＦＨＺ
 40
5.0
 72
     5
 11
128.7
 21
97.05
  0
TEXT
  7
TextStyle03
  8
文字
  6
CONTINUOUS
 10
139.525
 20
-78.225
  1
網入り6.8t
 40
3.0
 72
     5
 11
156.2125
 21
-78.225
  0
TEXT
  7
TextStyle03
  8
文字
  6
CONTINUOUS
 10
146.2
 20
-82.9
  1
×２枚
 40
3.0
 72
     5
 11
155.95
 21
-82.9
  0
TEXT
  7
TextStyle03
  8
文字
  6
CONTINUOUS
 10
-99.525
 20
23.975
  1
アンカーピッチ
 40
3.0
 50
90.0
 72
     5
 11
-99.525
 21
47.225
  0
TEXT
  7
TextStyle03
  8
文字
  6
CONTINUOUS
 10
-55.375
 20
94.75
  1
アンカーピッチ
 40
3.0
 72
     5
 11
-32.125
 21
94.75
  0
TEXT
  7
TextStyle03
  8
文字
  6
CONTINUOUS
 10
97.25
 20
4.675
  1
45°
 40
3.0
 50
90.0
 72
     5
 11
97.25
 21
11.05
  0
LINE
  8
文字
  6
CONTINUOUS
 10
157.91659
 20
-32.644
 11
157.91659
 21
-38.32
  0
LINE
  8
文字
  6
CONTINUOUS
 10
116.71659
 20
-32.644
 11
116.71659
 21
-38.32
  0
LINE
  8
文字
  6
CONTINUOUS
 10
-19.081778
 20
55.085455
 11
-21.581778
 21
55.085455
  0
LINE
  8
文字
  6
CONTINUOUS
 10
-21.581778
 20
15.045975
 11
-19.081778
 21
15.045975
  0
LINE
  8
文字
  6
CONTINUOUS
 10
0.918225
 20
14.21265
 11
0.918225
 21
11.712647
  0
LINE
  8
文字
  6
CONTINUOUS
 10
0.08489
 20
14.21265
 11
0.08489
 21
11.712647
  0
LINE
  8
文字
  6
CONTINUOUS
 10
0.918225
 20
55.91878
 11
0.918225
 21
58.418783
  0
LINE
  8
文字
  6
CONTINUOUS
 10
0.08489
 20
55.91878
 11
0.08489
 21
58.418783
  0
LINE
  8
文字
  6
CONTINUOUS
 10
-41.58178
 20
14.21265
 11
-41.58178
 21
11.712647
  0
LINE
  8
文字
  6
CONTINUOUS
 10
-40.748445
 20
14.21265
 11
-40.748445
 21
11.712647
  0
LINE
  8
文字
  6
CONTINUOUS
 10
-41.58178
 20
55.91878
 11
-41.58178
 21
58.418783
  0
LINE
  8
文字
  6
CONTINUOUS
 10
-40.748445
 20
55.91878
 11
-40.748445
 21
58.418783
  0
TEXT
  7
TextStyle03
  8
文字
  6
CONTINUOUS
 10
67.475
 20
124.525
  1
シリーズ：ＴＦ２ＦＨＬ
 40
5.0
 72
     5
 11
128.725
 21
124.525
  0
TEXT
  7
TextStyle03
  8
文字
  6
CONTINUOUS
 10
67.475
 20
118.9
  1
　　　　　（片側開閉）1300×2500タイプ
 40
5.0
 72
     5
 11
173.725
 21
118.9
  0
TEXT
  7
TextStyle03
  8
文字
  6
CONTINUOUS
 10
67.475
 20
113.275
  1

 40
5.0
 41
1.125
  0
TEXT
  7
TextStyle03
  8
文字
  6
CONTINUOUS
 10
67.475
 20
107.65
  1
図面名　：外観姿図
 40
5.0
 72
     5
 11
117.475
 21
107.65
  0
INSERT
  2
*DIM_0002
  8
寸法
  6
CONTINUOUS
 10
0.0
 20
0.0
  0
INSERT
  2
*DIM_0003
  8
寸法
  6
CONTINUOUS
 10
0.0
 20
0.0
  0
INSERT
  2
*DIM_0004
  8
寸法
  6
CONTINUOUS
 10
0.0
 20
0.0
  0
INSERT
  2
*DIM_0005
  8
寸法
  6
CONTINUOUS
 10
0.0
 20
0.0
  0
INSERT
  2
*DIM_0006
  8
寸法
  6
CONTINUOUS
 10
0.0
 20
0.0
  0
INSERT
  2
*DIM_0007
  8
寸法
  6
CONTINUOUS
 10
0.0
 20
0.0
  0
INSERT
  2
*DIM_0008
  8
寸法
  6
CONTINUOUS
 10
0.0
 20
0.0
  0
INSERT
  2
*DIM_0009
  8
寸法
  6
CONTINUOUS
 10
0.0
 20
0.0
  0
INSERT
  2
*DIM_0010
  8
寸法
  6
CONTINUOUS
 10
0.0
 20
0.0
  0
INSERT
  2
*DIM_0011
  8
寸法
  6
CONTINUOUS
 10
0.0
 20
0.0
  0
INSERT
  2
*DIM_0012
  8
寸法
  6
CONTINUOUS
 10
0.0
 20
0.0
  0
INSERT
  2
*DIM_0013
  8
寸法
  6
CONTINUOUS
 10
0.0
 20
0.0
  0
INSERT
  2
*DIM_0014
  8
寸法
  6
CONTINUOUS
 10
0.0
 20
0.0
  0
INSERT
  2
*DIM_0016
  8
寸法
  6
CONTINUOUS
 10
0.0
 20
0.0
  0
INSERT
  2
*GRP_0015
  8
別途部材
  6
CONTINUOUS
 10
0.0
 20
0.0
  0
LINE
  8
曲げ物
  6
CONTINUOUS
 10
2.922293
 20
37.022003
 11
-0.77302
 21
33.32669
  0
LINE
  8
曲げ物
  6
CONTINUOUS
 10
2.218822
 20
35.485893
 11
0.763092
 21
34.030163
  0
LINE
  8
曲げ物
  6
CONTINUOUS
 10
1.386182
 20
36.318533
 11
-0.069548
 21
34.862803
  0
LINE
  8
曲げ物
  6
CONTINUOUS
 10
-38.301623
 20
37.022003
 11
-41.996935
 21
33.32669
  0
LINE
  8
曲げ物
  6
CONTINUOUS
 10
-39.005092
 20
35.485893
 11
-40.460822
 21
34.030163
  0
LINE
  8
曲げ物
  6
CONTINUOUS
 10
-39.837733
 20
36.318533
 11
-41.293462
 21
34.862803
  0
ENDSEC
  0
EOF
