  0
SECTION
  2
HEADER
  9
$EXTMIN
 10
-210.0
 20
-148.5
  9
$EXTMAX
 10
210.0
 20
148.5
  9
$PDMODE
 70
    32
  9
$PDSIZE
 40
1.5
  9
$LTSCALE
 40
10.0
  0
ENDSEC
  0
SECTION
  2
TABLES
  0
TABLE
  2
LTYPE
 70
    15
  0
LTYPE
  2
CONTINUOUS
 70
    64
  3
実線
 72
    65
 73
     0
 40
0.0
  0
LTYPE
  2
DASHED
 70
    64
  3
破線A
 72
    65
 73
     2
 40
0.6
 49
0.4
 49
-0.2
  0
LTYPE
  2
DASHEDX2
 70
    64
  3
破線B
 72
    65
 73
     2
 40
1.3
 49
0.9
 49
-0.4
  0
LTYPE
  2
DASHDOT
 70
    64
  3
１点鎖線A
 72
    65
 73
     4
 40
0.5375
 49
0.375
 49
-0.05
 49
0.0625
 49
-0.05
  0
LTYPE
  2
DASHDOTX2
 70
    64
  3
１点鎖線B
 72
    65
 73
     4
 40
1.075
 49
0.75
 49
-0.1
 49
0.125
 49
-0.1
  0
LTYPE
  2
DIVIDE2
 70
    64
  3
２点鎖線A
 72
    65
 73
     6
 40
0.5125
 49
0.3
 49
-0.0375
 49
0.05
 49
-0.0375
 49
0.05
 49
-0.0375
  0
LTYPE
  2
DIVIDE
 70
    64
  3
２点鎖線B
 72
    65
 73
     6
 40
1.05
 49
0.55
 49
-0.1
 49
0.1
 49
-0.1
 49
0.1
 49
-0.1
  0
LTYPE
  2
DOT
 70
    64
  3
点線A
 72
    65
 73
     2
 40
0.1125
 49
0.0625
 49
-0.05
  0
LTYPE
  2
DOTX2
 70
    64
  3
点線B
 72
    65
 73
     2
 40
0.275
 49
0.15
 49
-0.125
  0
LTYPE
  2
CONTINUOUS
 70
    64
  3
実線
 72
    65
 73
     0
 40
0.0
  0
LTYPE
  2
CONTINUOUS
 70
    64
  3
実線
 72
    65
 73
     0
 40
0.0
  0
LTYPE
  2
CONTINUOUS
 70
    64
  3
実線
 72
    65
 73
     0
 40
0.0
  0
LTYPE
  2
CONTINUOUS
 70
    64
  3
実線
 72
    65
 73
     0
 40
0.0
  0
LTYPE
  2
CONTINUOUS
 70
    64
  3
実線
 72
    65
 73
     0
 40
0.0
  0
LTYPE
  2
CONTINUOUS
 70
    64
  3
実線
 72
    65
 73
     0
 40
0.0
  0
ENDTAB
  0
TABLE
  2
LAYER
 70
    34
  0
LAYER
  2
通り芯
 70
     0
 62
    15
  6
CONTINUOUS
  0
LAYER
  2
補助線
 70
     0
 62
    16
  6
DOT
  0
LAYER
  2
躯体
 70
     0
 62
    31
  6
CONTINUOUS
  0
LAYER
  2
型材
 70
     0
 62
    32
  6
CONTINUOUS
  0
LAYER
  2
型材断面
 70
     0
 62
    47
  6
CONTINUOUS
  0
LAYER
  2
ガラス
 70
     0
 62
    48
  6
CONTINUOUS
  0
LAYER
  2
ゴム等
 70
     0
 62
    63
  6
CONTINUOUS
  0
LAYER
  2
ボルト／ビス
 70
     0
 62
    64
  6
CONTINUOUS
  0
LAYER
  2
文字
 70
     0
 62
    79
  6
CONTINUOUS
  0
LAYER
  2
寸法
 70
     0
 62
    80
  6
CONTINUOUS
  0
LAYER
  2
ﾊｯﾁﾝｸﾞ
 70
     0
 62
    95
  6
CONTINUOUS
  0
LAYER
  2
別途部材
 70
     0
 62
    96
  6
CONTINUOUS
  0
LAYER
  2
曲げ物
 70
     0
 62
   111
  6
CONTINUOUS
  0
LAYER
  2
鉄骨等
 70
     0
 62
   112
  6
CONTINUOUS
  0
LAYER
  2
St
 70
     0
 62
   127
  6
CONTINUOUS
  0
LAYER
  2
その他部品等
 70
     0
 62
   128
  6
CONTINUOUS
  0
LAYER
  2
ｶﾞｽｹｯﾄ
 70
     0
 62
   143
  6
CONTINUOUS
  0
LAYER
  2
ｽｹｯﾁ
 70
     0
 62
    14
  6
CONTINUOUS
  0
LAYER
  2
0
 70
     0
 62
    17
  6
CONTINUOUS
  0
LAYER
  2
1
 70
     0
 62
    30
  6
CONTINUOUS
  0
LAYER
  2
4
 70
     0
 62
    33
  6
CONTINUOUS
  0
LAYER
  2
ﾚｲﾔ3
 70
     0
 62
    46
  6
CONTINUOUS
  0
LAYER
  2
外形線
 70
     0
 62
    49
  6
CONTINUOUS
  0
LAYER
  2
部品
 70
     0
 62
    14
  6
CONTINUOUS
  0
LAYER
  2
サッシ芯
 70
     0
 62
    17
  6
DASHDOTX2
  0
LAYER
  2
寸法線
 70
     0
 62
    62
  6
CONTINUOUS
  0
LAYER
  2
姿図外形線
 70
     0
 62
    65
  6
CONTINUOUS
  0
LAYER
  2
姿補助線
 70
     0
 62
    30
  6
CONTINUOUS
  0
LAYER
  2
透視線
 70
     0
 62
    78
  6
DOT
  0
LAYER
  2
用紙
 70
     0
 62
    81
  6
CONTINUOUS
  0
LAYER
  2
実線図枠
 70
     0
 62
    94
  6
CONTINUOUS
  0
LAYER
  2
補助図枠
 70
     0
 62
    97
  6
CONTINUOUS
  0
LAYER
  2
建具記号
 70
     0
 62
   110
  6
CONTINUOUS
  0
LAYER
  2
補助文字
 70
     0
 62
   113
  6
CONTINUOUS
  0
ENDTAB
  0
TABLE
  2
STYLE
 70
    10
  0
STYLE
  2
STANDARD
 70
     0
 40
1.0
 41
1.0
 42
1.0
 50
0.0
 71
     0
  3
TXT
  4
BIGFONT
  0
STYLE
  2
TATE
 70
     4
 40
1.0
 41
1.0
 42
1.0
 50
0.0
 71
     0
  3
TXT
  4
BIGFONT
  0
STYLE
  2
TextStyle03
 70
     0
 40
1.0
 41
1.0
 42
1.0
 50
0.0
 71
     0
  3
MONOTXT
  4
BIGFONT
  0
STYLE
  2
TextStyle04
 70
     0
 40
1.0
 41
1.0
 42
1.0
 50
0.0
 71
     0
  3
MONOTXT
  4
BIGFONT
  0
STYLE
  2
TextStyle05
 70
     0
 40
1.0
 41
1.0
 42
1.0
 50
0.0
 71
     0
  3
MONOTXT
  4
BIGFONT
  0
STYLE
  2
TextStyle06
 70
     0
 40
1.0
 41
1.0
 42
1.0
 50
0.0
 71
     0
  3
MONOTXT
  4
BIGFONT
  0
STYLE
  2
TextStyle07
 70
     0
 40
1.0
 41
1.0
 42
1.0
 50
0.0
 71
     0
  3
MONOTXT
  4
BIGFONT
  0
STYLE
  2
TextStyle08
 70
     0
 40
1.0
 41
1.0
 42
1.0
 50
0.0
 71
     0
  3
MONOTXT
  4
BIGFONT
  0
STYLE
  2
TextStyle09
 70
     0
 40
1.0
 41
1.0
 42
1.0
 50
0.0
 71
     0
  3
MONOTXT
  4
BIGFONT
  0
STYLE
  2
TextStyle10
 70
     0
 40
1.0
 41
1.0
 42
1.0
 50
0.0
 71
     0
  3
MONOTXT
  4
BIGFONT
  0
ENDTAB
  0
ENDSEC
  0
SECTION
  2
BLOCKS
  0
BLOCK
  2
*GRP_0001
 70
    65
 10
0.0
 20
0.0
  0
LINE
  8
型材断面
  6
CONTINUOUS
 10
195.0
 20
133.5
 11
195.0
 21
-133.5
  0
LINE
  8
型材断面
  6
CONTINUOUS
 10
195.0
 20
-133.5
 11
-185.0
 21
-133.5
  0
LINE
  8
型材断面
  6
CONTINUOUS
 10
-185.0
 20
-133.5
 11
-185.0
 21
133.5
  0
LINE
  8
型材断面
  6
CONTINUOUS
 10
195.0
 20
133.5
 11
-185.0
 21
133.5
  0
LINE
  8
型材断面
  6
CONTINUOUS
 10
145.0
 20
-133.5
 11
145.0
 21
-118.5
  0
LINE
  8
型材断面
  6
CONTINUOUS
 10
195.0
 20
-118.5
 11
145.0
 21
-118.5
  0
ENDBLK
  0
BLOCK
  2
*DIM_0002
 70
    65
 10
0.0
 20
0.0
  0
LINE
  8
寸法
  6
BYBLOCK
 62
     0
 10
21.33489
 20
-22.536362
 11
-78.66511
 21
-22.536362
  0
POINT
  8
寸法
 62
     0
 10
21.33489
 20
-22.536362
  0
POINT
  8
寸法
 62
     0
 10
-78.66511
 20
-22.536362
  0
TEXT
  7
TextStyle03
  8
寸法
  6
CONTINUOUS
 62
     0
 10
-40.39375
 20
-22.175
  1
呼称寸法　3000
 40
3.0
 72
     5
 11
-16.95625
 21
-22.175
  0
ENDBLK
  0
BLOCK
  2
*DIM_0003
 70
    65
 10
0.0
 20
0.0
  0
LINE
  8
寸法
  6
BYBLOCK
 62
     0
 10
-61.998442
 20
9.76892
 11
-61.998442
 21
5.198027
  0
LINE
  8
寸法
  6
BYBLOCK
 62
     0
 10
4.668223
 20
9.76892
 11
4.668223
 21
5.198027
  0
LINE
  8
寸法
  6
BYBLOCK
 62
     0
 10
-61.998442
 20
5.198027
 11
4.668223
 21
5.198027
  0
POINT
  8
寸法
 62
     0
 10
-61.998442
 20
5.198027
  0
POINT
  8
寸法
 62
     0
 10
4.668223
 20
5.198027
  0
TEXT
  7
TextStyle03
  8
寸法
  6
CONTINUOUS
 62
     0
 10
-31.95625
 20
5.55
  1
2000
 40
3.0
 72
     5
 11
-25.39375
 21
5.55
  0
ENDBLK
  0
BLOCK
  2
*DIM_0004
 70
    65
 10
0.0
 20
0.0
  0
LINE
  8
寸法
  6
BYBLOCK
 62
     0
 10
55.35454
 20
13.399048
 11
55.35454
 21
56.73238
  0
POINT
  8
寸法
 62
     0
 10
55.35454
 20
13.399048
  0
POINT
  8
寸法
 62
     0
 10
55.35454
 20
56.73238
  0
TEXT
  7
TextStyle03
  8
寸法
  6
CONTINUOUS
 62
     0
 10
55.025
 20
23.33125
  1
呼称寸法　1300
 40
3.0
 50
90.0
 72
     5
 11
55.025
 21
46.76875
  0
ENDBLK
  0
BLOCK
  2
*DIM_0005
 70
    65
 10
0.0
 20
0.0
  0
LINE
  8
寸法
  6
BYBLOCK
 62
     0
 10
112.050583
 20
60.065853
 11
55.35454
 21
60.065853
  0
LINE
  8
寸法
  6
BYBLOCK
 62
     0
 10
55.35454
 20
56.73238
 11
55.35454
 21
60.065853
  0
POINT
  8
寸法
 62
     0
 10
55.35454
 20
56.73238
  0
POINT
  8
寸法
 62
     0
 10
55.35454
 20
60.065853
  0
TEXT
  7
TextStyle03
  8
寸法
  6
CONTINUOUS
 62
     0
 10
58.375
 20
61.1125
  1
100
 40
3.0
 50
90.0
 72
     5
 11
58.375
 21
65.9875
  0
ENDBLK
  0
BLOCK
  2
*DIM_0006
 70
    65
 10
0.0
 20
0.0
  0
LINE
  8
寸法
  6
BYBLOCK
 62
     0
 10
112.050583
 20
10.065577
 11
55.35454
 21
10.065577
  0
LINE
  8
寸法
  6
BYBLOCK
 62
     0
 10
55.35454
 20
13.39905
 11
55.35454
 21
10.065577
  0
POINT
  8
寸法
 62
     0
 10
55.35454
 20
13.39905
  0
POINT
  8
寸法
 62
     0
 10
55.35454
 20
10.065577
  0
TEXT
  7
TextStyle03
  8
寸法
  6
CONTINUOUS
 62
     0
 10
58.375
 20
4.1375
  1
100
 40
3.0
 50
90.0
 72
     5
 11
58.375
 21
9.0125
  0
ENDBLK
  0
BLOCK
  2
*DIM_0007
 70
    65
 10
0.0
 20
0.0
  0
LINE
  8
寸法
  6
BYBLOCK
 62
     0
 10
24.668362
 20
-82.024715
 11
24.668362
 21
-22.536362
  0
LINE
  8
寸法
  6
BYBLOCK
 62
     0
 10
21.33489
 20
-22.536362
 11
24.668362
 21
-22.536362
  0
POINT
  8
寸法
 62
     0
 10
21.33489
 20
-22.536362
  0
POINT
  8
寸法
 62
     0
 10
24.668362
 20
-22.536362
  0
TEXT
  7
TextStyle03
  8
寸法
  6
CONTINUOUS
 62
     0
 10
25.8375
 20
-25.275
  1
100
 40
3.0
 72
     5
 11
30.7125
 21
-25.275
  0
ENDBLK
  0
BLOCK
  2
*DIM_0008
 70
    65
 10
0.0
 20
0.0
  0
LINE
  8
寸法
  6
BYBLOCK
 62
     0
 10
-81.998582
 20
-82.024715
 11
-81.998582
 21
-22.536362
  0
LINE
  8
寸法
  6
BYBLOCK
 62
     0
 10
-78.66511
 20
-22.536362
 11
-81.998582
 21
-22.536362
  0
POINT
  8
寸法
 62
     0
 10
-78.66511
 20
-22.536362
  0
POINT
  8
寸法
 62
     0
 10
-81.998582
 20
-22.536362
  0
TEXT
  7
TextStyle03
  8
寸法
  6
CONTINUOUS
 62
     0
 10
-88.0625
 20
-25.275
  1
100
 40
3.0
 72
     5
 11
-83.1875
 21
-25.275
  0
ENDBLK
  0
BLOCK
  2
*DIM_0009
 70
    65
 10
0.0
 20
0.0
  0
LINE
  8
寸法
  6
BYBLOCK
 62
     0
 10
160.91659
 20
-84.654215
 11
166.877572
 21
-84.654215
  0
LINE
  8
寸法
  6
BYBLOCK
 62
     0
 10
160.91659
 20
-41.154215
 11
166.877572
 21
-41.154215
  0
LINE
  8
寸法
  6
BYBLOCK
 62
     0
 10
166.877572
 20
-84.654215
 11
166.877572
 21
-41.154215
  0
POINT
  8
寸法
 62
     0
 10
166.877572
 20
-84.654215
  0
POINT
  8
寸法
 62
     0
 10
166.877572
 20
-41.154215
  0
TEXT
  7
TextStyle03
  8
寸法
  6
CONTINUOUS
 62
     0
 10
166.5
 20
-66.20625
  1
1305
 40
3.0
 50
90.0
 72
     5
 11
166.5
 21
-59.64375
  0
ENDBLK
  0
BLOCK
  2
*DIM_0010
 70
    65
 10
0.0
 20
0.0
  0
LINE
  8
寸法
  6
BYBLOCK
 62
     0
 10
125.249922
 20
-38.154215
 11
125.249922
 21
-32.779125
  0
LINE
  8
寸法
  6
BYBLOCK
 62
     0
 10
157.91659
 20
-38.154215
 11
157.91659
 21
-32.779125
  0
LINE
  8
寸法
  6
BYBLOCK
 62
     0
 10
125.249922
 20
-32.779125
 11
157.91659
 21
-32.779125
  0
POINT
  8
寸法
 62
     0
 10
125.249922
 20
-32.779125
  0
POINT
  8
寸法
 62
     0
 10
157.91659
 20
-32.779125
  0
TEXT
  7
TextStyle03
  8
寸法
  6
CONTINUOUS
 62
     0
 10
139.1375
 20
-32.425
  1
980
 40
3.0
 72
     5
 11
144.0125
 21
-32.425
  0
ENDBLK
  0
BLOCK
  2
*DIM_0011
 70
    65
 10
0.0
 20
0.0
  0
LINE
  8
寸法
  6
BYBLOCK
 62
     0
 10
-81.66511
 20
23.399048
 11
-110.610275
 21
23.399048
  0
LINE
  8
寸法
  6
BYBLOCK
 62
     0
 10
-81.66511
 20
46.732382
 11
-110.610275
 21
46.732382
  0
LINE
  8
寸法
  6
BYBLOCK
 62
     0
 10
-110.610275
 20
23.399048
 11
-110.610275
 21
46.732382
  0
POINT
  8
寸法
 62
     0
 10
-110.610275
 20
23.399048
  0
POINT
  8
寸法
 62
     0
 10
-110.610275
 20
46.732382
  0
TEXT
  7
TextStyle03
  8
寸法
  6
CONTINUOUS
 62
     0
 10
-110.975
 20
32.6125
  1
700
 40
3.0
 50
90.0
 72
     5
 11
-110.975
 21
37.4875
  0
ENDBLK
  0
BLOCK
  2
*DIM_0012
 70
    65
 10
0.0
 20
0.0
  0
LINE
  8
寸法
  6
BYBLOCK
 62
     0
 10
-68.66511
 20
59.73238
 11
-68.66511
 21
88.840452
  0
LINE
  8
寸法
  6
BYBLOCK
 62
     0
 10
-41.998442
 20
59.73238
 11
-41.998442
 21
88.840452
  0
LINE
  8
寸法
  6
BYBLOCK
 62
     0
 10
-68.66511
 20
88.840452
 11
-41.998442
 21
88.840452
  0
POINT
  8
寸法
 62
     0
 10
-68.66511
 20
88.840452
  0
POINT
  8
寸法
 62
     0
 10
-41.998442
 20
88.840452
  0
TEXT
  7
TextStyle03
  8
寸法
  6
CONTINUOUS
 62
     0
 10
-57.7875
 20
89.2
  1
800
 40
3.0
 72
     5
 11
-52.9125
 21
89.2
  0
ENDBLK
  0
BLOCK
  2
*DIM_0013
 70
    65
 10
0.0
 20
0.0
  0
LINE
  8
寸法
  6
BYBLOCK
 62
     0
 10
-15.331778
 20
59.73238
 11
-15.331778
 21
88.840452
  0
LINE
  8
寸法
  6
BYBLOCK
 62
     0
 10
-41.998442
 20
88.840452
 11
-15.331778
 21
88.840452
  0
POINT
  8
寸法
 62
     0
 10
-15.331778
 20
88.840452
  0
TEXT
  7
TextStyle03
  8
寸法
  6
CONTINUOUS
 62
     0
 10
-31.1125
 20
89.2
  1
800
 40
3.0
 72
     5
 11
-26.2375
 21
89.2
  0
ENDBLK
  0
BLOCK
  2
*DIM_0014
 70
    65
 10
0.0
 20
0.0
  0
LINE
  8
寸法
  6
BYBLOCK
 62
     0
 10
11.33489
 20
59.73238
 11
11.33489
 21
88.840452
  0
LINE
  8
寸法
  6
BYBLOCK
 62
     0
 10
-15.331778
 20
88.840452
 11
11.33489
 21
88.840452
  0
POINT
  8
寸法
 62
     0
 10
11.33489
 20
88.840452
  0
TEXT
  7
TextStyle03
  8
寸法
  6
CONTINUOUS
 62
     0
 10
-4.4375
 20
89.2
  1
800
 40
3.0
 72
     5
 11
0.4375
 21
89.2
  0
ENDBLK
  0
BLOCK
  2
*DIM_0015
 70
    65
 10
0.0
 20
0.0
  0
LINE
  8
寸法
  6
CONTINUOUS
 10
29.668362
 20
-85.524718
 11
35.30152
 21
-85.524718
  0
LINE
  8
寸法
  6
CONTINUOUS
 10
28.02142
 20
-79.008168
 11
35.30152
 21
-79.008168
  0
LINE
  8
寸法
  6
CONTINUOUS
 10
35.30152
 20
-85.524718
 11
35.30152
 21
-79.008168
  0
POINT
  8
寸法
 10
35.30152
 20
-85.524718
  0
POINT
  8
寸法
 10
35.30152
 20
-79.008168
  0
TEXT
  7
TextStyle03
  8
寸法
  6
CONTINUOUS
 10
39.425
 20
-87.775
  1
195.5
 40
4.0
 50
90.0
 72
     5
 11
39.425
 21
-76.775
  0
ENDBLK
  0
BLOCK
  2
*GRP_0016
 70
    65
 10
0.0
 20
0.0
  0
LINE
  8
別途部材
  6
CONTINUOUS
 62
    96
 10
114.73391
 20
57.966035
 11
114.73391
 21
57.866035
  0
LINE
  8
別途部材
  6
CONTINUOUS
 62
    96
 10
112.63283
 20
58.066035
 11
112.702503
 21
59.39684
  0
LINE
  8
別途部材
  6
CONTINUOUS
 62
    96
 10
113.250575
 20
59.406035
 11
113.13391
 21
59.672703
  0
LINE
  8
別途部材
  6
CONTINUOUS
 62
    96
 10
113.150575
 20
59.38512
 11
113.083055
 21
59.539452
  0
LINE
  8
別途部材
  6
CONTINUOUS
 62
    96
 10
112.603732
 20
59.422957
 11
112.734182
 21
59.68316
  0
LINE
  8
別途部材
  6
CONTINUOUS
 62
    96
 10
112.702503
 20
59.39684
 11
112.834663
 21
59.660453
  0
LINE
  8
別途部材
  6
CONTINUOUS
 62
    96
 10
112.870265
 20
59.59557
 11
112.806617
 21
59.51844
  0
LINE
  8
別途部材
  6
DASHDOTX2
 62
    96
 10
112.93391
 20
59.672703
 11
112.620425
 21
59.672703
  0
LINE
  8
別途部材
  6
DASHDOTX2
 62
    96
 10
112.93391
 20
59.672703
 11
113.26437
 21
59.672703
  0
LINE
  8
別途部材
  6
DASHDOTX2
 62
    96
 10
112.93391
 20
59.672703
 11
112.93391
 21
59.40923
  0
LINE
  8
別途部材
  6
DASHDOTX2
 62
    96
 10
112.93391
 20
59.672703
 11
112.93391
 21
59.951013
  0
LINE
  8
別途部材
  6
CONTINUOUS
 62
    96
 10
113.150575
 20
57.866035
 11
113.150575
 21
59.38512
  0
LINE
  8
別途部材
  6
CONTINUOUS
 62
    96
 10
113.250575
 20
57.966035
 11
113.250575
 21
59.406035
  0
LINE
  8
別途部材
  6
CONTINUOUS
 62
    96
 10
111.399495
 20
58.166037
 11
112.537927
 21
58.166037
  0
LINE
  8
別途部材
  6
CONTINUOUS
 62
    96
 10
111.399495
 20
58.066035
 11
111.399495
 21
58.166037
  0
LINE
  8
別途部材
  6
CONTINUOUS
 62
    96
 10
111.399495
 20
58.066035
 11
112.63283
 21
58.066035
  0
CIRCLE
  8
別途部材
  6
CONTINUOUS
 62
    96
 10
112.93391
 20
59.672703
 40
0.1
  0
ARC
  8
別途部材
  6
CONTINUOUS
 62
    96
 10
112.933907
 20
59.672705
 40
0.2
 50
218.780606
 51
537.001556
  0
LINE
  8
別途部材
  6
CONTINUOUS
 62
    96
 10
113.150575
 20
57.866035
 11
114.73391
 21
57.866035
  0
LINE
  8
別途部材
  6
CONTINUOUS
 62
    96
 10
113.250575
 20
57.966035
 11
114.73391
 21
57.966035
  0
LINE
  8
別途部材
  6
CONTINUOUS
 62
    96
 10
112.603732
 20
59.422957
 11
112.537927
 21
58.166037
  0
ENDBLK
  0
ENDSEC
  0
SECTION
  2
ENTITIES
  0
POLYLINE
  8
通り芯
  6
CONTINUOUS
 66
     1
 70
     1
  0
VERTEX
  8
通り芯
 10
-210.0
 20
-148.5
  0
VERTEX
  8
通り芯
 10
210.0
 20
-148.5
  0
VERTEX
  8
通り芯
 10
210.0
 20
148.5
  0
VERTEX
  8
通り芯
 10
-210.0
 20
148.5
  0
SEQEND
  0
INSERT
  2
*GRP_0001
  8
型材断面
  6
CONTINUOUS
 10
0.0
 20
0.0
  0
LINE
  8
型材断面
  6
DASHDOT
 10
21.33489
 20
-87.251428
 11
21.33489
 21
56.73238
  0
LINE
  8
型材断面
  6
DASHDOT
 10
-28.66511
 20
-87.251428
 11
-28.66511
 21
56.73238
  0
LINE
  8
型材断面
  6
DASHDOT
 10
-78.66511
 20
-87.251428
 11
-78.66511
 21
56.73238
  0
LINE
  8
型材断面
  6
DASHDOT
 10
119.011652
 20
13.399048
 11
-78.66511
 21
13.399048
  0
LINE
  8
型材断面
  6
DASHDOT
 10
119.011652
 20
35.065715
 11
-78.66511
 21
35.065715
  0
LINE
  8
型材断面
  6
DASHDOT
 10
119.011652
 20
56.73238
 11
-78.66511
 21
56.73238
  0
LINE
  8
型材断面
  6
CONTINUOUS
 10
-81.29524
 20
35.065715
 11
-83.885747
 21
36.561345
  0
LINE
  8
型材断面
  6
CONTINUOUS
 10
-81.29524
 20
35.065715
 11
-83.885747
 21
33.570085
  0
LINE
  8
型材断面
  6
CONTINUOUS
 10
-83.885747
 20
33.570085
 11
-83.885747
 21
36.561345
  0
LINE
  8
型材断面
  6
CONTINUOUS
 10
-61.998442
 20
59.36251
 11
-63.494073
 21
61.953017
  0
LINE
  8
型材断面
  6
CONTINUOUS
 10
-61.998442
 20
59.36251
 11
-60.502812
 21
61.953017
  0
LINE
  8
型材断面
  6
CONTINUOUS
 10
-60.502812
 20
61.953017
 11
-63.494073
 21
61.953017
  0
LINE
  8
型材断面
  6
CONTINUOUS
 10
-119.517317
 20
94.709852
 11
-118.921263
 21
92.119345
  0
LINE
  8
型材断面
  6
CONTINUOUS
 10
-119.517317
 20
94.709852
 11
-120.113375
 21
92.119345
  0
LINE
  8
型材断面
  6
CONTINUOUS
 10
-120.113375
 20
92.119345
 11
-118.921263
 21
92.119345
  0
LINE
  8
型材断面
  6
CONTINUOUS
 10
-125.539905
 20
88.840452
 11
-79.298128
 21
88.840452
  0
LINE
  8
型材断面
  6
CONTINUOUS
 10
-119.517317
 20
101.239727
 11
-121.012947
 21
98.64922
  0
LINE
  8
型材断面
  6
CONTINUOUS
 10
-119.517317
 20
101.239727
 11
-118.021688
 21
98.64922
  0
LINE
  8
型材断面
  6
CONTINUOUS
 10
-118.021688
 20
98.64922
 11
-121.012947
 21
98.64922
  0
LINE
  8
型材断面
  6
CONTINUOUS
 10
-125.539905
 20
97.710625
 11
-79.298128
 21
97.710625
  0
LINE
  8
型材断面
  6
CONTINUOUS
 10
-125.539905
 20
83.05242
 11
-79.298128
 21
83.05242
  0
LINE
  8
型材断面
  6
CONTINUOUS
 10
-61.998442
 20
10.76892
 11
-63.494073
 21
8.178413
  0
LINE
  8
型材断面
  6
CONTINUOUS
 10
-61.998442
 20
10.76892
 11
-60.502812
 21
8.178413
  0
LINE
  8
型材断面
  6
CONTINUOUS
 10
-60.502812
 20
8.178413
 11
-63.494073
 21
8.178413
  0
LINE
  8
型材断面
  6
CONTINUOUS
 10
23.96502
 20
35.065715
 11
26.555528
 21
36.561345
  0
LINE
  8
型材断面
  6
CONTINUOUS
 10
23.96502
 20
35.065715
 11
26.555528
 21
33.570085
  0
LINE
  8
型材断面
  6
CONTINUOUS
 10
26.555528
 20
33.570085
 11
26.555528
 21
36.561345
  0
LINE
  8
型材断面
  6
CONTINUOUS
 10
4.668223
 20
59.36251
 11
6.163853
 21
61.953017
  0
LINE
  8
型材断面
  6
CONTINUOUS
 10
4.668223
 20
59.36251
 11
3.172593
 21
61.953017
  0
LINE
  8
型材断面
  6
CONTINUOUS
 10
3.172593
 20
61.953017
 11
6.163853
 21
61.953017
  0
LINE
  8
型材断面
  6
CONTINUOUS
 10
4.668223
 20
10.76892
 11
6.163853
 21
8.178413
  0
LINE
  8
型材断面
  6
CONTINUOUS
 10
4.668223
 20
10.76892
 11
3.172593
 21
8.178413
  0
LINE
  8
型材断面
  6
CONTINUOUS
 10
3.172593
 20
8.178413
 11
6.163853
 21
8.178413
  0
POLYLINE
  8
型材断面
  6
DASHDOT
 66
     1
  0
VERTEX
  8
型材断面
 10
-78.66511
 20
13.399048
  0
VERTEX
  8
型材断面
 10
-28.66511
 20
56.73238
  0
VERTEX
  8
型材断面
 10
21.33489
 20
13.399048
  0
SEQEND
  0
LINE
  8
型材断面
  6
CONTINUOUS
 62
    47
 10
22.658223
 20
-81.564728
 11
22.668223
 21
-81.554727
  0
LINE
  8
型材断面
  6
CONTINUOUS
 62
    47
 10
22.658223
 20
-81.564728
 11
22.668223
 21
-81.574727
  0
LINE
  8
型材断面
  6
CONTINUOUS
 62
    47
 10
22.658223
 20
-82.20696
 11
22.668223
 21
-82.19696
  0
LINE
  8
型材断面
  6
CONTINUOUS
 62
    47
 10
22.658223
 20
-82.20696
 11
22.668223
 21
-82.21696
  0
LINE
  8
型材断面
  6
CONTINUOUS
 62
    47
 10
22.668223
 20
-82.624727
 11
22.668223
 21
-82.21696
  0
LINE
  8
型材断面
  6
CONTINUOUS
 62
    47
 10
22.668223
 20
-82.19696
 11
22.668223
 21
-81.574727
  0
LINE
  8
型材断面
  6
CONTINUOUS
 62
    47
 10
22.668223
 20
-81.554727
 11
22.668223
 21
-80.858043
  0
LINE
  8
型材断面
  6
CONTINUOUS
 62
    47
 10
23.93503
 20
-82.691053
 11
23.93503
 21
-82.857683
  0
LINE
  8
型材断面
  6
CONTINUOUS
 62
    47
 10
22.458362
 20
-83.758057
 11
22.468362
 21
-83.748057
  0
LINE
  8
型材断面
  6
CONTINUOUS
 62
    47
 10
22.458362
 20
-83.758057
 11
22.468362
 21
-83.768058
  0
LINE
  8
型材断面
  6
CONTINUOUS
 62
    47
 10
22.458362
 20
-84.224733
 11
22.468362
 21
-84.214732
  0
LINE
  8
型材断面
  6
CONTINUOUS
 62
    47
 10
22.458362
 20
-84.224733
 11
22.468362
 21
-84.234732
  0
LINE
  8
型材断面
  6
CONTINUOUS
 62
    47
 10
22.468362
 20
-83.124708
 11
22.468362
 21
-83.748057
  0
LINE
  8
型材断面
  6
CONTINUOUS
 62
    47
 10
22.468362
 20
-83.768058
 11
22.468362
 21
-84.214732
  0
LINE
  8
型材断面
  6
CONTINUOUS
 62
    47
 10
24.668362
 20
-85.024715
 11
24.668362
 21
-85.524718
  0
LINE
  8
型材断面
  6
CONTINUOUS
 62
    47
 10
24.16837
 20
-85.858047
 11
24.16837
 21
-85.524718
  0
LINE
  8
型材断面
  6
CONTINUOUS
 62
    47
 10
24.668362
 20
-85.024715
 11
22.468362
 21
-84.858047
  0
LINE
  8
型材断面
  6
CONTINUOUS
 62
    47
 10
21.734887
 20
-84.858047
 11
22.401695
 21
-84.858047
  0
LINE
  8
型材断面
  6
CONTINUOUS
 62
    47
 10
22.458362
 20
-84.758047
 11
22.468362
 21
-84.748048
  0
LINE
  8
型材断面
  6
CONTINUOUS
 62
    47
 10
22.458362
 20
-84.758047
 11
22.468362
 21
-84.768048
  0
LINE
  8
型材断面
  6
CONTINUOUS
 62
    47
 10
22.468362
 20
-84.858047
 11
22.468362
 21
-84.768048
  0
LINE
  8
型材断面
  6
CONTINUOUS
 62
    47
 10
22.468362
 20
-84.234732
 11
22.468362
 21
-84.748048
  0
LINE
  8
型材断面
  6
CONTINUOUS
 62
    47
 10
23.935028
 20
-83.124708
 11
23.935028
 21
-82.99139
  0
LINE
  8
型材断面
  6
CONTINUOUS
 62
    47
 10
22.668223
 20
-82.624727
 11
23.93503
 21
-82.691053
  0
LINE
  8
型材断面
  6
CONTINUOUS
 62
    47
 10
24.668362
 20
-85.524718
 11
-28.66511
 21
-85.524718
  0
LINE
  8
型材断面
  6
CONTINUOUS
 62
    47
 10
24.16837
 20
-85.858047
 11
-28.66511
 21
-85.858047
  0
LINE
  8
型材断面
  6
CONTINUOUS
 10
24.668362
 20
-85.024715
 11
-28.66511
 21
-85.024715
  0
LINE
  8
型材断面
  6
CONTINUOUS
 10
22.468362
 20
-84.858047
 11
-28.66511
 21
-84.858047
  0
LINE
  8
型材断面
  6
CONTINUOUS
 10
23.93503
 20
-82.691053
 11
-28.66511
 21
-82.691053
  0
LINE
  8
型材断面
  6
CONTINUOUS
 62
    47
 10
23.935028
 20
-83.124708
 11
-28.66511
 21
-83.124708
  0
LINE
  8
型材断面
  6
CONTINUOUS
 62
    47
 10
23.93503
 20
-82.857683
 11
-28.66511
 21
-82.857683
  0
LINE
  8
型材断面
  6
CONTINUOUS
 10
22.668223
 20
-82.624727
 11
-28.66511
 21
-82.624727
  0
LINE
  8
型材断面
  6
CONTINUOUS
 62
    47
 10
23.935028
 20
-82.99139
 11
-28.66511
 21
-82.99139
  0
LINE
  8
型材断面
  6
CONTINUOUS
 62
    47
 10
22.668223
 20
-80.858043
 11
-28.66511
 21
-80.858043
  0
LINE
  8
型材断面
  6
CONTINUOUS
 62
    47
 10
-79.988443
 20
-81.564728
 11
-79.998442
 21
-81.554727
  0
LINE
  8
型材断面
  6
CONTINUOUS
 62
    47
 10
-79.988443
 20
-81.564728
 11
-79.998442
 21
-81.574727
  0
LINE
  8
型材断面
  6
CONTINUOUS
 62
    47
 10
-79.988443
 20
-82.20696
 11
-79.998442
 21
-82.19696
  0
LINE
  8
型材断面
  6
CONTINUOUS
 62
    47
 10
-79.988443
 20
-82.20696
 11
-79.998442
 21
-82.21696
  0
LINE
  8
型材断面
  6
CONTINUOUS
 62
    47
 10
-79.998442
 20
-82.624727
 11
-79.998442
 21
-82.21696
  0
LINE
  8
型材断面
  6
CONTINUOUS
 62
    47
 10
-79.998442
 20
-82.19696
 11
-79.998442
 21
-81.574727
  0
LINE
  8
型材断面
  6
CONTINUOUS
 62
    47
 10
-79.998442
 20
-81.554727
 11
-79.998442
 21
-80.858043
  0
LINE
  8
型材断面
  6
CONTINUOUS
 62
    47
 10
-81.26525
 20
-82.691053
 11
-81.26525
 21
-82.857683
  0
LINE
  8
型材断面
  6
CONTINUOUS
 62
    47
 10
-79.788583
 20
-83.758057
 11
-79.798582
 21
-83.748057
  0
LINE
  8
型材断面
  6
CONTINUOUS
 62
    47
 10
-79.788583
 20
-83.758057
 11
-79.798582
 21
-83.768058
  0
LINE
  8
型材断面
  6
CONTINUOUS
 62
    47
 10
-79.788583
 20
-84.224733
 11
-79.798582
 21
-84.214732
  0
LINE
  8
型材断面
  6
CONTINUOUS
 62
    47
 10
-79.788583
 20
-84.224733
 11
-79.798582
 21
-84.234732
  0
LINE
  8
型材断面
  6
CONTINUOUS
 62
    47
 10
-79.798582
 20
-83.124708
 11
-79.798582
 21
-83.748057
  0
LINE
  8
型材断面
  6
CONTINUOUS
 62
    47
 10
-79.798582
 20
-83.768058
 11
-79.798582
 21
-84.214732
  0
LINE
  8
型材断面
  6
CONTINUOUS
 62
    47
 10
-81.998582
 20
-85.024715
 11
-81.998582
 21
-85.524718
  0
LINE
  8
型材断面
  6
CONTINUOUS
 62
    47
 10
-81.49859
 20
-85.858047
 11
-81.49859
 21
-85.524718
  0
LINE
  8
型材断面
  6
CONTINUOUS
 62
    47
 10
-81.998582
 20
-85.024715
 11
-79.798582
 21
-84.858047
  0
LINE
  8
型材断面
  6
CONTINUOUS
 62
    47
 10
-79.065107
 20
-84.858047
 11
-79.731915
 21
-84.858047
  0
LINE
  8
型材断面
  6
CONTINUOUS
 62
    47
 10
-79.788583
 20
-84.758047
 11
-79.798582
 21
-84.748048
  0
LINE
  8
型材断面
  6
CONTINUOUS
 62
    47
 10
-79.788583
 20
-84.758047
 11
-79.798582
 21
-84.768048
  0
LINE
  8
型材断面
  6
CONTINUOUS
 62
    47
 10
-79.798582
 20
-84.858047
 11
-79.798582
 21
-84.768048
  0
LINE
  8
型材断面
  6
CONTINUOUS
 62
    47
 10
-79.798582
 20
-84.234732
 11
-79.798582
 21
-84.748048
  0
LINE
  8
型材断面
  6
CONTINUOUS
 62
    47
 10
-81.265247
 20
-83.124708
 11
-81.265247
 21
-82.99139
  0
LINE
  8
型材断面
  6
CONTINUOUS
 62
    47
 10
-79.998442
 20
-82.624727
 11
-81.26525
 21
-82.691053
  0
LINE
  8
型材断面
  6
CONTINUOUS
 62
    47
 10
-81.998582
 20
-85.524718
 11
-28.66511
 21
-85.524718
  0
LINE
  8
型材断面
  6
CONTINUOUS
 62
    47
 10
-81.49859
 20
-85.858047
 11
-28.66511
 21
-85.858047
  0
LINE
  8
型材断面
  6
CONTINUOUS
 10
-81.998582
 20
-85.024715
 11
-28.66511
 21
-85.024715
  0
LINE
  8
型材断面
  6
CONTINUOUS
 10
-79.798582
 20
-84.858047
 11
-28.66511
 21
-84.858047
  0
LINE
  8
型材断面
  6
CONTINUOUS
 10
-81.26525
 20
-82.691053
 11
-28.66511
 21
-82.691053
  0
LINE
  8
型材断面
  6
CONTINUOUS
 62
    47
 10
-81.265247
 20
-83.124708
 11
-28.66511
 21
-83.124708
  0
LINE
  8
型材断面
  6
CONTINUOUS
 62
    47
 10
-81.26525
 20
-82.857683
 11
-28.66511
 21
-82.857683
  0
LINE
  8
型材断面
  6
CONTINUOUS
 10
-79.998442
 20
-82.624727
 11
-28.66511
 21
-82.624727
  0
LINE
  8
型材断面
  6
CONTINUOUS
 62
    47
 10
-81.265247
 20
-82.99139
 11
-28.66511
 21
-82.99139
  0
LINE
  8
型材断面
  6
CONTINUOUS
 62
    47
 10
-79.998442
 20
-80.858043
 11
-28.66511
 21
-80.858043
  0
LINE
  8
型材断面
  6
CONTINUOUS
 10
24.668223
 20
10.065715
 11
-28.66511
 21
10.065715
  0
LINE
  8
型材断面
  6
CONTINUOUS
 10
24.668223
 20
60.065715
 11
-28.66511
 21
60.065715
  0
LINE
  8
型材断面
  6
CONTINUOUS
 10
-81.998442
 20
60.065715
 11
-28.66511
 21
60.065715
  0
LINE
  8
型材断面
  6
CONTINUOUS
 10
-81.998442
 20
10.065715
 11
-28.66511
 21
10.065715
  0
LINE
  8
型材断面
  6
CONTINUOUS
 10
22.8649
 20
-79.174835
 11
22.8649
 21
-80.674835
  0
LINE
  8
型材断面
  6
CONTINUOUS
 10
23.02142
 20
-79.174835
 11
23.02142
 21
-79.008168
  0
LINE
  8
型材断面
  6
CONTINUOUS
 62
    47
 10
22.8649
 20
-80.674835
 11
-28.66511
 21
-80.674835
  0
LINE
  8
型材断面
  6
CONTINUOUS
 62
    47
 10
23.02142
 20
-79.008168
 11
-28.66511
 21
-79.008168
  0
LINE
  8
型材断面
  6
CONTINUOUS
 62
    47
 10
23.02142
 20
-79.174835
 11
-28.66511
 21
-79.174835
  0
LINE
  8
型材断面
  6
CONTINUOUS
 10
-80.19512
 20
-79.174835
 11
-80.19512
 21
-80.674835
  0
LINE
  8
型材断面
  6
CONTINUOUS
 10
-80.35164
 20
-79.174835
 11
-80.35164
 21
-79.008168
  0
LINE
  8
型材断面
  6
CONTINUOUS
 62
    47
 10
-80.19512
 20
-80.674835
 11
-28.66511
 21
-80.674835
  0
LINE
  8
型材断面
  6
CONTINUOUS
 62
    47
 10
-80.35164
 20
-79.008168
 11
-28.66511
 21
-79.008168
  0
LINE
  8
型材断面
  6
CONTINUOUS
 62
    47
 10
-80.35164
 20
-79.174835
 11
-28.66511
 21
-79.174835
  0
ARC
  8
型材断面
  6
DASHDOT
 10
112.933908
 20
59.672704
 40
48.873825
 50
224.940963
 51
269.940964
  0
LINE
  8
型材断面
  6
CONTINUOUS
 62
    47
 10
111.590597
 20
58.055712
 11
111.580597
 21
58.065712
  0
LINE
  8
型材断面
  6
CONTINUOUS
 62
    47
 10
111.590597
 20
58.055712
 11
111.600598
 21
58.065712
  0
LINE
  8
型材断面
  6
CONTINUOUS
 62
    47
 10
112.23283
 20
58.055712
 11
112.22283
 21
58.065712
  0
LINE
  8
型材断面
  6
CONTINUOUS
 62
    47
 10
112.23283
 20
58.055712
 11
112.24283
 21
58.065712
  0
LINE
  8
型材断面
  6
CONTINUOUS
 62
    47
 10
112.650598
 20
58.065712
 11
112.24283
 21
58.065712
  0
LINE
  8
型材断面
  6
CONTINUOUS
 62
    47
 10
112.22283
 20
58.065712
 11
111.600598
 21
58.065712
  0
LINE
  8
型材断面
  6
CONTINUOUS
 62
    47
 10
111.580597
 20
58.065712
 11
110.883913
 21
58.065712
  0
LINE
  8
型材断面
  6
CONTINUOUS
 62
    47
 10
112.716922
 20
59.33252
 11
112.88355
 21
59.33252
  0
LINE
  8
型材断面
  6
CONTINUOUS
 62
    47
 10
113.783928
 20
57.855853
 11
113.773927
 21
57.865853
  0
LINE
  8
型材断面
  6
CONTINUOUS
 62
    47
 10
113.783928
 20
57.855853
 11
113.793928
 21
57.865853
  0
LINE
  8
型材断面
  6
CONTINUOUS
 62
    47
 10
114.2506
 20
57.855853
 11
114.2406
 21
57.865853
  0
LINE
  8
型材断面
  6
CONTINUOUS
 62
    47
 10
114.2506
 20
57.855853
 11
114.2606
 21
57.865853
  0
LINE
  8
型材断面
  6
CONTINUOUS
 62
    47
 10
113.150575
 20
57.865853
 11
113.773927
 21
57.865853
  0
LINE
  8
型材断面
  6
CONTINUOUS
 62
    47
 10
113.793928
 20
57.865853
 11
114.2406
 21
57.865853
  0
LINE
  8
型材断面
  6
CONTINUOUS
 62
    47
 10
115.050585
 20
60.065853
 11
115.550585
 21
60.065853
  0
LINE
  8
型材断面
  6
CONTINUOUS
 62
    47
 10
115.883917
 20
59.56586
 11
115.550585
 21
59.56586
  0
LINE
  8
型材断面
  6
CONTINUOUS
 62
    47
 10
115.050585
 20
60.065853
 11
114.883917
 21
57.865853
  0
LINE
  8
型材断面
  6
CONTINUOUS
 62
    47
 10
114.883917
 20
57.132378
 11
114.883917
 21
57.799185
  0
LINE
  8
型材断面
  6
CONTINUOUS
 62
    47
 10
114.783917
 20
57.855853
 11
114.773918
 21
57.865853
  0
LINE
  8
型材断面
  6
CONTINUOUS
 62
    47
 10
114.783917
 20
57.855853
 11
114.793917
 21
57.865853
  0
LINE
  8
型材断面
  6
CONTINUOUS
 62
    47
 10
114.883917
 20
57.865853
 11
114.793917
 21
57.865853
  0
LINE
  8
型材断面
  6
CONTINUOUS
 62
    47
 10
114.2606
 20
57.865853
 11
114.773918
 21
57.865853
  0
LINE
  8
型材断面
  6
CONTINUOUS
 62
    47
 10
113.150575
 20
59.33252
 11
113.01726
 21
59.33252
  0
LINE
  8
型材断面
  6
CONTINUOUS
 62
    47
 10
112.650598
 20
58.065712
 11
112.716922
 21
59.33252
  0
LINE
  8
型材断面
  6
CONTINUOUS
 62
    47
 10
110.883913
 20
58.065712
 11
110.883913
 21
35.065712
  0
LINE
  8
型材断面
  6
CONTINUOUS
 10
112.650598
 20
58.065712
 11
112.650598
 21
35.065712
  0
LINE
  8
型材断面
  6
CONTINUOUS
 10
112.716922
 20
59.33252
 11
112.716922
 21
35.065712
  0
LINE
  8
型材断面
  6
CONTINUOUS
 62
    47
 10
113.01726
 20
59.33252
 11
113.01726
 21
35.065712
  0
LINE
  8
型材断面
  6
CONTINUOUS
 62
    47
 10
113.150575
 20
59.33252
 11
113.150575
 21
35.065712
  0
LINE
  8
型材断面
  6
CONTINUOUS
 62
    47
 10
112.88355
 20
59.33252
 11
112.88355
 21
35.065712
  0
LINE
  8
型材断面
  6
CONTINUOUS
 10
114.883917
 20
57.865853
 11
114.883917
 21
35.065712
  0
LINE
  8
型材断面
  6
CONTINUOUS
 10
115.050585
 20
60.065853
 11
115.050585
 21
35.065712
  0
LINE
  8
型材断面
  6
CONTINUOUS
 62
    47
 10
115.550585
 20
60.065853
 11
115.550585
 21
35.065712
  0
LINE
  8
型材断面
  6
CONTINUOUS
 62
    47
 10
115.883917
 20
59.56586
 11
115.883917
 21
35.065712
  0
LINE
  8
型材断面
  6
CONTINUOUS
 62
    47
 10
111.590597
 20
12.075713
 11
111.580597
 21
12.065712
  0
LINE
  8
型材断面
  6
CONTINUOUS
 62
    47
 10
111.590597
 20
12.075713
 11
111.600598
 21
12.065712
  0
LINE
  8
型材断面
  6
CONTINUOUS
 62
    47
 10
112.23283
 20
12.075713
 11
112.22283
 21
12.065712
  0
LINE
  8
型材断面
  6
CONTINUOUS
 62
    47
 10
112.23283
 20
12.075713
 11
112.24283
 21
12.065712
  0
LINE
  8
型材断面
  6
CONTINUOUS
 62
    47
 10
112.650598
 20
12.065712
 11
112.24283
 21
12.065712
  0
LINE
  8
型材断面
  6
CONTINUOUS
 62
    47
 10
112.22283
 20
12.065712
 11
111.600598
 21
12.065712
  0
LINE
  8
型材断面
  6
CONTINUOUS
 62
    47
 10
111.580597
 20
12.065712
 11
110.883913
 21
12.065712
  0
LINE
  8
型材断面
  6
CONTINUOUS
 62
    47
 10
112.716922
 20
10.798905
 11
112.88355
 21
10.798905
  0
LINE
  8
型材断面
  6
CONTINUOUS
 62
    47
 10
113.783928
 20
12.275573
 11
113.773927
 21
12.265573
  0
LINE
  8
型材断面
  6
CONTINUOUS
 62
    47
 10
113.783928
 20
12.275573
 11
113.793928
 21
12.265573
  0
LINE
  8
型材断面
  6
CONTINUOUS
 62
    47
 10
114.2506
 20
12.275573
 11
114.2406
 21
12.265573
  0
LINE
  8
型材断面
  6
CONTINUOUS
 62
    47
 10
114.2506
 20
12.275573
 11
114.2606
 21
12.265573
  0
LINE
  8
型材断面
  6
CONTINUOUS
 62
    47
 10
113.150575
 20
12.265573
 11
113.773927
 21
12.265573
  0
LINE
  8
型材断面
  6
CONTINUOUS
 62
    47
 10
113.793928
 20
12.265573
 11
114.2406
 21
12.265573
  0
LINE
  8
型材断面
  6
CONTINUOUS
 62
    47
 10
115.050585
 20
10.065573
 11
115.550585
 21
10.065573
  0
LINE
  8
型材断面
  6
CONTINUOUS
 62
    47
 10
115.883917
 20
10.565565
 11
115.550585
 21
10.565565
  0
LINE
  8
型材断面
  6
CONTINUOUS
 62
    47
 10
115.050585
 20
10.065573
 11
114.883917
 21
12.265573
  0
LINE
  8
型材断面
  6
CONTINUOUS
 62
    47
 10
114.883917
 20
12.999048
 11
114.883917
 21
12.33224
  0
LINE
  8
型材断面
  6
CONTINUOUS
 62
    47
 10
114.783917
 20
12.275573
 11
114.773918
 21
12.265573
  0
LINE
  8
型材断面
  6
CONTINUOUS
 62
    47
 10
114.783917
 20
12.275573
 11
114.793917
 21
12.265573
  0
LINE
  8
型材断面
  6
CONTINUOUS
 62
    47
 10
114.883917
 20
12.265573
 11
114.793917
 21
12.265573
  0
LINE
  8
型材断面
  6
CONTINUOUS
 62
    47
 10
114.2606
 20
12.265573
 11
114.773918
 21
12.265573
  0
LINE
  8
型材断面
  6
CONTINUOUS
 62
    47
 10
113.150575
 20
10.798905
 11
113.01726
 21
10.798905
  0
LINE
  8
型材断面
  6
CONTINUOUS
 62
    47
 10
112.650598
 20
12.065712
 11
112.716922
 21
10.798905
  0
LINE
  8
型材断面
  6
CONTINUOUS
 62
    47
 10
110.883913
 20
12.335702
 11
110.650465
 21
12.335702
  0
LINE
  8
型材断面
  6
CONTINUOUS
 62
    47
 10
110.883913
 20
12.065712
 11
110.883913
 21
35.065712
  0
LINE
  8
型材断面
  6
CONTINUOUS
 10
112.650598
 20
12.065712
 11
112.650598
 21
35.065712
  0
LINE
  8
型材断面
  6
CONTINUOUS
 10
112.716922
 20
10.798905
 11
112.716922
 21
35.065712
  0
LINE
  8
型材断面
  6
CONTINUOUS
 62
    47
 10
113.01726
 20
10.798905
 11
113.01726
 21
35.065712
  0
LINE
  8
型材断面
  6
CONTINUOUS
 62
    47
 10
113.150575
 20
10.798905
 11
113.150575
 21
35.065712
  0
LINE
  8
型材断面
  6
CONTINUOUS
 62
    47
 10
112.88355
 20
10.798905
 11
112.88355
 21
35.065712
  0
LINE
  8
型材断面
  6
CONTINUOUS
 10
114.883917
 20
12.265573
 11
114.883917
 21
35.065712
  0
LINE
  8
型材断面
  6
CONTINUOUS
 10
115.050585
 20
10.065573
 11
115.050585
 21
35.065712
  0
LINE
  8
型材断面
  6
CONTINUOUS
 62
    47
 10
115.550585
 20
10.065573
 11
115.550585
 21
35.065712
  0
LINE
  8
型材断面
  6
CONTINUOUS
 62
    47
 10
115.883917
 20
10.565565
 11
115.883917
 21
35.065712
  0
LINE
  8
型材断面
  6
CONTINUOUS
 62
    47
 10
110.883913
 20
57.795723
 11
110.500707
 21
57.795723
  0
LINE
  8
型材断面
  6
CONTINUOUS
 10
109.200705
 20
11.869035
 11
110.700705
 21
11.869035
  0
LINE
  8
型材断面
  6
CONTINUOUS
 10
109.200705
 20
11.712515
 11
109.034037
 21
11.712515
  0
LINE
  8
型材断面
  6
CONTINUOUS
 62
    47
 10
110.700705
 20
11.869035
 11
110.700705
 21
35.065712
  0
LINE
  8
型材断面
  6
CONTINUOUS
 62
    47
 10
109.034037
 20
11.712515
 11
109.034037
 21
35.065712
  0
LINE
  8
型材断面
  6
CONTINUOUS
 62
    47
 10
109.200705
 20
11.712515
 11
109.200705
 21
35.065712
  0
LINE
  8
型材断面
  6
CONTINUOUS
 10
109.200705
 20
58.26239
 11
110.700705
 21
58.26239
  0
LINE
  8
型材断面
  6
CONTINUOUS
 10
109.200705
 20
58.41891
 11
109.034037
 21
58.41891
  0
LINE
  8
型材断面
  6
CONTINUOUS
 62
    47
 10
110.700705
 20
58.26239
 11
110.700705
 21
35.065712
  0
LINE
  8
型材断面
  6
CONTINUOUS
 62
    47
 10
109.034037
 20
58.41891
 11
109.034037
 21
35.065712
  0
LINE
  8
型材断面
  6
CONTINUOUS
 62
    47
 10
109.200705
 20
58.41891
 11
109.200705
 21
35.065712
  0
LINE
  8
型材断面
  6
DOT
 62
    47
 10
110.84066
 20
59.479183
 11
110.84066
 21
59.493325
  0
LINE
  8
型材断面
  6
DOT
 62
    47
 10
110.84066
 20
59.479183
 11
110.854803
 21
59.479183
  0
LINE
  8
型材断面
  6
DOT
 62
    47
 10
111.294785
 20
59.025055
 11
111.294785
 21
59.0392
  0
LINE
  8
型材断面
  6
DOT
 62
    47
 10
111.294785
 20
59.025055
 11
111.308928
 21
59.025055
  0
LINE
  8
型材断面
  6
DOT
 62
    47
 10
111.597265
 20
58.73672
 11
111.308928
 21
59.025055
  0
LINE
  8
型材断面
  6
DOT
 62
    47
 10
111.294785
 20
59.0392
 11
110.854803
 21
59.479183
  0
LINE
  8
型材断面
  6
DOT
 62
    47
 10
110.84066
 20
59.493325
 11
110.34803
 21
59.985955
  0
LINE
  8
型材断面
  6
DOT
 62
    47
 10
112.53993
 20
59.58559
 11
112.657755
 21
59.467765
  0
LINE
  8
型材断面
  6
DOT
 62
    47
 10
111.597265
 20
58.73672
 11
112.53993
 21
59.58559
  0
LINE
  8
型材断面
  6
DOT
 62
    47
 10
110.34803
 20
59.985955
 11
94.084572
 21
43.7225
  0
LINE
  8
型材断面
  6
DOT
 10
111.597265
 20
58.73672
 11
95.333807
 21
42.473265
  0
LINE
  8
型材断面
  6
DOT
 10
112.53993
 20
59.58559
 11
95.380708
 21
42.426365
  0
LINE
  8
型材断面
  6
DOT
 62
    47
 10
112.657755
 20
59.467765
 11
95.49853
 21
42.308542
  0
LINE
  8
型材断面
  6
DOT
 62
    47
 10
78.32789
 20
26.966412
 11
78.313747
 21
26.966412
  0
LINE
  8
型材断面
  6
DOT
 62
    47
 10
78.32789
 20
26.966412
 11
78.32789
 21
26.95227
  0
LINE
  8
型材断面
  6
DOT
 62
    47
 10
78.782015
 20
26.512285
 11
78.767875
 21
26.512285
  0
LINE
  8
型材断面
  6
DOT
 62
    47
 10
78.782015
 20
26.512285
 11
78.782015
 21
26.498145
  0
LINE
  8
型材断面
  6
DOT
 62
    47
 10
79.070353
 20
26.20981
 11
78.782015
 21
26.498145
  0
LINE
  8
型材断面
  6
DOT
 62
    47
 10
78.767875
 20
26.512285
 11
78.32789
 21
26.95227
  0
LINE
  8
型材断面
  6
DOT
 62
    47
 10
78.313747
 20
26.966412
 11
77.821118
 21
27.459045
  0
LINE
  8
型材断面
  6
DOT
 62
    47
 10
78.221482
 20
25.26714
 11
78.339305
 21
25.149317
  0
LINE
  8
型材断面
  6
DOT
 62
    47
 10
79.070353
 20
26.20981
 11
78.221482
 21
25.26714
  0
LINE
  8
型材断面
  6
DOT
 62
    47
 10
78.01203
 20
27.649955
 11
77.846957
 21
27.815027
  0
LINE
  8
型材断面
  6
DOT
 62
    47
 10
77.821118
 20
27.459045
 11
94.084572
 21
43.7225
  0
LINE
  8
型材断面
  6
DOT
 10
79.070353
 20
26.20981
 11
95.333807
 21
42.473265
  0
LINE
  8
型材断面
  6
DOT
 10
78.221482
 20
25.26714
 11
95.380708
 21
42.426365
  0
LINE
  8
型材断面
  6
DOT
 62
    47
 10
78.339305
 20
25.149317
 11
95.49853
 21
42.308542
  0
LINE
  8
型材断面
  6
DOT
 62
    47
 10
110.157117
 20
59.795045
 11
109.88615
 21
60.06601
  0
LINE
  8
型材断面
  6
DOT
 10
76.491837
 20
28.51018
 11
77.552498
 21
27.44952
  0
LINE
  8
型材断面
  6
DOT
 10
76.38116
 20
28.399503
 11
76.26331
 21
28.517355
  0
LINE
  8
型材断面
  6
DOT
 62
    47
 10
77.552498
 20
27.44952
 11
93.955025
 21
43.852047
  0
LINE
  8
型材断面
  6
DOT
 62
    47
 10
76.26331
 20
28.517355
 11
92.776515
 21
45.03056
  0
LINE
  8
型材断面
  6
DOT
 62
    47
 10
76.38116
 20
28.399503
 11
92.894365
 21
44.912708
  0
LINE
  8
型材断面
  6
DOT
 10
109.296892
 20
61.315235
 11
110.357553
 21
60.254575
  0
LINE
  8
型材断面
  6
DOT
 10
109.40757
 20
61.425913
 11
109.28972
 21
61.543765
  0
LINE
  8
型材断面
  6
DOT
 62
    47
 10
110.357553
 20
60.254575
 11
93.955025
 21
43.852047
  0
LINE
  8
型材断面
  6
DOT
 62
    47
 10
109.28972
 20
61.543765
 11
92.776515
 21
45.03056
  0
LINE
  8
型材断面
  6
DOT
 62
    47
 10
109.40757
 20
61.425913
 11
92.894365
 21
44.912708
  0
LINE
  8
型材断面
  6
CONTINUOUS
 10
23.93489
 20
10.799048
 11
-28.66511
 21
10.799028
  0
LINE
  8
型材断面
  6
CONTINUOUS
 10
23.93489
 20
59.332382
 11
-28.66511
 21
59.332402
  0
LINE
  8
型材断面
  6
CONTINUOUS
 10
-81.26511
 20
59.332382
 11
-28.66511
 21
59.332402
  0
LINE
  8
型材断面
  6
CONTINUOUS
 10
-81.26511
 20
10.799048
 11
-28.66511
 21
10.799028
  0
LINE
  8
型材断面
  6
CONTINUOUS
 62
    47
 10
22.398233
 20
-80.858043
 11
22.398233
 21
-80.674835
  0
LINE
  8
型材断面
  6
CONTINUOUS
 62
    47
 10
-79.728453
 20
-80.858043
 11
-79.728453
 21
-80.674835
  0
LINE
  8
型材断面
  6
DASHDOT
 10
-11.791777
 20
13.399048
 11
-11.791777
 21
56.73238
  0
LINE
  8
型材断面
  6
CONTINUOUS
 10
-10.541777
 20
15.04598
 11
-13.041777
 21
15.04598
  0
LINE
  8
型材断面
  6
CONTINUOUS
 10
-10.541777
 20
55.08545
 11
-13.041777
 21
55.08545
  0
LINE
  8
型材断面
  6
CONTINUOUS
 10
-10.541777
 20
15.04598
 11
-10.541777
 21
55.08545
  0
LINE
  8
型材断面
  6
CONTINUOUS
 10
-13.041777
 20
15.04598
 11
-13.041777
 21
55.08545
  0
LINE
  8
型材断面
  6
CONTINUOUS
 10
5.188225
 20
14.212652
 11
5.188225
 21
11.71265
  0
LINE
  8
型材断面
  6
CONTINUOUS
 10
4.35489
 20
14.212652
 11
4.35489
 21
11.71265
  0
LINE
  8
型材断面
  6
CONTINUOUS
 10
5.188225
 20
55.918778
 11
5.188225
 21
58.41878
  0
LINE
  8
型材断面
  6
CONTINUOUS
 10
4.35489
 20
55.918778
 11
4.35489
 21
58.41878
  0
LINE
  8
型材断面
  6
CONTINUOUS
 10
-28.248442
 20
14.212652
 11
-28.248442
 21
11.71265
  0
LINE
  8
型材断面
  6
CONTINUOUS
 10
-29.081778
 20
14.212652
 11
-29.081778
 21
11.71265
  0
LINE
  8
型材断面
  6
CONTINUOUS
 10
-28.248442
 20
55.918778
 11
-28.248442
 21
58.41878
  0
LINE
  8
型材断面
  6
CONTINUOUS
 10
-29.081778
 20
55.918778
 11
-29.081778
 21
58.41878
  0
LINE
  8
型材断面
  6
CONTINUOUS
 10
4.35489
 20
55.918778
 11
-28.248442
 21
55.91879
  0
LINE
  8
型材断面
  6
CONTINUOUS
 10
4.35489
 20
14.212652
 11
-28.248442
 21
14.21264
  0
LINE
  8
型材断面
  6
CONTINUOUS
 10
24.668362
 20
10.065575
 11
24.668362
 21
35.065715
  0
LINE
  8
型材断面
  6
CONTINUOUS
 10
24.668362
 20
60.065855
 11
24.668362
 21
35.065715
  0
LINE
  8
型材断面
  6
CONTINUOUS
 10
23.93503
 20
10.798907
 11
23.93503
 21
35.065715
  0
LINE
  8
型材断面
  6
CONTINUOUS
 10
23.93503
 20
59.332523
 11
23.93503
 21
35.065715
  0
LINE
  8
型材断面
  6
CONTINUOUS
 10
22.785722
 20
11.71251
 11
23.02142
 21
11.948217
  0
LINE
  8
型材断面
  6
CONTINUOUS
 10
24.668362
 20
10.065575
 11
22.903572
 21
11.830365
  0
LINE
  8
型材断面
  6
CONTINUOUS
 10
20.285717
 20
14.21251
 11
22.785715
 21
11.712517
  0
LINE
  8
型材断面
  6
CONTINUOUS
 10
20.52142
 20
14.448213
 11
23.02142
 21
11.948217
  0
LINE
  8
型材断面
  6
CONTINUOUS
 10
23.02142
 20
35.065715
 11
23.02142
 21
11.948217
  0
LINE
  8
型材断面
  6
CONTINUOUS
 10
20.285722
 20
14.212517
 11
20.52142
 21
14.448213
  0
LINE
  8
型材断面
  6
CONTINUOUS
 10
22.785722
 20
58.41892
 11
23.02142
 21
58.183213
  0
LINE
  8
型材断面
  6
CONTINUOUS
 10
20.52142
 20
55.683217
 11
20.285722
 21
55.918913
  0
LINE
  8
型材断面
  6
CONTINUOUS
 10
20.52142
 20
55.683217
 11
23.02142
 21
58.183213
  0
LINE
  8
型材断面
  6
CONTINUOUS
 10
23.02142
 20
35.065715
 11
23.02142
 21
58.183213
  0
LINE
  8
型材断面
  6
CONTINUOUS
 10
20.285717
 20
55.91892
 11
22.785715
 21
58.418913
  0
LINE
  8
型材断面
  6
CONTINUOUS
 10
24.668362
 20
60.065855
 11
22.903572
 21
58.301065
  0
LINE
  8
型材断面
  6
CONTINUOUS
 10
20.521428
 20
34.649048
 11
23.02143
 21
34.649048
  0
LINE
  8
型材断面
  6
CONTINUOUS
 10
20.521428
 20
35.482382
 11
23.02143
 21
35.482382
  0
LINE
  8
型材断面
  6
CONTINUOUS
 10
20.52142
 20
35.482382
 11
20.52142
 21
55.683217
  0
LINE
  8
型材断面
  6
CONTINUOUS
 10
20.52142
 20
14.448213
 11
20.52142
 21
34.649048
  0
LINE
  8
型材断面
  6
DASHDOT
 10
-45.538443
 20
13.399048
 11
-45.538443
 21
56.73238
  0
LINE
  8
型材断面
  6
CONTINUOUS
 10
-46.788443
 20
15.04598
 11
-44.288443
 21
15.04598
  0
LINE
  8
型材断面
  6
CONTINUOUS
 10
-46.788443
 20
55.08545
 11
-44.288443
 21
55.08545
  0
LINE
  8
型材断面
  6
CONTINUOUS
 10
-46.788443
 20
15.04598
 11
-46.788443
 21
55.08545
  0
LINE
  8
型材断面
  6
CONTINUOUS
 10
-44.288443
 20
15.04598
 11
-44.288443
 21
55.08545
  0
LINE
  8
型材断面
  6
CONTINUOUS
 10
-62.518445
 20
14.212652
 11
-62.518445
 21
11.71265
  0
LINE
  8
型材断面
  6
CONTINUOUS
 10
-61.68511
 20
14.212652
 11
-61.68511
 21
11.71265
  0
LINE
  8
型材断面
  6
CONTINUOUS
 10
-62.518445
 20
55.918778
 11
-62.518445
 21
58.41878
  0
LINE
  8
型材断面
  6
CONTINUOUS
 10
-61.68511
 20
55.918778
 11
-61.68511
 21
58.41878
  0
LINE
  8
型材断面
  6
CONTINUOUS
 10
-81.998582
 20
10.065575
 11
-81.998582
 21
35.065715
  0
LINE
  8
型材断面
  6
CONTINUOUS
 10
-81.998582
 20
60.065855
 11
-81.998582
 21
35.065715
  0
LINE
  8
型材断面
  6
CONTINUOUS
 10
-81.26525
 20
10.798907
 11
-81.26525
 21
35.065715
  0
LINE
  8
型材断面
  6
CONTINUOUS
 10
-81.26525
 20
59.332523
 11
-81.26525
 21
35.065715
  0
LINE
  8
型材断面
  6
CONTINUOUS
 10
-80.115942
 20
11.71251
 11
-80.35164
 21
11.948217
  0
LINE
  8
型材断面
  6
CONTINUOUS
 10
-81.998582
 20
10.065575
 11
-80.233792
 21
11.830365
  0
LINE
  8
型材断面
  6
CONTINUOUS
 10
-77.615938
 20
14.21251
 11
-80.115935
 21
11.712517
  0
LINE
  8
型材断面
  6
CONTINUOUS
 10
-77.85164
 20
14.448213
 11
-80.35164
 21
11.948217
  0
LINE
  8
型材断面
  6
CONTINUOUS
 10
-80.35164
 20
35.065715
 11
-80.35164
 21
11.948217
  0
LINE
  8
型材断面
  6
CONTINUOUS
 10
-77.615942
 20
14.212517
 11
-77.85164
 21
14.448213
  0
LINE
  8
型材断面
  6
CONTINUOUS
 10
-80.115942
 20
58.41892
 11
-80.35164
 21
58.183213
  0
LINE
  8
型材断面
  6
CONTINUOUS
 10
-77.85164
 20
55.683217
 11
-77.615942
 21
55.918913
  0
LINE
  8
型材断面
  6
CONTINUOUS
 10
-77.85164
 20
55.683217
 11
-80.35164
 21
58.183213
  0
LINE
  8
型材断面
  6
CONTINUOUS
 10
-80.35164
 20
35.065715
 11
-80.35164
 21
58.183213
  0
LINE
  8
型材断面
  6
CONTINUOUS
 10
-77.615938
 20
55.91892
 11
-80.115935
 21
58.418913
  0
LINE
  8
型材断面
  6
CONTINUOUS
 10
-81.998582
 20
60.065855
 11
-80.233792
 21
58.301065
  0
LINE
  8
型材断面
  6
CONTINUOUS
 10
-77.851648
 20
34.649048
 11
-80.35165
 21
34.649048
  0
LINE
  8
型材断面
  6
CONTINUOUS
 10
-77.851648
 20
35.482382
 11
-80.35165
 21
35.482382
  0
LINE
  8
型材断面
  6
CONTINUOUS
 10
-77.85164
 20
35.482382
 11
-77.85164
 21
55.683217
  0
LINE
  8
型材断面
  6
CONTINUOUS
 10
-77.85164
 20
14.448213
 11
-77.85164
 21
34.649048
  0
LINE
  8
型材断面
  6
CONTINUOUS
 10
-29.081778
 20
55.91879
 11
-61.68511
 21
55.918778
  0
LINE
  8
型材断面
  6
CONTINUOUS
 10
-29.081778
 20
14.21264
 11
-61.68511
 21
14.212652
  0
LINE
  8
型材断面
  6
CONTINUOUS
 10
5.188225
 20
55.918778
 11
20.28557
 21
55.918772
  0
LINE
  8
型材断面
  6
CONTINUOUS
 10
-28.66511
 20
58.418793
 11
22.785575
 21
58.418772
  0
LINE
  8
型材断面
  6
CONTINUOUS
 10
5.188225
 20
14.212652
 11
20.28557
 21
14.212658
  0
LINE
  8
型材断面
  6
CONTINUOUS
 10
-28.66511
 20
11.712637
 11
22.785575
 21
11.712658
  0
LINE
  8
型材断面
  6
CONTINUOUS
 10
-62.518445
 20
14.212652
 11
-77.61579
 21
14.212658
  0
LINE
  8
型材断面
  6
CONTINUOUS
 10
-28.66511
 20
11.712637
 11
-80.115795
 21
11.712658
  0
LINE
  8
型材断面
  6
CONTINUOUS
 10
-62.518445
 20
55.918778
 11
-77.61579
 21
55.918772
  0
LINE
  8
型材断面
  6
CONTINUOUS
 10
-28.66511
 20
58.418793
 11
-80.115795
 21
58.418772
  0
LINE
  8
ガラス
  6
CONTINUOUS
 10
157.91659
 20
-84.654215
 11
157.91659
 21
-41.154215
  0
LINE
  8
ガラス
  6
CONTINUOUS
 10
157.91659
 20
-41.154215
 11
125.249922
 21
-41.154215
  0
LINE
  8
ガラス
  6
CONTINUOUS
 10
125.249922
 20
-41.154215
 11
125.249922
 21
-84.654215
  0
LINE
  8
ガラス
  6
CONTINUOUS
 10
157.91659
 20
-84.654215
 11
125.249922
 21
-84.654215
  0
TEXT
  7
TextStyle03
  8
文字
  6
CONTINUOUS
 10
-116.75
 20
98.85
  1
は排水穴位置を示す
 40
3.0
 72
     5
 11
-86.75
 21
98.85
  0
TEXT
  7
TextStyle03
  8
文字
  6
CONTINUOUS
 10
-120.475
 20
83.975
  1
アンカー数量　１２ヶ所
 40
3.0
 72
     5
 11
-83.725
 21
83.975
  0
TEXT
  7
TextStyle03
  8
文字
  6
CONTINUOUS
 10
-116.75
 20
93.325
  1
はケーシング位置を示す
 40
3.0
 72
     5
 11
-80.0
 21
93.325
  0
TEXT
  7
TextStyle03
  8
文字
  6
CONTINUOUS
 10
-116.75
 20
89.95
  1
２ヶ所中1ヶ所に設定
 40
3.0
 72
     5
 11
-85.0625
 21
89.95
  0
TEXT
  7
TextStyle03
  8
文字
  6
CONTINUOUS
 10
67.45
 20
97.05
  1
ＮＳコード：ＮＳＦＨＺ
 40
5.0
 72
     5
 11
128.7
 21
97.05
  0
TEXT
  7
TextStyle03
  8
文字
  6
CONTINUOUS
 10
139.525
 20
-78.225
  1
網入り6.8t
 40
3.0
 72
     5
 11
156.2125
 21
-78.225
  0
TEXT
  7
TextStyle03
  8
文字
  6
CONTINUOUS
 10
146.2
 20
-82.9
  1
×３枚
 40
3.0
 72
     5
 11
155.95
 21
-82.9
  0
TEXT
  7
TextStyle03
  8
文字
  6
CONTINUOUS
 10
-116.175
 20
23.975
  1
アンカーピッチ
 40
3.0
 50
90.0
 72
     5
 11
-116.175
 21
47.225
  0
TEXT
  7
TextStyle03
  8
文字
  6
CONTINUOUS
 10
-68.7
 20
94.125
  1
アンカーピッチ
 40
3.0
 72
     5
 11
-45.45
 21
94.125
  0
TEXT
  7
TextStyle03
  8
文字
  6
CONTINUOUS
 10
97.25
 20
4.675
  1
45°
 40
3.0
 50
90.0
 72
     5
 11
97.25
 21
11.05
  0
TEXT
  7
TextStyle03
  8
文字
  6
CONTINUOUS
 10
67.475
 20
124.525
  1
シリーズ：ＴＦ２ＦＨＬ
 40
5.0
 72
     5
 11
128.725
 21
124.525
  0
TEXT
  7
TextStyle03
  8
文字
  6
CONTINUOUS
 10
67.475
 20
118.9
  1
　　　　　（片側開閉）1300×3000タイプ
 40
5.0
 72
     5
 11
173.725
 21
118.9
  0
TEXT
  7
TextStyle03
  8
文字
  6
CONTINUOUS
 10
67.475
 20
113.275
  1

 40
5.0
 41
1.125
  0
TEXT
  7
TextStyle03
  8
文字
  6
CONTINUOUS
 10
67.475
 20
107.65
  1
図面名　：外観姿図
 40
5.0
 72
     5
 11
117.475
 21
107.65
  0
INSERT
  2
*DIM_0002
  8
寸法
  6
CONTINUOUS
 10
0.0
 20
0.0
  0
INSERT
  2
*DIM_0003
  8
寸法
  6
CONTINUOUS
 10
0.0
 20
0.0
  0
INSERT
  2
*DIM_0004
  8
寸法
  6
CONTINUOUS
 10
0.0
 20
0.0
  0
INSERT
  2
*DIM_0005
  8
寸法
  6
CONTINUOUS
 10
0.0
 20
0.0
  0
INSERT
  2
*DIM_0006
  8
寸法
  6
CONTINUOUS
 10
0.0
 20
0.0
  0
INSERT
  2
*DIM_0007
  8
寸法
  6
CONTINUOUS
 10
0.0
 20
0.0
  0
INSERT
  2
*DIM_0008
  8
寸法
  6
CONTINUOUS
 10
0.0
 20
0.0
  0
INSERT
  2
*DIM_0009
  8
寸法
  6
CONTINUOUS
 10
0.0
 20
0.0
  0
INSERT
  2
*DIM_0010
  8
寸法
  6
CONTINUOUS
 10
0.0
 20
0.0
  0
INSERT
  2
*DIM_0011
  8
寸法
  6
CONTINUOUS
 10
0.0
 20
0.0
  0
INSERT
  2
*DIM_0012
  8
寸法
  6
CONTINUOUS
 10
0.0
 20
0.0
  0
INSERT
  2
*DIM_0013
  8
寸法
  6
CONTINUOUS
 10
0.0
 20
0.0
  0
INSERT
  2
*DIM_0014
  8
寸法
  6
CONTINUOUS
 10
0.0
 20
0.0
  0
INSERT
  2
*DIM_0015
  8
寸法
  6
CONTINUOUS
 10
0.0
 20
0.0
  0
INSERT
  2
*GRP_0016
  8
別途部材
  6
CONTINUOUS
 10
0.0
 20
0.0
  0
LINE
  8
曲げ物
  6
CONTINUOUS
 10
6.06062
 20
37.022003
 11
2.365308
 21
33.32669
  0
LINE
  8
曲げ物
  6
CONTINUOUS
 10
5.35715
 20
35.485893
 11
3.90142
 21
34.030163
  0
LINE
  8
曲げ物
  6
CONTINUOUS
 10
4.52451
 20
36.318533
 11
3.06878
 21
34.862803
  0
LINE
  8
曲げ物
  6
CONTINUOUS
 10
-26.774172
 20
37.022003
 11
-30.469485
 21
33.32669
  0
LINE
  8
曲げ物
  6
CONTINUOUS
 10
-27.477643
 20
35.485893
 11
-28.933373
 21
34.030163
  0
LINE
  8
曲げ物
  6
CONTINUOUS
 10
-28.310282
 20
36.318533
 11
-29.766013
 21
34.862803
  0
LINE
  8
曲げ物
  6
CONTINUOUS
 10
-59.583972
 20
37.022003
 11
-63.279285
 21
33.32669
  0
LINE
  8
曲げ物
  6
CONTINUOUS
 10
-60.287442
 20
35.485893
 11
-61.743173
 21
34.030163
  0
LINE
  8
曲げ物
  6
CONTINUOUS
 10
-61.120082
 20
36.318533
 11
-62.575813
 21
34.862803
  0
ENDSEC
  0
EOF
