  0
SECTION
  2
HEADER
  9
$EXTMIN
 10
-210.0
 20
-148.5
  9
$EXTMAX
 10
210.0
 20
148.5
  9
$PDMODE
 70
    32
  9
$PDSIZE
 40
1.5
  9
$LTSCALE
 40
10.0
  0
ENDSEC
  0
SECTION
  2
TABLES
  0
TABLE
  2
LTYPE
 70
    15
  0
LTYPE
  2
CONTINUOUS
 70
    64
  3
実線
 72
    65
 73
     0
 40
0.0
  0
LTYPE
  2
DASHED
 70
    64
  3
破線A
 72
    65
 73
     2
 40
0.6
 49
0.4
 49
-0.2
  0
LTYPE
  2
DASHEDX2
 70
    64
  3
破線B
 72
    65
 73
     2
 40
1.3
 49
0.9
 49
-0.4
  0
LTYPE
  2
DASHDOT
 70
    64
  3
１点鎖線A
 72
    65
 73
     4
 40
0.5375
 49
0.375
 49
-0.05
 49
0.0625
 49
-0.05
  0
LTYPE
  2
DASHDOTX2
 70
    64
  3
１点鎖線B
 72
    65
 73
     4
 40
1.075
 49
0.75
 49
-0.1
 49
0.125
 49
-0.1
  0
LTYPE
  2
DIVIDE2
 70
    64
  3
２点鎖線A
 72
    65
 73
     6
 40
0.5125
 49
0.3
 49
-0.0375
 49
0.05
 49
-0.0375
 49
0.05
 49
-0.0375
  0
LTYPE
  2
DIVIDE
 70
    64
  3
２点鎖線B
 72
    65
 73
     6
 40
1.05
 49
0.55
 49
-0.1
 49
0.1
 49
-0.1
 49
0.1
 49
-0.1
  0
LTYPE
  2
DOT
 70
    64
  3
点線A
 72
    65
 73
     2
 40
0.1125
 49
0.0625
 49
-0.05
  0
LTYPE
  2
DOTX2
 70
    64
  3
点線B
 72
    65
 73
     2
 40
0.275
 49
0.15
 49
-0.125
  0
LTYPE
  2
CONTINUOUS
 70
    64
  3
実線
 72
    65
 73
     0
 40
0.0
  0
LTYPE
  2
CONTINUOUS
 70
    64
  3
実線
 72
    65
 73
     0
 40
0.0
  0
LTYPE
  2
CONTINUOUS
 70
    64
  3
実線
 72
    65
 73
     0
 40
0.0
  0
LTYPE
  2
CONTINUOUS
 70
    64
  3
実線
 72
    65
 73
     0
 40
0.0
  0
LTYPE
  2
CONTINUOUS
 70
    64
  3
実線
 72
    65
 73
     0
 40
0.0
  0
LTYPE
  2
CONTINUOUS
 70
    64
  3
実線
 72
    65
 73
     0
 40
0.0
  0
ENDTAB
  0
TABLE
  2
LAYER
 70
    34
  0
LAYER
  2
通り芯
 70
     0
 62
    15
  6
CONTINUOUS
  0
LAYER
  2
補助線
 70
     0
 62
    16
  6
DOT
  0
LAYER
  2
躯体
 70
     0
 62
    31
  6
CONTINUOUS
  0
LAYER
  2
型材
 70
     0
 62
    32
  6
CONTINUOUS
  0
LAYER
  2
型材断面
 70
     0
 62
    47
  6
CONTINUOUS
  0
LAYER
  2
ガラス
 70
     0
 62
    48
  6
CONTINUOUS
  0
LAYER
  2
ゴム等
 70
     0
 62
    63
  6
CONTINUOUS
  0
LAYER
  2
ボルト／ビス
 70
     0
 62
    64
  6
CONTINUOUS
  0
LAYER
  2
文字
 70
     0
 62
    79
  6
CONTINUOUS
  0
LAYER
  2
寸法
 70
     0
 62
    80
  6
CONTINUOUS
  0
LAYER
  2
ﾊｯﾁﾝｸﾞ
 70
     0
 62
    95
  6
CONTINUOUS
  0
LAYER
  2
別途部材
 70
     0
 62
    96
  6
CONTINUOUS
  0
LAYER
  2
曲げ物
 70
     0
 62
   111
  6
CONTINUOUS
  0
LAYER
  2
鉄骨等
 70
     0
 62
   112
  6
CONTINUOUS
  0
LAYER
  2
St
 70
     0
 62
   127
  6
CONTINUOUS
  0
LAYER
  2
その他部品等
 70
     0
 62
   128
  6
CONTINUOUS
  0
LAYER
  2
ｶﾞｽｹｯﾄ
 70
     0
 62
   143
  6
CONTINUOUS
  0
LAYER
  2
ｽｹｯﾁ
 70
     0
 62
    14
  6
CONTINUOUS
  0
LAYER
  2
0
 70
     0
 62
    17
  6
CONTINUOUS
  0
LAYER
  2
1
 70
     0
 62
    30
  6
CONTINUOUS
  0
LAYER
  2
4
 70
     0
 62
    33
  6
CONTINUOUS
  0
LAYER
  2
ﾚｲﾔ3
 70
     0
 62
    46
  6
CONTINUOUS
  0
LAYER
  2
外形線
 70
     0
 62
    49
  6
CONTINUOUS
  0
LAYER
  2
部品
 70
     0
 62
    14
  6
CONTINUOUS
  0
LAYER
  2
サッシ芯
 70
     0
 62
    17
  6
DASHDOTX2
  0
LAYER
  2
寸法線
 70
     0
 62
    62
  6
CONTINUOUS
  0
LAYER
  2
姿図外形線
 70
     0
 62
    65
  6
CONTINUOUS
  0
LAYER
  2
姿補助線
 70
     0
 62
    30
  6
CONTINUOUS
  0
LAYER
  2
透視線
 70
     0
 62
    78
  6
DOT
  0
LAYER
  2
用紙
 70
     0
 62
    81
  6
CONTINUOUS
  0
LAYER
  2
実線図枠
 70
     0
 62
    94
  6
CONTINUOUS
  0
LAYER
  2
補助図枠
 70
     0
 62
    97
  6
CONTINUOUS
  0
LAYER
  2
建具記号
 70
     0
 62
   110
  6
CONTINUOUS
  0
LAYER
  2
補助文字
 70
     0
 62
   113
  6
CONTINUOUS
  0
ENDTAB
  0
TABLE
  2
STYLE
 70
    10
  0
STYLE
  2
STANDARD
 70
     0
 40
1.0
 41
1.0
 42
1.0
 50
0.0
 71
     0
  3
TXT
  4
BIGFONT
  0
STYLE
  2
TATE
 70
     4
 40
1.0
 41
1.0
 42
1.0
 50
0.0
 71
     0
  3
TXT
  4
BIGFONT
  0
STYLE
  2
TextStyle03
 70
     0
 40
1.0
 41
1.0
 42
1.0
 50
0.0
 71
     0
  3
MONOTXT
  4
BIGFONT
  0
STYLE
  2
TextStyle04
 70
     0
 40
1.0
 41
1.0
 42
1.0
 50
0.0
 71
     0
  3
MONOTXT
  4
BIGFONT
  0
STYLE
  2
TextStyle05
 70
     0
 40
1.0
 41
1.0
 42
1.0
 50
0.0
 71
     0
  3
MONOTXT
  4
BIGFONT
  0
STYLE
  2
TextStyle06
 70
     0
 40
1.0
 41
1.0
 42
1.0
 50
0.0
 71
     0
  3
MONOTXT
  4
BIGFONT
  0
STYLE
  2
TextStyle07
 70
     0
 40
1.0
 41
1.0
 42
1.0
 50
0.0
 71
     0
  3
MONOTXT
  4
BIGFONT
  0
STYLE
  2
TextStyle08
 70
     0
 40
1.0
 41
1.0
 42
1.0
 50
0.0
 71
     0
  3
MONOTXT
  4
BIGFONT
  0
STYLE
  2
TextStyle09
 70
     0
 40
1.0
 41
1.0
 42
1.0
 50
0.0
 71
     0
  3
MONOTXT
  4
BIGFONT
  0
STYLE
  2
TextStyle10
 70
     0
 40
1.0
 41
1.0
 42
1.0
 50
0.0
 71
     0
  3
MONOTXT
  4
BIGFONT
  0
ENDTAB
  0
ENDSEC
  0
SECTION
  2
BLOCKS
  0
BLOCK
  2
*GRP_0001
 70
    65
 10
0.0
 20
0.0
  0
LINE
  8
型材断面
  6
CONTINUOUS
 10
195.0
 20
133.5
 11
195.0
 21
-133.5
  0
LINE
  8
型材断面
  6
CONTINUOUS
 10
195.0
 20
-133.5
 11
-185.0
 21
-133.5
  0
LINE
  8
型材断面
  6
CONTINUOUS
 10
-185.0
 20
-133.5
 11
-185.0
 21
133.5
  0
LINE
  8
型材断面
  6
CONTINUOUS
 10
195.0
 20
133.5
 11
-185.0
 21
133.5
  0
LINE
  8
型材断面
  6
CONTINUOUS
 10
145.0
 20
-133.5
 11
145.0
 21
-118.5
  0
LINE
  8
型材断面
  6
CONTINUOUS
 10
195.0
 20
-118.5
 11
145.0
 21
-118.5
  0
ENDBLK
  0
BLOCK
  2
*DIM_0002
 70
    65
 10
0.0
 20
0.0
  0
LINE
  8
寸法
  6
BYBLOCK
 62
     0
 10
21.33489
 20
-22.536362
 11
-95.331778
 21
-22.536362
  0
POINT
  8
寸法
 62
     0
 10
21.33489
 20
-22.536362
  0
POINT
  8
寸法
 62
     0
 10
-95.331778
 20
-22.536362
  0
TEXT
  7
TextStyle03
  8
寸法
  6
CONTINUOUS
 62
     0
 10
-48.71875
 20
-22.175
  1
呼称寸法　3500
 40
3.0
 72
     5
 11
-25.28125
 21
-22.175
  0
ENDBLK
  0
BLOCK
  2
*DIM_0003
 70
    65
 10
0.0
 20
0.0
  0
LINE
  8
寸法
  6
BYBLOCK
 62
     0
 10
-78.66511
 20
9.76892
 11
-78.66511
 21
4.551973
  0
LINE
  8
寸法
  6
BYBLOCK
 62
     0
 10
4.668225
 20
9.76892
 11
4.668225
 21
4.551973
  0
LINE
  8
寸法
  6
BYBLOCK
 62
     0
 10
-78.66511
 20
4.551973
 11
4.668225
 21
4.551973
  0
POINT
  8
寸法
 62
     0
 10
-78.66511
 20
4.551973
  0
POINT
  8
寸法
 62
     0
 10
4.668225
 20
4.551973
  0
TEXT
  7
TextStyle03
  8
寸法
  6
CONTINUOUS
 62
     0
 10
-40.28125
 20
4.925
  1
2500
 40
3.0
 72
     5
 11
-33.71875
 21
4.925
  0
ENDBLK
  0
BLOCK
  2
*DIM_0004
 70
    65
 10
0.0
 20
0.0
  0
LINE
  8
寸法
  6
BYBLOCK
 62
     0
 10
55.35454
 20
13.399048
 11
55.35454
 21
56.73238
  0
POINT
  8
寸法
 62
     0
 10
55.35454
 20
13.399048
  0
POINT
  8
寸法
 62
     0
 10
55.35454
 20
56.73238
  0
TEXT
  7
TextStyle03
  8
寸法
  6
CONTINUOUS
 62
     0
 10
55.025
 20
23.33125
  1
呼称寸法　1300
 40
3.0
 50
90.0
 72
     5
 11
55.025
 21
46.76875
  0
ENDBLK
  0
BLOCK
  2
*DIM_0005
 70
    65
 10
0.0
 20
0.0
  0
LINE
  8
寸法
  6
BYBLOCK
 62
     0
 10
112.050583
 20
60.065853
 11
55.35454
 21
60.065853
  0
LINE
  8
寸法
  6
BYBLOCK
 62
     0
 10
55.35454
 20
56.73238
 11
55.35454
 21
60.065853
  0
POINT
  8
寸法
 62
     0
 10
55.35454
 20
56.73238
  0
POINT
  8
寸法
 62
     0
 10
55.35454
 20
60.065853
  0
TEXT
  7
TextStyle03
  8
寸法
  6
CONTINUOUS
 62
     0
 10
58.375
 20
61.1125
  1
100
 40
3.0
 50
90.0
 72
     5
 11
58.375
 21
65.9875
  0
ENDBLK
  0
BLOCK
  2
*DIM_0006
 70
    65
 10
0.0
 20
0.0
  0
LINE
  8
寸法
  6
BYBLOCK
 62
     0
 10
112.050583
 20
10.065577
 11
55.35454
 21
10.065577
  0
LINE
  8
寸法
  6
BYBLOCK
 62
     0
 10
55.35454
 20
13.39905
 11
55.35454
 21
10.065577
  0
POINT
  8
寸法
 62
     0
 10
55.35454
 20
13.39905
  0
POINT
  8
寸法
 62
     0
 10
55.35454
 20
10.065577
  0
TEXT
  7
TextStyle03
  8
寸法
  6
CONTINUOUS
 62
     0
 10
58.375
 20
4.1375
  1
100
 40
3.0
 50
90.0
 72
     5
 11
58.375
 21
9.0125
  0
ENDBLK
  0
BLOCK
  2
*DIM_0007
 70
    65
 10
0.0
 20
0.0
  0
LINE
  8
寸法
  6
BYBLOCK
 62
     0
 10
24.668362
 20
-82.024715
 11
24.668362
 21
-22.536362
  0
LINE
  8
寸法
  6
BYBLOCK
 62
     0
 10
21.33489
 20
-22.536362
 11
24.668362
 21
-22.536362
  0
POINT
  8
寸法
 62
     0
 10
21.33489
 20
-22.536362
  0
POINT
  8
寸法
 62
     0
 10
24.668362
 20
-22.536362
  0
TEXT
  7
TextStyle03
  8
寸法
  6
CONTINUOUS
 62
     0
 10
25.8375
 20
-25.425
  1
100
 40
3.0
 72
     5
 11
30.7125
 21
-25.425
  0
ENDBLK
  0
BLOCK
  2
*DIM_0008
 70
    65
 10
0.0
 20
0.0
  0
LINE
  8
寸法
  6
BYBLOCK
 62
     0
 10
-98.665247
 20
-82.024715
 11
-98.665247
 21
-22.536362
  0
LINE
  8
寸法
  6
BYBLOCK
 62
     0
 10
-95.331775
 20
-22.536362
 11
-98.665247
 21
-22.536362
  0
POINT
  8
寸法
 62
     0
 10
-95.331775
 20
-22.536362
  0
POINT
  8
寸法
 62
     0
 10
-98.665247
 20
-22.536362
  0
TEXT
  7
TextStyle03
  8
寸法
  6
CONTINUOUS
 62
     0
 10
-104.7125
 20
-25.425
  1
100
 40
3.0
 72
     5
 11
-99.8375
 21
-25.425
  0
ENDBLK
  0
BLOCK
  2
*DIM_0009
 70
    65
 10
0.0
 20
0.0
  0
LINE
  8
寸法
  6
BYBLOCK
 62
     0
 10
160.91659
 20
-84.654215
 11
166.877572
 21
-84.654215
  0
LINE
  8
寸法
  6
BYBLOCK
 62
     0
 10
160.91659
 20
-41.154215
 11
166.877572
 21
-41.154215
  0
LINE
  8
寸法
  6
BYBLOCK
 62
     0
 10
166.877572
 20
-84.654215
 11
166.877572
 21
-41.154215
  0
POINT
  8
寸法
 62
     0
 10
166.877572
 20
-84.654215
  0
POINT
  8
寸法
 62
     0
 10
166.877572
 20
-41.154215
  0
TEXT
  7
TextStyle03
  8
寸法
  6
CONTINUOUS
 62
     0
 10
166.5
 20
-66.20625
  1
1305
 40
3.0
 50
90.0
 72
     5
 11
166.5
 21
-59.64375
  0
ENDBLK
  0
BLOCK
  2
*DIM_0010
 70
    65
 10
0.0
 20
0.0
  0
LINE
  8
寸法
  6
BYBLOCK
 62
     0
 10
119.683258
 20
-38.154215
 11
119.683258
 21
-32.752632
  0
LINE
  8
寸法
  6
BYBLOCK
 62
     0
 10
157.91659
 20
-38.154215
 11
157.91659
 21
-32.752632
  0
LINE
  8
寸法
  6
BYBLOCK
 62
     0
 10
119.683258
 20
-32.752632
 11
157.91659
 21
-32.752632
  0
POINT
  8
寸法
 62
     0
 10
119.683258
 20
-32.752632
  0
POINT
  8
寸法
 62
     0
 10
157.91659
 20
-32.752632
  0
TEXT
  7
TextStyle03
  8
寸法
  6
CONTINUOUS
 62
     0
 10
135.49375
 20
-32.4
  1
1147
 40
3.0
 72
     5
 11
142.05625
 21
-32.4
  0
ENDBLK
  0
BLOCK
  2
*DIM_0011
 70
    65
 10
0.0
 20
0.0
  0
LINE
  8
寸法
  6
BYBLOCK
 62
     0
 10
-98.331778
 20
23.399048
 11
-127.276943
 21
23.399048
  0
LINE
  8
寸法
  6
BYBLOCK
 62
     0
 10
-98.331778
 20
46.732382
 11
-127.276943
 21
46.732382
  0
LINE
  8
寸法
  6
BYBLOCK
 62
     0
 10
-127.276943
 20
23.399048
 11
-127.276943
 21
46.732382
  0
POINT
  8
寸法
 62
     0
 10
-127.276943
 20
23.399048
  0
POINT
  8
寸法
 62
     0
 10
-127.276943
 20
46.732382
  0
TEXT
  7
TextStyle03
  8
寸法
  6
CONTINUOUS
 62
     0
 10
-127.625
 20
32.6125
  1
700
 40
3.0
 50
90.0
 72
     5
 11
-127.625
 21
37.4875
  0
ENDBLK
  0
BLOCK
  2
*DIM_0012
 70
    65
 10
0.0
 20
0.0
  0
LINE
  8
寸法
  6
BYBLOCK
 62
     0
 10
-90.331775
 20
59.73238
 11
-90.331775
 21
88.840452
  0
LINE
  8
寸法
  6
BYBLOCK
 62
     0
 10
-63.66511
 20
59.73238
 11
-63.66511
 21
88.840452
  0
LINE
  8
寸法
  6
BYBLOCK
 62
     0
 10
-90.331775
 20
88.840452
 11
-63.66511
 21
88.840452
  0
POINT
  8
寸法
 62
     0
 10
-90.331775
 20
88.840452
  0
POINT
  8
寸法
 62
     0
 10
-63.66511
 20
88.840452
  0
TEXT
  7
TextStyle03
  8
寸法
  6
CONTINUOUS
 62
     0
 10
-79.4375
 20
89.2
  1
800
 40
3.0
 72
     5
 11
-74.5625
 21
89.2
  0
ENDBLK
  0
BLOCK
  2
*DIM_0013
 70
    65
 10
0.0
 20
0.0
  0
LINE
  8
寸法
  6
BYBLOCK
 62
     0
 10
-36.998442
 20
59.73238
 11
-36.998442
 21
88.840452
  0
LINE
  8
寸法
  6
BYBLOCK
 62
     0
 10
-63.66511
 20
88.840452
 11
-36.998442
 21
88.840452
  0
POINT
  8
寸法
 62
     0
 10
-36.998442
 20
88.840452
  0
TEXT
  7
TextStyle03
  8
寸法
  6
CONTINUOUS
 62
     0
 10
-52.7875
 20
89.2
  1
800
 40
3.0
 72
     5
 11
-47.9125
 21
89.2
  0
ENDBLK
  0
BLOCK
  2
*DIM_0014
 70
    65
 10
0.0
 20
0.0
  0
LINE
  8
寸法
  6
BYBLOCK
 62
     0
 10
-10.331775
 20
59.73238
 11
-10.331775
 21
88.840452
  0
LINE
  8
寸法
  6
BYBLOCK
 62
     0
 10
-36.998442
 20
88.840452
 11
-10.331775
 21
88.840452
  0
POINT
  8
寸法
 62
     0
 10
-10.331775
 20
88.840452
  0
TEXT
  7
TextStyle03
  8
寸法
  6
CONTINUOUS
 62
     0
 10
-26.1125
 20
89.2
  1
800
 40
3.0
 72
     5
 11
-21.2375
 21
89.2
  0
ENDBLK
  0
BLOCK
  2
*DIM_0015
 70
    65
 10
0.0
 20
0.0
  0
LINE
  8
寸法
  6
BYBLOCK
 62
     0
 10
16.33489
 20
59.73238
 11
16.33489
 21
88.840452
  0
LINE
  8
寸法
  6
BYBLOCK
 62
     0
 10
-10.331775
 20
88.840452
 11
16.33489
 21
88.840452
  0
POINT
  8
寸法
 62
     0
 10
16.33489
 20
88.840452
  0
TEXT
  7
TextStyle03
  8
寸法
  6
CONTINUOUS
 62
     0
 10
0.5625
 20
89.2
  1
800
 40
3.0
 72
     5
 11
5.4375
 21
89.2
  0
ENDBLK
  0
BLOCK
  2
*GRP_0016
 70
    65
 10
0.0
 20
0.0
  0
LINE
  8
別途部材
  6
CONTINUOUS
 62
    96
 10
114.733907
 20
57.966035
 11
114.733907
 21
57.866035
  0
LINE
  8
別途部材
  6
CONTINUOUS
 62
    96
 10
112.632827
 20
58.066035
 11
112.7025
 21
59.39684
  0
LINE
  8
別途部材
  6
CONTINUOUS
 62
    96
 10
113.250573
 20
59.406035
 11
113.133907
 21
59.672703
  0
LINE
  8
別途部材
  6
CONTINUOUS
 62
    96
 10
113.150573
 20
59.38512
 11
113.083052
 21
59.539452
  0
LINE
  8
別途部材
  6
CONTINUOUS
 62
    96
 10
112.60373
 20
59.422957
 11
112.73418
 21
59.68316
  0
LINE
  8
別途部材
  6
CONTINUOUS
 62
    96
 10
112.7025
 20
59.39684
 11
112.83466
 21
59.660453
  0
LINE
  8
別途部材
  6
CONTINUOUS
 62
    96
 10
112.870263
 20
59.59557
 11
112.806615
 21
59.51844
  0
LINE
  8
別途部材
  6
DASHDOTX2
 62
    96
 10
112.933907
 20
59.672703
 11
112.620422
 21
59.672703
  0
LINE
  8
別途部材
  6
DASHDOTX2
 62
    96
 10
112.933907
 20
59.672703
 11
113.264367
 21
59.672703
  0
LINE
  8
別途部材
  6
DASHDOTX2
 62
    96
 10
112.933907
 20
59.672703
 11
112.933907
 21
59.40923
  0
LINE
  8
別途部材
  6
DASHDOTX2
 62
    96
 10
112.933907
 20
59.672703
 11
112.933907
 21
59.951013
  0
LINE
  8
別途部材
  6
CONTINUOUS
 62
    96
 10
113.150573
 20
57.866035
 11
113.150573
 21
59.38512
  0
LINE
  8
別途部材
  6
CONTINUOUS
 62
    96
 10
113.250573
 20
57.966035
 11
113.250573
 21
59.406035
  0
LINE
  8
別途部材
  6
CONTINUOUS
 62
    96
 10
111.399493
 20
58.166037
 11
112.537925
 21
58.166037
  0
LINE
  8
別途部材
  6
CONTINUOUS
 62
    96
 10
111.399493
 20
58.066035
 11
111.399493
 21
58.166037
  0
LINE
  8
別途部材
  6
CONTINUOUS
 62
    96
 10
111.399493
 20
58.066035
 11
112.632827
 21
58.066035
  0
CIRCLE
  8
別途部材
  6
CONTINUOUS
 62
    96
 10
112.933907
 20
59.672703
 40
0.1
  0
ARC
  8
別途部材
  6
CONTINUOUS
 62
    96
 10
112.933904
 20
59.672705
 40
0.2
 50
218.780606
 51
537.001556
  0
LINE
  8
別途部材
  6
CONTINUOUS
 62
    96
 10
113.150573
 20
57.866035
 11
114.733907
 21
57.866035
  0
LINE
  8
別途部材
  6
CONTINUOUS
 62
    96
 10
113.250573
 20
57.966035
 11
114.733907
 21
57.966035
  0
LINE
  8
別途部材
  6
CONTINUOUS
 62
    96
 10
112.60373
 20
59.422957
 11
112.537925
 21
58.166037
  0
ENDBLK
  0
BLOCK
  2
*DIM_0017
 70
    65
 10
0.0
 20
0.0
  0
LINE
  8
寸法
  6
CONTINUOUS
 10
29.668362
 20
-85.524718
 11
35.30152
 21
-85.524718
  0
LINE
  8
寸法
  6
CONTINUOUS
 10
28.02142
 20
-79.008168
 11
35.30152
 21
-79.008168
  0
LINE
  8
寸法
  6
CONTINUOUS
 10
35.30152
 20
-85.524718
 11
35.30152
 21
-79.008168
  0
POINT
  8
寸法
 10
35.30152
 20
-85.524718
  0
POINT
  8
寸法
 10
35.30152
 20
-79.008168
  0
TEXT
  7
TextStyle03
  8
寸法
  6
CONTINUOUS
 10
39.425
 20
-87.775
  1
195.5
 40
4.0
 50
90.0
 72
     5
 11
39.425
 21
-76.775
  0
ENDBLK
  0
ENDSEC
  0
SECTION
  2
ENTITIES
  0
POLYLINE
  8
通り芯
  6
CONTINUOUS
 66
     1
 70
     1
  0
VERTEX
  8
通り芯
 10
-210.0
 20
-148.5
  0
VERTEX
  8
通り芯
 10
210.0
 20
-148.5
  0
VERTEX
  8
通り芯
 10
210.0
 20
148.5
  0
VERTEX
  8
通り芯
 10
-210.0
 20
148.5
  0
SEQEND
  0
INSERT
  2
*GRP_0001
  8
型材断面
  6
CONTINUOUS
 10
0.0
 20
0.0
  0
LINE
  8
型材断面
  6
DASHDOT
 10
21.33489
 20
-87.251428
 11
21.33489
 21
56.73238
  0
LINE
  8
型材断面
  6
DASHDOT
 10
-36.998442
 20
-87.251428
 11
-36.998442
 21
56.73238
  0
LINE
  8
型材断面
  6
DASHDOT
 10
-95.331778
 20
-87.251428
 11
-95.331778
 21
56.73238
  0
LINE
  8
型材断面
  6
DASHDOT
 10
119.011652
 20
13.399048
 11
-95.331778
 21
13.399048
  0
LINE
  8
型材断面
  6
DASHDOT
 10
119.011652
 20
35.065715
 11
-95.331778
 21
35.065715
  0
LINE
  8
型材断面
  6
DASHDOT
 10
119.011652
 20
56.73238
 11
-95.331778
 21
56.73238
  0
LINE
  8
型材断面
  6
CONTINUOUS
 10
-97.961907
 20
35.065715
 11
-100.552415
 21
36.561345
  0
LINE
  8
型材断面
  6
CONTINUOUS
 10
-97.961907
 20
35.065715
 11
-100.552415
 21
33.570085
  0
LINE
  8
型材断面
  6
CONTINUOUS
 10
-100.552415
 20
33.570085
 11
-100.552415
 21
36.561345
  0
LINE
  8
型材断面
  6
CONTINUOUS
 10
-78.66511
 20
59.36251
 11
-80.16074
 21
61.953017
  0
LINE
  8
型材断面
  6
CONTINUOUS
 10
-78.66511
 20
59.36251
 11
-77.16948
 21
61.953017
  0
LINE
  8
型材断面
  6
CONTINUOUS
 10
-77.16948
 20
61.953017
 11
-80.16074
 21
61.953017
  0
LINE
  8
型材断面
  6
CONTINUOUS
 10
-136.183985
 20
94.709852
 11
-135.58793
 21
92.119345
  0
LINE
  8
型材断面
  6
CONTINUOUS
 10
-136.183985
 20
94.709852
 11
-136.780043
 21
92.119345
  0
LINE
  8
型材断面
  6
CONTINUOUS
 10
-136.780043
 20
92.119345
 11
-135.58793
 21
92.119345
  0
LINE
  8
型材断面
  6
CONTINUOUS
 10
-142.206573
 20
88.840452
 11
-95.964795
 21
88.840452
  0
LINE
  8
型材断面
  6
CONTINUOUS
 10
-136.183985
 20
101.239727
 11
-137.679615
 21
98.64922
  0
LINE
  8
型材断面
  6
CONTINUOUS
 10
-136.183985
 20
101.239727
 11
-134.688355
 21
98.64922
  0
LINE
  8
型材断面
  6
CONTINUOUS
 10
-134.688355
 20
98.64922
 11
-137.679615
 21
98.64922
  0
LINE
  8
型材断面
  6
CONTINUOUS
 10
-142.206573
 20
97.710625
 11
-95.964795
 21
97.710625
  0
LINE
  8
型材断面
  6
CONTINUOUS
 10
-142.206573
 20
83.05242
 11
-95.964795
 21
83.05242
  0
LINE
  8
型材断面
  6
CONTINUOUS
 10
-78.66511
 20
10.76892
 11
-80.16074
 21
8.178413
  0
LINE
  8
型材断面
  6
CONTINUOUS
 10
-78.66511
 20
10.76892
 11
-77.16948
 21
8.178413
  0
LINE
  8
型材断面
  6
CONTINUOUS
 10
-77.16948
 20
8.178413
 11
-80.16074
 21
8.178413
  0
LINE
  8
型材断面
  6
CONTINUOUS
 10
23.965022
 20
35.065715
 11
26.55553
 21
36.561345
  0
LINE
  8
型材断面
  6
CONTINUOUS
 10
23.965022
 20
35.065715
 11
26.55553
 21
33.570085
  0
LINE
  8
型材断面
  6
CONTINUOUS
 10
26.55553
 20
33.570085
 11
26.55553
 21
36.561345
  0
LINE
  8
型材断面
  6
CONTINUOUS
 10
4.668225
 20
59.36251
 11
6.163855
 21
61.953017
  0
LINE
  8
型材断面
  6
CONTINUOUS
 10
4.668225
 20
59.36251
 11
3.172595
 21
61.953017
  0
LINE
  8
型材断面
  6
CONTINUOUS
 10
3.172595
 20
61.953017
 11
6.163855
 21
61.953017
  0
LINE
  8
型材断面
  6
CONTINUOUS
 10
4.668225
 20
10.76892
 11
6.163855
 21
8.178413
  0
LINE
  8
型材断面
  6
CONTINUOUS
 10
4.668225
 20
10.76892
 11
3.172595
 21
8.178413
  0
LINE
  8
型材断面
  6
CONTINUOUS
 10
3.172595
 20
8.178413
 11
6.163855
 21
8.178413
  0
POLYLINE
  8
型材断面
  6
DASHDOT
 66
     1
  0
VERTEX
  8
型材断面
 10
-95.331778
 20
13.399048
  0
VERTEX
  8
型材断面
 10
-36.998442
 20
56.73238
  0
VERTEX
  8
型材断面
 10
21.33489
 20
13.399048
  0
SEQEND
  0
LINE
  8
型材断面
  6
CONTINUOUS
 62
    47
 10
22.658223
 20
-81.564728
 11
22.668223
 21
-81.554727
  0
LINE
  8
型材断面
  6
CONTINUOUS
 62
    47
 10
22.658223
 20
-81.564728
 11
22.668223
 21
-81.574727
  0
LINE
  8
型材断面
  6
CONTINUOUS
 62
    47
 10
22.658223
 20
-82.20696
 11
22.668223
 21
-82.19696
  0
LINE
  8
型材断面
  6
CONTINUOUS
 62
    47
 10
22.658223
 20
-82.20696
 11
22.668223
 21
-82.21696
  0
LINE
  8
型材断面
  6
CONTINUOUS
 62
    47
 10
22.668223
 20
-82.624727
 11
22.668223
 21
-82.21696
  0
LINE
  8
型材断面
  6
CONTINUOUS
 62
    47
 10
22.668223
 20
-82.19696
 11
22.668223
 21
-81.574727
  0
LINE
  8
型材断面
  6
CONTINUOUS
 62
    47
 10
22.668223
 20
-81.554727
 11
22.668223
 21
-80.858043
  0
LINE
  8
型材断面
  6
CONTINUOUS
 62
    47
 10
23.93503
 20
-82.691053
 11
23.93503
 21
-82.857683
  0
LINE
  8
型材断面
  6
CONTINUOUS
 62
    47
 10
22.458362
 20
-83.758057
 11
22.468362
 21
-83.748057
  0
LINE
  8
型材断面
  6
CONTINUOUS
 62
    47
 10
22.458362
 20
-83.758057
 11
22.468362
 21
-83.768058
  0
LINE
  8
型材断面
  6
CONTINUOUS
 62
    47
 10
22.458362
 20
-84.224733
 11
22.468362
 21
-84.214732
  0
LINE
  8
型材断面
  6
CONTINUOUS
 62
    47
 10
22.458362
 20
-84.224733
 11
22.468362
 21
-84.234732
  0
LINE
  8
型材断面
  6
CONTINUOUS
 62
    47
 10
22.468362
 20
-83.124708
 11
22.468362
 21
-83.748057
  0
LINE
  8
型材断面
  6
CONTINUOUS
 62
    47
 10
22.468362
 20
-83.768058
 11
22.468362
 21
-84.214732
  0
LINE
  8
型材断面
  6
CONTINUOUS
 62
    47
 10
24.668362
 20
-85.024715
 11
24.668362
 21
-85.524718
  0
LINE
  8
型材断面
  6
CONTINUOUS
 62
    47
 10
24.16837
 20
-85.858047
 11
24.16837
 21
-85.524718
  0
LINE
  8
型材断面
  6
CONTINUOUS
 62
    47
 10
24.668362
 20
-85.024715
 11
22.468362
 21
-84.858047
  0
LINE
  8
型材断面
  6
CONTINUOUS
 62
    47
 10
21.734887
 20
-84.858047
 11
22.401695
 21
-84.858047
  0
LINE
  8
型材断面
  6
CONTINUOUS
 62
    47
 10
22.458362
 20
-84.758047
 11
22.468362
 21
-84.748048
  0
LINE
  8
型材断面
  6
CONTINUOUS
 62
    47
 10
22.458362
 20
-84.758047
 11
22.468362
 21
-84.768048
  0
LINE
  8
型材断面
  6
CONTINUOUS
 62
    47
 10
22.468362
 20
-84.858047
 11
22.468362
 21
-84.768048
  0
LINE
  8
型材断面
  6
CONTINUOUS
 62
    47
 10
22.468362
 20
-84.234732
 11
22.468362
 21
-84.748048
  0
LINE
  8
型材断面
  6
CONTINUOUS
 62
    47
 10
23.935028
 20
-83.124708
 11
23.935028
 21
-82.99139
  0
LINE
  8
型材断面
  6
CONTINUOUS
 62
    47
 10
22.668223
 20
-82.624727
 11
23.93503
 21
-82.691053
  0
LINE
  8
型材断面
  6
CONTINUOUS
 62
    47
 10
24.668362
 20
-85.524718
 11
-36.998442
 21
-85.524718
  0
LINE
  8
型材断面
  6
CONTINUOUS
 62
    47
 10
24.16837
 20
-85.858047
 11
-36.998442
 21
-85.858047
  0
LINE
  8
型材断面
  6
CONTINUOUS
 10
22.468362
 20
-84.858047
 11
-36.998442
 21
-84.858047
  0
LINE
  8
型材断面
  6
CONTINUOUS
 10
24.668362
 20
-85.024715
 11
-36.998442
 21
-85.024715
  0
LINE
  8
型材断面
  6
CONTINUOUS
 10
23.93503
 20
-82.691053
 11
-36.998442
 21
-82.691053
  0
LINE
  8
型材断面
  6
CONTINUOUS
 62
    47
 10
23.93503
 20
-82.857683
 11
-36.998442
 21
-82.857683
  0
LINE
  8
型材断面
  6
CONTINUOUS
 10
22.668223
 20
-82.624727
 11
-36.998442
 21
-82.624727
  0
LINE
  8
型材断面
  6
CONTINUOUS
 62
    47
 10
23.935028
 20
-83.124708
 11
-36.998442
 21
-83.124708
  0
LINE
  8
型材断面
  6
CONTINUOUS
 62
    47
 10
23.935028
 20
-82.99139
 11
-36.998442
 21
-82.99139
  0
LINE
  8
型材断面
  6
CONTINUOUS
 62
    47
 10
22.668223
 20
-80.858043
 11
-36.998442
 21
-80.858043
  0
LINE
  8
型材断面
  6
CONTINUOUS
 62
    47
 10
-96.655108
 20
-81.564728
 11
-96.665107
 21
-81.554727
  0
LINE
  8
型材断面
  6
CONTINUOUS
 62
    47
 10
-96.655108
 20
-81.564728
 11
-96.665107
 21
-81.574727
  0
LINE
  8
型材断面
  6
CONTINUOUS
 62
    47
 10
-96.655108
 20
-82.20696
 11
-96.665107
 21
-82.19696
  0
LINE
  8
型材断面
  6
CONTINUOUS
 62
    47
 10
-96.655108
 20
-82.20696
 11
-96.665107
 21
-82.21696
  0
LINE
  8
型材断面
  6
CONTINUOUS
 62
    47
 10
-96.665107
 20
-82.624727
 11
-96.665107
 21
-82.21696
  0
LINE
  8
型材断面
  6
CONTINUOUS
 62
    47
 10
-96.665107
 20
-82.19696
 11
-96.665107
 21
-81.574727
  0
LINE
  8
型材断面
  6
CONTINUOUS
 62
    47
 10
-96.665107
 20
-81.554727
 11
-96.665107
 21
-80.858043
  0
LINE
  8
型材断面
  6
CONTINUOUS
 62
    47
 10
-97.931915
 20
-82.691053
 11
-97.931915
 21
-82.857683
  0
LINE
  8
型材断面
  6
CONTINUOUS
 62
    47
 10
-96.455248
 20
-83.758057
 11
-96.465247
 21
-83.748057
  0
LINE
  8
型材断面
  6
CONTINUOUS
 62
    47
 10
-96.455248
 20
-83.758057
 11
-96.465247
 21
-83.768058
  0
LINE
  8
型材断面
  6
CONTINUOUS
 62
    47
 10
-96.455248
 20
-84.224733
 11
-96.465247
 21
-84.214732
  0
LINE
  8
型材断面
  6
CONTINUOUS
 62
    47
 10
-96.455248
 20
-84.224733
 11
-96.465247
 21
-84.234732
  0
LINE
  8
型材断面
  6
CONTINUOUS
 62
    47
 10
-96.465247
 20
-83.124708
 11
-96.465247
 21
-83.748057
  0
LINE
  8
型材断面
  6
CONTINUOUS
 62
    47
 10
-96.465247
 20
-83.768058
 11
-96.465247
 21
-84.214732
  0
LINE
  8
型材断面
  6
CONTINUOUS
 62
    47
 10
-98.665247
 20
-85.024715
 11
-98.665247
 21
-85.524718
  0
LINE
  8
型材断面
  6
CONTINUOUS
 62
    47
 10
-98.165255
 20
-85.858047
 11
-98.165255
 21
-85.524718
  0
LINE
  8
型材断面
  6
CONTINUOUS
 62
    47
 10
-98.665247
 20
-85.024715
 11
-96.465247
 21
-84.858047
  0
LINE
  8
型材断面
  6
CONTINUOUS
 62
    47
 10
-95.731772
 20
-84.858047
 11
-96.39858
 21
-84.858047
  0
LINE
  8
型材断面
  6
CONTINUOUS
 62
    47
 10
-96.455248
 20
-84.758047
 11
-96.465247
 21
-84.748048
  0
LINE
  8
型材断面
  6
CONTINUOUS
 62
    47
 10
-96.455248
 20
-84.758047
 11
-96.465247
 21
-84.768048
  0
LINE
  8
型材断面
  6
CONTINUOUS
 62
    47
 10
-96.465247
 20
-84.858047
 11
-96.465247
 21
-84.768048
  0
LINE
  8
型材断面
  6
CONTINUOUS
 62
    47
 10
-96.465247
 20
-84.234732
 11
-96.465247
 21
-84.748048
  0
LINE
  8
型材断面
  6
CONTINUOUS
 62
    47
 10
-97.931912
 20
-83.124708
 11
-97.931912
 21
-82.99139
  0
LINE
  8
型材断面
  6
CONTINUOUS
 62
    47
 10
-96.665107
 20
-82.624727
 11
-97.931915
 21
-82.691053
  0
LINE
  8
型材断面
  6
CONTINUOUS
 62
    47
 10
-98.665247
 20
-85.524718
 11
-36.998442
 21
-85.524718
  0
LINE
  8
型材断面
  6
CONTINUOUS
 62
    47
 10
-98.165255
 20
-85.858047
 11
-36.998442
 21
-85.858047
  0
LINE
  8
型材断面
  6
CONTINUOUS
 10
-96.465247
 20
-84.858047
 11
-36.998442
 21
-84.858047
  0
LINE
  8
型材断面
  6
CONTINUOUS
 10
-98.665247
 20
-85.024715
 11
-36.998442
 21
-85.024715
  0
LINE
  8
型材断面
  6
CONTINUOUS
 10
-97.931915
 20
-82.691053
 11
-36.998442
 21
-82.691053
  0
LINE
  8
型材断面
  6
CONTINUOUS
 62
    47
 10
-97.931915
 20
-82.857683
 11
-36.998442
 21
-82.857683
  0
LINE
  8
型材断面
  6
CONTINUOUS
 10
-96.665107
 20
-82.624727
 11
-36.998442
 21
-82.624727
  0
LINE
  8
型材断面
  6
CONTINUOUS
 62
    47
 10
-97.931912
 20
-83.124708
 11
-36.998442
 21
-83.124708
  0
LINE
  8
型材断面
  6
CONTINUOUS
 62
    47
 10
-97.931912
 20
-82.99139
 11
-36.998442
 21
-82.99139
  0
LINE
  8
型材断面
  6
CONTINUOUS
 62
    47
 10
-96.665107
 20
-80.858043
 11
-36.998442
 21
-80.858043
  0
LINE
  8
型材断面
  6
CONTINUOUS
 10
24.668223
 20
10.065715
 11
-36.998442
 21
10.065715
  0
LINE
  8
型材断面
  6
CONTINUOUS
 10
24.668223
 20
60.065715
 11
-36.998442
 21
60.065715
  0
LINE
  8
型材断面
  6
CONTINUOUS
 10
-98.665107
 20
60.065715
 11
-36.998442
 21
60.065715
  0
LINE
  8
型材断面
  6
CONTINUOUS
 10
-98.665107
 20
10.065715
 11
-36.998442
 21
10.065715
  0
ARC
  8
型材断面
  6
DASHDOT
 10
112.933906
 20
59.672704
 40
48.873825
 50
224.940963
 51
269.940964
  0
LINE
  8
型材断面
  6
CONTINUOUS
 62
    47
 10
111.590595
 20
58.055712
 11
111.580595
 21
58.065712
  0
LINE
  8
型材断面
  6
CONTINUOUS
 62
    47
 10
111.590595
 20
58.055712
 11
111.600595
 21
58.065712
  0
LINE
  8
型材断面
  6
CONTINUOUS
 62
    47
 10
112.232827
 20
58.055712
 11
112.222827
 21
58.065712
  0
LINE
  8
型材断面
  6
CONTINUOUS
 62
    47
 10
112.232827
 20
58.055712
 11
112.242828
 21
58.065712
  0
LINE
  8
型材断面
  6
CONTINUOUS
 62
    47
 10
112.650595
 20
58.065712
 11
112.242828
 21
58.065712
  0
LINE
  8
型材断面
  6
CONTINUOUS
 62
    47
 10
112.222827
 20
58.065712
 11
111.600595
 21
58.065712
  0
LINE
  8
型材断面
  6
CONTINUOUS
 62
    47
 10
111.580595
 20
58.065712
 11
110.88391
 21
58.065712
  0
LINE
  8
型材断面
  6
CONTINUOUS
 62
    47
 10
112.71692
 20
59.33252
 11
112.883547
 21
59.33252
  0
LINE
  8
型材断面
  6
CONTINUOUS
 62
    47
 10
113.783925
 20
57.855853
 11
113.773925
 21
57.865853
  0
LINE
  8
型材断面
  6
CONTINUOUS
 62
    47
 10
113.783925
 20
57.855853
 11
113.793925
 21
57.865853
  0
LINE
  8
型材断面
  6
CONTINUOUS
 62
    47
 10
114.250598
 20
57.855853
 11
114.240597
 21
57.865853
  0
LINE
  8
型材断面
  6
CONTINUOUS
 62
    47
 10
114.250598
 20
57.855853
 11
114.260598
 21
57.865853
  0
LINE
  8
型材断面
  6
CONTINUOUS
 62
    47
 10
113.150573
 20
57.865853
 11
113.773925
 21
57.865853
  0
LINE
  8
型材断面
  6
CONTINUOUS
 62
    47
 10
113.793925
 20
57.865853
 11
114.240597
 21
57.865853
  0
LINE
  8
型材断面
  6
CONTINUOUS
 62
    47
 10
115.050583
 20
60.065853
 11
115.550583
 21
60.065853
  0
LINE
  8
型材断面
  6
CONTINUOUS
 62
    47
 10
115.883915
 20
59.56586
 11
115.550583
 21
59.56586
  0
LINE
  8
型材断面
  6
CONTINUOUS
 62
    47
 10
115.050583
 20
60.065853
 11
114.883915
 21
57.865853
  0
LINE
  8
型材断面
  6
CONTINUOUS
 62
    47
 10
114.883915
 20
57.132378
 11
114.883915
 21
57.799185
  0
LINE
  8
型材断面
  6
CONTINUOUS
 62
    47
 10
114.783915
 20
57.855853
 11
114.773915
 21
57.865853
  0
LINE
  8
型材断面
  6
CONTINUOUS
 62
    47
 10
114.783915
 20
57.855853
 11
114.793915
 21
57.865853
  0
LINE
  8
型材断面
  6
CONTINUOUS
 62
    47
 10
114.883915
 20
57.865853
 11
114.793915
 21
57.865853
  0
LINE
  8
型材断面
  6
CONTINUOUS
 62
    47
 10
114.260598
 20
57.865853
 11
114.773915
 21
57.865853
  0
LINE
  8
型材断面
  6
CONTINUOUS
 62
    47
 10
113.150573
 20
59.33252
 11
113.017258
 21
59.33252
  0
LINE
  8
型材断面
  6
CONTINUOUS
 62
    47
 10
112.650595
 20
58.065712
 11
112.71692
 21
59.33252
  0
LINE
  8
型材断面
  6
CONTINUOUS
 62
    47
 10
110.88391
 20
58.065712
 11
110.88391
 21
35.065712
  0
LINE
  8
型材断面
  6
CONTINUOUS
 10
112.650595
 20
58.065712
 11
112.650595
 21
35.065712
  0
LINE
  8
型材断面
  6
CONTINUOUS
 10
112.71692
 20
59.33252
 11
112.71692
 21
35.065712
  0
LINE
  8
型材断面
  6
CONTINUOUS
 62
    47
 10
113.017258
 20
59.33252
 11
113.017258
 21
35.065712
  0
LINE
  8
型材断面
  6
CONTINUOUS
 62
    47
 10
113.150573
 20
59.33252
 11
113.150573
 21
35.065712
  0
LINE
  8
型材断面
  6
CONTINUOUS
 62
    47
 10
112.883547
 20
59.33252
 11
112.883547
 21
35.065712
  0
LINE
  8
型材断面
  6
CONTINUOUS
 10
114.883915
 20
57.865853
 11
114.883915
 21
35.065712
  0
LINE
  8
型材断面
  6
CONTINUOUS
 10
115.050583
 20
60.065853
 11
115.050583
 21
35.065712
  0
LINE
  8
型材断面
  6
CONTINUOUS
 62
    47
 10
115.550583
 20
60.065853
 11
115.550583
 21
35.065712
  0
LINE
  8
型材断面
  6
CONTINUOUS
 62
    47
 10
115.883915
 20
59.56586
 11
115.883915
 21
35.065712
  0
LINE
  8
型材断面
  6
CONTINUOUS
 62
    47
 10
111.590595
 20
12.075713
 11
111.580595
 21
12.065712
  0
LINE
  8
型材断面
  6
CONTINUOUS
 62
    47
 10
111.590595
 20
12.075713
 11
111.600595
 21
12.065712
  0
LINE
  8
型材断面
  6
CONTINUOUS
 62
    47
 10
112.232827
 20
12.075713
 11
112.222827
 21
12.065712
  0
LINE
  8
型材断面
  6
CONTINUOUS
 62
    47
 10
112.232827
 20
12.075713
 11
112.242828
 21
12.065712
  0
LINE
  8
型材断面
  6
CONTINUOUS
 62
    47
 10
112.650595
 20
12.065712
 11
112.242828
 21
12.065712
  0
LINE
  8
型材断面
  6
CONTINUOUS
 62
    47
 10
112.222827
 20
12.065712
 11
111.600595
 21
12.065712
  0
LINE
  8
型材断面
  6
CONTINUOUS
 62
    47
 10
111.580595
 20
12.065712
 11
110.88391
 21
12.065712
  0
LINE
  8
型材断面
  6
CONTINUOUS
 62
    47
 10
112.71692
 20
10.798905
 11
112.883547
 21
10.798905
  0
LINE
  8
型材断面
  6
CONTINUOUS
 62
    47
 10
113.783925
 20
12.275573
 11
113.773925
 21
12.265573
  0
LINE
  8
型材断面
  6
CONTINUOUS
 62
    47
 10
113.783925
 20
12.275573
 11
113.793925
 21
12.265573
  0
LINE
  8
型材断面
  6
CONTINUOUS
 62
    47
 10
114.250598
 20
12.275573
 11
114.240597
 21
12.265573
  0
LINE
  8
型材断面
  6
CONTINUOUS
 62
    47
 10
114.250598
 20
12.275573
 11
114.260598
 21
12.265573
  0
LINE
  8
型材断面
  6
CONTINUOUS
 62
    47
 10
113.150573
 20
12.265573
 11
113.773925
 21
12.265573
  0
LINE
  8
型材断面
  6
CONTINUOUS
 62
    47
 10
113.793925
 20
12.265573
 11
114.240597
 21
12.265573
  0
LINE
  8
型材断面
  6
CONTINUOUS
 62
    47
 10
115.050583
 20
10.065573
 11
115.550583
 21
10.065573
  0
LINE
  8
型材断面
  6
CONTINUOUS
 62
    47
 10
115.883915
 20
10.565565
 11
115.550583
 21
10.565565
  0
LINE
  8
型材断面
  6
CONTINUOUS
 62
    47
 10
115.050583
 20
10.065573
 11
114.883915
 21
12.265573
  0
LINE
  8
型材断面
  6
CONTINUOUS
 62
    47
 10
114.883915
 20
12.999048
 11
114.883915
 21
12.33224
  0
LINE
  8
型材断面
  6
CONTINUOUS
 62
    47
 10
114.783915
 20
12.275573
 11
114.773915
 21
12.265573
  0
LINE
  8
型材断面
  6
CONTINUOUS
 62
    47
 10
114.783915
 20
12.275573
 11
114.793915
 21
12.265573
  0
LINE
  8
型材断面
  6
CONTINUOUS
 62
    47
 10
114.883915
 20
12.265573
 11
114.793915
 21
12.265573
  0
LINE
  8
型材断面
  6
CONTINUOUS
 62
    47
 10
114.260598
 20
12.265573
 11
114.773915
 21
12.265573
  0
LINE
  8
型材断面
  6
CONTINUOUS
 62
    47
 10
113.150573
 20
10.798905
 11
113.017258
 21
10.798905
  0
LINE
  8
型材断面
  6
CONTINUOUS
 62
    47
 10
112.650595
 20
12.065712
 11
112.71692
 21
10.798905
  0
LINE
  8
型材断面
  6
CONTINUOUS
 62
    47
 10
110.88391
 20
12.065712
 11
110.88391
 21
35.065712
  0
LINE
  8
型材断面
  6
CONTINUOUS
 10
112.650595
 20
12.065712
 11
112.650595
 21
35.065712
  0
LINE
  8
型材断面
  6
CONTINUOUS
 10
112.71692
 20
10.798905
 11
112.71692
 21
35.065712
  0
LINE
  8
型材断面
  6
CONTINUOUS
 62
    47
 10
113.017258
 20
10.798905
 11
113.017258
 21
35.065712
  0
LINE
  8
型材断面
  6
CONTINUOUS
 62
    47
 10
113.150573
 20
10.798905
 11
113.150573
 21
35.065712
  0
LINE
  8
型材断面
  6
CONTINUOUS
 62
    47
 10
112.883547
 20
10.798905
 11
112.883547
 21
35.065712
  0
LINE
  8
型材断面
  6
CONTINUOUS
 10
114.883915
 20
12.265573
 11
114.883915
 21
35.065712
  0
LINE
  8
型材断面
  6
CONTINUOUS
 10
115.050583
 20
10.065573
 11
115.050583
 21
35.065712
  0
LINE
  8
型材断面
  6
CONTINUOUS
 62
    47
 10
115.550583
 20
10.065573
 11
115.550583
 21
35.065712
  0
LINE
  8
型材断面
  6
CONTINUOUS
 62
    47
 10
115.883915
 20
10.565565
 11
115.883915
 21
35.065712
  0
LINE
  8
型材断面
  6
CONTINUOUS
 10
109.200703
 20
11.869035
 11
110.700703
 21
11.869035
  0
LINE
  8
型材断面
  6
CONTINUOUS
 10
109.200703
 20
11.712515
 11
109.034035
 21
11.712515
  0
LINE
  8
型材断面
  6
CONTINUOUS
 62
    47
 10
110.700703
 20
11.869035
 11
110.700703
 21
35.065712
  0
LINE
  8
型材断面
  6
CONTINUOUS
 62
    47
 10
109.034035
 20
11.712515
 11
109.034035
 21
35.065712
  0
LINE
  8
型材断面
  6
CONTINUOUS
 62
    47
 10
109.200703
 20
11.712515
 11
109.200703
 21
35.065712
  0
LINE
  8
型材断面
  6
CONTINUOUS
 10
109.200703
 20
58.26239
 11
110.700703
 21
58.26239
  0
LINE
  8
型材断面
  6
CONTINUOUS
 10
109.200703
 20
58.41891
 11
109.034035
 21
58.41891
  0
LINE
  8
型材断面
  6
CONTINUOUS
 62
    47
 10
110.700703
 20
58.26239
 11
110.700703
 21
35.065712
  0
LINE
  8
型材断面
  6
CONTINUOUS
 62
    47
 10
109.034035
 20
58.41891
 11
109.034035
 21
35.065712
  0
LINE
  8
型材断面
  6
CONTINUOUS
 62
    47
 10
109.200703
 20
58.41891
 11
109.200703
 21
35.065712
  0
LINE
  8
型材断面
  6
DOT
 62
    47
 10
110.840658
 20
59.479183
 11
110.840658
 21
59.493325
  0
LINE
  8
型材断面
  6
DOT
 62
    47
 10
110.840658
 20
59.479183
 11
110.8548
 21
59.479183
  0
LINE
  8
型材断面
  6
DOT
 62
    47
 10
111.294782
 20
59.025055
 11
111.294782
 21
59.0392
  0
LINE
  8
型材断面
  6
DOT
 62
    47
 10
111.294782
 20
59.025055
 11
111.308925
 21
59.025055
  0
LINE
  8
型材断面
  6
DOT
 62
    47
 10
111.597263
 20
58.73672
 11
111.308925
 21
59.025055
  0
LINE
  8
型材断面
  6
DOT
 62
    47
 10
111.294782
 20
59.0392
 11
110.8548
 21
59.479183
  0
LINE
  8
型材断面
  6
DOT
 62
    47
 10
110.840658
 20
59.493325
 11
110.348027
 21
59.985955
  0
LINE
  8
型材断面
  6
DOT
 62
    47
 10
112.539927
 20
59.58559
 11
112.657753
 21
59.467765
  0
LINE
  8
型材断面
  6
DOT
 62
    47
 10
111.597263
 20
58.73672
 11
112.539927
 21
59.58559
  0
LINE
  8
型材断面
  6
DOT
 62
    47
 10
110.348027
 20
59.985955
 11
94.08457
 21
43.7225
  0
LINE
  8
型材断面
  6
DOT
 10
111.597263
 20
58.73672
 11
95.333805
 21
42.473265
  0
LINE
  8
型材断面
  6
DOT
 10
112.539927
 20
59.58559
 11
95.380705
 21
42.426365
  0
LINE
  8
型材断面
  6
DOT
 62
    47
 10
112.657753
 20
59.467765
 11
95.498527
 21
42.308542
  0
LINE
  8
型材断面
  6
DOT
 62
    47
 10
78.327888
 20
26.966412
 11
78.313745
 21
26.966412
  0
LINE
  8
型材断面
  6
DOT
 62
    47
 10
78.327888
 20
26.966412
 11
78.327888
 21
26.95227
  0
LINE
  8
型材断面
  6
DOT
 62
    47
 10
78.782013
 20
26.512285
 11
78.767872
 21
26.512285
  0
LINE
  8
型材断面
  6
DOT
 62
    47
 10
78.782013
 20
26.512285
 11
78.782013
 21
26.498145
  0
LINE
  8
型材断面
  6
DOT
 62
    47
 10
79.07035
 20
26.20981
 11
78.782013
 21
26.498145
  0
LINE
  8
型材断面
  6
DOT
 62
    47
 10
78.767872
 20
26.512285
 11
78.327888
 21
26.95227
  0
LINE
  8
型材断面
  6
DOT
 62
    47
 10
78.313745
 20
26.966412
 11
77.821115
 21
27.459045
  0
LINE
  8
型材断面
  6
DOT
 62
    47
 10
78.22148
 20
25.26714
 11
78.339302
 21
25.149317
  0
LINE
  8
型材断面
  6
DOT
 62
    47
 10
79.07035
 20
26.20981
 11
78.22148
 21
25.26714
  0
LINE
  8
型材断面
  6
DOT
 62
    47
 10
78.012027
 20
27.649955
 11
77.846955
 21
27.815027
  0
LINE
  8
型材断面
  6
DOT
 62
    47
 10
77.821115
 20
27.459045
 11
94.08457
 21
43.7225
  0
LINE
  8
型材断面
  6
DOT
 10
79.07035
 20
26.20981
 11
95.333805
 21
42.473265
  0
LINE
  8
型材断面
  6
DOT
 10
78.22148
 20
25.26714
 11
95.380705
 21
42.426365
  0
LINE
  8
型材断面
  6
DOT
 62
    47
 10
78.339302
 20
25.149317
 11
95.498527
 21
42.308542
  0
LINE
  8
型材断面
  6
DOT
 62
    47
 10
110.157115
 20
59.795045
 11
109.886147
 21
60.06601
  0
LINE
  8
型材断面
  6
DOT
 10
76.491835
 20
28.51018
 11
77.552495
 21
27.44952
  0
LINE
  8
型材断面
  6
DOT
 10
76.381157
 20
28.399503
 11
76.263307
 21
28.517355
  0
LINE
  8
型材断面
  6
DOT
 62
    47
 10
77.552495
 20
27.44952
 11
93.955023
 21
43.852047
  0
LINE
  8
型材断面
  6
DOT
 62
    47
 10
76.263307
 20
28.517355
 11
92.776512
 21
45.03056
  0
LINE
  8
型材断面
  6
DOT
 62
    47
 10
76.381157
 20
28.399503
 11
92.894362
 21
44.912708
  0
LINE
  8
型材断面
  6
DOT
 10
109.29689
 20
61.315235
 11
110.35755
 21
60.254575
  0
LINE
  8
型材断面
  6
DOT
 10
109.407568
 20
61.425913
 11
109.289718
 21
61.543765
  0
LINE
  8
型材断面
  6
DOT
 62
    47
 10
110.35755
 20
60.254575
 11
93.955023
 21
43.852047
  0
LINE
  8
型材断面
  6
DOT
 62
    47
 10
109.289718
 20
61.543765
 11
92.776512
 21
45.03056
  0
LINE
  8
型材断面
  6
DOT
 62
    47
 10
109.407568
 20
61.425913
 11
92.894362
 21
44.912708
  0
LINE
  8
型材断面
  6
CONTINUOUS
 10
22.8649
 20
-79.174835
 11
22.8649
 21
-80.674835
  0
LINE
  8
型材断面
  6
CONTINUOUS
 10
23.02142
 20
-79.174835
 11
23.02142
 21
-79.008168
  0
LINE
  8
型材断面
  6
CONTINUOUS
 62
    47
 10
23.02142
 20
-79.174835
 11
-36.998442
 21
-79.174835
  0
LINE
  8
型材断面
  6
CONTINUOUS
 62
    47
 10
23.02142
 20
-79.008168
 11
-36.998442
 21
-79.008168
  0
LINE
  8
型材断面
  6
CONTINUOUS
 62
    47
 10
22.8649
 20
-80.674835
 11
-36.998442
 21
-80.674835
  0
LINE
  8
型材断面
  6
CONTINUOUS
 10
-96.861785
 20
-79.174835
 11
-96.861785
 21
-80.674835
  0
LINE
  8
型材断面
  6
CONTINUOUS
 10
-97.018305
 20
-79.174835
 11
-97.018305
 21
-79.008168
  0
LINE
  8
型材断面
  6
CONTINUOUS
 62
    47
 10
-97.018305
 20
-79.174835
 11
-36.998442
 21
-79.174835
  0
LINE
  8
型材断面
  6
CONTINUOUS
 62
    47
 10
-97.018305
 20
-79.008168
 11
-36.998442
 21
-79.008168
  0
LINE
  8
型材断面
  6
CONTINUOUS
 62
    47
 10
-96.861785
 20
-80.674835
 11
-36.998442
 21
-80.674835
  0
LINE
  8
型材断面
  6
CONTINUOUS
 10
23.93489
 20
10.799048
 11
-36.998442
 21
10.799025
  0
LINE
  8
型材断面
  6
CONTINUOUS
 10
23.93489
 20
59.332382
 11
-36.998442
 21
59.332405
  0
LINE
  8
型材断面
  6
CONTINUOUS
 10
-97.931775
 20
59.332382
 11
-36.998442
 21
59.332405
  0
LINE
  8
型材断面
  6
CONTINUOUS
 10
-97.931775
 20
10.799048
 11
-36.998442
 21
10.799025
  0
LINE
  8
型材断面
  6
CONTINUOUS
 62
    47
 10
22.398233
 20
-80.858043
 11
22.398233
 21
-80.674835
  0
LINE
  8
型材断面
  6
CONTINUOUS
 62
    47
 10
-96.395118
 20
-80.858043
 11
-96.395118
 21
-80.674835
  0
LINE
  8
型材断面
  6
CONTINUOUS
 62
    47
 10
110.88391
 20
12.335702
 11
110.700703
 21
12.335702
  0
LINE
  8
型材断面
  6
CONTINUOUS
 62
    47
 10
110.88391
 20
57.795723
 11
110.700703
 21
57.795723
  0
LINE
  8
型材断面
  6
DASHDOT
 10
-17.345107
 20
13.399048
 11
-17.345107
 21
56.73238
  0
LINE
  8
型材断面
  6
CONTINUOUS
 10
-16.095107
 20
15.045977
 11
-18.595107
 21
15.045977
  0
LINE
  8
型材断面
  6
CONTINUOUS
 10
-16.095107
 20
55.085453
 11
-18.595107
 21
55.085453
  0
LINE
  8
型材断面
  6
CONTINUOUS
 10
-16.095107
 20
15.045977
 11
-16.095107
 21
55.085453
  0
LINE
  8
型材断面
  6
CONTINUOUS
 10
-18.595107
 20
15.045977
 11
-18.595107
 21
55.085453
  0
LINE
  8
型材断面
  6
CONTINUOUS
 10
24.668362
 20
10.065575
 11
24.668362
 21
35.065715
  0
LINE
  8
型材断面
  6
CONTINUOUS
 10
24.668362
 20
60.065855
 11
24.668362
 21
35.065715
  0
LINE
  8
型材断面
  6
CONTINUOUS
 10
23.93503
 20
10.798907
 11
23.93503
 21
35.065715
  0
LINE
  8
型材断面
  6
CONTINUOUS
 10
23.93503
 20
59.332523
 11
23.93503
 21
35.065715
  0
LINE
  8
型材断面
  6
CONTINUOUS
 10
22.785722
 20
11.71251
 11
23.02142
 21
11.948217
  0
LINE
  8
型材断面
  6
CONTINUOUS
 10
24.668362
 20
10.065575
 11
22.903572
 21
11.830365
  0
LINE
  8
型材断面
  6
CONTINUOUS
 10
20.285717
 20
14.21251
 11
22.785715
 21
11.712517
  0
LINE
  8
型材断面
  6
CONTINUOUS
 10
20.52142
 20
14.448213
 11
23.02142
 21
11.948217
  0
LINE
  8
型材断面
  6
CONTINUOUS
 10
23.02142
 20
35.065715
 11
23.02142
 21
11.948217
  0
LINE
  8
型材断面
  6
CONTINUOUS
 10
20.285722
 20
14.212517
 11
20.52142
 21
14.448213
  0
LINE
  8
型材断面
  6
CONTINUOUS
 10
22.785722
 20
58.41892
 11
23.02142
 21
58.183213
  0
LINE
  8
型材断面
  6
CONTINUOUS
 10
20.52142
 20
55.683217
 11
20.285722
 21
55.918913
  0
LINE
  8
型材断面
  6
CONTINUOUS
 10
20.52142
 20
55.683217
 11
23.02142
 21
58.183213
  0
LINE
  8
型材断面
  6
CONTINUOUS
 10
23.02142
 20
35.065715
 11
23.02142
 21
58.183213
  0
LINE
  8
型材断面
  6
CONTINUOUS
 10
20.285717
 20
55.91892
 11
22.785715
 21
58.418913
  0
LINE
  8
型材断面
  6
CONTINUOUS
 10
24.668362
 20
60.065855
 11
22.903572
 21
58.301065
  0
LINE
  8
型材断面
  6
CONTINUOUS
 10
20.521428
 20
34.649048
 11
23.02143
 21
34.649048
  0
LINE
  8
型材断面
  6
CONTINUOUS
 10
20.521428
 20
35.482382
 11
23.02143
 21
35.482382
  0
LINE
  8
型材断面
  6
CONTINUOUS
 10
20.52142
 20
35.482382
 11
20.52142
 21
55.683217
  0
LINE
  8
型材断面
  6
CONTINUOUS
 10
20.52142
 20
14.448213
 11
20.52142
 21
34.649048
  0
LINE
  8
型材断面
  6
CONTINUOUS
 10
-36.998442
 20
58.418795
 11
22.785575
 21
58.418772
  0
LINE
  8
型材断面
  6
CONTINUOUS
 10
-36.998442
 20
11.712635
 11
22.785575
 21
11.712658
  0
LINE
  8
型材断面
  6
CONTINUOUS
 10
2.411557
 20
14.21265
 11
2.411557
 21
11.71265
  0
LINE
  8
型材断面
  6
CONTINUOUS
 10
1.578225
 20
14.21265
 11
1.578225
 21
11.71265
  0
LINE
  8
型材断面
  6
CONTINUOUS
 10
2.411557
 20
14.212652
 11
20.28557
 21
14.212658
  0
LINE
  8
型材断面
  6
CONTINUOUS
 10
-36.581778
 20
14.21265
 11
-36.581778
 21
11.71265
  0
LINE
  8
型材断面
  6
CONTINUOUS
 10
-37.41511
 20
14.21265
 11
-37.41511
 21
11.71265
  0
LINE
  8
型材断面
  6
CONTINUOUS
 10
-36.581778
 20
55.91878
 11
-36.581778
 21
58.41878
  0
LINE
  8
型材断面
  6
CONTINUOUS
 10
-37.41511
 20
55.91878
 11
-37.41511
 21
58.41878
  0
LINE
  8
型材断面
  6
CONTINUOUS
 10
1.578225
 20
14.21265
 11
-36.581778
 21
14.212637
  0
LINE
  8
型材断面
  6
CONTINUOUS
 10
2.411557
 20
55.91878
 11
2.411557
 21
58.41878
  0
LINE
  8
型材断面
  6
CONTINUOUS
 10
1.578225
 20
55.91878
 11
1.578225
 21
58.41878
  0
LINE
  8
型材断面
  6
CONTINUOUS
 10
-36.581778
 20
55.918793
 11
1.578225
 21
55.91878
  0
LINE
  8
型材断面
  6
CONTINUOUS
 10
2.411557
 20
55.91878
 11
20.28557
 21
55.918772
  0
LINE
  8
型材断面
  6
DASHDOT
 10
-56.651778
 20
13.399048
 11
-56.651778
 21
56.73238
  0
LINE
  8
型材断面
  6
CONTINUOUS
 10
-57.901778
 20
15.045977
 11
-55.401778
 21
15.045977
  0
LINE
  8
型材断面
  6
CONTINUOUS
 10
-57.901778
 20
55.085453
 11
-55.401778
 21
55.085453
  0
LINE
  8
型材断面
  6
CONTINUOUS
 10
-57.901778
 20
15.045977
 11
-57.901778
 21
55.085453
  0
LINE
  8
型材断面
  6
CONTINUOUS
 10
-55.401778
 20
15.045977
 11
-55.401778
 21
55.085453
  0
LINE
  8
型材断面
  6
CONTINUOUS
 10
-98.665247
 20
10.065575
 11
-98.665247
 21
35.065715
  0
LINE
  8
型材断面
  6
CONTINUOUS
 10
-98.665247
 20
60.065855
 11
-98.665247
 21
35.065715
  0
LINE
  8
型材断面
  6
CONTINUOUS
 10
-97.931915
 20
10.798907
 11
-97.931915
 21
35.065715
  0
LINE
  8
型材断面
  6
CONTINUOUS
 10
-97.931915
 20
59.332523
 11
-97.931915
 21
35.065715
  0
LINE
  8
型材断面
  6
CONTINUOUS
 10
-96.782607
 20
11.71251
 11
-97.018305
 21
11.948217
  0
LINE
  8
型材断面
  6
CONTINUOUS
 10
-98.665247
 20
10.065575
 11
-96.900457
 21
11.830365
  0
LINE
  8
型材断面
  6
CONTINUOUS
 10
-94.282603
 20
14.21251
 11
-96.7826
 21
11.712517
  0
LINE
  8
型材断面
  6
CONTINUOUS
 10
-94.518305
 20
14.448213
 11
-97.018305
 21
11.948217
  0
LINE
  8
型材断面
  6
CONTINUOUS
 10
-97.018305
 20
35.065715
 11
-97.018305
 21
11.948217
  0
LINE
  8
型材断面
  6
CONTINUOUS
 10
-94.282607
 20
14.212517
 11
-94.518305
 21
14.448213
  0
LINE
  8
型材断面
  6
CONTINUOUS
 10
-96.782607
 20
58.41892
 11
-97.018305
 21
58.183213
  0
LINE
  8
型材断面
  6
CONTINUOUS
 10
-94.518305
 20
55.683217
 11
-94.282607
 21
55.918913
  0
LINE
  8
型材断面
  6
CONTINUOUS
 10
-94.518305
 20
55.683217
 11
-97.018305
 21
58.183213
  0
LINE
  8
型材断面
  6
CONTINUOUS
 10
-97.018305
 20
35.065715
 11
-97.018305
 21
58.183213
  0
LINE
  8
型材断面
  6
CONTINUOUS
 10
-94.282603
 20
55.91892
 11
-96.7826
 21
58.418913
  0
LINE
  8
型材断面
  6
CONTINUOUS
 10
-98.665247
 20
60.065855
 11
-96.900457
 21
58.301065
  0
LINE
  8
型材断面
  6
CONTINUOUS
 10
-94.518312
 20
34.649048
 11
-97.018315
 21
34.649048
  0
LINE
  8
型材断面
  6
CONTINUOUS
 10
-94.518312
 20
35.482382
 11
-97.018315
 21
35.482382
  0
LINE
  8
型材断面
  6
CONTINUOUS
 10
-94.518305
 20
35.482382
 11
-94.518305
 21
55.683217
  0
LINE
  8
型材断面
  6
CONTINUOUS
 10
-94.518305
 20
14.448213
 11
-94.518305
 21
34.649048
  0
LINE
  8
型材断面
  6
CONTINUOUS
 10
-76.408443
 20
14.21265
 11
-76.408443
 21
11.71265
  0
LINE
  8
型材断面
  6
CONTINUOUS
 10
-75.57511
 20
14.21265
 11
-75.57511
 21
11.71265
  0
LINE
  8
型材断面
  6
CONTINUOUS
 10
-76.408443
 20
14.212652
 11
-94.282455
 21
14.212658
  0
LINE
  8
型材断面
  6
CONTINUOUS
 10
-76.408443
 20
55.91878
 11
-76.408443
 21
58.41878
  0
LINE
  8
型材断面
  6
CONTINUOUS
 10
-75.57511
 20
55.91878
 11
-75.57511
 21
58.41878
  0
LINE
  8
型材断面
  6
CONTINUOUS
 10
-76.408443
 20
55.91878
 11
-94.282455
 21
55.918772
  0
LINE
  8
型材断面
  6
CONTINUOUS
 10
-36.998442
 20
58.418795
 11
-96.78246
 21
58.418772
  0
LINE
  8
型材断面
  6
CONTINUOUS
 10
-36.998442
 20
11.712635
 11
-96.78246
 21
11.712658
  0
LINE
  8
型材断面
  6
CONTINUOUS
 10
-37.41511
 20
55.918793
 11
-75.57511
 21
55.91878
  0
LINE
  8
型材断面
  6
CONTINUOUS
 10
-37.41511
 20
14.212637
 11
-75.57511
 21
14.21265
  0
LINE
  8
ガラス
  6
CONTINUOUS
 10
157.91659
 20
-84.654215
 11
157.91659
 21
-41.154215
  0
LINE
  8
ガラス
  6
CONTINUOUS
 10
157.91659
 20
-41.154215
 11
119.683258
 21
-41.154215
  0
LINE
  8
ガラス
  6
CONTINUOUS
 10
119.683258
 20
-41.154215
 11
119.683258
 21
-84.654215
  0
LINE
  8
ガラス
  6
CONTINUOUS
 10
157.91659
 20
-84.654215
 11
119.683258
 21
-84.654215
  0
TEXT
  7
TextStyle03
  8
文字
  6
CONTINUOUS
 10
-133.4
 20
98.85
  1
は排水穴位置を示す
 40
3.0
 72
     5
 11
-103.4
 21
98.85
  0
TEXT
  7
TextStyle03
  8
文字
  6
CONTINUOUS
 10
-133.4
 20
93.325
  1
はケーシング位置を示す
 40
3.0
 72
     5
 11
-96.65
 21
93.325
  0
TEXT
  7
TextStyle03
  8
文字
  6
CONTINUOUS
 10
-133.4
 20
89.95
  1
２ヶ所中1ヶ所に設定
 40
3.0
 72
     5
 11
-101.7125
 21
89.95
  0
TEXT
  7
TextStyle03
  8
文字
  6
CONTINUOUS
 10
67.45
 20
97.05
  1
ＮＳコード：ＮＳＦＨＺ
 40
5.0
 72
     5
 11
128.7
 21
97.05
  0
TEXT
  7
TextStyle03
  8
文字
  6
CONTINUOUS
 10
139.525
 20
-78.225
  1
網入り6.8t
 40
3.0
 72
     5
 11
156.2125
 21
-78.225
  0
TEXT
  7
TextStyle03
  8
文字
  6
CONTINUOUS
 10
146.2
 20
-82.9
  1
×３枚
 40
3.0
 72
     5
 11
155.95
 21
-82.9
  0
TEXT
  7
TextStyle03
  8
文字
  6
CONTINUOUS
 10
-132.825
 20
23.975
  1
アンカーピッチ
 40
3.0
 50
90.0
 72
     5
 11
-132.825
 21
47.225
  0
TEXT
  7
TextStyle03
  8
文字
  6
CONTINUOUS
 10
-84.175
 20
93.675
  1
アンカーピッチ
 40
3.0
 72
     5
 11
-60.925
 21
93.675
  0
TEXT
  7
TextStyle03
  8
文字
  6
CONTINUOUS
 10
-137.125
 20
83.975
  1
アンカー数量　１４ヶ所
 40
3.0
 72
     5
 11
-100.375
 21
83.975
  0
TEXT
  7
TextStyle03
  8
文字
  6
CONTINUOUS
 10
97.25
 20
4.675
  1
45°
 40
3.0
 50
90.0
 72
     5
 11
97.25
 21
11.05
  0
TEXT
  7
TextStyle03
  8
文字
  6
CONTINUOUS
 10
67.475
 20
124.525
  1
シリーズ：ＴＦ２ＦＨＬ
 40
5.0
 72
     5
 11
128.725
 21
124.525
  0
TEXT
  7
TextStyle03
  8
文字
  6
CONTINUOUS
 10
67.475
 20
118.9
  1
　　　　　（片側開閉）1300×3500タイプ
 40
5.0
 72
     5
 11
173.725
 21
118.9
  0
TEXT
  7
TextStyle03
  8
文字
  6
CONTINUOUS
 10
67.475
 20
113.275
  1

 40
5.0
 41
1.125
  0
TEXT
  7
TextStyle03
  8
文字
  6
CONTINUOUS
 10
67.475
 20
107.65
  1
図面名　：外観姿図
 40
5.0
 72
     5
 11
117.475
 21
107.65
  0
INSERT
  2
*DIM_0002
  8
寸法
  6
CONTINUOUS
 10
0.0
 20
0.0
  0
INSERT
  2
*DIM_0003
  8
寸法
  6
CONTINUOUS
 10
0.0
 20
0.0
  0
INSERT
  2
*DIM_0004
  8
寸法
  6
CONTINUOUS
 10
0.0
 20
0.0
  0
INSERT
  2
*DIM_0005
  8
寸法
  6
CONTINUOUS
 10
0.0
 20
0.0
  0
INSERT
  2
*DIM_0006
  8
寸法
  6
CONTINUOUS
 10
0.0
 20
0.0
  0
INSERT
  2
*DIM_0007
  8
寸法
  6
CONTINUOUS
 10
0.0
 20
0.0
  0
INSERT
  2
*DIM_0008
  8
寸法
  6
CONTINUOUS
 10
0.0
 20
0.0
  0
INSERT
  2
*DIM_0009
  8
寸法
  6
CONTINUOUS
 10
0.0
 20
0.0
  0
INSERT
  2
*DIM_0010
  8
寸法
  6
CONTINUOUS
 10
0.0
 20
0.0
  0
INSERT
  2
*DIM_0011
  8
寸法
  6
CONTINUOUS
 10
0.0
 20
0.0
  0
INSERT
  2
*DIM_0012
  8
寸法
  6
CONTINUOUS
 10
0.0
 20
0.0
  0
INSERT
  2
*DIM_0013
  8
寸法
  6
CONTINUOUS
 10
0.0
 20
0.0
  0
INSERT
  2
*DIM_0014
  8
寸法
  6
CONTINUOUS
 10
0.0
 20
0.0
  0
INSERT
  2
*DIM_0015
  8
寸法
  6
CONTINUOUS
 10
0.0
 20
0.0
  0
INSERT
  2
*DIM_0017
  8
寸法
  6
CONTINUOUS
 10
0.0
 20
0.0
  0
INSERT
  2
*GRP_0016
  8
別途部材
  6
CONTINUOUS
 10
0.0
 20
0.0
  0
LINE
  8
曲げ物
  6
CONTINUOUS
 10
6.06062
 20
37.022003
 11
2.365308
 21
33.32669
  0
LINE
  8
曲げ物
  6
CONTINUOUS
 10
5.35715
 20
35.485893
 11
3.90142
 21
34.030163
  0
LINE
  8
曲げ物
  6
CONTINUOUS
 10
4.52451
 20
36.318533
 11
3.06878
 21
34.862803
  0
LINE
  8
曲げ物
  6
CONTINUOUS
 10
-35.178425
 20
37.022003
 11
-38.873737
 21
33.32669
  0
LINE
  8
曲げ物
  6
CONTINUOUS
 10
-35.881895
 20
35.485893
 11
-37.337625
 21
34.030163
  0
LINE
  8
曲げ物
  6
CONTINUOUS
 10
-36.714535
 20
36.318533
 11
-38.170265
 21
34.862803
  0
LINE
  8
曲げ物
  6
CONTINUOUS
 10
-73.979577
 20
37.022003
 11
-77.67489
 21
33.32669
  0
LINE
  8
曲げ物
  6
CONTINUOUS
 10
-74.683047
 20
35.485893
 11
-76.138778
 21
34.030163
  0
LINE
  8
曲げ物
  6
CONTINUOUS
 10
-75.515687
 20
36.318533
 11
-76.971418
 21
34.862803
  0
ENDSEC
  0
EOF
