  0
SECTION
  2
HEADER
  9
$EXTMIN
 10
-210.0
 20
-148.5
  9
$EXTMAX
 10
210.0
 20
148.5
  9
$PDMODE
 70
    32
  9
$PDSIZE
 40
1.5
  9
$LTSCALE
 40
10.0
  0
ENDSEC
  0
SECTION
  2
TABLES
  0
TABLE
  2
LTYPE
 70
    15
  0
LTYPE
  2
CONTINUOUS
 70
    64
  3
実線
 72
    65
 73
     0
 40
0.0
  0
LTYPE
  2
DASHED
 70
    64
  3
破線A
 72
    65
 73
     2
 40
0.6
 49
0.4
 49
-0.2
  0
LTYPE
  2
DASHEDX2
 70
    64
  3
破線B
 72
    65
 73
     2
 40
1.3
 49
0.9
 49
-0.4
  0
LTYPE
  2
DASHDOT
 70
    64
  3
１点鎖線A
 72
    65
 73
     4
 40
0.5375
 49
0.375
 49
-0.05
 49
0.0625
 49
-0.05
  0
LTYPE
  2
DASHDOTX2
 70
    64
  3
１点鎖線B
 72
    65
 73
     4
 40
1.075
 49
0.75
 49
-0.1
 49
0.125
 49
-0.1
  0
LTYPE
  2
DIVIDE2
 70
    64
  3
２点鎖線A
 72
    65
 73
     6
 40
0.5125
 49
0.3
 49
-0.0375
 49
0.05
 49
-0.0375
 49
0.05
 49
-0.0375
  0
LTYPE
  2
DIVIDE
 70
    64
  3
２点鎖線B
 72
    65
 73
     6
 40
1.05
 49
0.55
 49
-0.1
 49
0.1
 49
-0.1
 49
0.1
 49
-0.1
  0
LTYPE
  2
DOT
 70
    64
  3
点線A
 72
    65
 73
     2
 40
0.1125
 49
0.0625
 49
-0.05
  0
LTYPE
  2
DOTX2
 70
    64
  3
点線B
 72
    65
 73
     2
 40
0.275
 49
0.15
 49
-0.125
  0
LTYPE
  2
CONTINUOUS
 70
    64
  3
実線
 72
    65
 73
     0
 40
0.0
  0
LTYPE
  2
CONTINUOUS
 70
    64
  3
実線
 72
    65
 73
     0
 40
0.0
  0
LTYPE
  2
CONTINUOUS
 70
    64
  3
実線
 72
    65
 73
     0
 40
0.0
  0
LTYPE
  2
CONTINUOUS
 70
    64
  3
実線
 72
    65
 73
     0
 40
0.0
  0
LTYPE
  2
CONTINUOUS
 70
    64
  3
実線
 72
    65
 73
     0
 40
0.0
  0
LTYPE
  2
CONTINUOUS
 70
    64
  3
実線
 72
    65
 73
     0
 40
0.0
  0
ENDTAB
  0
TABLE
  2
LAYER
 70
    34
  0
LAYER
  2
通り芯
 70
     0
 62
    15
  6
CONTINUOUS
  0
LAYER
  2
補助線
 70
     0
 62
    16
  6
DOT
  0
LAYER
  2
躯体
 70
     0
 62
    31
  6
CONTINUOUS
  0
LAYER
  2
型材
 70
     0
 62
    32
  6
CONTINUOUS
  0
LAYER
  2
型材断面
 70
     0
 62
    47
  6
CONTINUOUS
  0
LAYER
  2
ガラス
 70
     0
 62
    48
  6
CONTINUOUS
  0
LAYER
  2
ゴム等
 70
     0
 62
    63
  6
CONTINUOUS
  0
LAYER
  2
ボルト／ビス
 70
     0
 62
    64
  6
CONTINUOUS
  0
LAYER
  2
文字
 70
     0
 62
    79
  6
CONTINUOUS
  0
LAYER
  2
寸法
 70
     0
 62
    80
  6
CONTINUOUS
  0
LAYER
  2
ﾊｯﾁﾝｸﾞ
 70
     0
 62
    95
  6
CONTINUOUS
  0
LAYER
  2
別途部材
 70
     0
 62
    96
  6
CONTINUOUS
  0
LAYER
  2
曲げ物
 70
     0
 62
   111
  6
CONTINUOUS
  0
LAYER
  2
鉄骨等
 70
     0
 62
   112
  6
CONTINUOUS
  0
LAYER
  2
St
 70
     0
 62
   127
  6
CONTINUOUS
  0
LAYER
  2
その他部品等
 70
     0
 62
   128
  6
CONTINUOUS
  0
LAYER
  2
ｶﾞｽｹｯﾄ
 70
     0
 62
   143
  6
CONTINUOUS
  0
LAYER
  2
ｽｹｯﾁ
 70
     0
 62
    14
  6
CONTINUOUS
  0
LAYER
  2
0
 70
     0
 62
    17
  6
CONTINUOUS
  0
LAYER
  2
1
 70
     0
 62
    30
  6
CONTINUOUS
  0
LAYER
  2
4
 70
     0
 62
    33
  6
CONTINUOUS
  0
LAYER
  2
ﾚｲﾔ3
 70
     0
 62
    46
  6
CONTINUOUS
  0
LAYER
  2
外形線
 70
     0
 62
    49
  6
CONTINUOUS
  0
LAYER
  2
部品
 70
     0
 62
    14
  6
CONTINUOUS
  0
LAYER
  2
サッシ芯
 70
     0
 62
    17
  6
DASHDOTX2
  0
LAYER
  2
寸法線
 70
     0
 62
    62
  6
CONTINUOUS
  0
LAYER
  2
姿図外形線
 70
     0
 62
    65
  6
CONTINUOUS
  0
LAYER
  2
姿補助線
 70
     0
 62
    30
  6
CONTINUOUS
  0
LAYER
  2
透視線
 70
     0
 62
    78
  6
DOT
  0
LAYER
  2
用紙
 70
     0
 62
    81
  6
CONTINUOUS
  0
LAYER
  2
実線図枠
 70
     0
 62
    94
  6
CONTINUOUS
  0
LAYER
  2
補助図枠
 70
     0
 62
    97
  6
CONTINUOUS
  0
LAYER
  2
建具記号
 70
     0
 62
   110
  6
CONTINUOUS
  0
LAYER
  2
補助文字
 70
     0
 62
   113
  6
CONTINUOUS
  0
ENDTAB
  0
TABLE
  2
STYLE
 70
    10
  0
STYLE
  2
STANDARD
 70
     0
 40
1.0
 41
1.0
 42
1.0
 50
0.0
 71
     0
  3
TXT
  4
BIGFONT
  0
STYLE
  2
TATE
 70
     4
 40
1.0
 41
1.0
 42
1.0
 50
0.0
 71
     0
  3
TXT
  4
BIGFONT
  0
STYLE
  2
TextStyle03
 70
     0
 40
1.0
 41
1.0
 42
1.0
 50
0.0
 71
     0
  3
MONOTXT
  4
BIGFONT
  0
STYLE
  2
TextStyle04
 70
     0
 40
1.0
 41
1.0
 42
1.0
 50
0.0
 71
     0
  3
MONOTXT
  4
BIGFONT
  0
STYLE
  2
TextStyle05
 70
     0
 40
1.0
 41
1.0
 42
1.0
 50
0.0
 71
     0
  3
MONOTXT
  4
BIGFONT
  0
STYLE
  2
TextStyle06
 70
     0
 40
1.0
 41
1.0
 42
1.0
 50
0.0
 71
     0
  3
MONOTXT
  4
BIGFONT
  0
STYLE
  2
TextStyle07
 70
     0
 40
1.0
 41
1.0
 42
1.0
 50
0.0
 71
     0
  3
MONOTXT
  4
BIGFONT
  0
STYLE
  2
TextStyle08
 70
     0
 40
1.0
 41
1.0
 42
1.0
 50
0.0
 71
     0
  3
MONOTXT
  4
BIGFONT
  0
STYLE
  2
TextStyle09
 70
     0
 40
1.0
 41
1.0
 42
1.0
 50
0.0
 71
     0
  3
MONOTXT
  4
BIGFONT
  0
STYLE
  2
TextStyle10
 70
     0
 40
1.0
 41
1.0
 42
1.0
 50
0.0
 71
     0
  3
MONOTXT
  4
BIGFONT
  0
ENDTAB
  0
ENDSEC
  0
SECTION
  2
BLOCKS
  0
BLOCK
  2
*GRP_0001
 70
    65
 10
0.0
 20
0.0
  0
LINE
  8
型材断面
  6
CONTINUOUS
 10
195.0
 20
133.5
 11
195.0
 21
-133.5
  0
LINE
  8
型材断面
  6
CONTINUOUS
 10
195.0
 20
-133.5
 11
-185.0
 21
-133.5
  0
LINE
  8
型材断面
  6
CONTINUOUS
 10
-185.0
 20
-133.5
 11
-185.0
 21
133.5
  0
LINE
  8
型材断面
  6
CONTINUOUS
 10
195.0
 20
133.5
 11
-185.0
 21
133.5
  0
LINE
  8
型材断面
  6
CONTINUOUS
 10
145.0
 20
-133.5
 11
145.0
 21
-118.5
  0
LINE
  8
型材断面
  6
CONTINUOUS
 10
195.0
 20
-118.5
 11
145.0
 21
-118.5
  0
ENDBLK
  0
BLOCK
  2
*DIM_0002
 70
    65
 10
0.0
 20
0.0
  0
LINE
  8
寸法
  6
BYBLOCK
 62
     0
 10
-70.442275
 20
-16.511205
 11
-70.442275
 21
-13.121378
  0
LINE
  8
寸法
  6
BYBLOCK
 62
     0
 10
46.224393
 20
-13.121378
 11
-70.442275
 21
-13.121378
  0
POINT
  8
寸法
 62
     0
 10
46.224393
 20
-13.121378
  0
POINT
  8
寸法
 62
     0
 10
-70.442275
 20
-13.121378
  0
TEXT
  7
TextStyle03
  8
寸法
  6
CONTINUOUS
 62
     0
 10
-23.84375
 20
-12.75
  1
呼称寸法　3500
 40
3.0
 72
     5
 11
-0.40625
 21
-12.75
  0
ENDBLK
  0
BLOCK
  2
*DIM_0003
 70
    65
 10
0.0
 20
0.0
  0
LINE
  8
寸法
  6
BYBLOCK
 62
     0
 10
-53.775608
 20
19.183902
 11
-53.775608
 21
14.042105
  0
LINE
  8
寸法
  6
BYBLOCK
 62
     0
 10
29.557727
 20
19.183902
 11
29.557727
 21
14.042105
  0
LINE
  8
寸法
  6
BYBLOCK
 62
     0
 10
-53.775608
 20
14.042105
 11
29.557727
 21
14.042105
  0
POINT
  8
寸法
 62
     0
 10
-53.775608
 20
14.042105
  0
POINT
  8
寸法
 62
     0
 10
29.557727
 20
14.042105
  0
TEXT
  7
TextStyle03
  8
寸法
  6
CONTINUOUS
 62
     0
 10
-15.40625
 20
14.4
  1
2500
 40
3.0
 72
     5
 11
-8.84375
 21
14.4
  0
ENDBLK
  0
BLOCK
  2
*DIM_0004
 70
    65
 10
0.0
 20
0.0
  0
LINE
  8
寸法
  6
BYBLOCK
 62
     0
 10
44.224393
 20
17.20722
 11
44.224393
 21
14.182178
  0
LINE
  8
寸法
  6
BYBLOCK
 62
     0
 10
46.224393
 20
14.182178
 11
44.224393
 21
14.182178
  0
POINT
  8
寸法
 62
     0
 10
46.224393
 20
14.182178
  0
POINT
  8
寸法
 62
     0
 10
44.224393
 20
14.182178
  0
TEXT
  7
TextStyle03
  8
寸法
  6
CONTINUOUS
 62
     0
 10
42.33125
 20
10.4
  1
60
 40
3.0
 72
     5
 11
45.51875
 21
10.4
  0
ENDBLK
  0
BLOCK
  2
*DIM_0005
 70
    65
 10
0.0
 20
0.0
  0
LINE
  8
寸法
  6
BYBLOCK
 62
     0
 10
-68.442273
 20
17.20722
 11
-68.442273
 21
14.182178
  0
LINE
  8
寸法
  6
BYBLOCK
 62
     0
 10
-70.442273
 20
14.182178
 11
-68.442273
 21
14.182178
  0
POINT
  8
寸法
 62
     0
 10
-70.442273
 20
14.182178
  0
POINT
  8
寸法
 62
     0
 10
-68.442273
 20
14.182178
  0
TEXT
  7
TextStyle03
  8
寸法
  6
CONTINUOUS
 62
     0
 10
-69.74375
 20
10.4
  1
60
 40
3.0
 72
     5
 11
-66.55625
 21
10.4
  0
ENDBLK
  0
BLOCK
  2
*DIM_0006
 70
    65
 10
0.0
 20
0.0
  0
LINE
  8
寸法
  6
BYBLOCK
 62
     0
 10
49.557868
 20
-72.60973
 11
49.557868
 21
-13.121378
  0
LINE
  8
寸法
  6
BYBLOCK
 62
     0
 10
46.224393
 20
-13.121378
 11
49.557868
 21
-13.121378
  0
POINT
  8
寸法
 62
     0
 10
46.224393
 20
-13.121378
  0
POINT
  8
寸法
 62
     0
 10
49.557868
 20
-13.121378
  0
TEXT
  7
TextStyle03
  8
寸法
  6
CONTINUOUS
 62
     0
 10
50.7875
 20
-15.975
  1
100
 40
3.0
 72
     5
 11
55.6625
 21
-15.975
  0
ENDBLK
  0
BLOCK
  2
*DIM_0007
 70
    65
 10
0.0
 20
0.0
  0
LINE
  8
寸法
  6
BYBLOCK
 62
     0
 10
-73.775748
 20
-72.60973
 11
-73.775748
 21
-13.121378
  0
LINE
  8
寸法
  6
BYBLOCK
 62
     0
 10
-70.442273
 20
-13.121378
 11
-73.775748
 21
-13.121378
  0
POINT
  8
寸法
 62
     0
 10
-70.442273
 20
-13.121378
  0
POINT
  8
寸法
 62
     0
 10
-73.775748
 20
-13.121378
  0
TEXT
  7
TextStyle03
  8
寸法
  6
CONTINUOUS
 62
     0
 10
-79.8875
 20
-15.975
  1
100
 40
3.0
 72
     5
 11
-75.0125
 21
-15.975
  0
ENDBLK
  0
BLOCK
  2
*DIM_0008
 70
    65
 10
0.0
 20
0.0
  0
LINE
  8
寸法
  6
BYBLOCK
 62
     0
 10
80.244043
 20
22.814033
 11
80.244043
 21
42.814033
  0
POINT
  8
寸法
 62
     0
 10
80.244043
 20
22.814033
  0
POINT
  8
寸法
 62
     0
 10
80.244043
 20
42.814033
  0
TEXT
  7
TextStyle03
  8
寸法
  6
CONTINUOUS
 62
     0
 10
79.85
 20
21.925
  1
呼称寸法　600
 40
3.0
 50
90.0
 72
     5
 11
79.85
 21
43.675
  0
ENDBLK
  0
BLOCK
  2
*DIM_0009
 70
    65
 10
0.0
 20
0.0
  0
LINE
  8
寸法
  6
BYBLOCK
 62
     0
 10
138.157775
 20
46.147505
 11
80.244043
 21
46.147505
  0
LINE
  8
寸法
  6
BYBLOCK
 62
     0
 10
80.244043
 20
42.814033
 11
80.244043
 21
46.147505
  0
POINT
  8
寸法
 62
     0
 10
80.244043
 20
42.814033
  0
POINT
  8
寸法
 62
     0
 10
80.244043
 20
46.147505
  0
TEXT
  7
TextStyle03
  8
寸法
  6
CONTINUOUS
 62
     0
 10
83.225
 20
46.9625
  1
100
 40
3.0
 50
90.0
 72
     5
 11
83.225
 21
51.8375
  0
ENDBLK
  0
BLOCK
  2
*DIM_0010
 70
    65
 10
0.0
 20
0.0
  0
LINE
  8
寸法
  6
BYBLOCK
 62
     0
 10
138.157775
 20
19.48056
 11
80.244043
 21
19.48056
  0
LINE
  8
寸法
  6
BYBLOCK
 62
     0
 10
80.244043
 20
22.814033
 11
80.244043
 21
19.48056
  0
POINT
  8
寸法
 62
     0
 10
80.244043
 20
22.814033
  0
POINT
  8
寸法
 62
     0
 10
80.244043
 20
19.48056
  0
TEXT
  7
TextStyle03
  8
寸法
  6
CONTINUOUS
 62
     0
 10
83.225
 20
13.7875
  1
100
 40
3.0
 50
90.0
 72
     5
 11
83.225
 21
18.6625
  0
ENDBLK
  0
BLOCK
  2
*DIM_0011
 70
    65
 10
0.0
 20
0.0
  0
LINE
  8
寸法
  6
BYBLOCK
 62
     0
 10
119.683258
 20
-61.487547
 11
119.683258
 21
-56.085965
  0
LINE
  8
寸法
  6
BYBLOCK
 62
     0
 10
157.91659
 20
-61.487547
 11
157.91659
 21
-56.085965
  0
LINE
  8
寸法
  6
BYBLOCK
 62
     0
 10
119.683258
 20
-56.085965
 11
157.91659
 21
-56.085965
  0
POINT
  8
寸法
 62
     0
 10
119.683258
 20
-56.085965
  0
POINT
  8
寸法
 62
     0
 10
157.91659
 20
-56.085965
  0
TEXT
  7
TextStyle03
  8
寸法
  6
CONTINUOUS
 62
     0
 10
135.49375
 20
-55.725
  1
1147
 40
3.0
 72
     5
 11
142.05625
 21
-55.725
  0
ENDBLK
  0
BLOCK
  2
*DIM_0012
 70
    65
 10
0.0
 20
0.0
  0
LINE
  8
寸法
  6
BYBLOCK
 62
     0
 10
160.91659
 20
-84.654215
 11
166.877572
 21
-84.654215
  0
LINE
  8
寸法
  6
BYBLOCK
 62
     0
 10
160.91659
 20
-64.487547
 11
166.877572
 21
-64.487547
  0
LINE
  8
寸法
  6
BYBLOCK
 62
     0
 10
166.877572
 20
-84.654215
 11
166.877572
 21
-64.487547
  0
POINT
  8
寸法
 62
     0
 10
166.877572
 20
-84.654215
  0
POINT
  8
寸法
 62
     0
 10
166.877572
 20
-64.487547
  0
TEXT
  7
TextStyle03
  8
寸法
  6
CONTINUOUS
 62
     0
 10
166.5
 20
-77.0125
  1
605
 40
3.0
 50
90.0
 72
     5
 11
166.5
 21
-72.1375
  0
ENDBLK
  0
BLOCK
  2
*DIM_0013
 70
    65
 10
0.0
 20
0.0
  0
LINE
  8
寸法
  6
BYBLOCK
 62
     0
 10
-73.442275
 20
39.4807
 11
-86.735113
 21
39.4807
  0
LINE
  8
寸法
  6
BYBLOCK
 62
     0
 10
-73.442275
 20
26.147365
 11
-86.735113
 21
26.147365
  0
LINE
  8
寸法
  6
BYBLOCK
 62
     0
 10
-86.735113
 20
39.4807
 11
-86.735113
 21
26.147365
  0
POINT
  8
寸法
 62
     0
 10
-86.735113
 20
39.4807
  0
POINT
  8
寸法
 62
     0
 10
-86.735113
 20
26.147365
  0
TEXT
  7
TextStyle03
  8
寸法
  6
CONTINUOUS
 62
     0
 10
-87.15
 20
30.3625
  1
400
 40
3.0
 50
90.0
 72
     5
 11
-87.15
 21
35.2375
  0
ENDBLK
  0
BLOCK
  2
*DIM_0014
 70
    65
 10
0.0
 20
0.0
  0
LINE
  8
寸法
  6
BYBLOCK
 62
     0
 10
-65.442273
 20
45.814033
 11
-65.442273
 21
74.922105
  0
LINE
  8
寸法
  6
BYBLOCK
 62
     0
 10
-38.775608
 20
45.814033
 11
-38.775608
 21
74.922105
  0
LINE
  8
寸法
  6
BYBLOCK
 62
     0
 10
-65.442273
 20
74.922105
 11
-38.775608
 21
74.922105
  0
POINT
  8
寸法
 62
     0
 10
-65.442273
 20
74.922105
  0
POINT
  8
寸法
 62
     0
 10
-38.775608
 20
74.922105
  0
TEXT
  7
TextStyle03
  8
寸法
  6
CONTINUOUS
 62
     0
 10
-54.5625
 20
75.3
  1
800
 40
3.0
 72
     5
 11
-49.6875
 21
75.3
  0
ENDBLK
  0
BLOCK
  2
*DIM_0015
 70
    65
 10
0.0
 20
0.0
  0
LINE
  8
寸法
  6
BYBLOCK
 62
     0
 10
-12.10894
 20
45.814033
 11
-12.10894
 21
74.922105
  0
LINE
  8
寸法
  6
BYBLOCK
 62
     0
 10
-38.775608
 20
74.922105
 11
-12.10894
 21
74.922105
  0
POINT
  8
寸法
 62
     0
 10
-12.10894
 20
74.922105
  0
TEXT
  7
TextStyle03
  8
寸法
  6
CONTINUOUS
 62
     0
 10
-27.9125
 20
75.3
  1
800
 40
3.0
 72
     5
 11
-23.0375
 21
75.3
  0
ENDBLK
  0
BLOCK
  2
*DIM_0016
 70
    65
 10
0.0
 20
0.0
  0
LINE
  8
寸法
  6
BYBLOCK
 62
     0
 10
14.557727
 20
45.814033
 11
14.557727
 21
74.922105
  0
LINE
  8
寸法
  6
BYBLOCK
 62
     0
 10
-12.10894
 20
74.922105
 11
14.557727
 21
74.922105
  0
POINT
  8
寸法
 62
     0
 10
14.557727
 20
74.922105
  0
TEXT
  7
TextStyle03
  8
寸法
  6
CONTINUOUS
 62
     0
 10
-1.2375
 20
75.3
  1
800
 40
3.0
 72
     5
 11
3.6375
 21
75.3
  0
ENDBLK
  0
BLOCK
  2
*DIM_0017
 70
    65
 10
0.0
 20
0.0
  0
LINE
  8
寸法
  6
BYBLOCK
 62
     0
 10
41.224393
 20
45.814033
 11
41.224393
 21
74.922105
  0
LINE
  8
寸法
  6
BYBLOCK
 62
     0
 10
14.557727
 20
74.922105
 11
41.224393
 21
74.922105
  0
POINT
  8
寸法
 62
     0
 10
41.224393
 20
74.922105
  0
TEXT
  7
TextStyle03
  8
寸法
  6
CONTINUOUS
 62
     0
 10
25.4375
 20
75.3
  1
800
 40
3.0
 72
     5
 11
30.3125
 21
75.3
  0
ENDBLK
  0
BLOCK
  2
*GRP_0018
 70
    65
 10
0.0
 20
0.0
  0
LINE
  8
別途部材
  6
CONTINUOUS
 62
    96
 10
140.40428
 20
44.047688
 11
140.40428
 21
43.947688
  0
LINE
  8
別途部材
  6
CONTINUOUS
 62
    96
 10
138.3032
 20
44.147688
 11
138.372873
 21
45.478492
  0
LINE
  8
別途部材
  6
CONTINUOUS
 62
    96
 10
138.920947
 20
45.487687
 11
138.80428
 21
45.754355
  0
LINE
  8
別途部材
  6
CONTINUOUS
 62
    96
 10
138.820947
 20
45.466772
 11
138.753427
 21
45.621105
  0
LINE
  8
別途部材
  6
CONTINUOUS
 62
    96
 10
138.274102
 20
45.50461
 11
138.404552
 21
45.764812
  0
LINE
  8
別途部材
  6
CONTINUOUS
 62
    96
 10
138.372873
 20
45.478492
 11
138.505033
 21
45.742105
  0
LINE
  8
別途部材
  6
CONTINUOUS
 62
    96
 10
138.540635
 20
45.677223
 11
138.476988
 21
45.600093
  0
LINE
  8
別途部材
  6
DASHDOTX2
 62
    96
 10
138.60428
 20
45.754355
 11
138.290795
 21
45.754355
  0
LINE
  8
別途部材
  6
DASHDOTX2
 62
    96
 10
138.60428
 20
45.754355
 11
138.93474
 21
45.754355
  0
LINE
  8
別途部材
  6
DASHDOTX2
 62
    96
 10
138.60428
 20
45.754355
 11
138.60428
 21
45.490883
  0
LINE
  8
別途部材
  6
DASHDOTX2
 62
    96
 10
138.60428
 20
45.754355
 11
138.60428
 21
46.032665
  0
LINE
  8
別途部材
  6
CONTINUOUS
 62
    96
 10
138.820947
 20
43.947688
 11
138.820947
 21
45.466772
  0
LINE
  8
別途部材
  6
CONTINUOUS
 62
    96
 10
138.920947
 20
44.047688
 11
138.920947
 21
45.487687
  0
LINE
  8
別途部材
  6
CONTINUOUS
 62
    96
 10
137.069867
 20
44.24769
 11
138.208297
 21
44.24769
  0
LINE
  8
別途部材
  6
CONTINUOUS
 62
    96
 10
137.069867
 20
44.147688
 11
137.069867
 21
44.24769
  0
LINE
  8
別途部材
  6
CONTINUOUS
 62
    96
 10
137.069867
 20
44.147688
 11
138.3032
 21
44.147688
  0
CIRCLE
  8
別途部材
  6
CONTINUOUS
 62
    96
 10
138.60428
 20
45.754355
 40
0.1
  0
ARC
  8
別途部材
  6
CONTINUOUS
 62
    96
 10
138.604279
 20
45.754356
 40
0.2
 50
218.780606
 51
537.001556
  0
LINE
  8
別途部材
  6
CONTINUOUS
 62
    96
 10
138.820947
 20
43.947688
 11
140.40428
 21
43.947688
  0
LINE
  8
別途部材
  6
CONTINUOUS
 62
    96
 10
138.920947
 20
44.047688
 11
140.40428
 21
44.047688
  0
LINE
  8
別途部材
  6
CONTINUOUS
 62
    96
 10
138.274102
 20
45.50461
 11
138.208297
 21
44.24769
  0
ENDBLK
  0
BLOCK
  2
*DIM_0019
 70
    65
 10
0.0
 20
0.0
  0
LINE
  8
寸法
  6
CONTINUOUS
 10
54.557868
 20
-76.109732
 11
65.595112
 21
-76.109732
  0
LINE
  8
寸法
  6
CONTINUOUS
 10
52.910925
 20
-69.593185
 11
65.595112
 21
-69.593185
  0
LINE
  8
寸法
  6
CONTINUOUS
 10
65.595112
 20
-76.109732
 11
65.595112
 21
-69.593185
  0
POINT
  8
寸法
 10
65.595112
 20
-76.109732
  0
POINT
  8
寸法
 10
65.595112
 20
-69.593185
  0
TEXT
  7
TextStyle03
  8
寸法
  6
CONTINUOUS
 10
69.7
 20
-78.375
  1
195.5
 40
4.0
 50
90.0
 72
     5
 11
69.7
 21
-67.375
  0
ENDBLK
  0
ENDSEC
  0
SECTION
  2
ENTITIES
  0
POLYLINE
  8
通り芯
  6
CONTINUOUS
 66
     1
 70
     1
  0
VERTEX
  8
通り芯
 10
-210.0
 20
-148.5
  0
VERTEX
  8
通り芯
 10
210.0
 20
-148.5
  0
VERTEX
  8
通り芯
 10
210.0
 20
148.5
  0
VERTEX
  8
通り芯
 10
-210.0
 20
148.5
  0
SEQEND
  0
INSERT
  2
*GRP_0001
  8
型材断面
  6
CONTINUOUS
 10
0.0
 20
0.0
  0
LINE
  8
型材断面
  6
DASHDOT
 10
46.224393
 20
-77.836442
 11
46.224393
 21
42.814033
  0
LINE
  8
型材断面
  6
DASHDOT
 10
-12.10894
 20
-77.836442
 11
-12.10894
 21
42.814033
  0
LINE
  8
型材断面
  6
DASHDOT
 10
143.901155
 20
42.814033
 11
-70.442275
 21
42.814033
  0
LINE
  8
型材断面
  6
DASHDOT
 10
143.901155
 20
32.814033
 11
-70.442275
 21
32.814033
  0
LINE
  8
型材断面
  6
DASHDOT
 10
143.901155
 20
22.814033
 11
-70.442275
 21
22.814033
  0
LINE
  8
型材断面
  6
CONTINUOUS
 10
-53.775608
 20
45.444162
 11
-55.271238
 21
48.03467
  0
LINE
  8
型材断面
  6
CONTINUOUS
 10
-53.775608
 20
45.444162
 11
-52.279978
 21
48.03467
  0
LINE
  8
型材断面
  6
CONTINUOUS
 10
-52.279978
 20
48.03467
 11
-55.271238
 21
48.03467
  0
LINE
  8
型材断面
  6
CONTINUOUS
 10
-111.294482
 20
80.791505
 11
-110.698427
 21
78.200998
  0
LINE
  8
型材断面
  6
CONTINUOUS
 10
-111.294482
 20
80.791505
 11
-111.89054
 21
78.200998
  0
LINE
  8
型材断面
  6
CONTINUOUS
 10
-111.89054
 20
78.200998
 11
-110.698427
 21
78.200998
  0
LINE
  8
型材断面
  6
CONTINUOUS
 10
-117.31707
 20
74.922105
 11
-71.075292
 21
74.922105
  0
LINE
  8
型材断面
  6
CONTINUOUS
 10
-111.294482
 20
87.32138
 11
-112.790113
 21
84.730873
  0
LINE
  8
型材断面
  6
CONTINUOUS
 10
-111.294482
 20
87.32138
 11
-109.798852
 21
84.730873
  0
LINE
  8
型材断面
  6
CONTINUOUS
 10
-109.798852
 20
84.730873
 11
-112.790113
 21
84.730873
  0
LINE
  8
型材断面
  6
CONTINUOUS
 10
-117.31707
 20
83.792277
 11
-71.075292
 21
83.792277
  0
LINE
  8
型材断面
  6
CONTINUOUS
 10
-117.31707
 20
69.134073
 11
-71.075292
 21
69.134073
  0
LINE
  8
型材断面
  6
CONTINUOUS
 10
-73.072405
 20
32.814033
 11
-75.662913
 21
34.309663
  0
LINE
  8
型材断面
  6
CONTINUOUS
 10
-73.072405
 20
32.814033
 11
-75.662913
 21
31.318403
  0
LINE
  8
型材断面
  6
CONTINUOUS
 10
-75.662913
 20
31.318403
 11
-75.662913
 21
34.309663
  0
LINE
  8
型材断面
  6
CONTINUOUS
 10
-53.775608
 20
20.183902
 11
-55.271238
 21
17.593395
  0
LINE
  8
型材断面
  6
CONTINUOUS
 10
-53.775608
 20
20.183902
 11
-52.279978
 21
17.593395
  0
LINE
  8
型材断面
  6
CONTINUOUS
 10
-52.279978
 20
17.593395
 11
-55.271238
 21
17.593395
  0
LINE
  8
型材断面
  6
CONTINUOUS
 10
29.557727
 20
45.444162
 11
31.053357
 21
48.03467
  0
LINE
  8
型材断面
  6
CONTINUOUS
 10
29.557727
 20
45.444162
 11
28.062097
 21
48.03467
  0
LINE
  8
型材断面
  6
CONTINUOUS
 10
28.062097
 20
48.03467
 11
31.053357
 21
48.03467
  0
LINE
  8
型材断面
  6
CONTINUOUS
 10
48.854525
 20
32.814033
 11
51.445032
 21
34.309663
  0
LINE
  8
型材断面
  6
CONTINUOUS
 10
48.854525
 20
32.814033
 11
51.445032
 21
31.318403
  0
LINE
  8
型材断面
  6
CONTINUOUS
 10
51.445032
 20
31.318403
 11
51.445032
 21
34.309663
  0
LINE
  8
型材断面
  6
CONTINUOUS
 10
29.557727
 20
20.183902
 11
31.053357
 21
17.593395
  0
LINE
  8
型材断面
  6
CONTINUOUS
 10
29.557727
 20
20.183902
 11
28.062097
 21
17.593395
  0
LINE
  8
型材断面
  6
CONTINUOUS
 10
28.062097
 20
17.593395
 11
31.053357
 21
17.593395
  0
POLYLINE
  8
型材断面
  6
DASHDOT
 66
     1
  0
VERTEX
  8
型材断面
 10
-70.442275
 20
22.814033
  0
VERTEX
  8
型材断面
 10
-12.10894
 20
42.814033
  0
VERTEX
  8
型材断面
 10
46.224393
 20
22.814033
  0
SEQEND
  0
LINE
  8
型材断面
  6
CONTINUOUS
 10
44.224393
 20
20.20722
 11
43.628335
 21
17.616715
  0
LINE
  8
型材断面
  6
CONTINUOUS
 10
44.224393
 20
20.20722
 11
44.82045
 21
17.616715
  0
LINE
  8
型材断面
  6
CONTINUOUS
 10
44.82045
 20
17.616715
 11
43.628335
 21
17.616715
  0
LINE
  8
型材断面
  6
CONTINUOUS
 10
-68.442273
 20
20.20722
 11
-67.846215
 21
17.616715
  0
LINE
  8
型材断面
  6
CONTINUOUS
 10
-68.442273
 20
20.20722
 11
-69.03833
 21
17.616715
  0
LINE
  8
型材断面
  6
CONTINUOUS
 10
-69.03833
 20
17.616715
 11
-67.846215
 21
17.616715
  0
LINE
  8
型材断面
  6
CONTINUOUS
 62
    47
 10
47.547727
 20
-72.149745
 11
47.557727
 21
-72.139745
  0
LINE
  8
型材断面
  6
CONTINUOUS
 62
    47
 10
47.547727
 20
-72.149745
 11
47.557727
 21
-72.159745
  0
LINE
  8
型材断面
  6
CONTINUOUS
 62
    47
 10
47.547727
 20
-72.791975
 11
47.557727
 21
-72.781975
  0
LINE
  8
型材断面
  6
CONTINUOUS
 62
    47
 10
47.547727
 20
-72.791975
 11
47.557727
 21
-72.801975
  0
LINE
  8
型材断面
  6
CONTINUOUS
 62
    47
 10
47.557727
 20
-73.209745
 11
47.557727
 21
-72.801975
  0
LINE
  8
型材断面
  6
CONTINUOUS
 62
    47
 10
47.557727
 20
-72.781975
 11
47.557727
 21
-72.159745
  0
LINE
  8
型材断面
  6
CONTINUOUS
 62
    47
 10
47.557727
 20
-72.139745
 11
47.557727
 21
-71.44306
  0
LINE
  8
型材断面
  6
CONTINUOUS
 62
    47
 10
48.824535
 20
-73.27607
 11
48.824535
 21
-73.442698
  0
LINE
  8
型材断面
  6
CONTINUOUS
 62
    47
 10
47.347868
 20
-74.343075
 11
47.357868
 21
-74.333075
  0
LINE
  8
型材断面
  6
CONTINUOUS
 62
    47
 10
47.347868
 20
-74.343075
 11
47.357868
 21
-74.353075
  0
LINE
  8
型材断面
  6
CONTINUOUS
 62
    47
 10
47.347868
 20
-74.809747
 11
47.357868
 21
-74.799748
  0
LINE
  8
型材断面
  6
CONTINUOUS
 62
    47
 10
47.347868
 20
-74.809747
 11
47.357868
 21
-74.819747
  0
LINE
  8
型材断面
  6
CONTINUOUS
 62
    47
 10
47.357868
 20
-73.709723
 11
47.357868
 21
-74.333075
  0
LINE
  8
型材断面
  6
CONTINUOUS
 62
    47
 10
47.357868
 20
-74.353075
 11
47.357868
 21
-74.799748
  0
LINE
  8
型材断面
  6
CONTINUOUS
 62
    47
 10
49.557868
 20
-75.60973
 11
49.557868
 21
-76.109732
  0
LINE
  8
型材断面
  6
CONTINUOUS
 62
    47
 10
49.057875
 20
-76.443065
 11
49.057875
 21
-76.109732
  0
LINE
  8
型材断面
  6
CONTINUOUS
 62
    47
 10
49.557868
 20
-75.60973
 11
47.357868
 21
-75.443065
  0
LINE
  8
型材断面
  6
CONTINUOUS
 62
    47
 10
46.624393
 20
-75.443065
 11
47.2912
 21
-75.443065
  0
LINE
  8
型材断面
  6
CONTINUOUS
 62
    47
 10
47.347868
 20
-75.343065
 11
47.357868
 21
-75.333065
  0
LINE
  8
型材断面
  6
CONTINUOUS
 62
    47
 10
47.347868
 20
-75.343065
 11
47.357868
 21
-75.353065
  0
LINE
  8
型材断面
  6
CONTINUOUS
 62
    47
 10
47.357868
 20
-75.443065
 11
47.357868
 21
-75.353065
  0
LINE
  8
型材断面
  6
CONTINUOUS
 62
    47
 10
47.357868
 20
-74.819747
 11
47.357868
 21
-75.333065
  0
LINE
  8
型材断面
  6
CONTINUOUS
 62
    47
 10
48.824532
 20
-73.709723
 11
48.824532
 21
-73.576405
  0
LINE
  8
型材断面
  6
CONTINUOUS
 62
    47
 10
47.557727
 20
-73.209745
 11
48.824535
 21
-73.27607
  0
LINE
  8
型材断面
  6
CONTINUOUS
 62
    47
 10
47.287738
 20
-71.44306
 11
47.287738
 21
-71.209613
  0
LINE
  8
型材断面
  6
CONTINUOUS
 62
    47
 10
49.057875
 20
-76.443065
 11
-12.10894
 21
-76.443065
  0
LINE
  8
型材断面
  6
CONTINUOUS
 10
49.557868
 20
-75.60973
 11
-12.10894
 21
-75.60973
  0
LINE
  8
型材断面
  6
CONTINUOUS
 62
    47
 10
49.557868
 20
-76.109732
 11
-12.10894
 21
-76.109732
  0
LINE
  8
型材断面
  6
CONTINUOUS
 10
47.357868
 20
-75.443065
 11
-12.10894
 21
-75.443065
  0
LINE
  8
型材断面
  6
CONTINUOUS
 10
47.557727
 20
-73.209745
 11
-12.10894
 21
-73.209745
  0
LINE
  8
型材断面
  6
CONTINUOUS
 62
    47
 10
48.824535
 20
-73.442698
 11
-12.10894
 21
-73.442698
  0
LINE
  8
型材断面
  6
CONTINUOUS
 10
48.824535
 20
-73.27607
 11
-12.10894
 21
-73.27607
  0
LINE
  8
型材断面
  6
CONTINUOUS
 62
    47
 10
48.824532
 20
-73.576405
 11
-12.10894
 21
-73.576405
  0
LINE
  8
型材断面
  6
CONTINUOUS
 62
    47
 10
48.824532
 20
-73.709723
 11
-12.10894
 21
-73.709723
  0
LINE
  8
型材断面
  6
CONTINUOUS
 62
    47
 10
-71.765607
 20
-72.149745
 11
-71.775608
 21
-72.139745
  0
LINE
  8
型材断面
  6
CONTINUOUS
 62
    47
 10
-71.765607
 20
-72.149745
 11
-71.775608
 21
-72.159745
  0
LINE
  8
型材断面
  6
CONTINUOUS
 62
    47
 10
-71.765607
 20
-72.791975
 11
-71.775608
 21
-72.781975
  0
LINE
  8
型材断面
  6
CONTINUOUS
 62
    47
 10
-71.765607
 20
-72.791975
 11
-71.775608
 21
-72.801975
  0
LINE
  8
型材断面
  6
CONTINUOUS
 62
    47
 10
-71.775608
 20
-73.209745
 11
-71.775608
 21
-72.801975
  0
LINE
  8
型材断面
  6
CONTINUOUS
 62
    47
 10
-71.775608
 20
-72.781975
 11
-71.775608
 21
-72.159745
  0
LINE
  8
型材断面
  6
CONTINUOUS
 62
    47
 10
-71.775608
 20
-72.139745
 11
-71.775608
 21
-71.44306
  0
LINE
  8
型材断面
  6
CONTINUOUS
 62
    47
 10
-73.042415
 20
-73.27607
 11
-73.042415
 21
-73.442698
  0
LINE
  8
型材断面
  6
CONTINUOUS
 62
    47
 10
-71.565748
 20
-74.343075
 11
-71.575748
 21
-74.333075
  0
LINE
  8
型材断面
  6
CONTINUOUS
 62
    47
 10
-71.565748
 20
-74.343075
 11
-71.575748
 21
-74.353075
  0
LINE
  8
型材断面
  6
CONTINUOUS
 62
    47
 10
-71.565748
 20
-74.809747
 11
-71.575748
 21
-74.799748
  0
LINE
  8
型材断面
  6
CONTINUOUS
 62
    47
 10
-71.565748
 20
-74.809747
 11
-71.575748
 21
-74.819747
  0
LINE
  8
型材断面
  6
CONTINUOUS
 62
    47
 10
-71.575748
 20
-73.709723
 11
-71.575748
 21
-74.333075
  0
LINE
  8
型材断面
  6
CONTINUOUS
 62
    47
 10
-71.575748
 20
-74.353075
 11
-71.575748
 21
-74.799748
  0
LINE
  8
型材断面
  6
CONTINUOUS
 62
    47
 10
-73.775748
 20
-75.60973
 11
-73.775748
 21
-76.109732
  0
LINE
  8
型材断面
  6
CONTINUOUS
 62
    47
 10
-73.275755
 20
-76.443065
 11
-73.275755
 21
-76.109732
  0
LINE
  8
型材断面
  6
CONTINUOUS
 62
    47
 10
-73.775748
 20
-75.60973
 11
-71.575748
 21
-75.443065
  0
LINE
  8
型材断面
  6
CONTINUOUS
 62
    47
 10
-70.842273
 20
-75.443065
 11
-71.50908
 21
-75.443065
  0
LINE
  8
型材断面
  6
CONTINUOUS
 62
    47
 10
-71.565748
 20
-75.343065
 11
-71.575748
 21
-75.333065
  0
LINE
  8
型材断面
  6
CONTINUOUS
 62
    47
 10
-71.565748
 20
-75.343065
 11
-71.575748
 21
-75.353065
  0
LINE
  8
型材断面
  6
CONTINUOUS
 62
    47
 10
-71.575748
 20
-75.443065
 11
-71.575748
 21
-75.353065
  0
LINE
  8
型材断面
  6
CONTINUOUS
 62
    47
 10
-71.575748
 20
-74.819747
 11
-71.575748
 21
-75.333065
  0
LINE
  8
型材断面
  6
CONTINUOUS
 62
    47
 10
-73.042412
 20
-73.709723
 11
-73.042412
 21
-73.576405
  0
LINE
  8
型材断面
  6
CONTINUOUS
 62
    47
 10
-71.775608
 20
-73.209745
 11
-73.042415
 21
-73.27607
  0
LINE
  8
型材断面
  6
CONTINUOUS
 62
    47
 10
-71.505617
 20
-71.44306
 11
-71.505617
 21
-71.209613
  0
LINE
  8
型材断面
  6
CONTINUOUS
 62
    47
 10
-73.275755
 20
-76.443065
 11
-12.10894
 21
-76.443065
  0
LINE
  8
型材断面
  6
CONTINUOUS
 10
-73.775748
 20
-75.60973
 11
-12.10894
 21
-75.60973
  0
LINE
  8
型材断面
  6
CONTINUOUS
 62
    47
 10
-73.775748
 20
-76.109732
 11
-12.10894
 21
-76.109732
  0
LINE
  8
型材断面
  6
CONTINUOUS
 10
-71.575748
 20
-75.443065
 11
-12.10894
 21
-75.443065
  0
LINE
  8
型材断面
  6
CONTINUOUS
 10
-71.775608
 20
-73.209745
 11
-12.10894
 21
-73.209745
  0
LINE
  8
型材断面
  6
CONTINUOUS
 62
    47
 10
-73.042415
 20
-73.442698
 11
-12.10894
 21
-73.442698
  0
LINE
  8
型材断面
  6
CONTINUOUS
 10
-73.042415
 20
-73.27607
 11
-12.10894
 21
-73.27607
  0
LINE
  8
型材断面
  6
CONTINUOUS
 62
    47
 10
-73.042412
 20
-73.576405
 11
-12.10894
 21
-73.576405
  0
LINE
  8
型材断面
  6
CONTINUOUS
 62
    47
 10
-73.042412
 20
-73.709723
 11
-12.10894
 21
-73.709723
  0
LINE
  8
型材断面
  6
CONTINUOUS
 62
    47
 10
-71.775608
 20
-71.44306
 11
-12.10894
 21
-71.44306
  0
LINE
  8
型材断面
  6
CONTINUOUS
 10
49.557868
 20
19.48056
 11
-12.10894
 21
19.48056
  0
LINE
  8
型材断面
  6
CONTINUOUS
 10
49.557868
 20
46.147505
 11
-12.10894
 21
46.147505
  0
LINE
  8
型材断面
  6
CONTINUOUS
 10
-73.775748
 20
46.147505
 11
-12.10894
 21
46.147505
  0
LINE
  8
型材断面
  6
CONTINUOUS
 10
-73.775748
 20
19.48056
 11
-12.10894
 21
19.48056
  0
LINE
  8
型材断面
  6
CONTINUOUS
 62
    47
 10
137.260967
 20
44.137365
 11
137.250967
 21
44.147365
  0
LINE
  8
型材断面
  6
CONTINUOUS
 62
    47
 10
137.260967
 20
44.137365
 11
137.270968
 21
44.147365
  0
LINE
  8
型材断面
  6
CONTINUOUS
 62
    47
 10
137.9032
 20
44.137365
 11
137.8932
 21
44.147365
  0
LINE
  8
型材断面
  6
CONTINUOUS
 62
    47
 10
137.9032
 20
44.137365
 11
137.9132
 21
44.147365
  0
LINE
  8
型材断面
  6
CONTINUOUS
 62
    47
 10
138.320967
 20
44.147365
 11
137.9132
 21
44.147365
  0
LINE
  8
型材断面
  6
CONTINUOUS
 62
    47
 10
137.8932
 20
44.147365
 11
137.270968
 21
44.147365
  0
LINE
  8
型材断面
  6
CONTINUOUS
 62
    47
 10
137.250967
 20
44.147365
 11
136.554283
 21
44.147365
  0
LINE
  8
型材断面
  6
CONTINUOUS
 62
    47
 10
136.554283
 20
44.147365
 11
136.554283
 21
32.81403
  0
LINE
  8
型材断面
  6
CONTINUOUS
 10
138.320967
 20
44.147365
 11
138.320967
 21
32.81403
  0
LINE
  8
型材断面
  6
CONTINUOUS
 10
138.387292
 20
32.81403
 11
138.387292
 21
45.414172
  0
LINE
  8
型材断面
  6
CONTINUOUS
 62
    47
 10
138.387292
 20
45.414172
 11
138.553923
 21
45.414172
  0
LINE
  8
型材断面
  6
CONTINUOUS
 62
    47
 10
138.553923
 20
32.81403
 11
138.553923
 21
45.414172
  0
LINE
  8
型材断面
  6
CONTINUOUS
 62
    47
 10
139.454298
 20
43.937505
 11
139.444298
 21
43.947505
  0
LINE
  8
型材断面
  6
CONTINUOUS
 62
    47
 10
139.454298
 20
43.937505
 11
139.464298
 21
43.947505
  0
LINE
  8
型材断面
  6
CONTINUOUS
 62
    47
 10
139.920973
 20
43.937505
 11
139.910973
 21
43.947505
  0
LINE
  8
型材断面
  6
CONTINUOUS
 62
    47
 10
139.920973
 20
43.937505
 11
139.930972
 21
43.947505
  0
LINE
  8
型材断面
  6
CONTINUOUS
 62
    47
 10
138.820947
 20
43.947505
 11
139.444298
 21
43.947505
  0
LINE
  8
型材断面
  6
CONTINUOUS
 62
    47
 10
139.464298
 20
43.947505
 11
139.910973
 21
43.947505
  0
LINE
  8
型材断面
  6
CONTINUOUS
 62
    47
 10
140.720955
 20
46.147505
 11
141.220958
 21
46.147505
  0
LINE
  8
型材断面
  6
CONTINUOUS
 62
    47
 10
141.554287
 20
45.647513
 11
141.220958
 21
45.647513
  0
LINE
  8
型材断面
  6
CONTINUOUS
 62
    47
 10
140.720955
 20
46.147505
 11
140.554287
 21
43.947505
  0
LINE
  8
型材断面
  6
CONTINUOUS
 62
    47
 10
140.554287
 20
43.21403
 11
140.554287
 21
43.880838
  0
LINE
  8
型材断面
  6
CONTINUOUS
 62
    47
 10
140.454287
 20
43.937505
 11
140.444288
 21
43.947505
  0
LINE
  8
型材断面
  6
CONTINUOUS
 62
    47
 10
140.454287
 20
43.937505
 11
140.464287
 21
43.947505
  0
LINE
  8
型材断面
  6
CONTINUOUS
 62
    47
 10
140.554287
 20
43.947505
 11
140.464287
 21
43.947505
  0
LINE
  8
型材断面
  6
CONTINUOUS
 62
    47
 10
139.930972
 20
43.947505
 11
140.444288
 21
43.947505
  0
LINE
  8
型材断面
  6
CONTINUOUS
 62
    47
 10
138.68763
 20
32.81403
 11
138.68763
 21
45.414172
  0
LINE
  8
型材断面
  6
CONTINUOUS
 62
    47
 10
138.820947
 20
45.414172
 11
138.68763
 21
45.414172
  0
LINE
  8
型材断面
  6
CONTINUOUS
 62
    47
 10
138.820947
 20
45.414172
 11
138.820947
 21
32.81403
  0
LINE
  8
型材断面
  6
CONTINUOUS
 10
140.554287
 20
32.81403
 11
140.554287
 21
43.947505
  0
LINE
  8
型材断面
  6
CONTINUOUS
 10
140.720955
 20
32.81403
 11
140.720955
 21
46.147505
  0
LINE
  8
型材断面
  6
CONTINUOUS
 62
    47
 10
141.220958
 20
46.147505
 11
141.220958
 21
32.81403
  0
LINE
  8
型材断面
  6
CONTINUOUS
 62
    47
 10
141.554287
 20
45.647513
 11
141.554287
 21
32.81403
  0
LINE
  8
型材断面
  6
CONTINUOUS
 62
    47
 10
138.320967
 20
44.147365
 11
138.387292
 21
45.414172
  0
LINE
  8
型材断面
  6
CONTINUOUS
 62
    47
 10
136.554283
 20
43.877375
 11
136.320838
 21
43.877375
  0
LINE
  8
型材断面
  6
CONTINUOUS
 62
    47
 10
137.260967
 20
21.490697
 11
137.250967
 21
21.480697
  0
LINE
  8
型材断面
  6
CONTINUOUS
 62
    47
 10
137.260967
 20
21.490697
 11
137.270968
 21
21.480697
  0
LINE
  8
型材断面
  6
CONTINUOUS
 62
    47
 10
137.9032
 20
21.490697
 11
137.8932
 21
21.480697
  0
LINE
  8
型材断面
  6
CONTINUOUS
 62
    47
 10
137.9032
 20
21.490697
 11
137.9132
 21
21.480697
  0
LINE
  8
型材断面
  6
CONTINUOUS
 62
    47
 10
138.320967
 20
21.480697
 11
137.9132
 21
21.480697
  0
LINE
  8
型材断面
  6
CONTINUOUS
 62
    47
 10
137.8932
 20
21.480697
 11
137.270968
 21
21.480697
  0
LINE
  8
型材断面
  6
CONTINUOUS
 62
    47
 10
137.250967
 20
21.480697
 11
136.554283
 21
21.480697
  0
LINE
  8
型材断面
  6
CONTINUOUS
 62
    47
 10
136.554283
 20
21.480697
 11
136.554283
 21
32.814033
  0
LINE
  8
型材断面
  6
CONTINUOUS
 10
138.320967
 20
21.480697
 11
138.320967
 21
32.814033
  0
LINE
  8
型材断面
  6
CONTINUOUS
 10
138.387292
 20
32.814033
 11
138.387292
 21
20.21389
  0
LINE
  8
型材断面
  6
CONTINUOUS
 62
    47
 10
138.387292
 20
20.21389
 11
138.553923
 21
20.21389
  0
LINE
  8
型材断面
  6
CONTINUOUS
 62
    47
 10
138.553923
 20
32.814033
 11
138.553923
 21
20.21389
  0
LINE
  8
型材断面
  6
CONTINUOUS
 62
    47
 10
139.454298
 20
21.690558
 11
139.444298
 21
21.680558
  0
LINE
  8
型材断面
  6
CONTINUOUS
 62
    47
 10
139.454298
 20
21.690558
 11
139.464298
 21
21.680558
  0
LINE
  8
型材断面
  6
CONTINUOUS
 62
    47
 10
139.920973
 20
21.690558
 11
139.910973
 21
21.680558
  0
LINE
  8
型材断面
  6
CONTINUOUS
 62
    47
 10
139.920973
 20
21.690558
 11
139.930972
 21
21.680558
  0
LINE
  8
型材断面
  6
CONTINUOUS
 62
    47
 10
138.820947
 20
21.680558
 11
139.444298
 21
21.680558
  0
LINE
  8
型材断面
  6
CONTINUOUS
 62
    47
 10
139.464298
 20
21.680558
 11
139.910973
 21
21.680558
  0
LINE
  8
型材断面
  6
CONTINUOUS
 62
    47
 10
140.720955
 20
19.480558
 11
141.220958
 21
19.480558
  0
LINE
  8
型材断面
  6
CONTINUOUS
 62
    47
 10
141.554287
 20
19.98055
 11
141.220958
 21
19.98055
  0
LINE
  8
型材断面
  6
CONTINUOUS
 62
    47
 10
140.720955
 20
19.480558
 11
140.554287
 21
21.680558
  0
LINE
  8
型材断面
  6
CONTINUOUS
 62
    47
 10
140.554287
 20
22.414033
 11
140.554287
 21
21.747225
  0
LINE
  8
型材断面
  6
CONTINUOUS
 62
    47
 10
140.454287
 20
21.690558
 11
140.444288
 21
21.680558
  0
LINE
  8
型材断面
  6
CONTINUOUS
 62
    47
 10
140.454287
 20
21.690558
 11
140.464287
 21
21.680558
  0
LINE
  8
型材断面
  6
CONTINUOUS
 62
    47
 10
140.554287
 20
21.680558
 11
140.464287
 21
21.680558
  0
LINE
  8
型材断面
  6
CONTINUOUS
 62
    47
 10
139.930972
 20
21.680558
 11
140.444288
 21
21.680558
  0
LINE
  8
型材断面
  6
CONTINUOUS
 62
    47
 10
138.68763
 20
32.814033
 11
138.68763
 21
20.213892
  0
LINE
  8
型材断面
  6
CONTINUOUS
 62
    47
 10
138.820947
 20
20.213892
 11
138.68763
 21
20.213892
  0
LINE
  8
型材断面
  6
CONTINUOUS
 62
    47
 10
138.820947
 20
20.213892
 11
138.820947
 21
32.814033
  0
LINE
  8
型材断面
  6
CONTINUOUS
 10
140.554287
 20
32.814033
 11
140.554287
 21
21.680558
  0
LINE
  8
型材断面
  6
CONTINUOUS
 10
140.720955
 20
32.814033
 11
140.720955
 21
19.480558
  0
LINE
  8
型材断面
  6
CONTINUOUS
 62
    47
 10
141.220958
 20
19.480558
 11
141.220958
 21
32.814033
  0
LINE
  8
型材断面
  6
CONTINUOUS
 62
    47
 10
141.554287
 20
19.98055
 11
141.554287
 21
32.814033
  0
LINE
  8
型材断面
  6
CONTINUOUS
 62
    47
 10
138.320967
 20
21.480697
 11
138.387292
 21
20.21389
  0
LINE
  8
型材断面
  6
CONTINUOUS
 62
    47
 10
136.554283
 20
21.750687
 11
136.320838
 21
21.750687
  0
ARC
  8
型材断面
  6
DASHDOT
 10
138.60428
 20
45.754356
 40
25.540515
 50
224.887028
 51
269.88703
  0
LINE
  8
型材断面
  6
CONTINUOUS
 10
134.871075
 20
44.344043
 11
136.371075
 21
44.344043
  0
LINE
  8
型材断面
  6
CONTINUOUS
 62
    47
 10
136.371075
 20
32.814033
 11
136.371075
 21
44.344043
  0
LINE
  8
型材断面
  6
CONTINUOUS
 10
134.871075
 20
44.500562
 11
134.704407
 21
44.500562
  0
LINE
  8
型材断面
  6
CONTINUOUS
 62
    47
 10
134.704407
 20
32.814033
 11
134.704407
 21
44.500562
  0
LINE
  8
型材断面
  6
CONTINUOUS
 62
    47
 10
134.871075
 20
32.814033
 11
134.871075
 21
44.500562
  0
LINE
  8
型材断面
  6
CONTINUOUS
 10
134.871075
 20
21.284022
 11
136.371075
 21
21.284022
  0
LINE
  8
型材断面
  6
CONTINUOUS
 62
    47
 10
136.371075
 20
32.814033
 11
136.371075
 21
21.284022
  0
LINE
  8
型材断面
  6
CONTINUOUS
 10
134.871075
 20
21.1275
 11
134.704407
 21
21.1275
  0
LINE
  8
型材断面
  6
CONTINUOUS
 62
    47
 10
134.704407
 20
32.814033
 11
134.704407
 21
21.1275
  0
LINE
  8
型材断面
  6
CONTINUOUS
 62
    47
 10
134.871075
 20
32.814033
 11
134.871075
 21
21.1275
  0
LINE
  8
型材断面
  6
DOT
 62
    47
 10
136.51103
 20
45.560835
 11
136.51103
 21
45.574978
  0
LINE
  8
型材断面
  6
DOT
 62
    47
 10
136.51103
 20
45.560835
 11
136.525173
 21
45.560835
  0
LINE
  8
型材断面
  6
DOT
 62
    47
 10
136.965157
 20
45.106708
 11
136.965157
 21
45.120852
  0
LINE
  8
型材断面
  6
DOT
 62
    47
 10
136.965157
 20
45.106708
 11
136.979298
 21
45.106708
  0
LINE
  8
型材断面
  6
DOT
 62
    47
 10
137.267635
 20
44.818373
 11
136.979298
 21
45.106708
  0
LINE
  8
型材断面
  6
DOT
 62
    47
 10
136.965157
 20
45.120852
 11
136.525173
 21
45.560835
  0
LINE
  8
型材断面
  6
DOT
 62
    47
 10
136.51103
 20
45.574978
 11
136.0184
 21
46.067607
  0
LINE
  8
型材断面
  6
DOT
 62
    47
 10
136.0184
 20
46.067607
 11
128.004522
 21
38.05373
  0
LINE
  8
型材断面
  6
DOT
 10
137.267635
 20
44.818373
 11
129.253758
 21
36.804495
  0
LINE
  8
型材断面
  6
DOT
 10
129.300655
 20
36.757597
 11
138.210303
 21
45.667243
  0
LINE
  8
型材断面
  6
DOT
 62
    47
 10
138.210303
 20
45.667243
 11
138.328127
 21
45.549417
  0
LINE
  8
型材断面
  6
DOT
 62
    47
 10
129.41848
 20
36.639773
 11
138.328127
 21
45.549417
  0
LINE
  8
型材断面
  6
DOT
 62
    47
 10
137.267635
 20
44.818373
 11
138.210303
 21
45.667243
  0
LINE
  8
型材断面
  6
DOT
 62
    47
 10
135.827487
 20
45.876698
 11
135.662418
 21
46.041768
  0
LINE
  8
型材断面
  6
DOT
 62
    47
 10
120.497417
 20
29.547222
 11
120.483278
 21
29.547222
  0
LINE
  8
型材断面
  6
DOT
 62
    47
 10
120.497417
 20
29.547222
 11
120.497417
 21
29.533082
  0
LINE
  8
型材断面
  6
DOT
 62
    47
 10
120.951545
 20
29.093097
 11
120.937402
 21
29.093097
  0
LINE
  8
型材断面
  6
DOT
 62
    47
 10
120.951545
 20
29.093097
 11
120.951545
 21
29.078955
  0
LINE
  8
型材断面
  6
DOT
 62
    47
 10
121.239883
 20
28.79062
 11
120.951545
 21
29.078955
  0
LINE
  8
型材断面
  6
DOT
 62
    47
 10
120.937402
 20
29.093097
 11
120.497417
 21
29.533082
  0
LINE
  8
型材断面
  6
DOT
 62
    47
 10
120.483278
 20
29.547222
 11
119.990647
 21
30.039855
  0
LINE
  8
型材断面
  6
DOT
 62
    47
 10
119.990647
 20
30.039855
 11
128.004525
 21
38.053732
  0
LINE
  8
型材断面
  6
DOT
 10
121.239883
 20
28.79062
 11
129.25376
 21
36.804498
  0
LINE
  8
型材断面
  6
DOT
 10
129.300657
 20
36.757597
 11
120.391013
 21
27.847953
  0
LINE
  8
型材断面
  6
DOT
 62
    47
 10
120.391013
 20
27.847953
 11
120.508835
 21
27.730127
  0
LINE
  8
型材断面
  6
DOT
 62
    47
 10
129.418483
 20
36.639775
 11
120.508835
 21
27.730127
  0
LINE
  8
型材断面
  6
DOT
 62
    47
 10
121.239883
 20
28.79062
 11
120.391013
 21
27.847953
  0
LINE
  8
型材断面
  6
DOT
 62
    47
 10
120.181558
 20
30.230768
 11
120.016488
 21
30.395838
  0
LINE
  8
型材断面
  6
DOT
 10
134.967262
 20
47.396888
 11
136.027923
 21
46.336227
  0
LINE
  8
型材断面
  6
DOT
 62
    47
 10
127.874975
 20
38.183278
 11
136.027923
 21
46.336227
  0
LINE
  8
型材断面
  6
DOT
 10
135.077943
 20
47.507565
 11
134.96009
 21
47.625418
  0
LINE
  8
型材断面
  6
DOT
 62
    47
 10
126.696463
 20
39.36179
 11
134.96009
 21
47.625418
  0
LINE
  8
型材断面
  6
DOT
 62
    47
 10
126.814315
 20
39.24394
 11
135.077943
 21
47.507565
  0
LINE
  8
型材断面
  6
DOT
 10
118.661368
 20
31.090992
 11
119.722027
 21
30.03033
  0
LINE
  8
型材断面
  6
DOT
 62
    47
 10
127.874975
 20
38.183278
 11
119.722027
 21
30.03033
  0
LINE
  8
型材断面
  6
DOT
 10
118.55069
 20
30.980313
 11
118.432837
 21
31.098165
  0
LINE
  8
型材断面
  6
DOT
 62
    47
 10
126.696463
 20
39.36179
 11
118.432837
 21
31.098165
  0
LINE
  8
型材断面
  6
DOT
 62
    47
 10
126.814315
 20
39.24394
 11
118.55069
 21
30.980313
  0
LINE
  8
型材断面
  6
CONTINUOUS
 10
47.754405
 20
-69.759853
 11
47.754405
 21
-71.259853
  0
LINE
  8
型材断面
  6
CONTINUOUS
 10
47.910925
 20
-69.759853
 11
47.910925
 21
-69.593185
  0
LINE
  8
型材断面
  6
CONTINUOUS
 62
    47
 10
47.910925
 20
-69.759853
 11
-12.10894
 21
-69.759853
  0
LINE
  8
型材断面
  6
CONTINUOUS
 62
    47
 10
47.910925
 20
-69.593185
 11
-12.10894
 21
-69.593185
  0
LINE
  8
型材断面
  6
CONTINUOUS
 62
    47
 10
47.557727
 20
-71.44306
 11
-12.10894
 21
-71.44306
  0
LINE
  8
型材断面
  6
CONTINUOUS
 62
    47
 10
47.754405
 20
-71.259853
 11
-12.10894
 21
-71.259853
  0
LINE
  8
型材断面
  6
CONTINUOUS
 10
-71.972285
 20
-69.759853
 11
-71.972285
 21
-71.259853
  0
LINE
  8
型材断面
  6
CONTINUOUS
 10
-72.128805
 20
-69.759853
 11
-72.128805
 21
-69.593185
  0
LINE
  8
型材断面
  6
CONTINUOUS
 62
    47
 10
-72.128805
 20
-69.759853
 11
-12.10894
 21
-69.759853
  0
LINE
  8
型材断面
  6
CONTINUOUS
 62
    47
 10
-72.128805
 20
-69.593185
 11
-12.10894
 21
-69.593185
  0
LINE
  8
型材断面
  6
CONTINUOUS
 62
    47
 10
-71.972285
 20
-71.259853
 11
-12.10894
 21
-71.259853
  0
LINE
  8
型材断面
  6
CONTINUOUS
 10
48.824535
 20
20.213892
 11
-12.10894
 21
20.213892
  0
LINE
  8
型材断面
  6
CONTINUOUS
 10
48.824535
 20
45.414172
 11
-12.10894
 21
45.414172
  0
LINE
  8
型材断面
  6
CONTINUOUS
 10
-73.042415
 20
45.414172
 11
-12.10894
 21
45.414172
  0
LINE
  8
型材断面
  6
CONTINUOUS
 10
-73.042415
 20
20.213892
 11
-12.10894
 21
20.213892
  0
LINE
  8
型材断面
  6
DASHDOT
 10
-70.442275
 20
-77.836442
 11
-70.442275
 21
42.814033
  0
LINE
  8
型材断面
  6
DASHDOT
 10
7.544395
 20
22.814033
 11
7.544395
 21
42.814033
  0
LINE
  8
型材断面
  6
CONTINUOUS
 10
8.794395
 20
24.460835
 11
6.294395
 21
24.460835
  0
LINE
  8
型材断面
  6
CONTINUOUS
 10
8.794395
 20
41.16723
 11
6.294395
 21
41.16723
  0
LINE
  8
型材断面
  6
CONTINUOUS
 10
8.794395
 20
24.460835
 11
8.794395
 21
41.16723
  0
LINE
  8
型材断面
  6
CONTINUOUS
 10
6.294395
 20
24.460835
 11
6.294395
 21
41.16723
  0
LINE
  8
型材断面
  6
CONTINUOUS
 10
26.467728
 20
42.000562
 11
26.467728
 21
44.500562
  0
LINE
  8
型材断面
  6
CONTINUOUS
 10
27.301063
 20
42.000562
 11
27.301063
 21
44.500562
  0
LINE
  8
型材断面
  6
CONTINUOUS
 10
-12.525608
 20
42.000562
 11
-12.525608
 21
44.500562
  0
LINE
  8
型材断面
  6
CONTINUOUS
 10
-11.692273
 20
42.000562
 11
-11.692273
 21
44.500562
  0
LINE
  8
型材断面
  6
CONTINUOUS
 10
26.467728
 20
23.627503
 11
26.467728
 21
21.127503
  0
LINE
  8
型材断面
  6
CONTINUOUS
 10
27.301063
 20
23.627503
 11
27.301063
 21
21.127503
  0
LINE
  8
型材断面
  6
CONTINUOUS
 10
-12.525608
 20
23.627503
 11
-12.525608
 21
21.127503
  0
LINE
  8
型材断面
  6
CONTINUOUS
 10
-11.692273
 20
23.627503
 11
-11.692273
 21
21.127503
  0
LINE
  8
型材断面
  6
CONTINUOUS
 10
26.467728
 20
23.627503
 11
-11.692273
 21
23.627503
  0
LINE
  8
型材断面
  6
CONTINUOUS
 10
26.467728
 20
42.000562
 11
-11.692273
 21
42.000562
  0
LINE
  8
型材断面
  6
CONTINUOUS
 10
49.557865
 20
19.48056
 11
49.557865
 21
32.814033
  0
LINE
  8
型材断面
  6
CONTINUOUS
 10
49.557865
 20
46.147505
 11
49.557865
 21
32.814033
  0
LINE
  8
型材断面
  6
CONTINUOUS
 10
48.824535
 20
32.814033
 11
48.824535
 21
45.414175
  0
LINE
  8
型材断面
  6
CONTINUOUS
 10
48.824535
 20
32.814033
 11
48.824535
 21
20.21389
  0
LINE
  8
型材断面
  6
CONTINUOUS
 10
47.675225
 20
21.127495
 11
47.910923
 21
21.363203
  0
LINE
  8
型材断面
  6
CONTINUOUS
 10
49.557865
 20
19.48056
 11
47.793075
 21
21.24535
  0
LINE
  8
型材断面
  6
CONTINUOUS
 10
45.17522
 20
23.627495
 11
47.67522
 21
21.1275
  0
LINE
  8
型材断面
  6
CONTINUOUS
 10
45.410923
 20
23.863198
 11
47.910925
 21
21.3632
  0
LINE
  8
型材断面
  6
CONTINUOUS
 10
45.175225
 20
23.6275
 11
45.410923
 21
23.863198
  0
LINE
  8
型材断面
  6
CONTINUOUS
 10
47.675225
 20
44.50057
 11
47.910923
 21
44.264862
  0
LINE
  8
型材断面
  6
CONTINUOUS
 10
49.557865
 20
46.147505
 11
47.793075
 21
44.382715
  0
LINE
  8
型材断面
  6
CONTINUOUS
 10
45.17522
 20
42.00057
 11
47.67522
 21
44.500565
  0
LINE
  8
型材断面
  6
CONTINUOUS
 10
45.410923
 20
41.764868
 11
47.910925
 21
44.264865
  0
LINE
  8
型材断面
  6
CONTINUOUS
 10
45.175225
 20
42.000565
 11
45.410923
 21
41.764868
  0
LINE
  8
型材断面
  6
CONTINUOUS
 10
47.910925
 20
21.3632
 11
47.910925
 21
44.264865
  0
LINE
  8
型材断面
  6
CONTINUOUS
 10
45.410923
 20
32.397365
 11
47.910925
 21
32.397365
  0
LINE
  8
型材断面
  6
CONTINUOUS
 10
45.410923
 20
33.2307
 11
47.910925
 21
33.2307
  0
LINE
  8
型材断面
  6
CONTINUOUS
 10
45.410923
 20
23.863198
 11
45.410923
 21
32.397365
  0
LINE
  8
型材断面
  6
CONTINUOUS
 10
45.410923
 20
33.2307
 11
45.410923
 21
41.764868
  0
LINE
  8
型材断面
  6
CONTINUOUS
 10
-12.10894
 20
44.500562
 11
47.675217
 21
44.500562
  0
LINE
  8
型材断面
  6
CONTINUOUS
 10
27.301063
 20
42.000562
 11
45.175213
 21
42.000562
  0
LINE
  8
型材断面
  6
CONTINUOUS
 10
27.301063
 20
23.627503
 11
45.175213
 21
23.627503
  0
LINE
  8
型材断面
  6
CONTINUOUS
 10
-12.10894
 20
21.127503
 11
47.675217
 21
21.127503
  0
LINE
  8
型材断面
  6
DASHDOT
 10
-31.762275
 20
22.814033
 11
-31.762275
 21
42.814033
  0
LINE
  8
型材断面
  6
CONTINUOUS
 10
-33.012275
 20
24.460835
 11
-30.512275
 21
24.460835
  0
LINE
  8
型材断面
  6
CONTINUOUS
 10
-33.012275
 20
41.16723
 11
-30.512275
 21
41.16723
  0
LINE
  8
型材断面
  6
CONTINUOUS
 10
-33.012275
 20
24.460835
 11
-33.012275
 21
41.16723
  0
LINE
  8
型材断面
  6
CONTINUOUS
 10
-30.512275
 20
24.460835
 11
-30.512275
 21
41.16723
  0
LINE
  8
型材断面
  6
CONTINUOUS
 10
-50.685607
 20
42.000562
 11
-50.685607
 21
44.500562
  0
LINE
  8
型材断面
  6
CONTINUOUS
 10
-51.518942
 20
42.000562
 11
-51.518942
 21
44.500562
  0
LINE
  8
型材断面
  6
CONTINUOUS
 10
-50.685607
 20
23.627503
 11
-50.685607
 21
21.127503
  0
LINE
  8
型材断面
  6
CONTINUOUS
 10
-51.518942
 20
23.627503
 11
-51.518942
 21
21.127503
  0
LINE
  8
型材断面
  6
CONTINUOUS
 10
-73.775745
 20
19.48056
 11
-73.775745
 21
32.814033
  0
LINE
  8
型材断面
  6
CONTINUOUS
 10
-73.775745
 20
46.147505
 11
-73.775745
 21
32.814033
  0
LINE
  8
型材断面
  6
CONTINUOUS
 10
-73.042415
 20
32.814033
 11
-73.042415
 21
45.414175
  0
LINE
  8
型材断面
  6
CONTINUOUS
 10
-73.042415
 20
32.814033
 11
-73.042415
 21
20.21389
  0
LINE
  8
型材断面
  6
CONTINUOUS
 10
-71.893105
 20
21.127495
 11
-72.128802
 21
21.363203
  0
LINE
  8
型材断面
  6
CONTINUOUS
 10
-73.775745
 20
19.48056
 11
-72.010955
 21
21.24535
  0
LINE
  8
型材断面
  6
CONTINUOUS
 10
-69.3931
 20
23.627495
 11
-71.8931
 21
21.1275
  0
LINE
  8
型材断面
  6
CONTINUOUS
 10
-69.628802
 20
23.863198
 11
-72.128805
 21
21.3632
  0
LINE
  8
型材断面
  6
CONTINUOUS
 10
-69.393105
 20
23.6275
 11
-69.628802
 21
23.863198
  0
LINE
  8
型材断面
  6
CONTINUOUS
 10
-71.893105
 20
44.50057
 11
-72.128802
 21
44.264862
  0
LINE
  8
型材断面
  6
CONTINUOUS
 10
-73.775745
 20
46.147505
 11
-72.010955
 21
44.382715
  0
LINE
  8
型材断面
  6
CONTINUOUS
 10
-69.3931
 20
42.00057
 11
-71.8931
 21
44.500565
  0
LINE
  8
型材断面
  6
CONTINUOUS
 10
-69.628802
 20
41.764868
 11
-72.128805
 21
44.264865
  0
LINE
  8
型材断面
  6
CONTINUOUS
 10
-69.393105
 20
42.000565
 11
-69.628802
 21
41.764868
  0
LINE
  8
型材断面
  6
CONTINUOUS
 10
-72.128805
 20
21.3632
 11
-72.128805
 21
44.264865
  0
LINE
  8
型材断面
  6
CONTINUOUS
 10
-69.628802
 20
32.397365
 11
-72.128805
 21
32.397365
  0
LINE
  8
型材断面
  6
CONTINUOUS
 10
-69.628802
 20
33.2307
 11
-72.128805
 21
33.2307
  0
LINE
  8
型材断面
  6
CONTINUOUS
 10
-69.628802
 20
23.863198
 11
-69.628802
 21
32.397365
  0
LINE
  8
型材断面
  6
CONTINUOUS
 10
-69.628802
 20
33.2307
 11
-69.628802
 21
41.764868
  0
LINE
  8
型材断面
  6
CONTINUOUS
 10
-51.518942
 20
42.000562
 11
-69.393092
 21
42.000562
  0
LINE
  8
型材断面
  6
CONTINUOUS
 10
-51.518942
 20
23.627503
 11
-69.393092
 21
23.627503
  0
LINE
  8
型材断面
  6
CONTINUOUS
 10
-12.525608
 20
42.000562
 11
-50.685607
 21
42.000562
  0
LINE
  8
型材断面
  6
CONTINUOUS
 10
-12.525608
 20
23.627503
 11
-50.685607
 21
23.627503
  0
LINE
  8
型材断面
  6
CONTINUOUS
 10
-12.10894
 20
44.500562
 11
-71.893098
 21
44.500562
  0
LINE
  8
型材断面
  6
CONTINUOUS
 10
-12.10894
 20
21.127503
 11
-71.893098
 21
21.127503
  0
LINE
  8
ガラス
  6
CONTINUOUS
 10
-50.208895
 20
34.082645
 11
-52.83986
 21
31.451683
  0
LINE
  8
ガラス
  6
CONTINUOUS
 10
-50.86507
 20
32.107855
 11
-52.183685
 21
33.426477
  0
LINE
  8
ガラス
  6
CONTINUOUS
 10
-51.718115
 20
32.138305
 11
-50.701598
 21
33.154823
  0
LINE
  8
ガラス
  6
CONTINUOUS
 10
-51.330642
 20
33.396025
 11
-52.347155
 21
32.37951
  0
LINE
  8
ガラス
  6
CONTINUOUS
 10
-10.750438
 20
34.082645
 11
-13.381402
 21
31.451683
  0
LINE
  8
ガラス
  6
CONTINUOUS
 10
-11.406613
 20
32.107855
 11
-12.725227
 21
33.426477
  0
LINE
  8
ガラス
  6
CONTINUOUS
 10
-12.259657
 20
32.138305
 11
-11.24314
 21
33.154823
  0
LINE
  8
ガラス
  6
CONTINUOUS
 10
-11.872185
 20
33.396025
 11
-12.888698
 21
32.37951
  0
LINE
  8
ガラス
  6
CONTINUOUS
 10
28.52655
 20
34.082645
 11
25.895585
 21
31.451683
  0
LINE
  8
ガラス
  6
CONTINUOUS
 10
27.870375
 20
32.107855
 11
26.55176
 21
33.426477
  0
LINE
  8
ガラス
  6
CONTINUOUS
 10
27.01733
 20
32.138305
 11
28.033848
 21
33.154823
  0
LINE
  8
ガラス
  6
CONTINUOUS
 10
27.404803
 20
33.396025
 11
26.38829
 21
32.37951
  0
LINE
  8
ガラス
  6
CONTINUOUS
 10
157.91659
 20
-84.654215
 11
119.683258
 21
-84.654215
  0
LINE
  8
ガラス
  6
CONTINUOUS
 10
157.91659
 20
-84.654215
 11
157.91659
 21
-64.487547
  0
LINE
  8
ガラス
  6
CONTINUOUS
 10
157.91659
 20
-64.487547
 11
119.683258
 21
-64.487547
  0
LINE
  8
ガラス
  6
CONTINUOUS
 10
119.683258
 20
-84.654215
 11
119.683258
 21
-64.487547
  0
TEXT
  7
TextStyle03
  8
文字
  6
CONTINUOUS
 10
-108.5
 20
84.95
  1
は排水穴位置を示す
 40
3.0
 72
     5
 11
-78.5
 21
84.95
  0
TEXT
  7
TextStyle03
  8
文字
  6
CONTINUOUS
 10
-108.5
 20
79.425
  1
はケーシング位置を示す
 40
3.0
 72
     5
 11
-71.75
 21
79.425
  0
TEXT
  7
TextStyle03
  8
文字
  6
CONTINUOUS
 10
-108.5
 20
76.05
  1
２ヶ所中1ヶ所に設定
 40
3.0
 72
     5
 11
-76.8125
 21
76.05
  0
TEXT
  7
TextStyle03
  8
文字
  6
CONTINUOUS
 10
67.45
 20
97.05
  1
ＮＳコード：ＮＳＦＨＺ
 40
5.0
 72
     5
 11
128.7
 21
97.05
  0
TEXT
  7
TextStyle03
  8
文字
  6
CONTINUOUS
 10
139.525
 20
-78.225
  1
網入り6.8t
 40
3.0
 72
     5
 11
156.2125
 21
-78.225
  0
TEXT
  7
TextStyle03
  8
文字
  6
CONTINUOUS
 10
146.2
 20
-82.9
  1
×３枚
 40
3.0
 72
     5
 11
155.95
 21
-82.9
  0
TEXT
  7
TextStyle03
  8
文字
  6
CONTINUOUS
 10
-91.5
 20
11.275
  1
アンカーピッチ
 40
3.0
 50
90.0
 72
     5
 11
-91.5
 21
34.525
  0
TEXT
  7
TextStyle03
  8
文字
  6
CONTINUOUS
 10
-59.3
 20
79.775
  1
アンカーピッチ
 40
3.0
 72
     5
 11
-36.05
 21
79.775
  0
TEXT
  7
TextStyle03
  8
文字
  6
CONTINUOUS
 10
-112.225
 20
70.075
  1
アンカー数量　１４ヶ所
 40
3.0
 72
     5
 11
-75.475
 21
70.075
  0
TEXT
  7
TextStyle03
  8
文字
  6
CONTINUOUS
 10
130.025
 20
14.5
  1
45°
 40
3.0
 50
90.0
 72
     5
 11
130.025
 21
20.875
  0
TEXT
  7
TextStyle03
  8
文字
  6
CONTINUOUS
 10
67.475
 20
124.525
  1
シリーズ：ＴＦ２ＦＨＬ
 40
5.0
 72
     5
 11
128.725
 21
124.525
  0
TEXT
  7
TextStyle03
  8
文字
  6
CONTINUOUS
 10
67.475
 20
118.9
  1
　　　　　（片側開閉）600×3500タイプ
 40
5.0
 72
     5
 11
170.9125
 21
118.9
  0
TEXT
  7
TextStyle03
  8
文字
  6
CONTINUOUS
 10
67.475
 20
113.275
  1

 40
5.0
 41
1.125
  0
TEXT
  7
TextStyle03
  8
文字
  6
CONTINUOUS
 10
67.475
 20
107.65
  1
図面名　：外観姿図
 40
5.0
 72
     5
 11
117.475
 21
107.65
  0
INSERT
  2
*DIM_0002
  8
寸法
  6
CONTINUOUS
 10
0.0
 20
0.0
  0
INSERT
  2
*DIM_0003
  8
寸法
  6
CONTINUOUS
 10
0.0
 20
0.0
  0
INSERT
  2
*DIM_0004
  8
寸法
  6
CONTINUOUS
 10
0.0
 20
0.0
  0
INSERT
  2
*DIM_0005
  8
寸法
  6
CONTINUOUS
 10
0.0
 20
0.0
  0
INSERT
  2
*DIM_0006
  8
寸法
  6
CONTINUOUS
 10
0.0
 20
0.0
  0
INSERT
  2
*DIM_0007
  8
寸法
  6
CONTINUOUS
 10
0.0
 20
0.0
  0
INSERT
  2
*DIM_0008
  8
寸法
  6
CONTINUOUS
 10
0.0
 20
0.0
  0
INSERT
  2
*DIM_0009
  8
寸法
  6
CONTINUOUS
 10
0.0
 20
0.0
  0
INSERT
  2
*DIM_0010
  8
寸法
  6
CONTINUOUS
 10
0.0
 20
0.0
  0
INSERT
  2
*DIM_0011
  8
寸法
  6
CONTINUOUS
 10
0.0
 20
0.0
  0
INSERT
  2
*DIM_0012
  8
寸法
  6
CONTINUOUS
 10
0.0
 20
0.0
  0
INSERT
  2
*DIM_0013
  8
寸法
  6
CONTINUOUS
 10
0.0
 20
0.0
  0
INSERT
  2
*DIM_0014
  8
寸法
  6
CONTINUOUS
 10
0.0
 20
0.0
  0
INSERT
  2
*DIM_0015
  8
寸法
  6
CONTINUOUS
 10
0.0
 20
0.0
  0
INSERT
  2
*DIM_0016
  8
寸法
  6
CONTINUOUS
 10
0.0
 20
0.0
  0
INSERT
  2
*DIM_0017
  8
寸法
  6
CONTINUOUS
 10
0.0
 20
0.0
  0
INSERT
  2
*DIM_0019
  8
寸法
  6
CONTINUOUS
 10
0.0
 20
0.0
  0
INSERT
  2
*GRP_0018
  8
別途部材
  6
CONTINUOUS
 10
0.0
 20
0.0
  0
ENDSEC
  0
EOF
