  0
SECTION
  2
HEADER
  9
$EXTMIN
 10
-210.0
 20
-148.5
  9
$EXTMAX
 10
210.0
 20
148.5
  9
$PDMODE
 70
    32
  9
$PDSIZE
 40
1.5
  9
$LTSCALE
 40
10.0
  0
ENDSEC
  0
SECTION
  2
TABLES
  0
TABLE
  2
LTYPE
 70
    15
  0
LTYPE
  2
CONTINUOUS
 70
    64
  3
実線
 72
    65
 73
     0
 40
0.0
  0
LTYPE
  2
DASHED
 70
    64
  3
破線A
 72
    65
 73
     2
 40
0.6
 49
0.4
 49
-0.2
  0
LTYPE
  2
DASHEDX2
 70
    64
  3
破線B
 72
    65
 73
     2
 40
1.3
 49
0.9
 49
-0.4
  0
LTYPE
  2
DASHDOT
 70
    64
  3
１点鎖線A
 72
    65
 73
     4
 40
0.5375
 49
0.375
 49
-0.05
 49
0.0625
 49
-0.05
  0
LTYPE
  2
DASHDOTX2
 70
    64
  3
１点鎖線B
 72
    65
 73
     4
 40
1.075
 49
0.75
 49
-0.1
 49
0.125
 49
-0.1
  0
LTYPE
  2
DIVIDE2
 70
    64
  3
２点鎖線A
 72
    65
 73
     6
 40
0.5125
 49
0.3
 49
-0.0375
 49
0.05
 49
-0.0375
 49
0.05
 49
-0.0375
  0
LTYPE
  2
DIVIDE
 70
    64
  3
２点鎖線B
 72
    65
 73
     6
 40
1.05
 49
0.55
 49
-0.1
 49
0.1
 49
-0.1
 49
0.1
 49
-0.1
  0
LTYPE
  2
DOT
 70
    64
  3
点線A
 72
    65
 73
     2
 40
0.1125
 49
0.0625
 49
-0.05
  0
LTYPE
  2
DOTX2
 70
    64
  3
点線B
 72
    65
 73
     2
 40
0.275
 49
0.15
 49
-0.125
  0
LTYPE
  2
CONTINUOUS
 70
    64
  3
実線
 72
    65
 73
     0
 40
0.0
  0
LTYPE
  2
CONTINUOUS
 70
    64
  3
実線
 72
    65
 73
     0
 40
0.0
  0
LTYPE
  2
CONTINUOUS
 70
    64
  3
実線
 72
    65
 73
     0
 40
0.0
  0
LTYPE
  2
CONTINUOUS
 70
    64
  3
実線
 72
    65
 73
     0
 40
0.0
  0
LTYPE
  2
CONTINUOUS
 70
    64
  3
実線
 72
    65
 73
     0
 40
0.0
  0
LTYPE
  2
CONTINUOUS
 70
    64
  3
実線
 72
    65
 73
     0
 40
0.0
  0
ENDTAB
  0
TABLE
  2
LAYER
 70
    34
  0
LAYER
  2
通り芯
 70
     0
 62
    15
  6
CONTINUOUS
  0
LAYER
  2
補助線
 70
     0
 62
    16
  6
DOT
  0
LAYER
  2
躯体
 70
     0
 62
    31
  6
CONTINUOUS
  0
LAYER
  2
型材
 70
     0
 62
    32
  6
CONTINUOUS
  0
LAYER
  2
型材断面
 70
     0
 62
    47
  6
CONTINUOUS
  0
LAYER
  2
ガラス
 70
     0
 62
    48
  6
CONTINUOUS
  0
LAYER
  2
ゴム等
 70
     0
 62
    63
  6
CONTINUOUS
  0
LAYER
  2
ボルト／ビス
 70
     0
 62
    64
  6
CONTINUOUS
  0
LAYER
  2
文字
 70
     0
 62
    79
  6
CONTINUOUS
  0
LAYER
  2
寸法
 70
     0
 62
    80
  6
CONTINUOUS
  0
LAYER
  2
ﾊｯﾁﾝｸﾞ
 70
     0
 62
    95
  6
CONTINUOUS
  0
LAYER
  2
別途部材
 70
     0
 62
    96
  6
CONTINUOUS
  0
LAYER
  2
曲げ物
 70
     0
 62
   111
  6
CONTINUOUS
  0
LAYER
  2
鉄骨等
 70
     0
 62
   112
  6
CONTINUOUS
  0
LAYER
  2
St
 70
     0
 62
   127
  6
CONTINUOUS
  0
LAYER
  2
その他部品等
 70
     0
 62
   128
  6
CONTINUOUS
  0
LAYER
  2
ｶﾞｽｹｯﾄ
 70
     0
 62
   143
  6
CONTINUOUS
  0
LAYER
  2
ｽｹｯﾁ
 70
     0
 62
    14
  6
CONTINUOUS
  0
LAYER
  2
0
 70
     0
 62
    17
  6
CONTINUOUS
  0
LAYER
  2
1
 70
     0
 62
    30
  6
CONTINUOUS
  0
LAYER
  2
4
 70
     0
 62
    33
  6
CONTINUOUS
  0
LAYER
  2
ﾚｲﾔ3
 70
     0
 62
    46
  6
CONTINUOUS
  0
LAYER
  2
外形線
 70
     0
 62
    49
  6
CONTINUOUS
  0
LAYER
  2
部品
 70
     0
 62
    14
  6
CONTINUOUS
  0
LAYER
  2
サッシ芯
 70
     0
 62
    17
  6
DASHDOTX2
  0
LAYER
  2
寸法線
 70
     0
 62
    62
  6
CONTINUOUS
  0
LAYER
  2
姿図外形線
 70
     0
 62
    65
  6
CONTINUOUS
  0
LAYER
  2
姿補助線
 70
     0
 62
    30
  6
CONTINUOUS
  0
LAYER
  2
透視線
 70
     0
 62
    78
  6
DOT
  0
LAYER
  2
用紙
 70
     0
 62
    81
  6
CONTINUOUS
  0
LAYER
  2
実線図枠
 70
     0
 62
    94
  6
CONTINUOUS
  0
LAYER
  2
補助図枠
 70
     0
 62
    97
  6
CONTINUOUS
  0
LAYER
  2
建具記号
 70
     0
 62
   110
  6
CONTINUOUS
  0
LAYER
  2
補助文字
 70
     0
 62
   113
  6
CONTINUOUS
  0
ENDTAB
  0
TABLE
  2
STYLE
 70
    10
  0
STYLE
  2
STANDARD
 70
     0
 40
1.0
 41
1.0
 42
1.0
 50
0.0
 71
     0
  3
TXT
  4
BIGFONT
  0
STYLE
  2
TATE
 70
     4
 40
1.0
 41
1.0
 42
1.0
 50
0.0
 71
     0
  3
TXT
  4
BIGFONT
  0
STYLE
  2
TextStyle03
 70
     0
 40
1.0
 41
1.0
 42
1.0
 50
0.0
 71
     0
  3
MONOTXT
  4
BIGFONT
  0
STYLE
  2
TextStyle04
 70
     0
 40
1.0
 41
1.0
 42
1.0
 50
0.0
 71
     0
  3
MONOTXT
  4
BIGFONT
  0
STYLE
  2
TextStyle05
 70
     0
 40
1.0
 41
1.0
 42
1.0
 50
0.0
 71
     0
  3
MONOTXT
  4
BIGFONT
  0
STYLE
  2
TextStyle06
 70
     0
 40
1.0
 41
1.0
 42
1.0
 50
0.0
 71
     0
  3
MONOTXT
  4
BIGFONT
  0
STYLE
  2
TextStyle07
 70
     0
 40
1.0
 41
1.0
 42
1.0
 50
0.0
 71
     0
  3
MONOTXT
  4
BIGFONT
  0
STYLE
  2
TextStyle08
 70
     0
 40
1.0
 41
1.0
 42
1.0
 50
0.0
 71
     0
  3
MONOTXT
  4
BIGFONT
  0
STYLE
  2
TextStyle09
 70
     0
 40
1.0
 41
1.0
 42
1.0
 50
0.0
 71
     0
  3
MONOTXT
  4
BIGFONT
  0
STYLE
  2
TextStyle10
 70
     0
 40
1.0
 41
1.0
 42
1.0
 50
0.0
 71
     0
  3
MONOTXT
  4
BIGFONT
  0
ENDTAB
  0
ENDSEC
  0
SECTION
  2
BLOCKS
  0
BLOCK
  2
*GRP_0001
 70
    65
 10
0.0
 20
0.0
  0
LINE
  8
型材断面
  6
CONTINUOUS
 10
195.0
 20
133.5
 11
195.0
 21
-133.5
  0
LINE
  8
型材断面
  6
CONTINUOUS
 10
195.0
 20
-133.5
 11
-185.0
 21
-133.5
  0
LINE
  8
型材断面
  6
CONTINUOUS
 10
-185.0
 20
-133.5
 11
-185.0
 21
133.5
  0
LINE
  8
型材断面
  6
CONTINUOUS
 10
195.0
 20
133.5
 11
-185.0
 21
133.5
  0
LINE
  8
型材断面
  6
CONTINUOUS
 10
145.0
 20
-133.5
 11
145.0
 21
-118.5
  0
LINE
  8
型材断面
  6
CONTINUOUS
 10
195.0
 20
-118.5
 11
145.0
 21
-118.5
  0
ENDBLK
  0
BLOCK
  2
*DIM_0002
 70
    65
 10
0.0
 20
0.0
  0
LINE
  8
寸法
  6
BYBLOCK
 62
     0
 10
-45.2636
 20
-13.511205
 11
-45.2636
 21
-13.121378
  0
LINE
  8
寸法
  6
BYBLOCK
 62
     0
 10
21.403067
 20
-13.121378
 11
-45.2636
 21
-13.121378
  0
POINT
  8
寸法
 62
     0
 10
21.403067
 20
-13.121378
  0
POINT
  8
寸法
 62
     0
 10
-45.2636
 20
-13.121378
  0
TEXT
  7
TextStyle03
  8
寸法
  6
CONTINUOUS
 62
     0
 10
-23.66875
 20
-12.75
  1
呼称寸法　2000
 40
3.0
 72
     5
 11
-0.23125
 21
-12.75
  0
ENDBLK
  0
BLOCK
  2
*DIM_0003
 70
    65
 10
0.0
 20
0.0
  0
LINE
  8
寸法
  6
BYBLOCK
 62
     0
 10
-28.596933
 20
19.183902
 11
-28.596933
 21
13.85658
  0
LINE
  8
寸法
  6
BYBLOCK
 62
     0
 10
4.736403
 20
19.183902
 11
4.736403
 21
13.85658
  0
LINE
  8
寸法
  6
BYBLOCK
 62
     0
 10
-28.596933
 20
13.85658
 11
4.736403
 21
13.85658
  0
POINT
  8
寸法
 62
     0
 10
-28.596933
 20
13.85658
  0
POINT
  8
寸法
 62
     0
 10
4.736403
 20
13.85658
  0
TEXT
  7
TextStyle03
  8
寸法
  6
CONTINUOUS
 62
     0
 10
-15.23125
 20
14.225
  1
1000
 40
3.0
 72
     5
 11
-8.66875
 21
14.225
  0
ENDBLK
  0
BLOCK
  2
*DIM_0004
 70
    65
 10
0.0
 20
0.0
  0
LINE
  8
寸法
  6
BYBLOCK
 62
     0
 10
56.879652
 20
22.814033
 11
56.879652
 21
52.814033
  0
POINT
  8
寸法
 62
     0
 10
56.879652
 20
22.814033
  0
POINT
  8
寸法
 62
     0
 10
56.879652
 20
52.814033
  0
TEXT
  7
TextStyle03
  8
寸法
  6
CONTINUOUS
 62
     0
 10
56.55
 20
26.9
  1
呼称寸法　900
 40
3.0
 50
90.0
 72
     5
 11
56.55
 21
48.65
  0
ENDBLK
  0
BLOCK
  2
*DIM_0005
 70
    65
 10
0.0
 20
0.0
  0
LINE
  8
寸法
  6
BYBLOCK
 62
     0
 10
19.403067
 20
17.20722
 11
19.403067
 21
14.182178
  0
LINE
  8
寸法
  6
BYBLOCK
 62
     0
 10
21.403067
 20
14.182178
 11
19.403067
 21
14.182178
  0
POINT
  8
寸法
 62
     0
 10
21.403067
 20
14.182178
  0
POINT
  8
寸法
 62
     0
 10
19.403067
 20
14.182178
  0
TEXT
  7
TextStyle03
  8
寸法
  6
CONTINUOUS
 62
     0
 10
17.53125
 20
10.4
  1
60
 40
3.0
 72
     5
 11
20.71875
 21
10.4
  0
ENDBLK
  0
BLOCK
  2
*DIM_0006
 70
    65
 10
0.0
 20
0.0
  0
LINE
  8
寸法
  6
BYBLOCK
 62
     0
 10
-43.263598
 20
17.20722
 11
-43.263598
 21
14.182178
  0
LINE
  8
寸法
  6
BYBLOCK
 62
     0
 10
-45.263598
 20
14.182178
 11
-43.263598
 21
14.182178
  0
POINT
  8
寸法
 62
     0
 10
-45.263598
 20
14.182178
  0
POINT
  8
寸法
 62
     0
 10
-43.263598
 20
14.182178
  0
TEXT
  7
TextStyle03
  8
寸法
  6
CONTINUOUS
 62
     0
 10
-44.56875
 20
10.4
  1
60
 40
3.0
 72
     5
 11
-41.38125
 21
10.4
  0
ENDBLK
  0
BLOCK
  2
*DIM_0007
 70
    65
 10
0.0
 20
0.0
  0
LINE
  8
寸法
  6
BYBLOCK
 62
     0
 10
113.288907
 20
56.147508
 11
56.879652
 21
56.147508
  0
LINE
  8
寸法
  6
BYBLOCK
 62
     0
 10
56.879652
 20
52.814033
 11
56.879652
 21
56.147508
  0
POINT
  8
寸法
 62
     0
 10
56.879652
 20
52.814033
  0
POINT
  8
寸法
 62
     0
 10
56.879652
 20
56.147508
  0
TEXT
  7
TextStyle03
  8
寸法
  6
CONTINUOUS
 62
     0
 10
59.85
 20
57.2375
  1
100
 40
3.0
 50
90.0
 72
     5
 11
59.85
 21
62.1125
  0
ENDBLK
  0
BLOCK
  2
*DIM_0008
 70
    65
 10
0.0
 20
0.0
  0
LINE
  8
寸法
  6
BYBLOCK
 62
     0
 10
113.288907
 20
19.480558
 11
56.879652
 21
19.480558
  0
LINE
  8
寸法
  6
BYBLOCK
 62
     0
 10
56.879652
 20
22.814033
 11
56.879652
 21
19.480558
  0
POINT
  8
寸法
 62
     0
 10
56.879652
 20
22.814033
  0
POINT
  8
寸法
 62
     0
 10
56.879652
 20
19.480558
  0
TEXT
  7
TextStyle03
  8
寸法
  6
CONTINUOUS
 62
     0
 10
59.85
 20
13.5125
  1
100
 40
3.0
 50
90.0
 72
     5
 11
59.85
 21
18.3875
  0
ENDBLK
  0
BLOCK
  2
*DIM_0009
 70
    65
 10
0.0
 20
0.0
  0
LINE
  8
寸法
  6
BYBLOCK
 62
     0
 10
24.736542
 20
-72.60973
 11
24.736542
 21
-13.121378
  0
LINE
  8
寸法
  6
BYBLOCK
 62
     0
 10
21.403067
 20
-13.121378
 11
24.736542
 21
-13.121378
  0
POINT
  8
寸法
 62
     0
 10
21.403067
 20
-13.121378
  0
POINT
  8
寸法
 62
     0
 10
24.736542
 20
-13.121378
  0
TEXT
  7
TextStyle03
  8
寸法
  6
CONTINUOUS
 62
     0
 10
25.7875
 20
-16.025
  1
100
 40
3.0
 72
     5
 11
30.6625
 21
-16.025
  0
ENDBLK
  0
BLOCK
  2
*DIM_0010
 70
    65
 10
0.0
 20
0.0
  0
LINE
  8
寸法
  6
BYBLOCK
 62
     0
 10
-48.597073
 20
-72.60973
 11
-48.597073
 21
-13.121378
  0
LINE
  8
寸法
  6
BYBLOCK
 62
     0
 10
-45.263598
 20
-13.121378
 11
-48.597073
 21
-13.121378
  0
POINT
  8
寸法
 62
     0
 10
-45.263598
 20
-13.121378
  0
POINT
  8
寸法
 62
     0
 10
-48.597073
 20
-13.121378
  0
TEXT
  7
TextStyle03
  8
寸法
  6
CONTINUOUS
 62
     0
 10
-54.5375
 20
-16.025
  1
100
 40
3.0
 72
     5
 11
-49.6625
 21
-16.025
  0
ENDBLK
  0
BLOCK
  2
*DIM_0011
 70
    65
 10
0.0
 20
0.0
  0
LINE
  8
寸法
  6
BYBLOCK
 62
     0
 10
160.91659
 20
-84.654215
 11
166.877572
 21
-84.654215
  0
LINE
  8
寸法
  6
BYBLOCK
 62
     0
 10
160.91659
 20
-54.487547
 11
166.877572
 21
-54.487547
  0
LINE
  8
寸法
  6
BYBLOCK
 62
     0
 10
166.877572
 20
-84.654215
 11
166.877572
 21
-54.487547
  0
POINT
  8
寸法
 62
     0
 10
166.877572
 20
-84.654215
  0
POINT
  8
寸法
 62
     0
 10
166.877572
 20
-54.487547
  0
TEXT
  7
TextStyle03
  8
寸法
  6
CONTINUOUS
 62
     0
 10
166.5
 20
-72.0125
  1
905
 40
3.0
 50
90.0
 72
     5
 11
166.5
 21
-67.1375
  0
ENDBLK
  0
BLOCK
  2
*DIM_0012
 70
    65
 10
0.0
 20
0.0
  0
LINE
  8
寸法
  6
BYBLOCK
 62
     0
 10
-48.2636
 20
47.814033
 11
-61.556437
 21
47.814033
  0
LINE
  8
寸法
  6
BYBLOCK
 62
     0
 10
-48.2636
 20
27.814033
 11
-61.556437
 21
27.814033
  0
LINE
  8
寸法
  6
BYBLOCK
 62
     0
 10
-61.556437
 20
47.814033
 11
-61.556437
 21
27.814033
  0
POINT
  8
寸法
 62
     0
 10
-61.556437
 20
47.814033
  0
POINT
  8
寸法
 62
     0
 10
-61.556437
 20
27.814033
  0
TEXT
  7
TextStyle03
  8
寸法
  6
CONTINUOUS
 62
     0
 10
-61.95
 20
35.3625
  1
600
 40
3.0
 50
90.0
 72
     5
 11
-61.95
 21
40.2375
  0
ENDBLK
  0
BLOCK
  2
*DIM_0013
 70
    65
 10
0.0
 20
0.0
  0
LINE
  8
寸法
  6
BYBLOCK
 62
     0
 10
-35.263598
 20
55.814033
 11
-35.263598
 21
84.741653
  0
LINE
  8
寸法
  6
BYBLOCK
 62
     0
 10
-11.930265
 20
55.814033
 11
-11.930265
 21
84.741653
  0
LINE
  8
寸法
  6
BYBLOCK
 62
     0
 10
-35.263598
 20
84.741653
 11
-11.930265
 21
84.741653
  0
POINT
  8
寸法
 62
     0
 10
-35.263598
 20
84.741653
  0
POINT
  8
寸法
 62
     0
 10
-11.930265
 20
84.741653
  0
TEXT
  7
TextStyle03
  8
寸法
  6
CONTINUOUS
 62
     0
 10
-26.0375
 20
85.125
  1
700
 40
3.0
 72
     5
 11
-21.1625
 21
85.125
  0
ENDBLK
  0
BLOCK
  2
*DIM_0014
 70
    65
 10
0.0
 20
0.0
  0
LINE
  8
寸法
  6
BYBLOCK
 62
     0
 10
11.403067
 20
55.814033
 11
11.403067
 21
84.741653
  0
LINE
  8
寸法
  6
BYBLOCK
 62
     0
 10
-11.930265
 20
84.741653
 11
11.403067
 21
84.741653
  0
POINT
  8
寸法
 62
     0
 10
11.403067
 20
84.741653
  0
TEXT
  7
TextStyle03
  8
寸法
  6
CONTINUOUS
 62
     0
 10
-2.7125
 20
85.125
  1
700
 40
3.0
 72
     5
 11
2.1625
 21
85.125
  0
ENDBLK
  0
BLOCK
  2
*GRP_0015
 70
    65
 10
0.0
 20
0.0
  0
LINE
  8
別途部材
  6
CONTINUOUS
 62
    96
 10
114.922218
 20
54.047693
 11
114.922218
 21
53.947693
  0
LINE
  8
別途部材
  6
CONTINUOUS
 62
    96
 10
112.821138
 20
54.147693
 11
112.89081
 21
55.478498
  0
LINE
  8
別途部材
  6
CONTINUOUS
 62
    96
 10
113.438883
 20
55.487693
 11
113.322218
 21
55.754357
  0
LINE
  8
別途部材
  6
CONTINUOUS
 62
    96
 10
113.338883
 20
55.466775
 11
113.271363
 21
55.621107
  0
LINE
  8
別途部材
  6
CONTINUOUS
 62
    96
 10
112.79204
 20
55.504613
 11
112.92249
 21
55.764815
  0
LINE
  8
別途部材
  6
CONTINUOUS
 62
    96
 10
112.89081
 20
55.478498
 11
113.02297
 21
55.742108
  0
LINE
  8
別途部材
  6
CONTINUOUS
 62
    96
 10
113.058573
 20
55.677227
 11
112.994925
 21
55.600098
  0
LINE
  8
別途部材
  6
DASHDOTX2
 62
    96
 10
113.122218
 20
55.754357
 11
112.808733
 21
55.754357
  0
LINE
  8
別途部材
  6
DASHDOTX2
 62
    96
 10
113.122218
 20
55.754357
 11
113.452678
 21
55.754357
  0
LINE
  8
別途部材
  6
DASHDOTX2
 62
    96
 10
113.122218
 20
55.754357
 11
113.122218
 21
55.490887
  0
LINE
  8
別途部材
  6
DASHDOTX2
 62
    96
 10
113.122218
 20
55.754357
 11
113.122218
 21
56.032668
  0
LINE
  8
別途部材
  6
CONTINUOUS
 62
    96
 10
113.338883
 20
53.947693
 11
113.338883
 21
55.466775
  0
LINE
  8
別途部材
  6
CONTINUOUS
 62
    96
 10
113.438883
 20
54.047693
 11
113.438883
 21
55.487693
  0
LINE
  8
別途部材
  6
CONTINUOUS
 62
    96
 10
111.587803
 20
54.247693
 11
112.726235
 21
54.247693
  0
LINE
  8
別途部材
  6
CONTINUOUS
 62
    96
 10
111.587803
 20
54.147693
 11
111.587803
 21
54.247693
  0
LINE
  8
別途部材
  6
CONTINUOUS
 62
    96
 10
111.587803
 20
54.147693
 11
112.821138
 21
54.147693
  0
CIRCLE
  8
別途部材
  6
CONTINUOUS
 62
    96
 10
113.122218
 20
55.754357
 40
0.1
  0
ARC
  8
別途部材
  6
CONTINUOUS
 62
    96
 10
113.122215
 20
55.75436
 40
0.2
 50
218.780606
 51
537.001556
  0
LINE
  8
別途部材
  6
CONTINUOUS
 62
    96
 10
113.338883
 20
53.947693
 11
114.922218
 21
53.947693
  0
LINE
  8
別途部材
  6
CONTINUOUS
 62
    96
 10
113.438883
 20
54.047693
 11
114.922218
 21
54.047693
  0
LINE
  8
別途部材
  6
CONTINUOUS
 62
    96
 10
112.79204
 20
55.504613
 11
112.726235
 21
54.247693
  0
ENDBLK
  0
BLOCK
  2
*DIM_0016
 70
    65
 10
0.0
 20
0.0
  0
LINE
  8
寸法
  6
CONTINUOUS
 10
29.736542
 20
-76.10973
 11
35.3697
 21
-76.10973
  0
LINE
  8
寸法
  6
CONTINUOUS
 10
28.0896
 20
-69.593182
 11
35.3697
 21
-69.593182
  0
LINE
  8
寸法
  6
CONTINUOUS
 10
35.3697
 20
-76.10973
 11
35.3697
 21
-69.593182
  0
POINT
  8
寸法
 10
35.3697
 20
-76.10973
  0
POINT
  8
寸法
 10
35.3697
 20
-69.593182
  0
TEXT
  7
TextStyle03
  8
寸法
  6
CONTINUOUS
 10
39.475
 20
-78.375
  1
195.5
 40
4.0
 50
90.0
 72
     5
 11
39.475
 21
-67.375
  0
ENDBLK
  0
BLOCK
  2
*DIM_0017
 70
    65
 10
0.0
 20
0.0
  0
LINE
  8
寸法
  6
CONTINUOUS
 10
157.91659
 20
-45.195643
 11
125.049922
 21
-45.195643
  0
POINT
  8
寸法
 10
157.91659
 20
-45.195643
  0
POINT
  8
寸法
 10
125.049922
 20
-45.195643
  0
TEXT
  7
TextStyle03
  8
寸法
  6
CONTINUOUS
 10
139.0375
 20
-44.85
  1
986
 40
3.0
 72
     5
 11
143.9125
 21
-44.85
  0
ENDBLK
  0
ENDSEC
  0
SECTION
  2
ENTITIES
  0
POLYLINE
  8
通り芯
  6
CONTINUOUS
 66
     1
 70
     1
  0
VERTEX
  8
通り芯
 10
-210.0
 20
-148.5
  0
VERTEX
  8
通り芯
 10
210.0
 20
-148.5
  0
VERTEX
  8
通り芯
 10
210.0
 20
148.5
  0
VERTEX
  8
通り芯
 10
-210.0
 20
148.5
  0
SEQEND
  0
INSERT
  2
*GRP_0001
  8
型材断面
  6
CONTINUOUS
 10
0.0
 20
0.0
  0
LINE
  8
型材断面
  6
DASHDOT
 10
21.403067
 20
-77.836442
 11
21.403067
 21
52.814033
  0
LINE
  8
型材断面
  6
DASHDOT
 10
-11.930265
 20
-77.836442
 11
-11.930265
 21
52.814033
  0
LINE
  8
型材断面
  6
DASHDOT
 10
-45.2636
 20
-77.836442
 11
-45.2636
 21
52.814033
  0
LINE
  8
型材断面
  6
DASHDOT
 10
119.07983
 20
52.814033
 11
-45.2636
 21
52.814033
  0
LINE
  8
型材断面
  6
DASHDOT
 10
119.07983
 20
37.814033
 11
-45.2636
 21
37.814033
  0
LINE
  8
型材断面
  6
DASHDOT
 10
119.07983
 20
22.814033
 11
-45.2636
 21
22.814033
  0
LINE
  8
型材断面
  6
DASHDOT
 10
-11.930265
 20
22.814033
 11
-11.930265
 21
52.814033
  0
LINE
  8
型材断面
  6
CONTINUOUS
 10
-28.596933
 20
55.444162
 11
-30.092562
 21
58.03467
  0
LINE
  8
型材断面
  6
CONTINUOUS
 10
-28.596933
 20
55.444162
 11
-27.101303
 21
58.03467
  0
LINE
  8
型材断面
  6
CONTINUOUS
 10
-27.101303
 20
58.03467
 11
-30.092562
 21
58.03467
  0
LINE
  8
型材断面
  6
CONTINUOUS
 10
-47.89373
 20
37.814033
 11
-50.484238
 21
39.309663
  0
LINE
  8
型材断面
  6
CONTINUOUS
 10
-47.89373
 20
37.814033
 11
-50.484238
 21
36.318403
  0
LINE
  8
型材断面
  6
CONTINUOUS
 10
-50.484238
 20
36.318403
 11
-50.484238
 21
39.309663
  0
LINE
  8
型材断面
  6
CONTINUOUS
 10
-28.596933
 20
20.183902
 11
-30.092562
 21
17.593395
  0
LINE
  8
型材断面
  6
CONTINUOUS
 10
-28.596933
 20
20.183902
 11
-27.101303
 21
17.593395
  0
LINE
  8
型材断面
  6
CONTINUOUS
 10
-27.101303
 20
17.593395
 11
-30.092562
 21
17.593395
  0
LINE
  8
型材断面
  6
CONTINUOUS
 10
-99.142122
 20
90.791505
 11
-98.546068
 21
88.200998
  0
LINE
  8
型材断面
  6
CONTINUOUS
 10
-99.142122
 20
90.791505
 11
-99.73818
 21
88.200998
  0
LINE
  8
型材断面
  6
CONTINUOUS
 10
-99.73818
 20
88.200998
 11
-98.546068
 21
88.200998
  0
LINE
  8
型材断面
  6
CONTINUOUS
 10
-105.16471
 20
84.922105
 11
-58.922933
 21
84.922105
  0
LINE
  8
型材断面
  6
CONTINUOUS
 10
-99.142122
 20
97.32138
 11
-100.637752
 21
94.730873
  0
LINE
  8
型材断面
  6
CONTINUOUS
 10
-99.142122
 20
97.32138
 11
-97.646493
 21
94.730873
  0
LINE
  8
型材断面
  6
CONTINUOUS
 10
-97.646493
 20
94.730873
 11
-100.637752
 21
94.730873
  0
LINE
  8
型材断面
  6
CONTINUOUS
 10
-105.16471
 20
93.792277
 11
-58.922933
 21
93.792277
  0
LINE
  8
型材断面
  6
CONTINUOUS
 10
-105.16471
 20
79.134073
 11
-58.922933
 21
79.134073
  0
LINE
  8
型材断面
  6
CONTINUOUS
 10
4.736403
 20
55.444162
 11
6.232033
 21
58.03467
  0
LINE
  8
型材断面
  6
CONTINUOUS
 10
4.736403
 20
55.444162
 11
3.240772
 21
58.03467
  0
LINE
  8
型材断面
  6
CONTINUOUS
 10
3.240772
 20
58.03467
 11
6.232033
 21
58.03467
  0
LINE
  8
型材断面
  6
CONTINUOUS
 10
24.0332
 20
37.814033
 11
26.623707
 21
39.309663
  0
LINE
  8
型材断面
  6
CONTINUOUS
 10
24.0332
 20
37.814033
 11
26.623707
 21
36.318403
  0
LINE
  8
型材断面
  6
CONTINUOUS
 10
26.623707
 20
36.318403
 11
26.623707
 21
39.309663
  0
LINE
  8
型材断面
  6
CONTINUOUS
 10
4.736403
 20
20.183902
 11
6.232033
 21
17.593395
  0
LINE
  8
型材断面
  6
CONTINUOUS
 10
4.736403
 20
20.183902
 11
3.240772
 21
17.593395
  0
LINE
  8
型材断面
  6
CONTINUOUS
 10
3.240772
 20
17.593395
 11
6.232033
 21
17.593395
  0
LINE
  8
型材断面
  6
CONTINUOUS
 10
19.403067
 20
20.20722
 11
18.80701
 21
17.616715
  0
LINE
  8
型材断面
  6
CONTINUOUS
 10
19.403067
 20
20.20722
 11
19.999125
 21
17.616715
  0
LINE
  8
型材断面
  6
CONTINUOUS
 10
19.999125
 20
17.616715
 11
18.80701
 21
17.616715
  0
LINE
  8
型材断面
  6
CONTINUOUS
 10
-43.263598
 20
20.20722
 11
-42.66754
 21
17.616715
  0
LINE
  8
型材断面
  6
CONTINUOUS
 10
-43.263598
 20
20.20722
 11
-43.859655
 21
17.616715
  0
LINE
  8
型材断面
  6
CONTINUOUS
 10
-43.859655
 20
17.616715
 11
-42.66754
 21
17.616715
  0
POLYLINE
  8
型材断面
  6
DASHDOT
 66
     1
  0
VERTEX
  8
型材断面
 10
-45.2636
 20
22.814033
  0
VERTEX
  8
型材断面
 10
-11.930265
 20
52.814033
  0
VERTEX
  8
型材断面
 10
21.403067
 20
22.814033
  0
SEQEND
  0
LINE
  8
型材断面
  6
CONTINUOUS
 62
    47
 10
-46.586932
 20
-72.149742
 11
-46.596933
 21
-72.139743
  0
LINE
  8
型材断面
  6
CONTINUOUS
 62
    47
 10
-46.586932
 20
-72.149742
 11
-46.596933
 21
-72.159742
  0
LINE
  8
型材断面
  6
CONTINUOUS
 62
    47
 10
-46.586932
 20
-72.791975
 11
-46.596933
 21
-72.781975
  0
LINE
  8
型材断面
  6
CONTINUOUS
 62
    47
 10
-46.586932
 20
-72.791975
 11
-46.596933
 21
-72.801975
  0
LINE
  8
型材断面
  6
CONTINUOUS
 62
    47
 10
-46.596933
 20
-73.209742
 11
-46.596933
 21
-72.801975
  0
LINE
  8
型材断面
  6
CONTINUOUS
 62
    47
 10
-46.596933
 20
-72.781975
 11
-46.596933
 21
-72.159742
  0
LINE
  8
型材断面
  6
CONTINUOUS
 62
    47
 10
-46.596933
 20
-72.139743
 11
-46.596933
 21
-71.443058
  0
LINE
  8
型材断面
  6
CONTINUOUS
 62
    47
 10
-47.86374
 20
-73.276068
 11
-47.86374
 21
-73.442698
  0
LINE
  8
型材断面
  6
CONTINUOUS
 62
    47
 10
-46.387072
 20
-74.343073
 11
-46.397073
 21
-74.333072
  0
LINE
  8
型材断面
  6
CONTINUOUS
 62
    47
 10
-46.387072
 20
-74.343073
 11
-46.397073
 21
-74.353072
  0
LINE
  8
型材断面
  6
CONTINUOUS
 62
    47
 10
-46.387072
 20
-74.809747
 11
-46.397073
 21
-74.799748
  0
LINE
  8
型材断面
  6
CONTINUOUS
 62
    47
 10
-46.387072
 20
-74.809747
 11
-46.397073
 21
-74.819747
  0
LINE
  8
型材断面
  6
CONTINUOUS
 62
    47
 10
-46.397073
 20
-73.709723
 11
-46.397073
 21
-74.333072
  0
LINE
  8
型材断面
  6
CONTINUOUS
 62
    47
 10
-46.397073
 20
-74.353072
 11
-46.397073
 21
-74.799748
  0
LINE
  8
型材断面
  6
CONTINUOUS
 62
    47
 10
-48.597073
 20
-75.60973
 11
-48.597073
 21
-76.109732
  0
LINE
  8
型材断面
  6
CONTINUOUS
 62
    47
 10
-48.09708
 20
-76.443062
 11
-48.09708
 21
-76.109732
  0
LINE
  8
型材断面
  6
CONTINUOUS
 62
    47
 10
-48.597073
 20
-75.60973
 11
-46.397073
 21
-75.443062
  0
LINE
  8
型材断面
  6
CONTINUOUS
 62
    47
 10
-45.663598
 20
-75.443062
 11
-46.330405
 21
-75.443062
  0
LINE
  8
型材断面
  6
CONTINUOUS
 62
    47
 10
-46.387072
 20
-75.343063
 11
-46.397073
 21
-75.333062
  0
LINE
  8
型材断面
  6
CONTINUOUS
 62
    47
 10
-46.387072
 20
-75.343063
 11
-46.397073
 21
-75.353063
  0
LINE
  8
型材断面
  6
CONTINUOUS
 62
    47
 10
-46.397073
 20
-75.443062
 11
-46.397073
 21
-75.353063
  0
LINE
  8
型材断面
  6
CONTINUOUS
 62
    47
 10
-46.397073
 20
-74.819747
 11
-46.397073
 21
-75.333062
  0
LINE
  8
型材断面
  6
CONTINUOUS
 62
    47
 10
-47.86374
 20
-73.709723
 11
-47.86374
 21
-73.576405
  0
LINE
  8
型材断面
  6
CONTINUOUS
 62
    47
 10
-46.596933
 20
-73.209742
 11
-47.86374
 21
-73.276068
  0
LINE
  8
型材断面
  6
CONTINUOUS
 62
    47
 10
-48.09708
 20
-76.443062
 11
-11.930265
 21
-76.443062
  0
LINE
  8
型材断面
  6
CONTINUOUS
 62
    47
 10
-48.597073
 20
-76.109732
 11
-11.930265
 21
-76.109732
  0
LINE
  8
型材断面
  6
CONTINUOUS
 10
-48.597073
 20
-75.60973
 11
-11.930265
 21
-75.60973
  0
LINE
  8
型材断面
  6
CONTINUOUS
 10
-46.397073
 20
-75.443062
 11
-11.930265
 21
-75.443062
  0
LINE
  8
型材断面
  6
CONTINUOUS
 62
    47
 10
-47.86374
 20
-73.709723
 11
-11.930265
 21
-73.709723
  0
LINE
  8
型材断面
  6
CONTINUOUS
 10
-46.596933
 20
-73.209742
 11
-11.930265
 21
-73.209742
  0
LINE
  8
型材断面
  6
CONTINUOUS
 10
-47.86374
 20
-73.276068
 11
-11.930265
 21
-73.276068
  0
LINE
  8
型材断面
  6
CONTINUOUS
 62
    47
 10
-47.86374
 20
-73.576405
 11
-11.930265
 21
-73.576405
  0
LINE
  8
型材断面
  6
CONTINUOUS
 62
    47
 10
-47.86374
 20
-73.442698
 11
-11.930265
 21
-73.442698
  0
LINE
  8
型材断面
  6
CONTINUOUS
 62
    47
 10
-46.596933
 20
-71.443058
 11
-11.930265
 21
-71.443058
  0
LINE
  8
型材断面
  6
CONTINUOUS
 62
    47
 10
22.726403
 20
-72.149742
 11
22.736403
 21
-72.139743
  0
LINE
  8
型材断面
  6
CONTINUOUS
 62
    47
 10
22.726403
 20
-72.149742
 11
22.736403
 21
-72.159742
  0
LINE
  8
型材断面
  6
CONTINUOUS
 62
    47
 10
22.726403
 20
-72.791975
 11
22.736403
 21
-72.781975
  0
LINE
  8
型材断面
  6
CONTINUOUS
 62
    47
 10
22.726403
 20
-72.791975
 11
22.736403
 21
-72.801975
  0
LINE
  8
型材断面
  6
CONTINUOUS
 62
    47
 10
22.736403
 20
-73.209742
 11
22.736403
 21
-72.801975
  0
LINE
  8
型材断面
  6
CONTINUOUS
 62
    47
 10
22.736403
 20
-72.781975
 11
22.736403
 21
-72.159742
  0
LINE
  8
型材断面
  6
CONTINUOUS
 62
    47
 10
22.736403
 20
-72.139743
 11
22.736403
 21
-71.443058
  0
LINE
  8
型材断面
  6
CONTINUOUS
 62
    47
 10
24.00321
 20
-73.276068
 11
24.00321
 21
-73.442698
  0
LINE
  8
型材断面
  6
CONTINUOUS
 62
    47
 10
22.526542
 20
-74.343073
 11
22.536542
 21
-74.333072
  0
LINE
  8
型材断面
  6
CONTINUOUS
 62
    47
 10
22.526542
 20
-74.343073
 11
22.536542
 21
-74.353072
  0
LINE
  8
型材断面
  6
CONTINUOUS
 62
    47
 10
22.526542
 20
-74.809747
 11
22.536542
 21
-74.799748
  0
LINE
  8
型材断面
  6
CONTINUOUS
 62
    47
 10
22.526542
 20
-74.809747
 11
22.536542
 21
-74.819747
  0
LINE
  8
型材断面
  6
CONTINUOUS
 62
    47
 10
22.536542
 20
-73.709723
 11
22.536542
 21
-74.333072
  0
LINE
  8
型材断面
  6
CONTINUOUS
 62
    47
 10
22.536542
 20
-74.353072
 11
22.536542
 21
-74.799748
  0
LINE
  8
型材断面
  6
CONTINUOUS
 62
    47
 10
24.736542
 20
-75.60973
 11
24.736542
 21
-76.109732
  0
LINE
  8
型材断面
  6
CONTINUOUS
 62
    47
 10
24.23655
 20
-76.443062
 11
24.23655
 21
-76.109732
  0
LINE
  8
型材断面
  6
CONTINUOUS
 62
    47
 10
24.736542
 20
-75.60973
 11
22.536542
 21
-75.443062
  0
LINE
  8
型材断面
  6
CONTINUOUS
 62
    47
 10
21.803067
 20
-75.443062
 11
22.469875
 21
-75.443062
  0
LINE
  8
型材断面
  6
CONTINUOUS
 62
    47
 10
22.526542
 20
-75.343063
 11
22.536542
 21
-75.333062
  0
LINE
  8
型材断面
  6
CONTINUOUS
 62
    47
 10
22.526542
 20
-75.343063
 11
22.536542
 21
-75.353063
  0
LINE
  8
型材断面
  6
CONTINUOUS
 62
    47
 10
22.536542
 20
-75.443062
 11
22.536542
 21
-75.353063
  0
LINE
  8
型材断面
  6
CONTINUOUS
 62
    47
 10
22.536542
 20
-74.819747
 11
22.536542
 21
-75.333062
  0
LINE
  8
型材断面
  6
CONTINUOUS
 62
    47
 10
24.00321
 20
-73.709723
 11
24.00321
 21
-73.576405
  0
LINE
  8
型材断面
  6
CONTINUOUS
 62
    47
 10
22.736403
 20
-73.209742
 11
24.00321
 21
-73.276068
  0
LINE
  8
型材断面
  6
CONTINUOUS
 62
    47
 10
24.23655
 20
-76.443062
 11
-11.930265
 21
-76.443062
  0
LINE
  8
型材断面
  6
CONTINUOUS
 62
    47
 10
24.736542
 20
-76.109732
 11
-11.930265
 21
-76.109732
  0
LINE
  8
型材断面
  6
CONTINUOUS
 10
24.736542
 20
-75.60973
 11
-11.930265
 21
-75.60973
  0
LINE
  8
型材断面
  6
CONTINUOUS
 10
22.536542
 20
-75.443062
 11
-11.930265
 21
-75.443062
  0
LINE
  8
型材断面
  6
CONTINUOUS
 62
    47
 10
24.00321
 20
-73.709723
 11
-11.930265
 21
-73.709723
  0
LINE
  8
型材断面
  6
CONTINUOUS
 10
22.736403
 20
-73.209742
 11
-11.930265
 21
-73.209742
  0
LINE
  8
型材断面
  6
CONTINUOUS
 10
24.00321
 20
-73.276068
 11
-11.930265
 21
-73.276068
  0
LINE
  8
型材断面
  6
CONTINUOUS
 62
    47
 10
24.00321
 20
-73.576405
 11
-11.930265
 21
-73.576405
  0
LINE
  8
型材断面
  6
CONTINUOUS
 62
    47
 10
24.00321
 20
-73.442698
 11
-11.930265
 21
-73.442698
  0
LINE
  8
型材断面
  6
CONTINUOUS
 62
    47
 10
22.736403
 20
-71.443058
 11
-11.930265
 21
-71.443058
  0
LINE
  8
型材断面
  6
CONTINUOUS
 10
24.736542
 20
56.147508
 11
-11.930265
 21
56.147508
  0
LINE
  8
型材断面
  6
CONTINUOUS
 10
24.736542
 20
19.480558
 11
-11.930265
 21
19.480558
  0
LINE
  8
型材断面
  6
CONTINUOUS
 10
-48.597073
 20
19.480558
 11
-11.930265
 21
19.480558
  0
LINE
  8
型材断面
  6
CONTINUOUS
 10
-48.597073
 20
56.147508
 11
-11.930265
 21
56.147508
  0
ARC
  8
型材断面
  6
DASHDOT
 10
113.122217
 20
55.754359
 40
35.540502
 50
225.0
 51
269.918816
  0
LINE
  8
型材断面
  6
CONTINUOUS
 62
    47
 10
111.778905
 20
54.137368
 11
111.768905
 21
54.147367
  0
LINE
  8
型材断面
  6
CONTINUOUS
 62
    47
 10
111.778905
 20
54.137368
 11
111.788905
 21
54.147367
  0
LINE
  8
型材断面
  6
CONTINUOUS
 62
    47
 10
112.421138
 20
54.137368
 11
112.411138
 21
54.147367
  0
LINE
  8
型材断面
  6
CONTINUOUS
 62
    47
 10
112.421138
 20
54.137368
 11
112.431137
 21
54.147367
  0
LINE
  8
型材断面
  6
CONTINUOUS
 62
    47
 10
112.838905
 20
54.147367
 11
112.431137
 21
54.147367
  0
LINE
  8
型材断面
  6
CONTINUOUS
 62
    47
 10
112.411138
 20
54.147367
 11
111.788905
 21
54.147367
  0
LINE
  8
型材断面
  6
CONTINUOUS
 62
    47
 10
111.768905
 20
54.147367
 11
111.07222
 21
54.147367
  0
LINE
  8
型材断面
  6
CONTINUOUS
 62
    47
 10
112.90523
 20
55.414178
 11
113.071858
 21
55.414178
  0
LINE
  8
型材断面
  6
CONTINUOUS
 62
    47
 10
113.972235
 20
53.937507
 11
113.962235
 21
53.947508
  0
LINE
  8
型材断面
  6
CONTINUOUS
 62
    47
 10
113.972235
 20
53.937507
 11
113.982235
 21
53.947508
  0
LINE
  8
型材断面
  6
CONTINUOUS
 62
    47
 10
114.438907
 20
53.937507
 11
114.428908
 21
53.947508
  0
LINE
  8
型材断面
  6
CONTINUOUS
 62
    47
 10
114.438907
 20
53.937507
 11
114.448907
 21
53.947508
  0
LINE
  8
型材断面
  6
CONTINUOUS
 62
    47
 10
113.338883
 20
53.947508
 11
113.962235
 21
53.947508
  0
LINE
  8
型材断面
  6
CONTINUOUS
 62
    47
 10
113.982235
 20
53.947508
 11
114.428908
 21
53.947508
  0
LINE
  8
型材断面
  6
CONTINUOUS
 62
    47
 10
115.238892
 20
56.147508
 11
115.738892
 21
56.147508
  0
LINE
  8
型材断面
  6
CONTINUOUS
 62
    47
 10
116.072225
 20
55.647517
 11
115.738892
 21
55.647517
  0
LINE
  8
型材断面
  6
CONTINUOUS
 62
    47
 10
115.238892
 20
56.147508
 11
115.072225
 21
53.947508
  0
LINE
  8
型材断面
  6
CONTINUOUS
 62
    47
 10
115.072225
 20
53.214033
 11
115.072225
 21
53.880842
  0
LINE
  8
型材断面
  6
CONTINUOUS
 62
    47
 10
114.972225
 20
53.937507
 11
114.962225
 21
53.947508
  0
LINE
  8
型材断面
  6
CONTINUOUS
 62
    47
 10
114.972225
 20
53.937507
 11
114.982225
 21
53.947508
  0
LINE
  8
型材断面
  6
CONTINUOUS
 62
    47
 10
115.072225
 20
53.947508
 11
114.982225
 21
53.947508
  0
LINE
  8
型材断面
  6
CONTINUOUS
 62
    47
 10
114.448907
 20
53.947508
 11
114.962225
 21
53.947508
  0
LINE
  8
型材断面
  6
CONTINUOUS
 62
    47
 10
113.338883
 20
55.414175
 11
113.205567
 21
55.414175
  0
LINE
  8
型材断面
  6
CONTINUOUS
 62
    47
 10
112.838905
 20
54.147367
 11
112.90523
 21
55.414178
  0
LINE
  8
型材断面
  6
CONTINUOUS
 62
    47
 10
111.07222
 20
54.147367
 11
111.07222
 21
37.814035
  0
LINE
  8
型材断面
  6
CONTINUOUS
 62
    47
 10
113.205567
 20
55.414175
 11
113.205567
 21
37.814035
  0
LINE
  8
型材断面
  6
CONTINUOUS
 62
    47
 10
113.338883
 20
55.414175
 11
113.338883
 21
37.814035
  0
LINE
  8
型材断面
  6
CONTINUOUS
 62
    47
 10
113.071858
 20
55.414178
 11
113.071858
 21
37.814035
  0
LINE
  8
型材断面
  6
CONTINUOUS
 10
112.838905
 20
54.147367
 11
112.838905
 21
37.814035
  0
LINE
  8
型材断面
  6
CONTINUOUS
 10
112.90523
 20
55.414178
 11
112.90523
 21
37.814035
  0
LINE
  8
型材断面
  6
CONTINUOUS
 10
115.072225
 20
53.947508
 11
115.072225
 21
37.814035
  0
LINE
  8
型材断面
  6
CONTINUOUS
 10
115.238892
 20
56.147508
 11
115.238892
 21
37.814035
  0
LINE
  8
型材断面
  6
CONTINUOUS
 62
    47
 10
115.738892
 20
56.147508
 11
115.738892
 21
37.814035
  0
LINE
  8
型材断面
  6
CONTINUOUS
 62
    47
 10
116.072225
 20
55.647517
 11
116.072225
 21
37.814035
  0
LINE
  8
型材断面
  6
CONTINUOUS
 62
    47
 10
111.778905
 20
21.490703
 11
111.768905
 21
21.480703
  0
LINE
  8
型材断面
  6
CONTINUOUS
 62
    47
 10
111.778905
 20
21.490703
 11
111.788905
 21
21.480703
  0
LINE
  8
型材断面
  6
CONTINUOUS
 62
    47
 10
112.421138
 20
21.490703
 11
112.411138
 21
21.480703
  0
LINE
  8
型材断面
  6
CONTINUOUS
 62
    47
 10
112.421138
 20
21.490703
 11
112.431137
 21
21.480703
  0
LINE
  8
型材断面
  6
CONTINUOUS
 62
    47
 10
112.838905
 20
21.480703
 11
112.431137
 21
21.480703
  0
LINE
  8
型材断面
  6
CONTINUOUS
 62
    47
 10
112.411138
 20
21.480703
 11
111.788905
 21
21.480703
  0
LINE
  8
型材断面
  6
CONTINUOUS
 62
    47
 10
111.768905
 20
21.480703
 11
111.07222
 21
21.480703
  0
LINE
  8
型材断面
  6
CONTINUOUS
 62
    47
 10
112.90523
 20
20.213892
 11
113.071858
 21
20.213892
  0
LINE
  8
型材断面
  6
CONTINUOUS
 62
    47
 10
113.972235
 20
21.690562
 11
113.962235
 21
21.680563
  0
LINE
  8
型材断面
  6
CONTINUOUS
 62
    47
 10
113.972235
 20
21.690562
 11
113.982235
 21
21.680563
  0
LINE
  8
型材断面
  6
CONTINUOUS
 62
    47
 10
114.438907
 20
21.690562
 11
114.428908
 21
21.680563
  0
LINE
  8
型材断面
  6
CONTINUOUS
 62
    47
 10
114.438907
 20
21.690562
 11
114.448907
 21
21.680563
  0
LINE
  8
型材断面
  6
CONTINUOUS
 62
    47
 10
113.338883
 20
21.680563
 11
113.962235
 21
21.680563
  0
LINE
  8
型材断面
  6
CONTINUOUS
 62
    47
 10
113.982235
 20
21.680563
 11
114.428908
 21
21.680563
  0
LINE
  8
型材断面
  6
CONTINUOUS
 62
    47
 10
115.238892
 20
19.480563
 11
115.738892
 21
19.480563
  0
LINE
  8
型材断面
  6
CONTINUOUS
 62
    47
 10
116.072225
 20
19.980552
 11
115.738892
 21
19.980552
  0
LINE
  8
型材断面
  6
CONTINUOUS
 62
    47
 10
115.238892
 20
19.480563
 11
115.072225
 21
21.680563
  0
LINE
  8
型材断面
  6
CONTINUOUS
 62
    47
 10
115.072225
 20
22.414038
 11
115.072225
 21
21.747228
  0
LINE
  8
型材断面
  6
CONTINUOUS
 62
    47
 10
114.972225
 20
21.690562
 11
114.962225
 21
21.680563
  0
LINE
  8
型材断面
  6
CONTINUOUS
 62
    47
 10
114.972225
 20
21.690562
 11
114.982225
 21
21.680563
  0
LINE
  8
型材断面
  6
CONTINUOUS
 62
    47
 10
115.072225
 20
21.680563
 11
114.982225
 21
21.680563
  0
LINE
  8
型材断面
  6
CONTINUOUS
 62
    47
 10
114.448907
 20
21.680563
 11
114.962225
 21
21.680563
  0
LINE
  8
型材断面
  6
CONTINUOUS
 62
    47
 10
113.338883
 20
20.213895
 11
113.205567
 21
20.213895
  0
LINE
  8
型材断面
  6
CONTINUOUS
 62
    47
 10
112.838905
 20
21.480703
 11
112.90523
 21
20.213892
  0
LINE
  8
型材断面
  6
CONTINUOUS
 62
    47
 10
111.07222
 20
21.480703
 11
111.07222
 21
37.814035
  0
LINE
  8
型材断面
  6
CONTINUOUS
 62
    47
 10
113.205567
 20
20.213895
 11
113.205567
 21
37.814035
  0
LINE
  8
型材断面
  6
CONTINUOUS
 62
    47
 10
113.338883
 20
20.213895
 11
113.338883
 21
37.814035
  0
LINE
  8
型材断面
  6
CONTINUOUS
 62
    47
 10
113.071858
 20
20.213892
 11
113.071858
 21
37.814035
  0
LINE
  8
型材断面
  6
CONTINUOUS
 10
112.838905
 20
21.480703
 11
112.838905
 21
37.814035
  0
LINE
  8
型材断面
  6
CONTINUOUS
 10
112.90523
 20
20.213892
 11
112.90523
 21
37.814035
  0
LINE
  8
型材断面
  6
CONTINUOUS
 10
115.072225
 20
21.680563
 11
115.072225
 21
37.814035
  0
LINE
  8
型材断面
  6
CONTINUOUS
 10
115.238892
 20
19.480563
 11
115.238892
 21
37.814035
  0
LINE
  8
型材断面
  6
CONTINUOUS
 62
    47
 10
115.738892
 20
19.480563
 11
115.738892
 21
37.814035
  0
LINE
  8
型材断面
  6
CONTINUOUS
 62
    47
 10
116.072225
 20
19.980552
 11
116.072225
 21
37.814035
  0
LINE
  8
型材断面
  6
CONTINUOUS
 10
109.389012
 20
21.284025
 11
110.889012
 21
21.284025
  0
LINE
  8
型材断面
  6
CONTINUOUS
 10
109.389012
 20
21.127503
 11
109.222345
 21
21.127503
  0
LINE
  8
型材断面
  6
CONTINUOUS
 62
    47
 10
110.889012
 20
21.284025
 11
110.889012
 21
37.814035
  0
LINE
  8
型材断面
  6
CONTINUOUS
 62
    47
 10
109.389012
 20
21.127503
 11
109.389012
 21
37.814035
  0
LINE
  8
型材断面
  6
CONTINUOUS
 62
    47
 10
109.222345
 20
21.127503
 11
109.222345
 21
37.814035
  0
LINE
  8
型材断面
  6
CONTINUOUS
 10
109.389012
 20
54.344045
 11
110.889012
 21
54.344045
  0
LINE
  8
型材断面
  6
CONTINUOUS
 10
109.389012
 20
54.500568
 11
109.222345
 21
54.500568
  0
LINE
  8
型材断面
  6
CONTINUOUS
 62
    47
 10
110.889012
 20
54.344045
 11
110.889012
 21
37.814035
  0
LINE
  8
型材断面
  6
CONTINUOUS
 62
    47
 10
109.389012
 20
54.500568
 11
109.389012
 21
37.814035
  0
LINE
  8
型材断面
  6
CONTINUOUS
 62
    47
 10
109.222345
 20
54.500568
 11
109.222345
 21
37.814035
  0
LINE
  8
型材断面
  6
DOT
 62
    47
 10
111.028967
 20
55.560837
 11
111.028967
 21
55.57498
  0
LINE
  8
型材断面
  6
DOT
 62
    47
 10
111.028967
 20
55.560837
 11
111.04311
 21
55.560837
  0
LINE
  8
型材断面
  6
DOT
 62
    47
 10
111.483093
 20
55.106712
 11
111.483093
 21
55.120855
  0
LINE
  8
型材断面
  6
DOT
 62
    47
 10
111.483093
 20
55.106712
 11
111.497235
 21
55.106712
  0
LINE
  8
型材断面
  6
DOT
 62
    47
 10
111.785572
 20
54.818377
 11
111.497235
 21
55.106712
  0
LINE
  8
型材断面
  6
DOT
 62
    47
 10
111.483093
 20
55.120855
 11
111.04311
 21
55.560837
  0
LINE
  8
型材断面
  6
DOT
 62
    47
 10
111.028967
 20
55.57498
 11
110.536338
 21
56.067612
  0
LINE
  8
型材断面
  6
DOT
 62
    47
 10
112.728238
 20
55.667247
 11
112.846062
 21
55.549423
  0
LINE
  8
型材断面
  6
DOT
 62
    47
 10
111.785572
 20
54.818377
 11
112.728238
 21
55.667247
  0
LINE
  8
型材断面
  6
DOT
 62
    47
 10
110.345425
 20
55.8767
 11
110.180352
 21
56.041772
  0
LINE
  8
型材断面
  6
DOT
 62
    47
 10
110.536338
 20
56.067612
 11
98.986927
 21
44.5182
  0
LINE
  8
型材断面
  6
DOT
 62
    47
 10
112.846062
 20
55.549423
 11
100.400883
 21
43.104242
  0
LINE
  8
型材断面
  6
DOT
 10
111.785572
 20
54.818377
 11
100.23616
 21
43.268965
  0
LINE
  8
型材断面
  6
DOT
 10
112.728238
 20
55.667247
 11
100.28306
 21
43.222068
  0
LINE
  8
型材断面
  6
DOT
 62
    47
 10
87.944288
 20
32.476158
 11
87.930145
 21
32.476158
  0
LINE
  8
型材断面
  6
DOT
 62
    47
 10
87.944288
 20
32.476158
 11
87.944288
 21
32.462018
  0
LINE
  8
型材断面
  6
DOT
 62
    47
 10
88.398415
 20
32.022033
 11
88.384273
 21
32.022033
  0
LINE
  8
型材断面
  6
DOT
 62
    47
 10
88.398415
 20
32.022033
 11
88.398415
 21
32.00789
  0
LINE
  8
型材断面
  6
DOT
 62
    47
 10
88.68675
 20
31.719555
 11
88.398415
 21
32.00789
  0
LINE
  8
型材断面
  6
DOT
 62
    47
 10
88.384273
 20
32.022033
 11
87.944288
 21
32.462018
  0
LINE
  8
型材断面
  6
DOT
 62
    47
 10
87.930145
 20
32.476158
 11
87.437515
 21
32.96879
  0
LINE
  8
型材断面
  6
DOT
 62
    47
 10
87.83788
 20
30.776887
 11
87.955703
 21
30.659063
  0
LINE
  8
型材断面
  6
DOT
 62
    47
 10
88.68675
 20
31.719555
 11
87.83788
 21
30.776887
  0
LINE
  8
型材断面
  6
DOT
 62
    47
 10
87.628428
 20
33.159702
 11
87.463355
 21
33.324772
  0
LINE
  8
型材断面
  6
DOT
 62
    47
 10
87.437515
 20
32.96879
 11
98.986927
 21
44.5182
  0
LINE
  8
型材断面
  6
DOT
 62
    47
 10
87.955703
 20
30.659063
 11
100.400883
 21
43.104242
  0
LINE
  8
型材断面
  6
DOT
 10
88.68675
 20
31.719555
 11
100.23616
 21
43.268965
  0
LINE
  8
型材断面
  6
DOT
 10
87.83788
 20
30.776887
 11
100.28306
 21
43.222068
  0
LINE
  8
型材断面
  6
DOT
 10
86.108235
 20
34.019928
 11
87.168895
 21
32.959267
  0
LINE
  8
型材断面
  6
DOT
 10
85.997558
 20
33.909247
 11
85.879708
 21
34.0271
  0
LINE
  8
型材断面
  6
DOT
 62
    47
 10
87.168895
 20
32.959267
 11
98.857378
 21
44.647747
  0
LINE
  8
型材断面
  6
DOT
 62
    47
 10
85.997558
 20
33.909247
 11
97.796717
 21
45.708408
  0
LINE
  8
型材断面
  6
DOT
 62
    47
 10
85.879708
 20
34.0271
 11
97.678867
 21
45.82626
  0
LINE
  8
型材断面
  6
DOT
 10
109.4852
 20
57.39689
 11
110.54586
 21
56.33623
  0
LINE
  8
型材断面
  6
DOT
 10
109.595877
 20
57.507568
 11
109.478027
 21
57.62542
  0
LINE
  8
型材断面
  6
DOT
 62
    47
 10
110.54586
 20
56.33623
 11
98.857378
 21
44.647747
  0
LINE
  8
型材断面
  6
DOT
 62
    47
 10
109.595877
 20
57.507568
 11
97.796717
 21
45.708408
  0
LINE
  8
型材断面
  6
DOT
 62
    47
 10
109.478027
 20
57.62542
 11
97.678867
 21
45.82626
  0
LINE
  8
型材断面
  6
CONTINUOUS
 10
22.93308
 20
-69.75985
 11
22.93308
 21
-71.25985
  0
LINE
  8
型材断面
  6
CONTINUOUS
 10
23.0896
 20
-69.75985
 11
23.0896
 21
-69.593182
  0
LINE
  8
型材断面
  6
CONTINUOUS
 62
    47
 10
22.93308
 20
-71.25985
 11
-11.930265
 21
-71.25985
  0
LINE
  8
型材断面
  6
CONTINUOUS
 62
    47
 10
23.0896
 20
-69.75985
 11
-11.930265
 21
-69.75985
  0
LINE
  8
型材断面
  6
CONTINUOUS
 62
    47
 10
23.0896
 20
-69.593182
 11
-11.930265
 21
-69.593182
  0
LINE
  8
型材断面
  6
CONTINUOUS
 10
-46.79361
 20
-69.75985
 11
-46.79361
 21
-71.25985
  0
LINE
  8
型材断面
  6
CONTINUOUS
 10
-46.95013
 20
-69.75985
 11
-46.95013
 21
-69.593182
  0
LINE
  8
型材断面
  6
CONTINUOUS
 62
    47
 10
-46.79361
 20
-71.25985
 11
-11.930265
 21
-71.25985
  0
LINE
  8
型材断面
  6
CONTINUOUS
 62
    47
 10
-46.95013
 20
-69.75985
 11
-11.930265
 21
-69.75985
  0
LINE
  8
型材断面
  6
CONTINUOUS
 62
    47
 10
-46.95013
 20
-69.593182
 11
-11.930265
 21
-69.593182
  0
LINE
  8
型材断面
  6
CONTINUOUS
 10
24.00321
 20
20.21389
 11
-11.930265
 21
20.21388
  0
LINE
  8
型材断面
  6
CONTINUOUS
 10
24.00321
 20
55.414175
 11
-11.930265
 21
55.414185
  0
LINE
  8
型材断面
  6
CONTINUOUS
 10
-47.86374
 20
55.414175
 11
-11.930265
 21
55.414185
  0
LINE
  8
型材断面
  6
CONTINUOUS
 10
-46.95013
 20
54.500565
 11
-11.930265
 21
54.500575
  0
LINE
  8
型材断面
  6
CONTINUOUS
 10
-47.86374
 20
20.21389
 11
-11.930265
 21
20.21388
  0
LINE
  8
型材断面
  6
CONTINUOUS
 10
-46.95013
 20
21.1275
 11
-11.930265
 21
21.12749
  0
LINE
  8
型材断面
  6
CONTINUOUS
 62
    47
 10
22.466412
 20
-71.443058
 11
22.466412
 21
-71.25985
  0
LINE
  8
型材断面
  6
CONTINUOUS
 62
    47
 10
-46.326943
 20
-71.443058
 11
-46.326943
 21
-71.25985
  0
LINE
  8
型材断面
  6
CONTINUOUS
 62
    47
 10
111.07222
 20
21.750692
 11
110.889012
 21
21.750692
  0
LINE
  8
型材断面
  6
CONTINUOUS
 62
    47
 10
111.07222
 20
53.877377
 11
110.889012
 21
53.877377
  0
LINE
  8
型材断面
  6
CONTINUOUS
 10
-10.680265
 20
24.46082
 11
-13.180265
 21
24.46082
  0
LINE
  8
型材断面
  6
CONTINUOUS
 10
-10.680265
 20
51.167245
 11
-13.180265
 21
51.167245
  0
LINE
  8
型材断面
  6
CONTINUOUS
 10
-10.680265
 20
24.46082
 11
-10.680265
 21
51.167245
  0
LINE
  8
型材断面
  6
CONTINUOUS
 10
-13.180265
 20
24.46082
 11
-13.180265
 21
51.167245
  0
LINE
  8
型材断面
  6
CONTINUOUS
 10
5.15307
 20
23.627495
 11
5.15307
 21
21.127495
  0
LINE
  8
型材断面
  6
CONTINUOUS
 10
4.319735
 20
23.627492
 11
4.319735
 21
21.127495
  0
LINE
  8
型材断面
  6
CONTINUOUS
 10
5.15307
 20
52.00057
 11
5.15307
 21
54.50057
  0
LINE
  8
型材断面
  6
CONTINUOUS
 10
4.319735
 20
52.000573
 11
4.319735
 21
54.50057
  0
LINE
  8
型材断面
  6
CONTINUOUS
 10
4.319735
 20
52.000573
 11
-11.930265
 21
52.000577
  0
LINE
  8
型材断面
  6
CONTINUOUS
 10
4.319735
 20
23.627492
 11
-11.930265
 21
23.627487
  0
LINE
  8
型材断面
  6
CONTINUOUS
 10
24.73654
 20
19.48056
 11
24.73654
 21
37.814033
  0
LINE
  8
型材断面
  6
CONTINUOUS
 10
24.73654
 20
56.147505
 11
24.73654
 21
37.814033
  0
LINE
  8
型材断面
  6
CONTINUOUS
 10
24.003207
 20
55.414175
 11
24.003207
 21
37.814033
  0
LINE
  8
型材断面
  6
CONTINUOUS
 10
24.003207
 20
20.21389
 11
24.003207
 21
37.814033
  0
LINE
  8
型材断面
  6
CONTINUOUS
 10
22.8539
 20
21.127495
 11
23.089597
 21
21.363203
  0
LINE
  8
型材断面
  6
CONTINUOUS
 10
24.73654
 20
19.48056
 11
22.97175
 21
21.24535
  0
LINE
  8
型材断面
  6
CONTINUOUS
 10
20.353895
 20
23.627495
 11
22.853895
 21
21.1275
  0
LINE
  8
型材断面
  6
CONTINUOUS
 10
20.589597
 20
23.863198
 11
23.0896
 21
21.3632
  0
LINE
  8
型材断面
  6
CONTINUOUS
 10
20.3539
 20
23.6275
 11
20.589597
 21
23.863198
  0
LINE
  8
型材断面
  6
CONTINUOUS
 10
23.089597
 20
37.814033
 11
23.089597
 21
21.363203
  0
LINE
  8
型材断面
  6
CONTINUOUS
 10
23.089597
 20
37.397365
 11
20.589597
 21
37.397365
  0
LINE
  8
型材断面
  6
CONTINUOUS
 10
23.089597
 20
38.2307
 11
20.589597
 21
38.2307
  0
LINE
  8
型材断面
  6
CONTINUOUS
 10
20.589597
 20
37.397365
 11
20.589597
 21
23.863198
  0
LINE
  8
型材断面
  6
CONTINUOUS
 10
22.8539
 20
54.50057
 11
23.089597
 21
54.264862
  0
LINE
  8
型材断面
  6
CONTINUOUS
 10
24.73654
 20
56.147505
 11
22.97175
 21
54.382715
  0
LINE
  8
型材断面
  6
CONTINUOUS
 10
20.353895
 20
52.00057
 11
22.853895
 21
54.500565
  0
LINE
  8
型材断面
  6
CONTINUOUS
 10
20.589597
 20
51.764868
 11
23.0896
 21
54.264865
  0
LINE
  8
型材断面
  6
CONTINUOUS
 10
20.589597
 20
38.2307
 11
20.589597
 21
51.764868
  0
LINE
  8
型材断面
  6
CONTINUOUS
 10
20.589597
 20
51.764868
 11
20.3539
 21
52.000565
  0
LINE
  8
型材断面
  6
CONTINUOUS
 10
23.089597
 20
37.814033
 11
23.089597
 21
54.264862
  0
LINE
  8
型材断面
  6
CONTINUOUS
 10
5.15307
 20
52.00057
 11
20.35389
 21
52.000565
  0
LINE
  8
型材断面
  6
CONTINUOUS
 10
-11.930265
 20
54.500575
 11
22.853895
 21
54.500565
  0
LINE
  8
型材断面
  6
CONTINUOUS
 10
5.15307
 20
23.627495
 11
20.35389
 21
23.6275
  0
LINE
  8
型材断面
  6
CONTINUOUS
 10
-11.930265
 20
21.12749
 11
22.853895
 21
21.1275
  0
LINE
  8
型材断面
  6
CONTINUOUS
 10
-29.0136
 20
23.627495
 11
-29.0136
 21
21.127495
  0
LINE
  8
型材断面
  6
CONTINUOUS
 10
-28.180265
 20
23.627492
 11
-28.180265
 21
21.127495
  0
LINE
  8
型材断面
  6
CONTINUOUS
 10
-29.0136
 20
52.00057
 11
-29.0136
 21
54.50057
  0
LINE
  8
型材断面
  6
CONTINUOUS
 10
-28.180265
 20
52.000573
 11
-28.180265
 21
54.50057
  0
LINE
  8
型材断面
  6
CONTINUOUS
 10
-48.59707
 20
19.48056
 11
-48.59707
 21
37.814033
  0
LINE
  8
型材断面
  6
CONTINUOUS
 10
-48.59707
 20
56.147505
 11
-48.59707
 21
37.814033
  0
LINE
  8
型材断面
  6
CONTINUOUS
 10
-47.863738
 20
55.414175
 11
-47.863738
 21
37.814033
  0
LINE
  8
型材断面
  6
CONTINUOUS
 10
-47.863738
 20
20.21389
 11
-47.863738
 21
37.814033
  0
LINE
  8
型材断面
  6
CONTINUOUS
 10
-46.71443
 20
21.127495
 11
-46.950127
 21
21.363203
  0
LINE
  8
型材断面
  6
CONTINUOUS
 10
-48.59707
 20
19.48056
 11
-46.83228
 21
21.24535
  0
LINE
  8
型材断面
  6
CONTINUOUS
 10
-44.214425
 20
23.627495
 11
-46.714425
 21
21.1275
  0
LINE
  8
型材断面
  6
CONTINUOUS
 10
-44.450127
 20
23.863198
 11
-46.95013
 21
21.3632
  0
LINE
  8
型材断面
  6
CONTINUOUS
 10
-44.21443
 20
23.6275
 11
-44.450127
 21
23.863198
  0
LINE
  8
型材断面
  6
CONTINUOUS
 10
-46.950127
 20
37.814033
 11
-46.950127
 21
21.363203
  0
LINE
  8
型材断面
  6
CONTINUOUS
 10
-46.950127
 20
37.397365
 11
-44.450127
 21
37.397365
  0
LINE
  8
型材断面
  6
CONTINUOUS
 10
-46.950127
 20
38.2307
 11
-44.450127
 21
38.2307
  0
LINE
  8
型材断面
  6
CONTINUOUS
 10
-44.450127
 20
37.397365
 11
-44.450127
 21
23.863198
  0
LINE
  8
型材断面
  6
CONTINUOUS
 10
-46.71443
 20
54.50057
 11
-46.950127
 21
54.264862
  0
LINE
  8
型材断面
  6
CONTINUOUS
 10
-48.59707
 20
56.147505
 11
-46.83228
 21
54.382715
  0
LINE
  8
型材断面
  6
CONTINUOUS
 10
-44.214425
 20
52.00057
 11
-46.714425
 21
54.500565
  0
LINE
  8
型材断面
  6
CONTINUOUS
 10
-44.450127
 20
51.764868
 11
-46.95013
 21
54.264865
  0
LINE
  8
型材断面
  6
CONTINUOUS
 10
-44.450127
 20
38.2307
 11
-44.450127
 21
51.764868
  0
LINE
  8
型材断面
  6
CONTINUOUS
 10
-44.450127
 20
51.764868
 11
-44.21443
 21
52.000565
  0
LINE
  8
型材断面
  6
CONTINUOUS
 10
-46.950127
 20
37.814033
 11
-46.950127
 21
54.264862
  0
LINE
  8
型材断面
  6
CONTINUOUS
 10
-29.0136
 20
52.00057
 11
-44.21442
 21
52.000565
  0
LINE
  8
型材断面
  6
CONTINUOUS
 10
-29.0136
 20
23.627495
 11
-44.21442
 21
23.6275
  0
LINE
  8
型材断面
  6
CONTINUOUS
 10
-11.930265
 20
23.627487
 11
-28.180265
 21
23.627492
  0
LINE
  8
型材断面
  6
CONTINUOUS
 10
-11.930265
 20
52.000577
 11
-28.180265
 21
52.000573
  0
LINE
  8
ガラス
  6
CONTINUOUS
 10
-27.019703
 20
39.200668
 11
-29.650667
 21
36.569702
  0
LINE
  8
ガラス
  6
CONTINUOUS
 10
-27.675875
 20
37.225875
 11
-28.994492
 21
38.544498
  0
LINE
  8
ガラス
  6
CONTINUOUS
 10
-28.52892
 20
37.256328
 11
-27.512405
 21
38.272842
  0
LINE
  8
ガラス
  6
CONTINUOUS
 10
-28.14145
 20
38.514048
 11
-29.157963
 21
37.497532
  0
LINE
  8
ガラス
  6
CONTINUOUS
 10
5.819802
 20
39.200668
 11
3.188838
 21
36.569702
  0
LINE
  8
ガラス
  6
CONTINUOUS
 10
5.16363
 20
37.225875
 11
3.845012
 21
38.544498
  0
LINE
  8
ガラス
  6
CONTINUOUS
 10
4.310585
 20
37.256328
 11
5.3271
 21
38.272842
  0
LINE
  8
ガラス
  6
CONTINUOUS
 10
4.698055
 20
38.514048
 11
3.681543
 21
37.497532
  0
LINE
  8
ガラス
  6
CONTINUOUS
 10
157.91659
 20
-84.654215
 11
157.91659
 21
-54.487547
  0
LINE
  8
ガラス
  6
CONTINUOUS
 10
157.91659
 20
-54.487547
 11
125.049922
 21
-54.487547
  0
LINE
  8
ガラス
  6
CONTINUOUS
 10
125.049922
 20
-54.487547
 11
125.049922
 21
-84.654215
  0
LINE
  8
ガラス
  6
CONTINUOUS
 10
157.91659
 20
-84.654215
 11
125.049922
 21
-84.654215
  0
TEXT
  7
TextStyle03
  8
文字
  6
CONTINUOUS
 10
-96.375
 20
94.925
  1
は排水穴位置を示す
 40
3.0
 72
     5
 11
-66.375
 21
94.925
  0
TEXT
  7
TextStyle03
  8
文字
  6
CONTINUOUS
 10
-96.375
 20
89.4
  1
はケーシング位置を示す
 40
3.0
 72
     5
 11
-59.625
 21
89.4
  0
TEXT
  7
TextStyle03
  8
文字
  6
CONTINUOUS
 10
-96.375
 20
86.025
  1
２ヶ所中1ヶ所に設定
 40
3.0
 72
     5
 11
-64.6875
 21
86.025
  0
TEXT
  7
TextStyle03
  8
文字
  6
CONTINUOUS
 10
67.45
 20
97.05
  1
ＮＳコード：ＮＳＦＨＺ
 40
5.0
 72
     5
 11
128.7
 21
97.05
  0
TEXT
  7
TextStyle03
  8
文字
  6
CONTINUOUS
 10
139.525
 20
-78.225
  1
網入り6.8t
 40
3.0
 72
     5
 11
156.2125
 21
-78.225
  0
TEXT
  7
TextStyle03
  8
文字
  6
CONTINUOUS
 10
146.2
 20
-82.9
  1
×２枚
 40
3.0
 72
     5
 11
155.95
 21
-82.9
  0
TEXT
  7
TextStyle03
  8
文字
  6
CONTINUOUS
 10
-66.275
 20
16.275
  1
アンカーピッチ
 40
3.0
 50
90.0
 72
     5
 11
-66.275
 21
39.525
  0
TEXT
  7
TextStyle03
  8
文字
  6
CONTINUOUS
 10
-37.825
 20
89.675
  1
アンカーピッチ
 40
3.0
 72
     5
 11
-14.575
 21
89.675
  0
TEXT
  7
TextStyle03
  8
文字
  6
CONTINUOUS
 10
-100.1
 20
80.05
  1
アンカー数量　１０ヶ所
 40
3.0
 72
     5
 11
-63.35
 21
80.05
  0
TEXT
  7
TextStyle03
  8
文字
  6
CONTINUOUS
 10
101.25
 20
14.75
  1
45°
 40
3.0
 50
90.0
 72
     5
 11
101.25
 21
21.125
  0
LINE
  8
文字
  6
CONTINUOUS
 10
125.049922
 20
-45.195643
 11
125.049922
 21
-51.86168
  0
LINE
  8
文字
  6
CONTINUOUS
 10
157.91659
 20
-45.195643
 11
157.91659
 21
-51.86168
  0
TEXT
  7
TextStyle03
  8
文字
  6
CONTINUOUS
 10
67.475
 20
124.525
  1
シリーズ：ＴＦ２ＦＨＬ
 40
5.0
 72
     5
 11
128.725
 21
124.525
  0
TEXT
  7
TextStyle03
  8
文字
  6
CONTINUOUS
 10
67.475
 20
118.9
  1
　　　　　（片側開閉）900×2000タイプ
 40
5.0
 72
     5
 11
170.9125
 21
118.9
  0
TEXT
  7
TextStyle03
  8
文字
  6
CONTINUOUS
 10
67.475
 20
113.275
  1

 40
5.0
 41
1.125
  0
TEXT
  7
TextStyle03
  8
文字
  6
CONTINUOUS
 10
67.475
 20
107.65
  1
図面名　：外観姿図
 40
5.0
 72
     5
 11
117.475
 21
107.65
  0
INSERT
  2
*DIM_0002
  8
寸法
  6
CONTINUOUS
 10
0.0
 20
0.0
  0
INSERT
  2
*DIM_0003
  8
寸法
  6
CONTINUOUS
 10
0.0
 20
0.0
  0
INSERT
  2
*DIM_0004
  8
寸法
  6
CONTINUOUS
 10
0.0
 20
0.0
  0
INSERT
  2
*DIM_0005
  8
寸法
  6
CONTINUOUS
 10
0.0
 20
0.0
  0
INSERT
  2
*DIM_0006
  8
寸法
  6
CONTINUOUS
 10
0.0
 20
0.0
  0
INSERT
  2
*DIM_0007
  8
寸法
  6
CONTINUOUS
 10
0.0
 20
0.0
  0
INSERT
  2
*DIM_0008
  8
寸法
  6
CONTINUOUS
 10
0.0
 20
0.0
  0
INSERT
  2
*DIM_0009
  8
寸法
  6
CONTINUOUS
 10
0.0
 20
0.0
  0
INSERT
  2
*DIM_0010
  8
寸法
  6
CONTINUOUS
 10
0.0
 20
0.0
  0
INSERT
  2
*DIM_0011
  8
寸法
  6
CONTINUOUS
 10
0.0
 20
0.0
  0
INSERT
  2
*DIM_0012
  8
寸法
  6
CONTINUOUS
 10
0.0
 20
0.0
  0
INSERT
  2
*DIM_0013
  8
寸法
  6
CONTINUOUS
 10
0.0
 20
0.0
  0
INSERT
  2
*DIM_0014
  8
寸法
  6
CONTINUOUS
 10
0.0
 20
0.0
  0
INSERT
  2
*DIM_0016
  8
寸法
  6
CONTINUOUS
 10
0.0
 20
0.0
  0
INSERT
  2
*DIM_0017
  8
寸法
  6
CONTINUOUS
 10
0.0
 20
0.0
  0
INSERT
  2
*GRP_0015
  8
別途部材
  6
CONTINUOUS
 10
0.0
 20
0.0
  0
ENDSEC
  0
EOF
