  0
SECTION
  2
HEADER
  9
$EXTMIN
 10
-210.0
 20
-148.5
  9
$EXTMAX
 10
210.0
 20
148.5
  9
$PDMODE
 70
    32
  9
$PDSIZE
 40
1.5
  9
$LTSCALE
 40
10.0
  0
ENDSEC
  0
SECTION
  2
TABLES
  0
TABLE
  2
LTYPE
 70
    15
  0
LTYPE
  2
CONTINUOUS
 70
    64
  3
実線
 72
    65
 73
     0
 40
0.0
  0
LTYPE
  2
DASHED
 70
    64
  3
破線A
 72
    65
 73
     2
 40
0.6
 49
0.4
 49
-0.2
  0
LTYPE
  2
DASHEDX2
 70
    64
  3
破線B
 72
    65
 73
     2
 40
1.3
 49
0.9
 49
-0.4
  0
LTYPE
  2
DASHDOT
 70
    64
  3
１点鎖線A
 72
    65
 73
     4
 40
0.5375
 49
0.375
 49
-0.05
 49
0.0625
 49
-0.05
  0
LTYPE
  2
DASHDOTX2
 70
    64
  3
１点鎖線B
 72
    65
 73
     4
 40
1.075
 49
0.75
 49
-0.1
 49
0.125
 49
-0.1
  0
LTYPE
  2
DIVIDE2
 70
    64
  3
２点鎖線A
 72
    65
 73
     6
 40
0.5125
 49
0.3
 49
-0.0375
 49
0.05
 49
-0.0375
 49
0.05
 49
-0.0375
  0
LTYPE
  2
DIVIDE
 70
    64
  3
２点鎖線B
 72
    65
 73
     6
 40
1.05
 49
0.55
 49
-0.1
 49
0.1
 49
-0.1
 49
0.1
 49
-0.1
  0
LTYPE
  2
DOT
 70
    64
  3
点線A
 72
    65
 73
     2
 40
0.1125
 49
0.0625
 49
-0.05
  0
LTYPE
  2
DOTX2
 70
    64
  3
点線B
 72
    65
 73
     2
 40
0.275
 49
0.15
 49
-0.125
  0
LTYPE
  2
CONTINUOUS
 70
    64
  3
実線
 72
    65
 73
     0
 40
0.0
  0
LTYPE
  2
CONTINUOUS
 70
    64
  3
実線
 72
    65
 73
     0
 40
0.0
  0
LTYPE
  2
CONTINUOUS
 70
    64
  3
実線
 72
    65
 73
     0
 40
0.0
  0
LTYPE
  2
CONTINUOUS
 70
    64
  3
実線
 72
    65
 73
     0
 40
0.0
  0
LTYPE
  2
CONTINUOUS
 70
    64
  3
実線
 72
    65
 73
     0
 40
0.0
  0
LTYPE
  2
CONTINUOUS
 70
    64
  3
実線
 72
    65
 73
     0
 40
0.0
  0
ENDTAB
  0
TABLE
  2
LAYER
 70
    34
  0
LAYER
  2
通り芯
 70
     0
 62
    15
  6
CONTINUOUS
  0
LAYER
  2
補助線
 70
     0
 62
    16
  6
DOT
  0
LAYER
  2
躯体
 70
     0
 62
    31
  6
CONTINUOUS
  0
LAYER
  2
型材
 70
     0
 62
    32
  6
CONTINUOUS
  0
LAYER
  2
型材断面
 70
     0
 62
    47
  6
CONTINUOUS
  0
LAYER
  2
ガラス
 70
     0
 62
    48
  6
CONTINUOUS
  0
LAYER
  2
ゴム等
 70
     0
 62
    63
  6
CONTINUOUS
  0
LAYER
  2
ボルト／ビス
 70
     0
 62
    64
  6
CONTINUOUS
  0
LAYER
  2
文字
 70
     0
 62
    79
  6
CONTINUOUS
  0
LAYER
  2
寸法
 70
     0
 62
    80
  6
CONTINUOUS
  0
LAYER
  2
ﾊｯﾁﾝｸﾞ
 70
     0
 62
    95
  6
CONTINUOUS
  0
LAYER
  2
別途部材
 70
     0
 62
    96
  6
CONTINUOUS
  0
LAYER
  2
曲げ物
 70
     0
 62
   111
  6
CONTINUOUS
  0
LAYER
  2
鉄骨等
 70
     0
 62
   112
  6
CONTINUOUS
  0
LAYER
  2
St
 70
     0
 62
   127
  6
CONTINUOUS
  0
LAYER
  2
その他部品等
 70
     0
 62
   128
  6
CONTINUOUS
  0
LAYER
  2
ｶﾞｽｹｯﾄ
 70
     0
 62
   143
  6
CONTINUOUS
  0
LAYER
  2
ｽｹｯﾁ
 70
     0
 62
    14
  6
CONTINUOUS
  0
LAYER
  2
0
 70
     0
 62
    17
  6
CONTINUOUS
  0
LAYER
  2
1
 70
     0
 62
    30
  6
CONTINUOUS
  0
LAYER
  2
4
 70
     0
 62
    33
  6
CONTINUOUS
  0
LAYER
  2
ﾚｲﾔ3
 70
     0
 62
    46
  6
CONTINUOUS
  0
LAYER
  2
外形線
 70
     0
 62
    49
  6
CONTINUOUS
  0
LAYER
  2
部品
 70
     0
 62
    14
  6
CONTINUOUS
  0
LAYER
  2
サッシ芯
 70
     0
 62
    17
  6
DASHDOTX2
  0
LAYER
  2
寸法線
 70
     0
 62
    62
  6
CONTINUOUS
  0
LAYER
  2
姿図外形線
 70
     0
 62
    65
  6
CONTINUOUS
  0
LAYER
  2
姿補助線
 70
     0
 62
    30
  6
CONTINUOUS
  0
LAYER
  2
透視線
 70
     0
 62
    78
  6
DOT
  0
LAYER
  2
用紙
 70
     0
 62
    81
  6
CONTINUOUS
  0
LAYER
  2
実線図枠
 70
     0
 62
    94
  6
CONTINUOUS
  0
LAYER
  2
補助図枠
 70
     0
 62
    97
  6
CONTINUOUS
  0
LAYER
  2
建具記号
 70
     0
 62
   110
  6
CONTINUOUS
  0
LAYER
  2
補助文字
 70
     0
 62
   113
  6
CONTINUOUS
  0
ENDTAB
  0
TABLE
  2
STYLE
 70
    10
  0
STYLE
  2
STANDARD
 70
     0
 40
1.0
 41
1.0
 42
1.0
 50
0.0
 71
     0
  3
TXT
  4
BIGFONT
  0
STYLE
  2
TATE
 70
     4
 40
1.0
 41
1.0
 42
1.0
 50
0.0
 71
     0
  3
TXT
  4
BIGFONT
  0
STYLE
  2
TextStyle03
 70
     0
 40
1.0
 41
1.0
 42
1.0
 50
0.0
 71
     0
  3
MONOTXT
  4
BIGFONT
  0
STYLE
  2
TextStyle04
 70
     0
 40
1.0
 41
1.0
 42
1.0
 50
0.0
 71
     0
  3
MONOTXT
  4
BIGFONT
  0
STYLE
  2
TextStyle05
 70
     0
 40
1.0
 41
1.0
 42
1.0
 50
0.0
 71
     0
  3
MONOTXT
  4
BIGFONT
  0
STYLE
  2
TextStyle06
 70
     0
 40
1.0
 41
1.0
 42
1.0
 50
0.0
 71
     0
  3
MONOTXT
  4
BIGFONT
  0
STYLE
  2
TextStyle07
 70
     0
 40
1.0
 41
1.0
 42
1.0
 50
0.0
 71
     0
  3
MONOTXT
  4
BIGFONT
  0
STYLE
  2
TextStyle08
 70
     0
 40
1.0
 41
1.0
 42
1.0
 50
0.0
 71
     0
  3
MONOTXT
  4
BIGFONT
  0
STYLE
  2
TextStyle09
 70
     0
 40
1.0
 41
1.0
 42
1.0
 50
0.0
 71
     0
  3
MONOTXT
  4
BIGFONT
  0
STYLE
  2
TextStyle10
 70
     0
 40
1.0
 41
1.0
 42
1.0
 50
0.0
 71
     0
  3
MONOTXT
  4
BIGFONT
  0
ENDTAB
  0
ENDSEC
  0
SECTION
  2
BLOCKS
  0
BLOCK
  2
*GRP_0001
 70
    65
 10
0.0
 20
0.0
  0
LINE
  8
型材断面
  6
CONTINUOUS
 10
195.0
 20
133.5
 11
195.0
 21
-133.5
  0
LINE
  8
型材断面
  6
CONTINUOUS
 10
195.0
 20
-133.5
 11
-185.0
 21
-133.5
  0
LINE
  8
型材断面
  6
CONTINUOUS
 10
-185.0
 20
-133.5
 11
-185.0
 21
133.5
  0
LINE
  8
型材断面
  6
CONTINUOUS
 10
195.0
 20
133.5
 11
-185.0
 21
133.5
  0
LINE
  8
型材断面
  6
CONTINUOUS
 10
145.0
 20
-133.5
 11
145.0
 21
-118.5
  0
LINE
  8
型材断面
  6
CONTINUOUS
 10
195.0
 20
-118.5
 11
145.0
 21
-118.5
  0
ENDBLK
  0
BLOCK
  2
*DIM_0002
 70
    65
 10
0.0
 20
0.0
  0
LINE
  8
寸法
  6
BYBLOCK
 62
     0
 10
-75.342895
 20
-13.511205
 11
-75.342895
 21
-13.121378
  0
LINE
  8
寸法
  6
BYBLOCK
 62
     0
 10
57.990438
 20
-13.121378
 11
-75.342895
 21
-13.121378
  0
POINT
  8
寸法
 62
     0
 10
57.990438
 20
-13.121378
  0
POINT
  8
寸法
 62
     0
 10
-75.342895
 20
-13.121378
  0
TEXT
  7
TextStyle03
  8
寸法
  6
CONTINUOUS
 62
     0
 10
-20.41875
 20
-12.75
  1
呼称寸法　4000
 40
3.0
 72
     5
 11
3.01875
 21
-12.75
  0
ENDBLK
  0
BLOCK
  2
*DIM_0003
 70
    65
 10
0.0
 20
0.0
  0
LINE
  8
寸法
  6
BYBLOCK
 62
     0
 10
-58.676228
 20
19.183902
 11
-58.676228
 21
14.132895
  0
LINE
  8
寸法
  6
BYBLOCK
 62
     0
 10
41.323768
 20
19.183902
 11
41.323768
 21
14.132895
  0
LINE
  8
寸法
  6
BYBLOCK
 62
     0
 10
-58.676228
 20
14.132895
 11
41.323768
 21
14.132895
  0
POINT
  8
寸法
 62
     0
 10
-58.676228
 20
14.132895
  0
POINT
  8
寸法
 62
     0
 10
41.323768
 20
14.132895
  0
TEXT
  7
TextStyle03
  8
寸法
  6
CONTINUOUS
 62
     0
 10
-11.98125
 20
14.5
  1
3000
 40
3.0
 72
     5
 11
-5.41875
 21
14.5
  0
ENDBLK
  0
BLOCK
  2
*DIM_0004
 70
    65
 10
0.0
 20
0.0
  0
LINE
  8
寸法
  6
BYBLOCK
 62
     0
 10
55.990438
 20
17.20722
 11
55.990438
 21
14.182178
  0
LINE
  8
寸法
  6
BYBLOCK
 62
     0
 10
57.990438
 20
14.182178
 11
55.990438
 21
14.182178
  0
POINT
  8
寸法
 62
     0
 10
57.990438
 20
14.182178
  0
POINT
  8
寸法
 62
     0
 10
55.990438
 20
14.182178
  0
TEXT
  7
TextStyle03
  8
寸法
  6
CONTINUOUS
 62
     0
 10
54.08125
 20
10.4
  1
60
 40
3.0
 72
     5
 11
57.26875
 21
10.4
  0
ENDBLK
  0
BLOCK
  2
*DIM_0005
 70
    65
 10
0.0
 20
0.0
  0
LINE
  8
寸法
  6
BYBLOCK
 62
     0
 10
-73.342897
 20
17.20722
 11
-73.342897
 21
14.182178
  0
LINE
  8
寸法
  6
BYBLOCK
 62
     0
 10
-75.342897
 20
14.182178
 11
-73.342897
 21
14.182178
  0
POINT
  8
寸法
 62
     0
 10
-75.342897
 20
14.182178
  0
POINT
  8
寸法
 62
     0
 10
-73.342897
 20
14.182178
  0
TEXT
  7
TextStyle03
  8
寸法
  6
CONTINUOUS
 62
     0
 10
-74.61875
 20
10.4
  1
60
 40
3.0
 72
     5
 11
-71.43125
 21
10.4
  0
ENDBLK
  0
BLOCK
  2
*DIM_0006
 70
    65
 10
0.0
 20
0.0
  0
LINE
  8
寸法
  6
BYBLOCK
 62
     0
 10
93.467022
 20
22.814033
 11
93.467022
 21
52.814033
  0
POINT
  8
寸法
 62
     0
 10
93.467022
 20
22.814033
  0
POINT
  8
寸法
 62
     0
 10
93.467022
 20
52.814033
  0
TEXT
  7
TextStyle03
  8
寸法
  6
CONTINUOUS
 62
     0
 10
93.1
 20
26.9
  1
呼称寸法　900
 40
3.0
 50
90.0
 72
     5
 11
93.1
 21
48.65
  0
ENDBLK
  0
BLOCK
  2
*DIM_0007
 70
    65
 10
0.0
 20
0.0
  0
LINE
  8
寸法
  6
BYBLOCK
 62
     0
 10
149.876277
 20
56.147508
 11
93.467022
 21
56.147508
  0
LINE
  8
寸法
  6
BYBLOCK
 62
     0
 10
93.467022
 20
52.814033
 11
93.467022
 21
56.147508
  0
POINT
  8
寸法
 62
     0
 10
93.467022
 20
52.814033
  0
POINT
  8
寸法
 62
     0
 10
93.467022
 20
56.147508
  0
TEXT
  7
TextStyle03
  8
寸法
  6
CONTINUOUS
 62
     0
 10
96.4
 20
57.2375
  1
100
 40
3.0
 50
90.0
 72
     5
 11
96.4
 21
62.1125
  0
ENDBLK
  0
BLOCK
  2
*DIM_0008
 70
    65
 10
0.0
 20
0.0
  0
LINE
  8
寸法
  6
BYBLOCK
 62
     0
 10
149.876277
 20
19.480558
 11
93.467022
 21
19.480558
  0
LINE
  8
寸法
  6
BYBLOCK
 62
     0
 10
93.467022
 20
22.814033
 11
93.467022
 21
19.480558
  0
POINT
  8
寸法
 62
     0
 10
93.467022
 20
22.814033
  0
POINT
  8
寸法
 62
     0
 10
93.467022
 20
19.480558
  0
TEXT
  7
TextStyle03
  8
寸法
  6
CONTINUOUS
 62
     0
 10
96.4
 20
13.5125
  1
100
 40
3.0
 50
90.0
 72
     5
 11
96.4
 21
18.3875
  0
ENDBLK
  0
BLOCK
  2
*DIM_0009
 70
    65
 10
0.0
 20
0.0
  0
LINE
  8
寸法
  6
BYBLOCK
 62
     0
 10
61.323913
 20
-72.60973
 11
61.323913
 21
-13.121378
  0
LINE
  8
寸法
  6
BYBLOCK
 62
     0
 10
57.990438
 20
-13.121378
 11
61.323913
 21
-13.121378
  0
POINT
  8
寸法
 62
     0
 10
57.990438
 20
-13.121378
  0
POINT
  8
寸法
 62
     0
 10
61.323913
 20
-13.121378
  0
TEXT
  7
TextStyle03
  8
寸法
  6
CONTINUOUS
 62
     0
 10
62.7125
 20
-15.95
  1
100
 40
3.0
 72
     5
 11
67.5875
 21
-15.95
  0
ENDBLK
  0
BLOCK
  2
*DIM_0010
 70
    65
 10
0.0
 20
0.0
  0
LINE
  8
寸法
  6
BYBLOCK
 62
     0
 10
-78.676372
 20
-72.60973
 11
-78.676372
 21
-13.121378
  0
LINE
  8
寸法
  6
BYBLOCK
 62
     0
 10
-75.342897
 20
-13.121378
 11
-78.676372
 21
-13.121378
  0
POINT
  8
寸法
 62
     0
 10
-75.342897
 20
-13.121378
  0
POINT
  8
寸法
 62
     0
 10
-78.676372
 20
-13.121378
  0
TEXT
  7
TextStyle03
  8
寸法
  6
CONTINUOUS
 62
     0
 10
-84.9625
 20
-15.95
  1
100
 40
3.0
 72
     5
 11
-80.0875
 21
-15.95
  0
ENDBLK
  0
BLOCK
  2
*DIM_0011
 70
    65
 10
0.0
 20
0.0
  0
LINE
  8
寸法
  6
BYBLOCK
 62
     0
 10
160.91659
 20
-84.654215
 11
166.877572
 21
-84.654215
  0
LINE
  8
寸法
  6
BYBLOCK
 62
     0
 10
160.91659
 20
-54.487547
 11
166.877572
 21
-54.487547
  0
LINE
  8
寸法
  6
BYBLOCK
 62
     0
 10
166.877572
 20
-84.654215
 11
166.877572
 21
-54.487547
  0
POINT
  8
寸法
 62
     0
 10
166.877572
 20
-84.654215
  0
POINT
  8
寸法
 62
     0
 10
166.877572
 20
-54.487547
  0
TEXT
  7
TextStyle03
  8
寸法
  6
CONTINUOUS
 62
     0
 10
166.5
 20
-72.0125
  1
905
 40
3.0
 50
90.0
 72
     5
 11
166.5
 21
-67.1375
  0
ENDBLK
  0
BLOCK
  2
*DIM_0012
 70
    65
 10
0.0
 20
0.0
  0
LINE
  8
寸法
  6
BYBLOCK
 62
     0
 10
-78.342895
 20
47.814033
 11
-91.635732
 21
47.814033
  0
LINE
  8
寸法
  6
BYBLOCK
 62
     0
 10
-78.342895
 20
27.814033
 11
-91.635732
 21
27.814033
  0
LINE
  8
寸法
  6
BYBLOCK
 62
     0
 10
-91.635732
 20
47.814033
 11
-91.635732
 21
27.814033
  0
POINT
  8
寸法
 62
     0
 10
-91.635732
 20
47.814033
  0
POINT
  8
寸法
 62
     0
 10
-91.635732
 20
27.814033
  0
TEXT
  7
TextStyle03
  8
寸法
  6
CONTINUOUS
 62
     0
 10
-92.025
 20
35.3625
  1
600
 40
3.0
 50
90.0
 72
     5
 11
-92.025
 21
40.2375
  0
ENDBLK
  0
BLOCK
  2
*DIM_0013
 70
    65
 10
0.0
 20
0.0
  0
LINE
  8
寸法
  6
BYBLOCK
 62
     0
 10
-67.009562
 20
55.814033
 11
-67.009562
 21
84.922105
  0
LINE
  8
寸法
  6
BYBLOCK
 62
     0
 10
-43.67623
 20
55.814033
 11
-43.67623
 21
84.922105
  0
LINE
  8
寸法
  6
BYBLOCK
 62
     0
 10
-67.009562
 20
84.922105
 11
-43.67623
 21
84.922105
  0
POINT
  8
寸法
 62
     0
 10
-67.009562
 20
84.922105
  0
POINT
  8
寸法
 62
     0
 10
-43.67623
 20
84.922105
  0
TEXT
  7
TextStyle03
  8
寸法
  6
CONTINUOUS
 62
     0
 10
-57.8125
 20
85.3
  1
700
 40
3.0
 72
     5
 11
-52.9375
 21
85.3
  0
ENDBLK
  0
BLOCK
  2
*DIM_0014
 70
    65
 10
0.0
 20
0.0
  0
LINE
  8
寸法
  6
BYBLOCK
 62
     0
 10
-20.342897
 20
55.814033
 11
-20.342897
 21
84.922105
  0
LINE
  8
寸法
  6
BYBLOCK
 62
     0
 10
-43.67623
 20
84.922105
 11
-20.342897
 21
84.922105
  0
POINT
  8
寸法
 62
     0
 10
-20.342897
 20
84.922105
  0
TEXT
  7
TextStyle03
  8
寸法
  6
CONTINUOUS
 62
     0
 10
-34.4875
 20
85.3
  1
700
 40
3.0
 72
     5
 11
-29.6125
 21
85.3
  0
ENDBLK
  0
BLOCK
  2
*DIM_0015
 70
    65
 10
0.0
 20
0.0
  0
LINE
  8
寸法
  6
BYBLOCK
 62
     0
 10
2.990438
 20
55.814033
 11
2.990438
 21
84.922105
  0
LINE
  8
寸法
  6
BYBLOCK
 62
     0
 10
-20.342897
 20
84.922105
 11
2.990438
 21
84.922105
  0
POINT
  8
寸法
 62
     0
 10
2.990438
 20
84.922105
  0
TEXT
  7
TextStyle03
  8
寸法
  6
CONTINUOUS
 62
     0
 10
-11.1625
 20
85.3
  1
700
 40
3.0
 72
     5
 11
-6.2875
 21
85.3
  0
ENDBLK
  0
BLOCK
  2
*DIM_0016
 70
    65
 10
0.0
 20
0.0
  0
LINE
  8
寸法
  6
BYBLOCK
 62
     0
 10
26.32377
 20
55.814033
 11
26.32377
 21
84.922105
  0
LINE
  8
寸法
  6
BYBLOCK
 62
     0
 10
2.990438
 20
84.922105
 11
26.32377
 21
84.922105
  0
POINT
  8
寸法
 62
     0
 10
26.32377
 20
84.922105
  0
TEXT
  7
TextStyle03
  8
寸法
  6
CONTINUOUS
 62
     0
 10
12.1875
 20
85.3
  1
700
 40
3.0
 72
     5
 11
17.0625
 21
85.3
  0
ENDBLK
  0
BLOCK
  2
*DIM_0017
 70
    65
 10
0.0
 20
0.0
  0
LINE
  8
寸法
  6
BYBLOCK
 62
     0
 10
49.657102
 20
55.814033
 11
49.657102
 21
84.922105
  0
LINE
  8
寸法
  6
BYBLOCK
 62
     0
 10
26.32377
 20
84.922105
 11
49.657102
 21
84.922105
  0
POINT
  8
寸法
 62
     0
 10
49.657102
 20
84.922105
  0
TEXT
  7
TextStyle03
  8
寸法
  6
CONTINUOUS
 62
     0
 10
35.5125
 20
85.3
  1
700
 40
3.0
 72
     5
 11
40.3875
 21
85.3
  0
ENDBLK
  0
BLOCK
  2
*GRP_0018
 70
    65
 10
0.0
 20
0.0
  0
LINE
  8
別途部材
  6
CONTINUOUS
 62
    96
 10
151.509588
 20
54.047693
 11
151.509588
 21
53.947693
  0
LINE
  8
別途部材
  6
CONTINUOUS
 62
    96
 10
149.408508
 20
54.147693
 11
149.47818
 21
55.478498
  0
LINE
  8
別途部材
  6
CONTINUOUS
 62
    96
 10
150.026253
 20
55.487693
 11
149.909588
 21
55.754357
  0
LINE
  8
別途部材
  6
CONTINUOUS
 62
    96
 10
149.926253
 20
55.466775
 11
149.858733
 21
55.621107
  0
LINE
  8
別途部材
  6
CONTINUOUS
 62
    96
 10
149.37941
 20
55.504613
 11
149.50986
 21
55.764815
  0
LINE
  8
別途部材
  6
CONTINUOUS
 62
    96
 10
149.47818
 20
55.478498
 11
149.61034
 21
55.742108
  0
LINE
  8
別途部材
  6
CONTINUOUS
 62
    96
 10
149.645942
 20
55.677227
 11
149.582295
 21
55.600098
  0
LINE
  8
別途部材
  6
DASHDOTX2
 62
    96
 10
149.709588
 20
55.754357
 11
149.396103
 21
55.754357
  0
LINE
  8
別途部材
  6
DASHDOTX2
 62
    96
 10
149.709588
 20
55.754357
 11
150.040048
 21
55.754357
  0
LINE
  8
別途部材
  6
DASHDOTX2
 62
    96
 10
149.709588
 20
55.754357
 11
149.709588
 21
55.490887
  0
LINE
  8
別途部材
  6
DASHDOTX2
 62
    96
 10
149.709588
 20
55.754357
 11
149.709588
 21
56.032668
  0
LINE
  8
別途部材
  6
CONTINUOUS
 62
    96
 10
149.926253
 20
53.947693
 11
149.926253
 21
55.466775
  0
LINE
  8
別途部材
  6
CONTINUOUS
 62
    96
 10
150.026253
 20
54.047693
 11
150.026253
 21
55.487693
  0
LINE
  8
別途部材
  6
CONTINUOUS
 62
    96
 10
148.175173
 20
54.247693
 11
149.313605
 21
54.247693
  0
LINE
  8
別途部材
  6
CONTINUOUS
 62
    96
 10
148.175173
 20
54.147693
 11
148.175173
 21
54.247693
  0
LINE
  8
別途部材
  6
CONTINUOUS
 62
    96
 10
148.175173
 20
54.147693
 11
149.408508
 21
54.147693
  0
CIRCLE
  8
別途部材
  6
CONTINUOUS
 62
    96
 10
149.709588
 20
55.754357
 40
0.1
  0
ARC
  8
別途部材
  6
CONTINUOUS
 62
    96
 10
149.709585
 20
55.75436
 40
0.2
 50
218.780606
 51
537.001556
  0
LINE
  8
別途部材
  6
CONTINUOUS
 62
    96
 10
149.926253
 20
53.947693
 11
151.509588
 21
53.947693
  0
LINE
  8
別途部材
  6
CONTINUOUS
 62
    96
 10
150.026253
 20
54.047693
 11
151.509588
 21
54.047693
  0
LINE
  8
別途部材
  6
CONTINUOUS
 62
    96
 10
149.37941
 20
55.504613
 11
149.313605
 21
54.247693
  0
ENDBLK
  0
BLOCK
  2
*DIM_0019
 70
    65
 10
0.0
 20
0.0
  0
LINE
  8
寸法
  6
CONTINUOUS
 10
66.323913
 20
-76.10973
 11
71.95707
 21
-76.10973
  0
LINE
  8
寸法
  6
CONTINUOUS
 10
64.67697
 20
-69.593182
 11
71.95707
 21
-69.593182
  0
LINE
  8
寸法
  6
CONTINUOUS
 10
71.95707
 20
-76.10973
 11
71.95707
 21
-69.593182
  0
POINT
  8
寸法
 10
71.95707
 20
-76.10973
  0
POINT
  8
寸法
 10
71.95707
 20
-69.593182
  0
TEXT
  7
TextStyle03
  8
寸法
  6
CONTINUOUS
 10
76.025
 20
-78.375
  1
195.5
 40
4.0
 50
90.0
 72
     5
 11
76.025
 21
-67.375
  0
ENDBLK
  0
BLOCK
  2
*DIM_0020
 70
    65
 10
0.0
 20
0.0
  0
LINE
  8
寸法
  6
BYBLOCK
 62
     0
 10
125.349922
 20
-51.487547
 11
125.349922
 21
-46.63931
  0
LINE
  8
寸法
  6
BYBLOCK
 62
     0
 10
157.91659
 20
-51.487547
 11
157.91659
 21
-46.63931
  0
LINE
  8
寸法
  6
BYBLOCK
 62
     0
 10
125.349922
 20
-46.63931
 11
157.91659
 21
-46.63931
  0
POINT
  8
寸法
 62
     0
 10
125.349922
 20
-46.63931
  0
POINT
  8
寸法
 62
     0
 10
157.91659
 20
-46.63931
  0
TEXT
  7
TextStyle03
  8
寸法
  6
CONTINUOUS
 62
     0
 10
139.1875
 20
-46.275
  1
977
 40
3.0
 72
     5
 11
144.0625
 21
-46.275
  0
ENDBLK
  0
ENDSEC
  0
SECTION
  2
ENTITIES
  0
POLYLINE
  8
通り芯
  6
CONTINUOUS
 66
     1
 70
     1
  0
VERTEX
  8
通り芯
 10
-210.0
 20
-148.5
  0
VERTEX
  8
通り芯
 10
210.0
 20
-148.5
  0
VERTEX
  8
通り芯
 10
210.0
 20
148.5
  0
VERTEX
  8
通り芯
 10
-210.0
 20
148.5
  0
SEQEND
  0
INSERT
  2
*GRP_0001
  8
型材断面
  6
CONTINUOUS
 10
0.0
 20
0.0
  0
LINE
  8
型材断面
  6
DASHDOT
 10
57.990438
 20
-77.836442
 11
57.990438
 21
52.814033
  0
LINE
  8
型材断面
  6
DASHDOT
 10
-8.67623
 20
-77.836442
 11
-8.67623
 21
52.814033
  0
LINE
  8
型材断面
  6
DASHDOT
 10
-75.342895
 20
-77.836442
 11
-75.342895
 21
52.814033
  0
LINE
  8
型材断面
  6
DASHDOT
 10
155.6672
 20
52.814033
 11
-75.342895
 21
52.814033
  0
LINE
  8
型材断面
  6
DASHDOT
 10
155.6672
 20
37.814033
 11
-75.342895
 21
37.814033
  0
LINE
  8
型材断面
  6
DASHDOT
 10
155.6672
 20
22.814033
 11
-75.342895
 21
22.814033
  0
LINE
  8
型材断面
  6
CONTINUOUS
 10
-58.676228
 20
55.444162
 11
-60.171857
 21
58.03467
  0
LINE
  8
型材断面
  6
CONTINUOUS
 10
-58.676228
 20
55.444162
 11
-57.180598
 21
58.03467
  0
LINE
  8
型材断面
  6
CONTINUOUS
 10
-57.180598
 20
58.03467
 11
-60.171857
 21
58.03467
  0
LINE
  8
型材断面
  6
CONTINUOUS
 10
-77.973025
 20
37.814033
 11
-80.563533
 21
39.309663
  0
LINE
  8
型材断面
  6
CONTINUOUS
 10
-77.973025
 20
37.814033
 11
-80.563533
 21
36.318403
  0
LINE
  8
型材断面
  6
CONTINUOUS
 10
-80.563533
 20
36.318403
 11
-80.563533
 21
39.309663
  0
LINE
  8
型材断面
  6
CONTINUOUS
 10
-58.676228
 20
20.183902
 11
-60.171857
 21
17.593395
  0
LINE
  8
型材断面
  6
CONTINUOUS
 10
-58.676228
 20
20.183902
 11
-57.180598
 21
17.593395
  0
LINE
  8
型材断面
  6
CONTINUOUS
 10
-57.180598
 20
17.593395
 11
-60.171857
 21
17.593395
  0
LINE
  8
型材断面
  6
CONTINUOUS
 10
41.323768
 20
55.444162
 11
42.819398
 21
58.03467
  0
LINE
  8
型材断面
  6
CONTINUOUS
 10
41.323768
 20
55.444162
 11
39.828138
 21
58.03467
  0
LINE
  8
型材断面
  6
CONTINUOUS
 10
39.828138
 20
58.03467
 11
42.819398
 21
58.03467
  0
LINE
  8
型材断面
  6
CONTINUOUS
 10
41.323768
 20
20.183902
 11
42.819398
 21
17.593395
  0
LINE
  8
型材断面
  6
CONTINUOUS
 10
41.323768
 20
20.183902
 11
39.828138
 21
17.593395
  0
LINE
  8
型材断面
  6
CONTINUOUS
 10
39.828138
 20
17.593395
 11
42.819398
 21
17.593395
  0
LINE
  8
型材断面
  6
CONTINUOUS
 10
-129.221418
 20
90.791505
 11
-128.625363
 21
88.200998
  0
LINE
  8
型材断面
  6
CONTINUOUS
 10
-129.221418
 20
90.791505
 11
-129.817475
 21
88.200998
  0
LINE
  8
型材断面
  6
CONTINUOUS
 10
-129.817475
 20
88.200998
 11
-128.625363
 21
88.200998
  0
LINE
  8
型材断面
  6
CONTINUOUS
 10
-135.244005
 20
84.922105
 11
-89.002228
 21
84.922105
  0
LINE
  8
型材断面
  6
CONTINUOUS
 10
-129.221418
 20
97.32138
 11
-130.717047
 21
94.730873
  0
LINE
  8
型材断面
  6
CONTINUOUS
 10
-129.221418
 20
97.32138
 11
-127.725788
 21
94.730873
  0
LINE
  8
型材断面
  6
CONTINUOUS
 10
-127.725788
 20
94.730873
 11
-130.717047
 21
94.730873
  0
LINE
  8
型材断面
  6
CONTINUOUS
 10
-135.244005
 20
93.792277
 11
-89.002228
 21
93.792277
  0
LINE
  8
型材断面
  6
CONTINUOUS
 10
-135.244005
 20
79.134073
 11
-89.002228
 21
79.134073
  0
LINE
  8
型材断面
  6
CONTINUOUS
 10
60.620565
 20
37.814033
 11
63.211073
 21
39.309663
  0
LINE
  8
型材断面
  6
CONTINUOUS
 10
60.620565
 20
37.814033
 11
63.211073
 21
36.318403
  0
LINE
  8
型材断面
  6
CONTINUOUS
 10
63.211073
 20
36.318403
 11
63.211073
 21
39.309663
  0
POLYLINE
  8
型材断面
  6
DASHDOT
 66
     1
  0
VERTEX
  8
型材断面
 10
-75.342895
 20
22.814033
  0
VERTEX
  8
型材断面
 10
-8.67623
 20
52.814033
  0
VERTEX
  8
型材断面
 10
57.990438
 20
22.814033
  0
SEQEND
  0
LINE
  8
型材断面
  6
CONTINUOUS
 10
55.990438
 20
20.20722
 11
55.39438
 21
17.616715
  0
LINE
  8
型材断面
  6
CONTINUOUS
 10
55.990438
 20
20.20722
 11
56.586495
 21
17.616715
  0
LINE
  8
型材断面
  6
CONTINUOUS
 10
56.586495
 20
17.616715
 11
55.39438
 21
17.616715
  0
LINE
  8
型材断面
  6
CONTINUOUS
 10
-73.342897
 20
20.20722
 11
-72.74684
 21
17.616715
  0
LINE
  8
型材断面
  6
CONTINUOUS
 10
-73.342897
 20
20.20722
 11
-73.938955
 21
17.616715
  0
LINE
  8
型材断面
  6
CONTINUOUS
 10
-73.938955
 20
17.616715
 11
-72.74684
 21
17.616715
  0
LINE
  8
型材断面
  6
CONTINUOUS
 62
    47
 10
59.313773
 20
-72.149742
 11
59.323773
 21
-72.139743
  0
LINE
  8
型材断面
  6
CONTINUOUS
 62
    47
 10
59.313773
 20
-72.149742
 11
59.323773
 21
-72.159742
  0
LINE
  8
型材断面
  6
CONTINUOUS
 62
    47
 10
59.313773
 20
-72.791975
 11
59.323773
 21
-72.781975
  0
LINE
  8
型材断面
  6
CONTINUOUS
 62
    47
 10
59.313773
 20
-72.791975
 11
59.323773
 21
-72.801975
  0
LINE
  8
型材断面
  6
CONTINUOUS
 62
    47
 10
59.323773
 20
-73.209742
 11
59.323773
 21
-72.801975
  0
LINE
  8
型材断面
  6
CONTINUOUS
 62
    47
 10
59.323773
 20
-72.781975
 11
59.323773
 21
-72.159742
  0
LINE
  8
型材断面
  6
CONTINUOUS
 62
    47
 10
59.323773
 20
-72.139743
 11
59.323773
 21
-71.443058
  0
LINE
  8
型材断面
  6
CONTINUOUS
 62
    47
 10
60.59058
 20
-73.276068
 11
60.59058
 21
-73.442698
  0
LINE
  8
型材断面
  6
CONTINUOUS
 62
    47
 10
59.113912
 20
-74.343073
 11
59.123913
 21
-74.333072
  0
LINE
  8
型材断面
  6
CONTINUOUS
 62
    47
 10
59.113912
 20
-74.343073
 11
59.123913
 21
-74.353072
  0
LINE
  8
型材断面
  6
CONTINUOUS
 62
    47
 10
59.113912
 20
-74.809747
 11
59.123913
 21
-74.799748
  0
LINE
  8
型材断面
  6
CONTINUOUS
 62
    47
 10
59.113912
 20
-74.809747
 11
59.123913
 21
-74.819747
  0
LINE
  8
型材断面
  6
CONTINUOUS
 62
    47
 10
59.123913
 20
-73.709723
 11
59.123913
 21
-74.333072
  0
LINE
  8
型材断面
  6
CONTINUOUS
 62
    47
 10
59.123913
 20
-74.353072
 11
59.123913
 21
-74.799748
  0
LINE
  8
型材断面
  6
CONTINUOUS
 62
    47
 10
61.323913
 20
-75.60973
 11
61.323913
 21
-76.109732
  0
LINE
  8
型材断面
  6
CONTINUOUS
 62
    47
 10
60.82392
 20
-76.443062
 11
60.82392
 21
-76.109732
  0
LINE
  8
型材断面
  6
CONTINUOUS
 62
    47
 10
61.323913
 20
-75.60973
 11
59.123913
 21
-75.443062
  0
LINE
  8
型材断面
  6
CONTINUOUS
 62
    47
 10
58.390438
 20
-75.443062
 11
59.057245
 21
-75.443062
  0
LINE
  8
型材断面
  6
CONTINUOUS
 62
    47
 10
59.113912
 20
-75.343063
 11
59.123913
 21
-75.333062
  0
LINE
  8
型材断面
  6
CONTINUOUS
 62
    47
 10
59.113912
 20
-75.343063
 11
59.123913
 21
-75.353063
  0
LINE
  8
型材断面
  6
CONTINUOUS
 62
    47
 10
59.123913
 20
-75.443062
 11
59.123913
 21
-75.353063
  0
LINE
  8
型材断面
  6
CONTINUOUS
 62
    47
 10
59.123913
 20
-74.819747
 11
59.123913
 21
-75.333062
  0
LINE
  8
型材断面
  6
CONTINUOUS
 62
    47
 10
60.59058
 20
-73.709723
 11
60.59058
 21
-73.576405
  0
LINE
  8
型材断面
  6
CONTINUOUS
 62
    47
 10
59.323773
 20
-73.209742
 11
60.59058
 21
-73.276068
  0
LINE
  8
型材断面
  6
CONTINUOUS
 62
    47
 10
60.82392
 20
-76.443062
 11
-8.67623
 21
-76.443062
  0
LINE
  8
型材断面
  6
CONTINUOUS
 10
61.323913
 20
-75.60973
 11
-8.67623
 21
-75.60973
  0
LINE
  8
型材断面
  6
CONTINUOUS
 10
59.123913
 20
-75.443062
 11
-8.67623
 21
-75.443062
  0
LINE
  8
型材断面
  6
CONTINUOUS
 62
    47
 10
61.323913
 20
-76.109732
 11
-8.67623
 21
-76.109732
  0
LINE
  8
型材断面
  6
CONTINUOUS
 62
    47
 10
60.59058
 20
-73.576405
 11
-8.67623
 21
-73.576405
  0
LINE
  8
型材断面
  6
CONTINUOUS
 62
    47
 10
60.59058
 20
-73.442698
 11
-8.67623
 21
-73.442698
  0
LINE
  8
型材断面
  6
CONTINUOUS
 62
    47
 10
60.59058
 20
-73.709723
 11
-8.67623
 21
-73.709723
  0
LINE
  8
型材断面
  6
CONTINUOUS
 10
60.59058
 20
-73.276068
 11
-8.67623
 21
-73.276068
  0
LINE
  8
型材断面
  6
CONTINUOUS
 10
59.323773
 20
-73.209742
 11
-8.67623
 21
-73.209742
  0
LINE
  8
型材断面
  6
CONTINUOUS
 62
    47
 10
59.323773
 20
-71.443058
 11
-8.67623
 21
-71.443058
  0
LINE
  8
型材断面
  6
CONTINUOUS
 62
    47
 10
-76.666233
 20
-72.149742
 11
-76.676232
 21
-72.139743
  0
LINE
  8
型材断面
  6
CONTINUOUS
 62
    47
 10
-76.666233
 20
-72.149742
 11
-76.676232
 21
-72.159742
  0
LINE
  8
型材断面
  6
CONTINUOUS
 62
    47
 10
-76.666233
 20
-72.791975
 11
-76.676232
 21
-72.781975
  0
LINE
  8
型材断面
  6
CONTINUOUS
 62
    47
 10
-76.666233
 20
-72.791975
 11
-76.676232
 21
-72.801975
  0
LINE
  8
型材断面
  6
CONTINUOUS
 62
    47
 10
-76.676232
 20
-73.209742
 11
-76.676232
 21
-72.801975
  0
LINE
  8
型材断面
  6
CONTINUOUS
 62
    47
 10
-76.676232
 20
-72.781975
 11
-76.676232
 21
-72.159742
  0
LINE
  8
型材断面
  6
CONTINUOUS
 62
    47
 10
-76.676232
 20
-72.139743
 11
-76.676232
 21
-71.443058
  0
LINE
  8
型材断面
  6
CONTINUOUS
 62
    47
 10
-77.94304
 20
-73.276068
 11
-77.94304
 21
-73.442698
  0
LINE
  8
型材断面
  6
CONTINUOUS
 62
    47
 10
-76.466373
 20
-74.343073
 11
-76.476372
 21
-74.333072
  0
LINE
  8
型材断面
  6
CONTINUOUS
 62
    47
 10
-76.466373
 20
-74.343073
 11
-76.476372
 21
-74.353072
  0
LINE
  8
型材断面
  6
CONTINUOUS
 62
    47
 10
-76.466373
 20
-74.809747
 11
-76.476372
 21
-74.799748
  0
LINE
  8
型材断面
  6
CONTINUOUS
 62
    47
 10
-76.466373
 20
-74.809747
 11
-76.476372
 21
-74.819747
  0
LINE
  8
型材断面
  6
CONTINUOUS
 62
    47
 10
-76.476372
 20
-73.709723
 11
-76.476372
 21
-74.333072
  0
LINE
  8
型材断面
  6
CONTINUOUS
 62
    47
 10
-76.476372
 20
-74.353072
 11
-76.476372
 21
-74.799748
  0
LINE
  8
型材断面
  6
CONTINUOUS
 62
    47
 10
-78.676372
 20
-75.60973
 11
-78.676372
 21
-76.109732
  0
LINE
  8
型材断面
  6
CONTINUOUS
 62
    47
 10
-78.17638
 20
-76.443062
 11
-78.17638
 21
-76.109732
  0
LINE
  8
型材断面
  6
CONTINUOUS
 62
    47
 10
-78.676372
 20
-75.60973
 11
-76.476372
 21
-75.443062
  0
LINE
  8
型材断面
  6
CONTINUOUS
 62
    47
 10
-75.742897
 20
-75.443062
 11
-76.409705
 21
-75.443062
  0
LINE
  8
型材断面
  6
CONTINUOUS
 62
    47
 10
-76.466373
 20
-75.343063
 11
-76.476372
 21
-75.333062
  0
LINE
  8
型材断面
  6
CONTINUOUS
 62
    47
 10
-76.466373
 20
-75.343063
 11
-76.476372
 21
-75.353063
  0
LINE
  8
型材断面
  6
CONTINUOUS
 62
    47
 10
-76.476372
 20
-75.443062
 11
-76.476372
 21
-75.353063
  0
LINE
  8
型材断面
  6
CONTINUOUS
 62
    47
 10
-76.476372
 20
-74.819747
 11
-76.476372
 21
-75.333062
  0
LINE
  8
型材断面
  6
CONTINUOUS
 62
    47
 10
-77.94304
 20
-73.709723
 11
-77.94304
 21
-73.576405
  0
LINE
  8
型材断面
  6
CONTINUOUS
 62
    47
 10
-76.676232
 20
-73.209742
 11
-77.94304
 21
-73.276068
  0
LINE
  8
型材断面
  6
CONTINUOUS
 62
    47
 10
-78.17638
 20
-76.443062
 11
-8.67623
 21
-76.443062
  0
LINE
  8
型材断面
  6
CONTINUOUS
 10
-78.676372
 20
-75.60973
 11
-8.67623
 21
-75.60973
  0
LINE
  8
型材断面
  6
CONTINUOUS
 10
-76.476372
 20
-75.443062
 11
-8.67623
 21
-75.443062
  0
LINE
  8
型材断面
  6
CONTINUOUS
 62
    47
 10
-78.676372
 20
-76.109732
 11
-8.67623
 21
-76.109732
  0
LINE
  8
型材断面
  6
CONTINUOUS
 62
    47
 10
-77.94304
 20
-73.576405
 11
-8.67623
 21
-73.576405
  0
LINE
  8
型材断面
  6
CONTINUOUS
 62
    47
 10
-77.94304
 20
-73.442698
 11
-8.67623
 21
-73.442698
  0
LINE
  8
型材断面
  6
CONTINUOUS
 62
    47
 10
-77.94304
 20
-73.709723
 11
-8.67623
 21
-73.709723
  0
LINE
  8
型材断面
  6
CONTINUOUS
 10
-77.94304
 20
-73.276068
 11
-8.67623
 21
-73.276068
  0
LINE
  8
型材断面
  6
CONTINUOUS
 10
-76.676232
 20
-73.209742
 11
-8.67623
 21
-73.209742
  0
LINE
  8
型材断面
  6
CONTINUOUS
 62
    47
 10
-76.676232
 20
-71.443058
 11
-8.67623
 21
-71.443058
  0
LINE
  8
型材断面
  6
CONTINUOUS
 10
61.323913
 20
19.480558
 11
-8.67623
 21
19.480558
  0
LINE
  8
型材断面
  6
CONTINUOUS
 10
61.323913
 20
56.147508
 11
-8.67623
 21
56.147508
  0
LINE
  8
型材断面
  6
CONTINUOUS
 10
-78.676372
 20
56.147508
 11
-8.67623
 21
56.147508
  0
LINE
  8
型材断面
  6
CONTINUOUS
 10
-78.676372
 20
19.480558
 11
-8.67623
 21
19.480558
  0
ARC
  8
型材断面
  6
DASHDOT
 10
149.709587
 20
55.754359
 40
35.540502
 50
225.0
 51
269.918816
  0
LINE
  8
型材断面
  6
CONTINUOUS
 62
    47
 10
148.366275
 20
54.137368
 11
148.356275
 21
54.147367
  0
LINE
  8
型材断面
  6
CONTINUOUS
 62
    47
 10
148.366275
 20
54.137368
 11
148.376275
 21
54.147367
  0
LINE
  8
型材断面
  6
CONTINUOUS
 62
    47
 10
149.008508
 20
54.137368
 11
148.998508
 21
54.147367
  0
LINE
  8
型材断面
  6
CONTINUOUS
 62
    47
 10
149.008508
 20
54.137368
 11
149.018507
 21
54.147367
  0
LINE
  8
型材断面
  6
CONTINUOUS
 62
    47
 10
149.426275
 20
54.147367
 11
149.018507
 21
54.147367
  0
LINE
  8
型材断面
  6
CONTINUOUS
 62
    47
 10
148.998508
 20
54.147367
 11
148.376275
 21
54.147367
  0
LINE
  8
型材断面
  6
CONTINUOUS
 62
    47
 10
148.356275
 20
54.147367
 11
147.65959
 21
54.147367
  0
LINE
  8
型材断面
  6
CONTINUOUS
 62
    47
 10
149.4926
 20
55.414178
 11
149.659228
 21
55.414178
  0
LINE
  8
型材断面
  6
CONTINUOUS
 62
    47
 10
150.559605
 20
53.937507
 11
150.549605
 21
53.947508
  0
LINE
  8
型材断面
  6
CONTINUOUS
 62
    47
 10
150.559605
 20
53.937507
 11
150.569605
 21
53.947508
  0
LINE
  8
型材断面
  6
CONTINUOUS
 62
    47
 10
151.026277
 20
53.937507
 11
151.016278
 21
53.947508
  0
LINE
  8
型材断面
  6
CONTINUOUS
 62
    47
 10
151.026277
 20
53.937507
 11
151.036277
 21
53.947508
  0
LINE
  8
型材断面
  6
CONTINUOUS
 62
    47
 10
149.926253
 20
53.947508
 11
150.549605
 21
53.947508
  0
LINE
  8
型材断面
  6
CONTINUOUS
 62
    47
 10
150.569605
 20
53.947508
 11
151.016278
 21
53.947508
  0
LINE
  8
型材断面
  6
CONTINUOUS
 62
    47
 10
151.826262
 20
56.147508
 11
152.326262
 21
56.147508
  0
LINE
  8
型材断面
  6
CONTINUOUS
 62
    47
 10
152.659595
 20
55.647517
 11
152.326262
 21
55.647517
  0
LINE
  8
型材断面
  6
CONTINUOUS
 62
    47
 10
151.826262
 20
56.147508
 11
151.659595
 21
53.947508
  0
LINE
  8
型材断面
  6
CONTINUOUS
 62
    47
 10
151.659595
 20
53.214033
 11
151.659595
 21
53.880842
  0
LINE
  8
型材断面
  6
CONTINUOUS
 62
    47
 10
151.559595
 20
53.937507
 11
151.549595
 21
53.947508
  0
LINE
  8
型材断面
  6
CONTINUOUS
 62
    47
 10
151.559595
 20
53.937507
 11
151.569595
 21
53.947508
  0
LINE
  8
型材断面
  6
CONTINUOUS
 62
    47
 10
151.659595
 20
53.947508
 11
151.569595
 21
53.947508
  0
LINE
  8
型材断面
  6
CONTINUOUS
 62
    47
 10
151.036277
 20
53.947508
 11
151.549595
 21
53.947508
  0
LINE
  8
型材断面
  6
CONTINUOUS
 62
    47
 10
149.926253
 20
55.414175
 11
149.792937
 21
55.414175
  0
LINE
  8
型材断面
  6
CONTINUOUS
 62
    47
 10
149.426275
 20
54.147367
 11
149.4926
 21
55.414178
  0
LINE
  8
型材断面
  6
CONTINUOUS
 62
    47
 10
147.65959
 20
54.147367
 11
147.65959
 21
37.814035
  0
LINE
  8
型材断面
  6
CONTINUOUS
 62
    47
 10
149.792937
 20
55.414175
 11
149.792937
 21
37.814035
  0
LINE
  8
型材断面
  6
CONTINUOUS
 62
    47
 10
149.926253
 20
55.414175
 11
149.926253
 21
37.814035
  0
LINE
  8
型材断面
  6
CONTINUOUS
 62
    47
 10
149.659228
 20
55.414178
 11
149.659228
 21
37.814035
  0
LINE
  8
型材断面
  6
CONTINUOUS
 10
149.426275
 20
54.147367
 11
149.426275
 21
37.814035
  0
LINE
  8
型材断面
  6
CONTINUOUS
 10
149.4926
 20
55.414178
 11
149.4926
 21
37.814035
  0
LINE
  8
型材断面
  6
CONTINUOUS
 10
151.659595
 20
53.947508
 11
151.659595
 21
37.814035
  0
LINE
  8
型材断面
  6
CONTINUOUS
 10
151.826262
 20
56.147508
 11
151.826262
 21
37.814035
  0
LINE
  8
型材断面
  6
CONTINUOUS
 62
    47
 10
152.326262
 20
56.147508
 11
152.326262
 21
37.814035
  0
LINE
  8
型材断面
  6
CONTINUOUS
 62
    47
 10
152.659595
 20
55.647517
 11
152.659595
 21
37.814035
  0
LINE
  8
型材断面
  6
CONTINUOUS
 62
    47
 10
148.366275
 20
21.490703
 11
148.356275
 21
21.480703
  0
LINE
  8
型材断面
  6
CONTINUOUS
 62
    47
 10
148.366275
 20
21.490703
 11
148.376275
 21
21.480703
  0
LINE
  8
型材断面
  6
CONTINUOUS
 62
    47
 10
149.008508
 20
21.490703
 11
148.998508
 21
21.480703
  0
LINE
  8
型材断面
  6
CONTINUOUS
 62
    47
 10
149.008508
 20
21.490703
 11
149.018507
 21
21.480703
  0
LINE
  8
型材断面
  6
CONTINUOUS
 62
    47
 10
149.426275
 20
21.480703
 11
149.018507
 21
21.480703
  0
LINE
  8
型材断面
  6
CONTINUOUS
 62
    47
 10
148.998508
 20
21.480703
 11
148.376275
 21
21.480703
  0
LINE
  8
型材断面
  6
CONTINUOUS
 62
    47
 10
148.356275
 20
21.480703
 11
147.65959
 21
21.480703
  0
LINE
  8
型材断面
  6
CONTINUOUS
 62
    47
 10
149.4926
 20
20.213892
 11
149.659228
 21
20.213892
  0
LINE
  8
型材断面
  6
CONTINUOUS
 62
    47
 10
150.559605
 20
21.690562
 11
150.549605
 21
21.680563
  0
LINE
  8
型材断面
  6
CONTINUOUS
 62
    47
 10
150.559605
 20
21.690562
 11
150.569605
 21
21.680563
  0
LINE
  8
型材断面
  6
CONTINUOUS
 62
    47
 10
151.026277
 20
21.690562
 11
151.016278
 21
21.680563
  0
LINE
  8
型材断面
  6
CONTINUOUS
 62
    47
 10
151.026277
 20
21.690562
 11
151.036277
 21
21.680563
  0
LINE
  8
型材断面
  6
CONTINUOUS
 62
    47
 10
149.926253
 20
21.680563
 11
150.549605
 21
21.680563
  0
LINE
  8
型材断面
  6
CONTINUOUS
 62
    47
 10
150.569605
 20
21.680563
 11
151.016278
 21
21.680563
  0
LINE
  8
型材断面
  6
CONTINUOUS
 62
    47
 10
151.826262
 20
19.480563
 11
152.326262
 21
19.480563
  0
LINE
  8
型材断面
  6
CONTINUOUS
 62
    47
 10
152.659595
 20
19.980552
 11
152.326262
 21
19.980552
  0
LINE
  8
型材断面
  6
CONTINUOUS
 62
    47
 10
151.826262
 20
19.480563
 11
151.659595
 21
21.680563
  0
LINE
  8
型材断面
  6
CONTINUOUS
 62
    47
 10
151.659595
 20
22.414038
 11
151.659595
 21
21.747228
  0
LINE
  8
型材断面
  6
CONTINUOUS
 62
    47
 10
151.559595
 20
21.690562
 11
151.549595
 21
21.680563
  0
LINE
  8
型材断面
  6
CONTINUOUS
 62
    47
 10
151.559595
 20
21.690562
 11
151.569595
 21
21.680563
  0
LINE
  8
型材断面
  6
CONTINUOUS
 62
    47
 10
151.659595
 20
21.680563
 11
151.569595
 21
21.680563
  0
LINE
  8
型材断面
  6
CONTINUOUS
 62
    47
 10
151.036277
 20
21.680563
 11
151.549595
 21
21.680563
  0
LINE
  8
型材断面
  6
CONTINUOUS
 62
    47
 10
149.926253
 20
20.213895
 11
149.792937
 21
20.213895
  0
LINE
  8
型材断面
  6
CONTINUOUS
 62
    47
 10
149.426275
 20
21.480703
 11
149.4926
 21
20.213892
  0
LINE
  8
型材断面
  6
CONTINUOUS
 62
    47
 10
147.65959
 20
21.480703
 11
147.65959
 21
37.814035
  0
LINE
  8
型材断面
  6
CONTINUOUS
 62
    47
 10
149.792937
 20
20.213895
 11
149.792937
 21
37.814035
  0
LINE
  8
型材断面
  6
CONTINUOUS
 62
    47
 10
149.926253
 20
20.213895
 11
149.926253
 21
37.814035
  0
LINE
  8
型材断面
  6
CONTINUOUS
 62
    47
 10
149.659228
 20
20.213892
 11
149.659228
 21
37.814035
  0
LINE
  8
型材断面
  6
CONTINUOUS
 10
149.426275
 20
21.480703
 11
149.426275
 21
37.814035
  0
LINE
  8
型材断面
  6
CONTINUOUS
 10
149.4926
 20
20.213892
 11
149.4926
 21
37.814035
  0
LINE
  8
型材断面
  6
CONTINUOUS
 10
151.659595
 20
21.680563
 11
151.659595
 21
37.814035
  0
LINE
  8
型材断面
  6
CONTINUOUS
 10
151.826262
 20
19.480563
 11
151.826262
 21
37.814035
  0
LINE
  8
型材断面
  6
CONTINUOUS
 62
    47
 10
152.326262
 20
19.480563
 11
152.326262
 21
37.814035
  0
LINE
  8
型材断面
  6
CONTINUOUS
 62
    47
 10
152.659595
 20
19.980552
 11
152.659595
 21
37.814035
  0
LINE
  8
型材断面
  6
CONTINUOUS
 10
145.976383
 20
21.284025
 11
147.476383
 21
21.284025
  0
LINE
  8
型材断面
  6
CONTINUOUS
 10
145.976383
 20
21.127503
 11
145.809715
 21
21.127503
  0
LINE
  8
型材断面
  6
CONTINUOUS
 62
    47
 10
147.476383
 20
21.284025
 11
147.476383
 21
37.814035
  0
LINE
  8
型材断面
  6
CONTINUOUS
 62
    47
 10
145.976383
 20
21.127503
 11
145.976383
 21
37.814035
  0
LINE
  8
型材断面
  6
CONTINUOUS
 62
    47
 10
145.809715
 20
21.127503
 11
145.809715
 21
37.814035
  0
LINE
  8
型材断面
  6
CONTINUOUS
 10
145.976383
 20
54.344045
 11
147.476383
 21
54.344045
  0
LINE
  8
型材断面
  6
CONTINUOUS
 10
145.976383
 20
54.500568
 11
145.809715
 21
54.500568
  0
LINE
  8
型材断面
  6
CONTINUOUS
 62
    47
 10
147.476383
 20
54.344045
 11
147.476383
 21
37.814035
  0
LINE
  8
型材断面
  6
CONTINUOUS
 62
    47
 10
145.976383
 20
54.500568
 11
145.976383
 21
37.814035
  0
LINE
  8
型材断面
  6
CONTINUOUS
 62
    47
 10
145.809715
 20
54.500568
 11
145.809715
 21
37.814035
  0
LINE
  8
型材断面
  6
DOT
 62
    47
 10
147.616338
 20
55.560837
 11
147.616338
 21
55.57498
  0
LINE
  8
型材断面
  6
DOT
 62
    47
 10
147.616338
 20
55.560837
 11
147.63048
 21
55.560837
  0
LINE
  8
型材断面
  6
DOT
 62
    47
 10
148.070463
 20
55.106712
 11
148.070463
 21
55.120855
  0
LINE
  8
型材断面
  6
DOT
 62
    47
 10
148.070463
 20
55.106712
 11
148.084605
 21
55.106712
  0
LINE
  8
型材断面
  6
DOT
 62
    47
 10
148.372942
 20
54.818377
 11
148.084605
 21
55.106712
  0
LINE
  8
型材断面
  6
DOT
 62
    47
 10
148.070463
 20
55.120855
 11
147.63048
 21
55.560837
  0
LINE
  8
型材断面
  6
DOT
 62
    47
 10
147.616338
 20
55.57498
 11
147.123707
 21
56.067612
  0
LINE
  8
型材断面
  6
DOT
 62
    47
 10
149.315608
 20
55.667247
 11
149.433432
 21
55.549423
  0
LINE
  8
型材断面
  6
DOT
 62
    47
 10
148.372942
 20
54.818377
 11
149.315608
 21
55.667247
  0
LINE
  8
型材断面
  6
DOT
 62
    47
 10
146.932795
 20
55.8767
 11
146.767722
 21
56.041772
  0
LINE
  8
型材断面
  6
DOT
 62
    47
 10
147.123707
 20
56.067612
 11
135.574297
 21
44.5182
  0
LINE
  8
型材断面
  6
DOT
 62
    47
 10
149.433432
 20
55.549423
 11
136.988253
 21
43.104242
  0
LINE
  8
型材断面
  6
DOT
 10
148.372942
 20
54.818377
 11
136.82353
 21
43.268965
  0
LINE
  8
型材断面
  6
DOT
 10
149.315608
 20
55.667247
 11
136.87043
 21
43.222068
  0
LINE
  8
型材断面
  6
DOT
 62
    47
 10
124.531658
 20
32.476158
 11
124.517515
 21
32.476158
  0
LINE
  8
型材断面
  6
DOT
 62
    47
 10
124.531658
 20
32.476158
 11
124.531658
 21
32.462018
  0
LINE
  8
型材断面
  6
DOT
 62
    47
 10
124.985785
 20
32.022033
 11
124.971643
 21
32.022033
  0
LINE
  8
型材断面
  6
DOT
 62
    47
 10
124.985785
 20
32.022033
 11
124.985785
 21
32.00789
  0
LINE
  8
型材断面
  6
DOT
 62
    47
 10
125.27412
 20
31.719555
 11
124.985785
 21
32.00789
  0
LINE
  8
型材断面
  6
DOT
 62
    47
 10
124.971643
 20
32.022033
 11
124.531658
 21
32.462018
  0
LINE
  8
型材断面
  6
DOT
 62
    47
 10
124.517515
 20
32.476158
 11
124.024885
 21
32.96879
  0
LINE
  8
型材断面
  6
DOT
 62
    47
 10
124.42525
 20
30.776887
 11
124.543073
 21
30.659063
  0
LINE
  8
型材断面
  6
DOT
 62
    47
 10
125.27412
 20
31.719555
 11
124.42525
 21
30.776887
  0
LINE
  8
型材断面
  6
DOT
 62
    47
 10
124.215798
 20
33.159702
 11
124.050725
 21
33.324772
  0
LINE
  8
型材断面
  6
DOT
 62
    47
 10
124.024885
 20
32.96879
 11
135.574297
 21
44.5182
  0
LINE
  8
型材断面
  6
DOT
 62
    47
 10
124.543073
 20
30.659063
 11
136.988253
 21
43.104242
  0
LINE
  8
型材断面
  6
DOT
 10
125.27412
 20
31.719555
 11
136.82353
 21
43.268965
  0
LINE
  8
型材断面
  6
DOT
 10
124.42525
 20
30.776887
 11
136.87043
 21
43.222068
  0
LINE
  8
型材断面
  6
DOT
 10
122.695605
 20
34.019928
 11
123.756265
 21
32.959267
  0
LINE
  8
型材断面
  6
DOT
 10
122.584928
 20
33.909247
 11
122.467078
 21
34.0271
  0
LINE
  8
型材断面
  6
DOT
 62
    47
 10
123.756265
 20
32.959267
 11
135.444748
 21
44.647747
  0
LINE
  8
型材断面
  6
DOT
 62
    47
 10
122.584928
 20
33.909247
 11
134.384087
 21
45.708408
  0
LINE
  8
型材断面
  6
DOT
 62
    47
 10
122.467078
 20
34.0271
 11
134.266237
 21
45.82626
  0
LINE
  8
型材断面
  6
DOT
 10
146.07257
 20
57.39689
 11
147.13323
 21
56.33623
  0
LINE
  8
型材断面
  6
DOT
 10
146.183247
 20
57.507568
 11
146.065397
 21
57.62542
  0
LINE
  8
型材断面
  6
DOT
 62
    47
 10
147.13323
 20
56.33623
 11
135.444748
 21
44.647747
  0
LINE
  8
型材断面
  6
DOT
 62
    47
 10
146.183247
 20
57.507568
 11
134.384087
 21
45.708408
  0
LINE
  8
型材断面
  6
DOT
 62
    47
 10
146.065397
 20
57.62542
 11
134.266237
 21
45.82626
  0
LINE
  8
型材断面
  6
CONTINUOUS
 10
59.52045
 20
-69.75985
 11
59.52045
 21
-71.25985
  0
LINE
  8
型材断面
  6
CONTINUOUS
 10
59.67697
 20
-69.75985
 11
59.67697
 21
-69.593182
  0
LINE
  8
型材断面
  6
CONTINUOUS
 62
    47
 10
59.52045
 20
-71.25985
 11
-8.67623
 21
-71.25985
  0
LINE
  8
型材断面
  6
CONTINUOUS
 62
    47
 10
59.67697
 20
-69.75985
 11
-8.67623
 21
-69.75985
  0
LINE
  8
型材断面
  6
CONTINUOUS
 62
    47
 10
59.67697
 20
-69.593182
 11
-8.67623
 21
-69.593182
  0
LINE
  8
型材断面
  6
CONTINUOUS
 10
-76.87291
 20
-69.75985
 11
-76.87291
 21
-71.25985
  0
LINE
  8
型材断面
  6
CONTINUOUS
 10
-77.02943
 20
-69.75985
 11
-77.02943
 21
-69.593182
  0
LINE
  8
型材断面
  6
CONTINUOUS
 62
    47
 10
-76.87291
 20
-71.25985
 11
-8.67623
 21
-71.25985
  0
LINE
  8
型材断面
  6
CONTINUOUS
 62
    47
 10
-77.02943
 20
-69.75985
 11
-8.67623
 21
-69.75985
  0
LINE
  8
型材断面
  6
CONTINUOUS
 62
    47
 10
-77.02943
 20
-69.593182
 11
-8.67623
 21
-69.593182
  0
LINE
  8
型材断面
  6
CONTINUOUS
 10
60.59058
 20
20.21389
 11
-8.67623
 21
20.21387
  0
LINE
  8
型材断面
  6
CONTINUOUS
 10
60.59058
 20
55.414175
 11
-8.67623
 21
55.414195
  0
LINE
  8
型材断面
  6
CONTINUOUS
 10
-77.94304
 20
55.414175
 11
-8.67623
 21
55.414195
  0
LINE
  8
型材断面
  6
CONTINUOUS
 10
-77.94304
 20
20.21389
 11
-8.67623
 21
20.21387
  0
LINE
  8
型材断面
  6
CONTINUOUS
 62
    47
 10
59.053782
 20
-71.443058
 11
59.053782
 21
-71.25985
  0
LINE
  8
型材断面
  6
CONTINUOUS
 62
    47
 10
-76.406243
 20
-71.443058
 11
-76.406243
 21
-71.25985
  0
LINE
  8
型材断面
  6
CONTINUOUS
 62
    47
 10
147.65959
 20
21.750692
 11
147.476383
 21
21.750692
  0
LINE
  8
型材断面
  6
CONTINUOUS
 62
    47
 10
147.65959
 20
53.877377
 11
147.476383
 21
53.877377
  0
LINE
  8
型材断面
  6
DASHDOT
 10
24.968767
 20
22.814033
 11
24.968767
 21
52.814033
  0
LINE
  8
型材断面
  6
CONTINUOUS
 10
26.218767
 20
24.460822
 11
23.718767
 21
24.460822
  0
LINE
  8
型材断面
  6
CONTINUOUS
 10
26.218767
 20
24.460822
 11
26.218767
 21
51.167243
  0
LINE
  8
型材断面
  6
CONTINUOUS
 10
23.718767
 20
24.460822
 11
23.718767
 21
51.167243
  0
LINE
  8
型材断面
  6
CONTINUOUS
 10
26.218767
 20
51.167243
 11
23.718767
 21
51.167243
  0
LINE
  8
型材断面
  6
CONTINUOUS
 10
-7.42623
 20
24.460822
 11
-9.92623
 21
24.460822
  0
LINE
  8
型材断面
  6
CONTINUOUS
 10
-7.42623
 20
24.460822
 11
-7.42623
 21
51.167243
  0
LINE
  8
型材断面
  6
CONTINUOUS
 10
-9.92623
 20
24.460822
 11
-9.92623
 21
51.167243
  0
LINE
  8
型材断面
  6
CONTINUOUS
 10
-7.42623
 20
51.167243
 11
-9.92623
 21
51.167243
  0
LINE
  8
型材断面
  6
CONTINUOUS
 10
41.89627
 20
23.627495
 11
41.89627
 21
21.127495
  0
LINE
  8
型材断面
  6
CONTINUOUS
 10
41.062935
 20
23.627495
 11
41.062935
 21
21.127495
  0
LINE
  8
型材断面
  6
CONTINUOUS
 10
8.562938
 20
23.627495
 11
8.562938
 21
21.127495
  0
LINE
  8
型材断面
  6
CONTINUOUS
 10
7.729602
 20
23.627495
 11
7.729602
 21
21.127495
  0
LINE
  8
型材断面
  6
CONTINUOUS
 10
41.89627
 20
52.00057
 11
41.89627
 21
54.50057
  0
LINE
  8
型材断面
  6
CONTINUOUS
 10
41.062935
 20
52.00057
 11
41.062935
 21
54.50057
  0
LINE
  8
型材断面
  6
CONTINUOUS
 10
8.562938
 20
52.00057
 11
8.562938
 21
54.50057
  0
LINE
  8
型材断面
  6
CONTINUOUS
 10
7.729602
 20
52.00057
 11
7.729602
 21
54.50057
  0
LINE
  8
型材断面
  6
CONTINUOUS
 10
41.062935
 20
23.627495
 11
8.562938
 21
23.627483
  0
LINE
  8
型材断面
  6
CONTINUOUS
 10
7.729602
 20
23.627483
 11
-8.67623
 21
23.627477
  0
LINE
  8
型材断面
  6
CONTINUOUS
 10
41.062935
 20
52.00057
 11
8.562938
 21
52.000583
  0
LINE
  8
型材断面
  6
CONTINUOUS
 10
7.729602
 20
52.000583
 11
-8.67623
 21
52.000588
  0
LINE
  8
型材断面
  6
CONTINUOUS
 10
61.32391
 20
19.48056
 11
61.32391
 21
37.814033
  0
LINE
  8
型材断面
  6
CONTINUOUS
 10
61.32391
 20
56.147505
 11
61.32391
 21
37.814033
  0
LINE
  8
型材断面
  6
CONTINUOUS
 10
60.590577
 20
55.414175
 11
60.590577
 21
37.814033
  0
LINE
  8
型材断面
  6
CONTINUOUS
 10
60.590577
 20
20.21389
 11
60.590577
 21
37.814033
  0
LINE
  8
型材断面
  6
CONTINUOUS
 10
59.44127
 20
21.127495
 11
59.676967
 21
21.363203
  0
LINE
  8
型材断面
  6
CONTINUOUS
 10
61.32391
 20
19.48056
 11
59.55912
 21
21.24535
  0
LINE
  8
型材断面
  6
CONTINUOUS
 10
56.941265
 20
23.627495
 11
59.441265
 21
21.1275
  0
LINE
  8
型材断面
  6
CONTINUOUS
 10
57.176967
 20
23.863198
 11
59.67697
 21
21.3632
  0
LINE
  8
型材断面
  6
CONTINUOUS
 10
56.94127
 20
23.6275
 11
57.176967
 21
23.863198
  0
LINE
  8
型材断面
  6
CONTINUOUS
 10
59.676967
 20
37.814033
 11
59.676967
 21
21.363203
  0
LINE
  8
型材断面
  6
CONTINUOUS
 10
59.676967
 20
37.397365
 11
57.176967
 21
37.397365
  0
LINE
  8
型材断面
  6
CONTINUOUS
 10
59.676967
 20
38.2307
 11
57.176967
 21
38.2307
  0
LINE
  8
型材断面
  6
CONTINUOUS
 10
57.176967
 20
37.397365
 11
57.176967
 21
23.863198
  0
LINE
  8
型材断面
  6
CONTINUOUS
 10
59.44127
 20
54.50057
 11
59.676967
 21
54.264862
  0
LINE
  8
型材断面
  6
CONTINUOUS
 10
61.32391
 20
56.147505
 11
59.55912
 21
54.382715
  0
LINE
  8
型材断面
  6
CONTINUOUS
 10
56.941265
 20
52.00057
 11
59.441265
 21
54.500565
  0
LINE
  8
型材断面
  6
CONTINUOUS
 10
57.176967
 20
51.764868
 11
59.67697
 21
54.264865
  0
LINE
  8
型材断面
  6
CONTINUOUS
 10
57.176967
 20
38.2307
 11
57.176967
 21
51.764868
  0
LINE
  8
型材断面
  6
CONTINUOUS
 10
57.176967
 20
51.764868
 11
56.94127
 21
52.000565
  0
LINE
  8
型材断面
  6
CONTINUOUS
 10
59.676967
 20
37.814033
 11
59.676967
 21
54.264862
  0
LINE
  8
型材断面
  6
CONTINUOUS
 10
41.89627
 20
52.00057
 11
56.94126
 21
52.000565
  0
LINE
  8
型材断面
  6
CONTINUOUS
 10
-8.67623
 20
54.500585
 11
59.441265
 21
54.500565
  0
LINE
  8
型材断面
  6
CONTINUOUS
 10
41.89627
 20
23.627495
 11
56.94126
 21
23.6275
  0
LINE
  8
型材断面
  6
CONTINUOUS
 10
-8.67623
 20
21.12748
 11
59.441265
 21
21.1275
  0
LINE
  8
型材断面
  6
DASHDOT
 10
-42.321227
 20
22.814033
 11
-42.321227
 21
52.814033
  0
LINE
  8
型材断面
  6
CONTINUOUS
 10
-43.571227
 20
24.460822
 11
-41.071227
 21
24.460822
  0
LINE
  8
型材断面
  6
CONTINUOUS
 10
-43.571227
 20
24.460822
 11
-43.571227
 21
51.167243
  0
LINE
  8
型材断面
  6
CONTINUOUS
 10
-41.071227
 20
24.460822
 11
-41.071227
 21
51.167243
  0
LINE
  8
型材断面
  6
CONTINUOUS
 10
-43.571227
 20
51.167243
 11
-41.071227
 21
51.167243
  0
LINE
  8
型材断面
  6
CONTINUOUS
 10
-59.24873
 20
23.627495
 11
-59.24873
 21
21.127495
  0
LINE
  8
型材断面
  6
CONTINUOUS
 10
-58.415395
 20
23.627495
 11
-58.415395
 21
21.127495
  0
LINE
  8
型材断面
  6
CONTINUOUS
 10
-25.915398
 20
23.627495
 11
-25.915398
 21
21.127495
  0
LINE
  8
型材断面
  6
CONTINUOUS
 10
-25.082063
 20
23.627495
 11
-25.082063
 21
21.127495
  0
LINE
  8
型材断面
  6
CONTINUOUS
 10
-59.24873
 20
52.00057
 11
-59.24873
 21
54.50057
  0
LINE
  8
型材断面
  6
CONTINUOUS
 10
-58.415395
 20
52.00057
 11
-58.415395
 21
54.50057
  0
LINE
  8
型材断面
  6
CONTINUOUS
 10
-25.915398
 20
52.00057
 11
-25.915398
 21
54.50057
  0
LINE
  8
型材断面
  6
CONTINUOUS
 10
-25.082063
 20
52.00057
 11
-25.082063
 21
54.50057
  0
LINE
  8
型材断面
  6
CONTINUOUS
 10
-58.415395
 20
23.627495
 11
-25.915398
 21
23.627483
  0
LINE
  8
型材断面
  6
CONTINUOUS
 10
-58.415395
 20
52.00057
 11
-25.915398
 21
52.000583
  0
LINE
  8
型材断面
  6
CONTINUOUS
 10
-78.67637
 20
19.48056
 11
-78.67637
 21
37.814033
  0
LINE
  8
型材断面
  6
CONTINUOUS
 10
-78.67637
 20
56.147505
 11
-78.67637
 21
37.814033
  0
LINE
  8
型材断面
  6
CONTINUOUS
 10
-77.943037
 20
55.414175
 11
-77.943037
 21
37.814033
  0
LINE
  8
型材断面
  6
CONTINUOUS
 10
-77.943037
 20
20.21389
 11
-77.943037
 21
37.814033
  0
LINE
  8
型材断面
  6
CONTINUOUS
 10
-76.79373
 20
21.127495
 11
-77.029428
 21
21.363203
  0
LINE
  8
型材断面
  6
CONTINUOUS
 10
-78.67637
 20
19.48056
 11
-76.91158
 21
21.24535
  0
LINE
  8
型材断面
  6
CONTINUOUS
 10
-74.293725
 20
23.627495
 11
-76.793725
 21
21.1275
  0
LINE
  8
型材断面
  6
CONTINUOUS
 10
-74.529428
 20
23.863198
 11
-77.02943
 21
21.3632
  0
LINE
  8
型材断面
  6
CONTINUOUS
 10
-74.29373
 20
23.6275
 11
-74.529428
 21
23.863198
  0
LINE
  8
型材断面
  6
CONTINUOUS
 10
-77.029428
 20
37.814033
 11
-77.029428
 21
21.363203
  0
LINE
  8
型材断面
  6
CONTINUOUS
 10
-77.029428
 20
37.397365
 11
-74.529428
 21
37.397365
  0
LINE
  8
型材断面
  6
CONTINUOUS
 10
-77.029428
 20
38.2307
 11
-74.529428
 21
38.2307
  0
LINE
  8
型材断面
  6
CONTINUOUS
 10
-74.529428
 20
37.397365
 11
-74.529428
 21
23.863198
  0
LINE
  8
型材断面
  6
CONTINUOUS
 10
-76.79373
 20
54.50057
 11
-77.029428
 21
54.264862
  0
LINE
  8
型材断面
  6
CONTINUOUS
 10
-78.67637
 20
56.147505
 11
-76.91158
 21
54.382715
  0
LINE
  8
型材断面
  6
CONTINUOUS
 10
-74.293725
 20
52.00057
 11
-76.793725
 21
54.500565
  0
LINE
  8
型材断面
  6
CONTINUOUS
 10
-74.529428
 20
51.764868
 11
-77.02943
 21
54.264865
  0
LINE
  8
型材断面
  6
CONTINUOUS
 10
-74.529428
 20
38.2307
 11
-74.529428
 21
51.764868
  0
LINE
  8
型材断面
  6
CONTINUOUS
 10
-74.529428
 20
51.764868
 11
-74.29373
 21
52.000565
  0
LINE
  8
型材断面
  6
CONTINUOUS
 10
-77.029428
 20
37.814033
 11
-77.029428
 21
54.264862
  0
LINE
  8
型材断面
  6
CONTINUOUS
 10
-59.24873
 20
52.00057
 11
-74.29372
 21
52.000565
  0
LINE
  8
型材断面
  6
CONTINUOUS
 10
-59.24873
 20
23.627495
 11
-74.29372
 21
23.6275
  0
LINE
  8
型材断面
  6
CONTINUOUS
 10
-8.67623
 20
52.000588
 11
-25.082063
 21
52.000583
  0
LINE
  8
型材断面
  6
CONTINUOUS
 10
-8.67623
 20
23.627477
 11
-25.082063
 21
23.627483
  0
LINE
  8
型材断面
  6
CONTINUOUS
 10
-8.67623
 20
54.500585
 11
-76.793725
 21
54.500565
  0
LINE
  8
型材断面
  6
CONTINUOUS
 10
-8.67623
 20
21.12748
 11
-76.793725
 21
21.1275
  0
LINE
  8
ガラス
  6
CONTINUOUS
 10
-57.449237
 20
39.33825
 11
-60.080202
 21
36.707285
  0
LINE
  8
ガラス
  6
CONTINUOUS
 10
-58.10541
 20
37.363458
 11
-59.424028
 21
38.68208
  0
LINE
  8
ガラス
  6
CONTINUOUS
 10
-58.958455
 20
37.39391
 11
-57.94194
 21
38.410425
  0
LINE
  8
ガラス
  6
CONTINUOUS
 10
-58.570985
 20
38.65163
 11
-59.587497
 21
37.635115
  0
LINE
  8
ガラス
  6
CONTINUOUS
 10
-23.546102
 20
39.33825
 11
-26.177067
 21
36.707285
  0
LINE
  8
ガラス
  6
CONTINUOUS
 10
-24.202275
 20
37.363458
 11
-25.520892
 21
38.68208
  0
LINE
  8
ガラス
  6
CONTINUOUS
 10
-25.05532
 20
37.39391
 11
-24.038805
 21
38.410425
  0
LINE
  8
ガラス
  6
CONTINUOUS
 10
-24.66785
 20
38.65163
 11
-25.684363
 21
37.635115
  0
LINE
  8
ガラス
  6
CONTINUOUS
 10
10.0892
 20
39.33825
 11
7.458235
 21
36.707285
  0
LINE
  8
ガラス
  6
CONTINUOUS
 10
9.433028
 20
37.363458
 11
8.11441
 21
38.68208
  0
LINE
  8
ガラス
  6
CONTINUOUS
 10
8.579983
 20
37.39391
 11
9.596498
 21
38.410425
  0
LINE
  8
ガラス
  6
CONTINUOUS
 10
8.967453
 20
38.65163
 11
7.95094
 21
37.635115
  0
LINE
  8
ガラス
  6
CONTINUOUS
 10
42.130985
 20
39.33825
 11
39.50002
 21
36.707285
  0
LINE
  8
ガラス
  6
CONTINUOUS
 10
41.474813
 20
37.363458
 11
40.156195
 21
38.68208
  0
LINE
  8
ガラス
  6
CONTINUOUS
 10
40.621767
 20
37.39391
 11
41.638283
 21
38.410425
  0
LINE
  8
ガラス
  6
CONTINUOUS
 10
41.009238
 20
38.65163
 11
39.992725
 21
37.635115
  0
LINE
  8
ガラス
  6
CONTINUOUS
 10
157.91659
 20
-84.654215
 11
157.91659
 21
-54.487547
  0
LINE
  8
ガラス
  6
CONTINUOUS
 10
157.91659
 20
-54.487547
 11
125.349922
 21
-54.487547
  0
LINE
  8
ガラス
  6
CONTINUOUS
 10
125.349922
 20
-54.487547
 11
125.349922
 21
-84.654215
  0
LINE
  8
ガラス
  6
CONTINUOUS
 10
157.91659
 20
-84.654215
 11
125.349922
 21
-84.654215
  0
TEXT
  7
TextStyle03
  8
文字
  6
CONTINUOUS
 10
-126.45
 20
94.925
  1
は排水穴位置を示す
 40
3.0
 72
     5
 11
-96.45
 21
94.925
  0
TEXT
  7
TextStyle03
  8
文字
  6
CONTINUOUS
 10
-126.45
 20
89.4
  1
はケーシング位置を示す
 40
3.0
 72
     5
 11
-89.7
 21
89.4
  0
TEXT
  7
TextStyle03
  8
文字
  6
CONTINUOUS
 10
-126.45
 20
86.025
  1
２ヶ所中1ヶ所に設定
 40
3.0
 72
     5
 11
-94.7625
 21
86.025
  0
TEXT
  7
TextStyle03
  8
文字
  6
CONTINUOUS
 10
67.45
 20
97.05
  1
ＮＳコード：ＮＳＦＨＺ
 40
5.0
 72
     5
 11
128.7
 21
97.05
  0
TEXT
  7
TextStyle03
  8
文字
  6
CONTINUOUS
 10
139.525
 20
-78.225
  1
網入り6.8t
 40
3.0
 72
     5
 11
156.2125
 21
-78.225
  0
TEXT
  7
TextStyle03
  8
文字
  6
CONTINUOUS
 10
146.2
 20
-82.9
  1
×４枚
 40
3.0
 72
     5
 11
155.95
 21
-82.9
  0
TEXT
  7
TextStyle03
  8
文字
  6
CONTINUOUS
 10
-96.35
 20
16.275
  1
アンカーピッチ
 40
3.0
 50
90.0
 72
     5
 11
-96.35
 21
39.525
  0
TEXT
  7
TextStyle03
  8
文字
  6
CONTINUOUS
 10
-67.275
 20
90.85
  1
アンカーピッチ
 40
3.0
 72
     5
 11
-44.025
 21
90.85
  0
TEXT
  7
TextStyle03
  8
文字
  6
CONTINUOUS
 10
-130.175
 20
80.05
  1
アンカー数量　１６ヶ所
 40
3.0
 72
     5
 11
-93.425
 21
80.05
  0
TEXT
  7
TextStyle03
  8
文字
  6
CONTINUOUS
 10
137.8
 20
14.75
  1
45°
 40
3.0
 50
90.0
 72
     5
 11
137.8
 21
21.125
  0
TEXT
  7
TextStyle03
  8
文字
  6
CONTINUOUS
 10
67.475
 20
124.525
  1
シリーズ：ＴＦ２ＦＨＬ
 40
5.0
 72
     5
 11
128.725
 21
124.525
  0
TEXT
  7
TextStyle03
  8
文字
  6
CONTINUOUS
 10
67.475
 20
118.9
  1
　　　　　（片側開閉）900×4000タイプ
 40
5.0
 72
     5
 11
170.9125
 21
118.9
  0
TEXT
  7
TextStyle03
  8
文字
  6
CONTINUOUS
 10
67.475
 20
113.275
  1

 40
5.0
 41
1.125
  0
TEXT
  7
TextStyle03
  8
文字
  6
CONTINUOUS
 10
67.475
 20
107.65
  1
図面名　：外観姿図
 40
5.0
 72
     5
 11
117.475
 21
107.65
  0
INSERT
  2
*DIM_0002
  8
寸法
  6
CONTINUOUS
 10
0.0
 20
0.0
  0
INSERT
  2
*DIM_0003
  8
寸法
  6
CONTINUOUS
 10
0.0
 20
0.0
  0
INSERT
  2
*DIM_0004
  8
寸法
  6
CONTINUOUS
 10
0.0
 20
0.0
  0
INSERT
  2
*DIM_0005
  8
寸法
  6
CONTINUOUS
 10
0.0
 20
0.0
  0
INSERT
  2
*DIM_0006
  8
寸法
  6
CONTINUOUS
 10
0.0
 20
0.0
  0
INSERT
  2
*DIM_0007
  8
寸法
  6
CONTINUOUS
 10
0.0
 20
0.0
  0
INSERT
  2
*DIM_0008
  8
寸法
  6
CONTINUOUS
 10
0.0
 20
0.0
  0
INSERT
  2
*DIM_0009
  8
寸法
  6
CONTINUOUS
 10
0.0
 20
0.0
  0
INSERT
  2
*DIM_0010
  8
寸法
  6
CONTINUOUS
 10
0.0
 20
0.0
  0
INSERT
  2
*DIM_0011
  8
寸法
  6
CONTINUOUS
 10
0.0
 20
0.0
  0
INSERT
  2
*DIM_0012
  8
寸法
  6
CONTINUOUS
 10
0.0
 20
0.0
  0
INSERT
  2
*DIM_0013
  8
寸法
  6
CONTINUOUS
 10
0.0
 20
0.0
  0
INSERT
  2
*DIM_0014
  8
寸法
  6
CONTINUOUS
 10
0.0
 20
0.0
  0
INSERT
  2
*DIM_0015
  8
寸法
  6
CONTINUOUS
 10
0.0
 20
0.0
  0
INSERT
  2
*DIM_0016
  8
寸法
  6
CONTINUOUS
 10
0.0
 20
0.0
  0
INSERT
  2
*DIM_0017
  8
寸法
  6
CONTINUOUS
 10
0.0
 20
0.0
  0
INSERT
  2
*DIM_0019
  8
寸法
  6
CONTINUOUS
 10
0.0
 20
0.0
  0
INSERT
  2
*DIM_0020
  8
寸法
  6
CONTINUOUS
 10
0.0
 20
0.0
  0
INSERT
  2
*GRP_0018
  8
別途部材
  6
CONTINUOUS
 10
0.0
 20
0.0
  0
ENDSEC
  0
EOF
