  0
SECTION
  2
HEADER
  9
$EXTMIN
 10
-210.0
 20
-148.5
  9
$EXTMAX
 10
210.0
 20
148.5
  9
$PDMODE
 70
    32
  9
$PDSIZE
 40
1.5
  9
$LTSCALE
 40
10.0
  0
ENDSEC
  0
SECTION
  2
TABLES
  0
TABLE
  2
LTYPE
 70
    15
  0
LTYPE
  2
CONTINUOUS
 70
    64
  3
実線
 72
    65
 73
     0
 40
0.0
  0
LTYPE
  2
DASHED
 70
    64
  3
破線A
 72
    65
 73
     2
 40
0.6
 49
0.4
 49
-0.2
  0
LTYPE
  2
DASHEDX2
 70
    64
  3
破線B
 72
    65
 73
     2
 40
1.3
 49
0.9
 49
-0.4
  0
LTYPE
  2
DASHDOT
 70
    64
  3
１点鎖線A
 72
    65
 73
     4
 40
0.5375
 49
0.375
 49
-0.05
 49
0.0625
 49
-0.05
  0
LTYPE
  2
DASHDOTX2
 70
    64
  3
１点鎖線B
 72
    65
 73
     4
 40
1.075
 49
0.75
 49
-0.1
 49
0.125
 49
-0.1
  0
LTYPE
  2
DIVIDE2
 70
    64
  3
２点鎖線A
 72
    65
 73
     6
 40
0.5125
 49
0.3
 49
-0.0375
 49
0.05
 49
-0.0375
 49
0.05
 49
-0.0375
  0
LTYPE
  2
DIVIDE
 70
    64
  3
２点鎖線B
 72
    65
 73
     6
 40
1.05
 49
0.55
 49
-0.1
 49
0.1
 49
-0.1
 49
0.1
 49
-0.1
  0
LTYPE
  2
DOT
 70
    64
  3
点線A
 72
    65
 73
     2
 40
0.1125
 49
0.0625
 49
-0.05
  0
LTYPE
  2
DOTX2
 70
    64
  3
点線B
 72
    65
 73
     2
 40
0.275
 49
0.15
 49
-0.125
  0
LTYPE
  2
CONTINUOUS
 70
    64
  3
実線
 72
    65
 73
     0
 40
0.0
  0
LTYPE
  2
CONTINUOUS
 70
    64
  3
実線
 72
    65
 73
     0
 40
0.0
  0
LTYPE
  2
CONTINUOUS
 70
    64
  3
実線
 72
    65
 73
     0
 40
0.0
  0
LTYPE
  2
CONTINUOUS
 70
    64
  3
実線
 72
    65
 73
     0
 40
0.0
  0
LTYPE
  2
CONTINUOUS
 70
    64
  3
実線
 72
    65
 73
     0
 40
0.0
  0
LTYPE
  2
CONTINUOUS
 70
    64
  3
実線
 72
    65
 73
     0
 40
0.0
  0
ENDTAB
  0
TABLE
  2
LAYER
 70
    34
  0
LAYER
  2
通り芯
 70
     0
 62
    15
  6
CONTINUOUS
  0
LAYER
  2
補助線
 70
     0
 62
    16
  6
DOT
  0
LAYER
  2
躯体
 70
     0
 62
    31
  6
CONTINUOUS
  0
LAYER
  2
型材
 70
     0
 62
    32
  6
CONTINUOUS
  0
LAYER
  2
型材断面
 70
     0
 62
    47
  6
CONTINUOUS
  0
LAYER
  2
ガラス
 70
     0
 62
    48
  6
CONTINUOUS
  0
LAYER
  2
ゴム等
 70
     0
 62
    63
  6
CONTINUOUS
  0
LAYER
  2
ボルト／ビス
 70
     0
 62
    64
  6
CONTINUOUS
  0
LAYER
  2
文字
 70
     0
 62
    79
  6
CONTINUOUS
  0
LAYER
  2
寸法
 70
     0
 62
    80
  6
CONTINUOUS
  0
LAYER
  2
ﾊｯﾁﾝｸﾞ
 70
     0
 62
    95
  6
CONTINUOUS
  0
LAYER
  2
別途部材
 70
     0
 62
    96
  6
CONTINUOUS
  0
LAYER
  2
曲げ物
 70
     0
 62
   111
  6
CONTINUOUS
  0
LAYER
  2
鉄骨等
 70
     0
 62
   112
  6
CONTINUOUS
  0
LAYER
  2
St
 70
     0
 62
   127
  6
CONTINUOUS
  0
LAYER
  2
その他部品等
 70
     0
 62
   128
  6
CONTINUOUS
  0
LAYER
  2
ｶﾞｽｹｯﾄ
 70
     0
 62
   143
  6
CONTINUOUS
  0
LAYER
  2
ｽｹｯﾁ
 70
     0
 62
    14
  6
CONTINUOUS
  0
LAYER
  2
0
 70
     0
 62
    17
  6
CONTINUOUS
  0
LAYER
  2
1
 70
     0
 62
    30
  6
CONTINUOUS
  0
LAYER
  2
4
 70
     0
 62
    33
  6
CONTINUOUS
  0
LAYER
  2
ﾚｲﾔ3
 70
     0
 62
    46
  6
CONTINUOUS
  0
LAYER
  2
外形線
 70
     0
 62
    49
  6
CONTINUOUS
  0
LAYER
  2
部品
 70
     0
 62
    14
  6
CONTINUOUS
  0
LAYER
  2
サッシ芯
 70
     0
 62
    17
  6
DASHDOTX2
  0
LAYER
  2
寸法線
 70
     0
 62
    62
  6
CONTINUOUS
  0
LAYER
  2
姿図外形線
 70
     0
 62
    65
  6
CONTINUOUS
  0
LAYER
  2
姿補助線
 70
     0
 62
    30
  6
CONTINUOUS
  0
LAYER
  2
透視線
 70
     0
 62
    78
  6
DOT
  0
LAYER
  2
用紙
 70
     0
 62
    81
  6
CONTINUOUS
  0
LAYER
  2
実線図枠
 70
     0
 62
    94
  6
CONTINUOUS
  0
LAYER
  2
補助図枠
 70
     0
 62
    97
  6
CONTINUOUS
  0
LAYER
  2
建具記号
 70
     0
 62
   110
  6
CONTINUOUS
  0
LAYER
  2
補助文字
 70
     0
 62
   113
  6
CONTINUOUS
  0
ENDTAB
  0
TABLE
  2
STYLE
 70
    10
  0
STYLE
  2
STANDARD
 70
     0
 40
1.0
 41
1.0
 42
1.0
 50
0.0
 71
     0
  3
TXT
  4
BIGFONT
  0
STYLE
  2
TATE
 70
     4
 40
1.0
 41
1.0
 42
1.0
 50
0.0
 71
     0
  3
TXT
  4
BIGFONT
  0
STYLE
  2
TextStyle03
 70
     0
 40
1.0
 41
1.0
 42
1.0
 50
0.0
 71
     0
  3
MONOTXT
  4
BIGFONT
  0
STYLE
  2
TextStyle04
 70
     0
 40
1.0
 41
1.0
 42
1.0
 50
0.0
 71
     0
  3
MONOTXT
  4
BIGFONT
  0
STYLE
  2
TextStyle05
 70
     0
 40
1.0
 41
1.0
 42
1.0
 50
0.0
 71
     0
  3
MONOTXT
  4
BIGFONT
  0
STYLE
  2
TextStyle06
 70
     0
 40
1.0
 41
1.0
 42
1.0
 50
0.0
 71
     0
  3
MONOTXT
  4
BIGFONT
  0
STYLE
  2
TextStyle07
 70
     0
 40
1.0
 41
1.0
 42
1.0
 50
0.0
 71
     0
  3
MONOTXT
  4
BIGFONT
  0
STYLE
  2
TextStyle08
 70
     0
 40
1.0
 41
1.0
 42
1.0
 50
0.0
 71
     0
  3
MONOTXT
  4
BIGFONT
  0
STYLE
  2
TextStyle09
 70
     0
 40
1.0
 41
1.0
 42
1.0
 50
0.0
 71
     0
  3
MONOTXT
  4
BIGFONT
  0
STYLE
  2
TextStyle10
 70
     0
 40
1.0
 41
1.0
 42
1.0
 50
0.0
 71
     0
  3
MONOTXT
  4
BIGFONT
  0
ENDTAB
  0
ENDSEC
  0
SECTION
  2
BLOCKS
  0
BLOCK
  2
*GRP_0001
 70
    65
 10
0.0
 20
0.0
  0
LINE
  8
型材断面
  6
CONTINUOUS
 10
195.0
 20
133.5
 11
195.0
 21
-133.5
  0
LINE
  8
型材断面
  6
CONTINUOUS
 10
195.0
 20
-133.5
 11
-185.0
 21
-133.5
  0
LINE
  8
型材断面
  6
CONTINUOUS
 10
-185.0
 20
-133.5
 11
-185.0
 21
133.5
  0
LINE
  8
型材断面
  6
CONTINUOUS
 10
195.0
 20
133.5
 11
-185.0
 21
133.5
  0
LINE
  8
型材断面
  6
CONTINUOUS
 10
145.0
 20
-133.5
 11
145.0
 21
-118.5
  0
LINE
  8
型材断面
  6
CONTINUOUS
 10
195.0
 20
-118.5
 11
145.0
 21
-118.5
  0
ENDBLK
  0
BLOCK
  2
*DIM_0002
 70
    65
 10
0.0
 20
0.0
  0
LINE
  8
寸法
  6
BYBLOCK
 62
     0
 10
-95.755937
 20
-35.080245
 11
-95.755937
 21
-33.416065
  0
LINE
  8
寸法
  6
BYBLOCK
 62
     0
 10
-30.755937
 20
-35.080245
 11
-30.755937
 21
-33.416065
  0
LINE
  8
寸法
  6
BYBLOCK
 62
     0
 10
-95.755937
 20
-33.416065
 11
-30.755937
 21
-33.416065
  0
POINT
  8
寸法
 62
     0
 10
-95.755937
 20
-33.416065
  0
POINT
  8
寸法
 62
     0
 10
-30.755937
 20
-33.416065
  0
TEXT
  7
TextStyle03
  8
寸法
  6
CONTINUOUS
 62
     0
 10
-74.99375
 20
-33.05
  1
呼称寸法　1300
 40
3.0
 72
     5
 11
-51.55625
 21
-33.05
  0
ENDBLK
  0
BLOCK
  2
*GRP_0003
 70
    65
 10
0.0
 20
0.0
  0
LINE
  8
別途部材
  6
CONTINUOUS
 62
    96
 10
-98.206255
 20
-77.495038
 11
-98.056255
 21
-77.495038
  0
LINE
  8
別途部材
  6
CONTINUOUS
 62
    96
 10
-98.356255
 20
-74.343418
 11
-100.352463
 21
-74.447927
  0
LINE
  8
別途部材
  6
CONTINUOUS
 62
    96
 10
-100.366255
 20
-75.270038
 11
-100.766255
 21
-75.095038
  0
LINE
  8
別途部材
  6
CONTINUOUS
 62
    96
 10
-100.33488
 20
-75.120038
 11
-100.56638
 21
-75.018757
  0
LINE
  8
別途部材
  6
CONTINUOUS
 62
    96
 10
-100.391637
 20
-74.299773
 11
-100.78194
 21
-74.495447
  0
LINE
  8
別途部材
  6
CONTINUOUS
 62
    96
 10
-100.352463
 20
-74.447927
 11
-100.74788
 21
-74.646167
  0
LINE
  8
別途部材
  6
CONTINUOUS
 62
    96
 10
-100.650558
 20
-74.69957
 11
-100.534862
 21
-74.6041
  0
LINE
  8
別途部材
  6
DASHDOTX2
 62
    96
 10
-100.766255
 20
-74.795038
 11
-100.766255
 21
-74.32481
  0
LINE
  8
別途部材
  6
DASHDOTX2
 62
    96
 10
-100.766255
 20
-74.795038
 11
-100.766255
 21
-75.290727
  0
LINE
  8
別途部材
  6
DASHDOTX2
 62
    96
 10
-100.766255
 20
-74.795038
 11
-100.371047
 21
-74.795038
  0
LINE
  8
別途部材
  6
DASHDOTX2
 62
    96
 10
-100.766255
 20
-74.795038
 11
-101.18372
 21
-74.795038
  0
LINE
  8
別途部材
  6
CONTINUOUS
 62
    96
 10
-98.056255
 20
-75.120038
 11
-100.33488
 21
-75.120038
  0
LINE
  8
別途部材
  6
CONTINUOUS
 62
    96
 10
-98.206255
 20
-75.270038
 11
-100.366255
 21
-75.270038
  0
LINE
  8
別途部材
  6
CONTINUOUS
 62
    96
 10
-98.506257
 20
-72.493418
 11
-98.506257
 21
-74.201065
  0
LINE
  8
別途部材
  6
CONTINUOUS
 62
    96
 10
-98.356255
 20
-72.493418
 11
-98.506257
 21
-72.493418
  0
LINE
  8
別途部材
  6
CONTINUOUS
 62
    96
 10
-98.356255
 20
-72.493418
 11
-98.356255
 21
-74.343418
  0
CIRCLE
  8
別途部材
  6
CONTINUOUS
 62
    96
 10
-100.766255
 20
-74.795038
 40
0.15
  0
ARC
  8
別途部材
  6
CONTINUOUS
 62
    96
 10
-100.766256
 20
-74.795036
 40
0.3
 50
92.998444
 51
411.219394
  0
LINE
  8
別途部材
  6
CONTINUOUS
 62
    96
 10
-98.056255
 20
-75.120038
 11
-98.056255
 21
-77.495038
  0
LINE
  8
別途部材
  6
CONTINUOUS
 62
    96
 10
-98.206255
 20
-75.270038
 11
-98.206255
 21
-77.495038
  0
LINE
  8
別途部材
  6
CONTINUOUS
 62
    96
 10
-100.391637
 20
-74.299773
 11
-98.506257
 21
-74.201065
  0
ENDBLK
  0
BLOCK
  2
*DIM_0004
 70
    65
 10
0.0
 20
0.0
  0
LINE
  8
寸法
  6
BYBLOCK
 62
     0
 10
-25.155895
 20
-77.570225
 11
-25.155895
 21
-33.416065
  0
LINE
  8
寸法
  6
BYBLOCK
 62
     0
 10
-30.755937
 20
-33.416065
 11
-25.155895
 21
-33.416065
  0
POINT
  8
寸法
 62
     0
 10
-30.755937
 20
-33.416065
  0
POINT
  8
寸法
 62
     0
 10
-25.155895
 20
-33.416065
  0
TEXT
  7
TextStyle03
  8
寸法
  6
CONTINUOUS
 62
     0
 10
-30.4125
 20
-33.05
  1
112
 40
3.0
 72
     5
 11
-25.5375
 21
-33.05
  0
ENDBLK
  0
BLOCK
  2
*DIM_0005
 70
    65
 10
0.0
 20
0.0
  0
LINE
  8
寸法
  6
BYBLOCK
 62
     0
 10
-101.35598
 20
-77.570225
 11
-101.35598
 21
-33.416065
  0
LINE
  8
寸法
  6
BYBLOCK
 62
     0
 10
-95.755937
 20
-33.416065
 11
-101.35598
 21
-33.416065
  0
POINT
  8
寸法
 62
     0
 10
-95.755937
 20
-33.416065
  0
POINT
  8
寸法
 62
     0
 10
-101.35598
 20
-33.416065
  0
TEXT
  7
TextStyle03
  8
寸法
  6
CONTINUOUS
 62
     0
 10
-101.0125
 20
-33.05
  1
112
 40
3.0
 72
     5
 11
-96.1375
 21
-33.05
  0
ENDBLK
  0
BLOCK
  2
*GRP_0006
 70
    65
 10
0.0
 20
0.0
  0
LINE
  8
別途部材
  6
CONTINUOUS
 62
    96
 10
61.020138
 20
-77.495038
 11
61.170138
 21
-77.495038
  0
LINE
  8
別途部材
  6
CONTINUOUS
 62
    96
 10
60.870138
 20
-74.343418
 11
58.87393
 21
-74.447927
  0
LINE
  8
別途部材
  6
CONTINUOUS
 62
    96
 10
58.860138
 20
-75.270038
 11
58.460138
 21
-75.095038
  0
LINE
  8
別途部材
  6
CONTINUOUS
 62
    96
 10
58.891512
 20
-75.120038
 11
58.660013
 21
-75.018757
  0
LINE
  8
別途部材
  6
CONTINUOUS
 62
    96
 10
58.834755
 20
-74.299773
 11
58.444453
 21
-74.495447
  0
LINE
  8
別途部材
  6
CONTINUOUS
 62
    96
 10
58.87393
 20
-74.447927
 11
58.478513
 21
-74.646167
  0
LINE
  8
別途部材
  6
CONTINUOUS
 62
    96
 10
58.575835
 20
-74.69957
 11
58.69153
 21
-74.6041
  0
LINE
  8
別途部材
  6
DASHDOTX2
 62
    96
 10
58.460138
 20
-74.795038
 11
58.460138
 21
-74.32481
  0
LINE
  8
別途部材
  6
DASHDOTX2
 62
    96
 10
58.460138
 20
-74.795038
 11
58.460138
 21
-75.290727
  0
LINE
  8
別途部材
  6
DASHDOTX2
 62
    96
 10
58.460138
 20
-74.795038
 11
58.855345
 21
-74.795038
  0
LINE
  8
別途部材
  6
DASHDOTX2
 62
    96
 10
58.460138
 20
-74.795038
 11
58.042672
 21
-74.795038
  0
LINE
  8
別途部材
  6
CONTINUOUS
 62
    96
 10
61.170138
 20
-75.120038
 11
58.891512
 21
-75.120038
  0
LINE
  8
別途部材
  6
CONTINUOUS
 62
    96
 10
61.020138
 20
-75.270038
 11
58.860138
 21
-75.270038
  0
LINE
  8
別途部材
  6
CONTINUOUS
 62
    96
 10
60.720135
 20
-72.493418
 11
60.720135
 21
-74.201065
  0
LINE
  8
別途部材
  6
CONTINUOUS
 62
    96
 10
60.870138
 20
-72.493418
 11
60.720135
 21
-72.493418
  0
LINE
  8
別途部材
  6
CONTINUOUS
 62
    96
 10
60.870138
 20
-72.493418
 11
60.870138
 21
-74.343418
  0
CIRCLE
  8
別途部材
  6
CONTINUOUS
 62
    96
 10
58.460138
 20
-74.795038
 40
0.15
  0
ARC
  8
別途部材
  6
CONTINUOUS
 62
    96
 10
58.460136
 20
-74.795036
 40
0.3
 50
92.998444
 51
411.219394
  0
LINE
  8
別途部材
  6
CONTINUOUS
 62
    96
 10
61.170138
 20
-75.120038
 11
61.170138
 21
-77.495038
  0
LINE
  8
別途部材
  6
CONTINUOUS
 62
    96
 10
61.020138
 20
-75.270038
 11
61.020138
 21
-77.495038
  0
LINE
  8
別途部材
  6
CONTINUOUS
 62
    96
 10
58.834755
 20
-74.299773
 11
60.720135
 21
-74.201065
  0
ENDBLK
  0
BLOCK
  2
*DIM_0007
 70
    65
 10
0.0
 20
0.0
  0
LINE
  8
寸法
  6
BYBLOCK
 62
     0
 10
-29.755937
 20
59.370383
 11
-15.072648
 21
59.370383
  0
LINE
  8
寸法
  6
BYBLOCK
 62
     0
 10
-21.73206
 20
56.370383
 11
-15.072648
 21
56.370383
  0
LINE
  8
寸法
  6
BYBLOCK
 62
     0
 10
-15.072648
 20
59.370383
 11
-15.072648
 21
56.370383
  0
POINT
  8
寸法
 62
     0
 10
-15.072648
 20
59.370383
  0
POINT
  8
寸法
 62
     0
 10
-15.072648
 20
56.370383
  0
TEXT
  7
TextStyle03
  8
寸法
  6
CONTINUOUS
 62
     0
 10
-12.1
 20
56.23125
  1
60
 40
3.0
 50
90.0
 72
     5
 11
-12.1
 21
59.41875
  0
ENDBLK
  0
BLOCK
  2
*DIM_0008
 70
    65
 10
0.0
 20
0.0
  0
LINE
  8
寸法
  6
BYBLOCK
 62
     0
 10
-29.755937
 20
-5.629618
 11
-15.072648
 21
-5.629618
  0
LINE
  8
寸法
  6
BYBLOCK
 62
     0
 10
-21.73206
 20
-2.629618
 11
-15.072648
 21
-2.629618
  0
LINE
  8
寸法
  6
BYBLOCK
 62
     0
 10
-15.072648
 20
-5.629618
 11
-15.072648
 21
-2.629618
  0
POINT
  8
寸法
 62
     0
 10
-15.072648
 20
-5.629618
  0
POINT
  8
寸法
 62
     0
 10
-15.072648
 20
-2.629618
  0
TEXT
  7
TextStyle03
  8
寸法
  6
CONTINUOUS
 62
     0
 10
-12.075
 20
-5.74375
  1
60
 40
3.0
 50
90.0
 72
     5
 11
-12.075
 21
-2.55625
  0
ENDBLK
  0
BLOCK
  2
*DIM_0009
 70
    65
 10
0.0
 20
0.0
  0
LINE
  8
寸法
  6
BYBLOCK
 62
     0
 10
-80.755937
 20
82.238818
 11
-80.755937
 21
92.594355
  0
LINE
  8
寸法
  6
BYBLOCK
 62
     0
 10
-45.755937
 20
82.238818
 11
-45.755937
 21
92.594355
  0
LINE
  8
寸法
  6
BYBLOCK
 62
     0
 10
-80.755937
 20
92.594355
 11
-45.755937
 21
92.594355
  0
POINT
  8
寸法
 62
     0
 10
-80.755937
 20
92.594355
  0
POINT
  8
寸法
 62
     0
 10
-45.755937
 20
92.594355
  0
TEXT
  7
TextStyle03
  8
寸法
  6
CONTINUOUS
 62
     0
 10
-65.7125
 20
92.975
  1
700
 40
3.0
 72
     5
 11
-60.8375
 21
92.975
  0
ENDBLK
  0
BLOCK
  2
*DIM_0010
 70
    65
 10
0.0
 20
0.0
  0
LINE
  8
寸法
  6
BYBLOCK
 62
     0
 10
-123.904373
 20
44.370385
 11
-134.25991
 21
44.370385
  0
LINE
  8
寸法
  6
BYBLOCK
 62
     0
 10
-123.904375
 20
9.370385
 11
-134.259912
 21
9.370385
  0
LINE
  8
寸法
  6
BYBLOCK
 62
     0
 10
-134.25991
 20
44.370385
 11
-134.259912
 21
9.370385
  0
POINT
  8
寸法
 62
     0
 10
-134.25991
 20
44.370385
  0
POINT
  8
寸法
 62
     0
 10
-134.259912
 20
9.370385
  0
TEXT
  7
TextStyle03
  8
寸法
  6
CONTINUOUS
 62
     0
 10
-134.65
 20
24.4375
  1
700
 40
3.0
 50
90.0
 72
     5
 11
-134.65
 21
29.3125
  0
ENDBLK
  0
BLOCK
  2
*DIM_0011
 70
    65
 10
0.0
 20
0.0
  0
LINE
  8
寸法
  6
CONTINUOUS
 10
172.304785
 20
74.557477
 11
180.193265
 21
74.557477
  0
LINE
  8
寸法
  6
CONTINUOUS
 10
172.304785
 20
9.307477
 11
180.193265
 21
9.307477
  0
LINE
  8
寸法
  6
CONTINUOUS
 10
180.193265
 20
74.557477
 11
180.193265
 21
9.307477
  0
POINT
  8
寸法
 10
180.193265
 20
74.557477
  0
POINT
  8
寸法
 10
180.193265
 20
9.307477
  0
TEXT
  7
TextStyle03
  8
寸法
  6
CONTINUOUS
 10
179.8
 20
38.64375
  1
1305
 40
3.0
 50
90.0
 72
     5
 11
179.8
 21
45.20625
  0
ENDBLK
  0
BLOCK
  2
*DIM_0012
 70
    65
 10
0.0
 20
0.0
  0
LINE
  8
寸法
  6
CONTINUOUS
 10
167.304785
 20
79.557477
 11
167.304785
 21
85.255945
  0
LINE
  8
寸法
  6
CONTINUOUS
 10
102.054785
 20
79.557477
 11
102.054785
 21
85.255945
  0
LINE
  8
寸法
  6
CONTINUOUS
 10
167.304785
 20
85.255945
 11
102.054785
 21
85.255945
  0
POINT
  8
寸法
 10
167.304785
 20
85.255945
  0
POINT
  8
寸法
 10
102.054785
 20
85.255945
  0
TEXT
  7
TextStyle03
  8
寸法
  6
CONTINUOUS
 10
131.39375
 20
85.625
  1
1305
 40
3.0
 72
     5
 11
137.95625
 21
85.625
  0
ENDBLK
  0
BLOCK
  2
*DIM_0013
 70
    65
 10
0.0
 20
0.0
  0
LINE
  8
寸法
  6
CONTINUOUS
 10
-20.155895
 20
-79.320225
 11
-10.143282
 21
-79.320225
  0
LINE
  8
寸法
  6
CONTINUOUS
 10
-22.724042
 20
-68.645047
 11
-10.143282
 21
-68.645047
  0
LINE
  8
寸法
  6
CONTINUOUS
 10
-10.143282
 20
-79.320225
 11
-10.143282
 21
-68.645047
  0
POINT
  8
寸法
 10
-10.143282
 20
-79.320225
  0
POINT
  8
寸法
 10
-10.143282
 20
-68.645047
  0
TEXT
  7
TextStyle03
  8
寸法
  6
CONTINUOUS
 10
-7.15
 20
-78.125
  1
213.5
 40
3.0
 50
90.0
 72
     5
 11
-7.15
 21
-69.875
  0
ENDBLK
  0
BLOCK
  2
*GRP_0014
 70
    65
 10
0.0
 20
0.0
  0
LINE
  8
型材断面
  6
DOT
 62
    47
 10
58.750075
 20
-71.655505
 11
58.728862
 21
-71.655505
  0
LINE
  8
型材断面
  6
DOT
 62
    47
 10
58.750075
 20
-71.655505
 11
58.750075
 21
-71.676717
  0
LINE
  8
型材断面
  6
DOT
 62
    47
 10
59.431265
 20
-72.336695
 11
59.410052
 21
-72.336695
  0
LINE
  8
型材断面
  6
DOT
 62
    47
 10
59.431265
 20
-72.336695
 11
59.431265
 21
-72.357907
  0
LINE
  8
型材断面
  6
DOT
 62
    47
 10
59.863788
 20
-72.790427
 11
59.431265
 21
-72.357907
  0
LINE
  8
型材断面
  6
DOT
 62
    47
 10
59.410052
 20
-72.336695
 11
58.750075
 21
-71.676717
  0
LINE
  8
型材断面
  6
DOT
 62
    47
 10
58.591178
 20
-74.20444
 11
58.767932
 21
-74.381195
  0
LINE
  8
型材断面
  6
DOT
 62
    47
 10
59.863788
 20
-72.790427
 11
58.584085
 21
-74.211532
  0
LINE
  8
型材断面
  6
DOT
 10
58.591178
 20
-74.20444
 11
84.75416
 21
-48.04146
  0
LINE
  8
型材断面
  6
DOT
 10
59.863788
 20
-72.790427
 11
84.683458
 21
-47.970758
  0
LINE
  8
型材断面
  6
DOT
 62
    47
 10
58.767932
 20
-74.381195
 11
84.930912
 21
-48.218213
  0
LINE
  8
型材断面
  6
DOT
 62
    47
 10
109.02207
 20
-24.127057
 11
109.78597
 21
-23.363155
  0
LINE
  8
型材断面
  6
DOT
 62
    47
 10
108.368205
 20
-22.037378
 11
108.368205
 21
-22.016162
  0
LINE
  8
型材断面
  6
DOT
 62
    47
 10
108.368205
 20
-22.037378
 11
108.389417
 21
-22.037378
  0
LINE
  8
型材断面
  6
DOT
 62
    47
 10
109.049395
 20
-22.718565
 11
109.049395
 21
-22.697353
  0
LINE
  8
型材断面
  6
DOT
 62
    47
 10
109.049395
 20
-22.718565
 11
109.070608
 21
-22.718565
  0
LINE
  8
型材断面
  6
DOT
 62
    47
 10
109.503127
 20
-23.151087
 11
109.070608
 21
-22.718565
  0
LINE
  8
型材断面
  6
DOT
 62
    47
 10
109.049395
 20
-22.697353
 11
108.389417
 21
-22.037378
  0
LINE
  8
型材断面
  6
DOT
 62
    47
 10
110.91714
 20
-21.87848
 11
111.093895
 21
-22.055232
  0
LINE
  8
型材断面
  6
DOT
 62
    47
 10
109.503127
 20
-23.151087
 11
110.924232
 21
-21.871388
  0
LINE
  8
型材断面
  6
DOT
 10
110.91714
 20
-21.87848
 11
84.75416
 21
-48.04146
  0
LINE
  8
型材断面
  6
DOT
 10
109.503127
 20
-23.151087
 11
84.683458
 21
-47.970758
  0
LINE
  8
型材断面
  6
DOT
 62
    47
 10
111.093895
 20
-22.055232
 11
84.930912
 21
-48.218213
  0
LINE
  8
型材断面
  6
DOT
 62
    47
 10
56.515603
 20
-70.092785
 11
55.667072
 21
-69.244258
  0
ARC
  8
型材断面
  6
DOT
 10
55.536413
 20
-69.233496
 40
0.15
 50
135.0
 51
225.0
  0
LINE
  8
型材断面
  6
DOT
 62
    47
 10
55.430345
 20
-69.339563
 11
55.501058
 21
-69.410272
  0
LINE
  8
型材断面
  6
DOT
 62
    47
 10
55.7841
 20
-69.360835
 11
57.258288
 21
-70.835023
  0
LINE
  8
型材断面
  6
DOT
 62
    47
 10
55.501058
 20
-69.410272
 11
80.812015
 21
-44.099315
  0
LINE
  8
型材断面
  6
DOT
 62
    47
 10
55.430345
 20
-69.12743
 11
80.635238
 21
-43.922537
  0
LINE
  8
型材断面
  6
DOT
 62
    47
 10
57.258288
 20
-70.835023
 11
82.403005
 21
-45.690305
  0
LINE
  8
型材断面
  6
DOT
 62
    47
 10
106.805485
 20
-19.802902
 11
105.956955
 21
-18.954373
  0
ARC
  8
型材断面
  6
DOT
 10
105.946197
 20
-18.823712
 40
0.15
 50
45.0
 51
135.0
  0
LINE
  8
型材断面
  6
DOT
 62
    47
 10
106.052262
 20
-18.717645
 11
106.122972
 21
-18.788357
  0
LINE
  8
型材断面
  6
DOT
 62
    47
 10
106.073535
 20
-19.0714
 11
107.547723
 21
-20.545587
  0
LINE
  8
型材断面
  6
DOT
 62
    47
 10
106.122972
 20
-18.788357
 11
80.812015
 21
-44.099315
  0
LINE
  8
型材断面
  6
DOT
 62
    47
 10
105.84013
 20
-18.717645
 11
80.635238
 21
-43.922537
  0
LINE
  8
型材断面
  6
DOT
 62
    47
 10
107.547723
 20
-20.545587
 11
82.403005
 21
-45.690305
  0
LINE
  8
型材断面
  6
DOT
 62
    47
 10
108.368205
 20
-22.016162
 11
107.222675
 21
-20.870635
  0
LINE
  8
型材断面
  6
DOT
 62
    47
 10
58.728862
 20
-71.655505
 11
57.583335
 21
-70.509975
  0
ENDBLK
  0
ENDSEC
  0
SECTION
  2
ENTITIES
  0
POLYLINE
  8
通り芯
  6
CONTINUOUS
 66
     1
 70
     1
  0
VERTEX
  8
通り芯
 10
-210.0
 20
-148.5
  0
VERTEX
  8
通り芯
 10
210.0
 20
-148.5
  0
VERTEX
  8
通り芯
 10
210.0
 20
148.5
  0
VERTEX
  8
通り芯
 10
-210.0
 20
148.5
  0
SEQEND
  0
INSERT
  2
*GRP_0001
  8
型材断面
  6
CONTINUOUS
 10
0.0
 20
0.0
  0
LINE
  8
型材断面
  6
DASHDOT
 10
-30.755937
 20
-85.083888
 11
-30.755937
 21
59.370383
  0
LINE
  8
型材断面
  6
DASHDOT
 10
-95.755937
 20
-85.083888
 11
-95.755937
 21
59.370383
  0
LINE
  8
型材断面
  6
CONTINUOUS
 10
-22.732063
 20
26.870383
 11
-18.846303
 21
24.626937
  0
LINE
  8
型材断面
  6
CONTINUOUS
 10
-22.732063
 20
26.870383
 11
-18.846303
 21
29.113827
  0
LINE
  8
型材断面
  6
CONTINUOUS
 10
-18.846303
 20
29.113827
 11
-18.846303
 21
24.626937
  0
LINE
  8
型材断面
  6
CONTINUOUS
 10
-63.255937
 20
67.394257
 11
-65.499382
 21
71.280018
  0
LINE
  8
型材断面
  6
CONTINUOUS
 10
-63.255937
 20
67.394257
 11
-61.012493
 21
71.280018
  0
LINE
  8
型材断面
  6
CONTINUOUS
 10
-61.012493
 20
71.280018
 11
-65.499382
 21
71.280018
  0
LINE
  8
型材断面
  6
CONTINUOUS
 10
-63.255937
 20
-13.653492
 11
-65.499382
 21
-17.539253
  0
LINE
  8
型材断面
  6
CONTINUOUS
 10
-63.255937
 20
-13.653492
 11
-61.012493
 21
-17.539253
  0
LINE
  8
型材断面
  6
CONTINUOUS
 10
-61.012493
 20
-17.539253
 11
-65.499382
 21
-17.539253
  0
LINE
  8
型材断面
  6
CONTINUOUS
 10
-103.779813
 20
26.870383
 11
-107.665572
 21
24.626937
  0
LINE
  8
型材断面
  6
CONTINUOUS
 10
-103.779813
 20
26.870383
 11
-107.665572
 21
29.113827
  0
LINE
  8
型材断面
  6
CONTINUOUS
 10
-107.665572
 20
29.113827
 11
-107.665572
 21
24.626937
  0
LINE
  8
型材断面
  6
CONTINUOUS
 10
4.930422
 20
-11.415415
 11
2.686977
 21
-15.301175
  0
LINE
  8
型材断面
  6
CONTINUOUS
 10
4.930422
 20
-11.415415
 11
7.173868
 21
-15.301175
  0
LINE
  8
型材断面
  6
CONTINUOUS
 10
7.173868
 20
-15.301175
 11
2.686977
 21
-15.301175
  0
LINE
  8
型材断面
  6
CONTINUOUS
 10
4.930422
 20
-19.104962
 11
5.824508
 21
-22.990722
  0
LINE
  8
型材断面
  6
CONTINUOUS
 10
4.930422
 20
-19.104962
 11
4.036338
 21
-22.990722
  0
LINE
  8
型材断面
  6
CONTINUOUS
 10
4.036338
 20
-22.990722
 11
5.824508
 21
-22.990722
  0
LINE
  8
型材断面
  6
CONTINUOUS
 10
-4.103457
 20
-16.709068
 11
48.553223
 21
-16.709068
  0
LINE
  8
型材断面
  6
CONTINUOUS
 10
-4.103457
 20
-27.90906
 11
48.553223
 21
-27.90906
  0
LINE
  8
型材断面
  6
CONTINUOUS
 10
-4.103457
 20
-34.749005
 11
48.553223
 21
-34.749005
  0
LINE
  8
型材断面
  6
DASHDOT
 10
-63.255937
 20
-85.083888
 11
-63.255937
 21
59.370383
  0
LINE
  8
型材断面
  6
DASHDOT
 10
-95.755937
 20
26.870383
 11
-30.755937
 21
26.870383
  0
LINE
  8
型材断面
  6
DASHDOT
 10
-95.755937
 20
59.370383
 11
-30.755937
 21
59.370383
  0
LINE
  8
型材断面
  6
DASHDOT
 10
-95.755937
 20
-5.629618
 11
-30.755937
 21
-5.629618
  0
LINE
  8
型材断面
  6
CONTINUOUS
 62
    47
 10
-97.325978
 20
-74.72005
 11
-98.406297
 21
-74.72005
  0
LINE
  8
型材断面
  6
CONTINUOUS
 62
    47
 10
-98.341252
 20
-72.78007
 11
-98.356253
 21
-72.76507
  0
LINE
  8
型材断面
  6
CONTINUOUS
 62
    47
 10
-98.341252
 20
-72.78007
 11
-98.356253
 21
-72.79507
  0
LINE
  8
型材断面
  6
CONTINUOUS
 62
    47
 10
-98.341252
 20
-73.743418
 11
-98.356253
 21
-73.728417
  0
LINE
  8
型材断面
  6
CONTINUOUS
 62
    47
 10
-98.341252
 20
-73.743418
 11
-98.356253
 21
-73.758417
  0
LINE
  8
型材断面
  6
CONTINUOUS
 62
    47
 10
-98.356253
 20
-74.370095
 11
-98.356253
 21
-73.758417
  0
LINE
  8
型材断面
  6
CONTINUOUS
 62
    47
 10
-98.356253
 20
-73.728417
 11
-98.356253
 21
-72.79507
  0
LINE
  8
型材断面
  6
CONTINUOUS
 62
    47
 10
-100.605992
 20
-79.820225
 11
-100.605992
 21
-79.320225
  0
LINE
  8
型材断面
  6
CONTINUOUS
 62
    47
 10
-97.70625
 20
-78.320223
 11
-96.81098
 21
-78.320223
  0
LINE
  8
型材断面
  6
CONTINUOUS
 62
    47
 10
-98.05598
 20
-78.320202
 11
-101.35598
 21
-78.570225
  0
LINE
  8
型材断面
  6
CONTINUOUS
 62
    47
 10
-101.35598
 20
-79.320225
 11
-101.35598
 21
-78.570225
  0
LINE
  8
型材断面
  6
CONTINUOUS
 62
    47
 10
-100.25598
 20
-75.120038
 11
-100.25598
 21
-74.920063
  0
LINE
  8
型材断面
  6
CONTINUOUS
 62
    47
 10
-98.05598
 20
-75.120038
 11
-98.05598
 21
-78.320223
  0
LINE
  8
型材断面
  6
CONTINUOUS
 62
    47
 10
-100.25598
 20
-75.120038
 11
-63.255937
 21
-75.120038
  0
LINE
  8
型材断面
  6
CONTINUOUS
 10
-100.25598
 20
-74.470082
 11
-63.255937
 21
-74.470082
  0
LINE
  8
型材断面
  6
CONTINUOUS
 10
-98.356253
 20
-74.370095
 11
-63.255937
 21
-74.370095
  0
LINE
  8
型材断面
  6
CONTINUOUS
 62
    47
 10
-100.25598
 20
-74.920063
 11
-63.255937
 21
-74.920063
  0
LINE
  8
型材断面
  6
CONTINUOUS
 62
    47
 10
-100.25598
 20
-74.72005
 11
-63.255937
 21
-74.72005
  0
LINE
  8
型材断面
  6
CONTINUOUS
 10
-98.05598
 20
-78.320223
 11
-63.255937
 21
-78.320223
  0
LINE
  8
型材断面
  6
CONTINUOUS
 10
-101.35598
 20
-78.570225
 11
-63.255937
 21
-78.570225
  0
LINE
  8
型材断面
  6
CONTINUOUS
 10
-101.35598
 20
-79.320225
 11
-63.255937
 21
-79.320225
  0
LINE
  8
型材断面
  6
CONTINUOUS
 10
-100.605992
 20
-79.820225
 11
-63.255937
 21
-79.820225
  0
LINE
  8
型材断面
  6
CONTINUOUS
 62
    47
 10
-29.185898
 20
-74.72005
 11
-28.105577
 21
-74.72005
  0
LINE
  8
型材断面
  6
CONTINUOUS
 62
    47
 10
-28.170622
 20
-72.78007
 11
-28.155623
 21
-72.76507
  0
LINE
  8
型材断面
  6
CONTINUOUS
 62
    47
 10
-28.170622
 20
-72.78007
 11
-28.155623
 21
-72.79507
  0
LINE
  8
型材断面
  6
CONTINUOUS
 62
    47
 10
-28.170622
 20
-73.743418
 11
-28.155623
 21
-73.728417
  0
LINE
  8
型材断面
  6
CONTINUOUS
 62
    47
 10
-28.170622
 20
-73.743418
 11
-28.155623
 21
-73.758417
  0
LINE
  8
型材断面
  6
CONTINUOUS
 62
    47
 10
-28.155623
 20
-74.370095
 11
-28.155623
 21
-73.758417
  0
LINE
  8
型材断面
  6
CONTINUOUS
 62
    47
 10
-28.155623
 20
-73.728417
 11
-28.155623
 21
-72.79507
  0
LINE
  8
型材断面
  6
CONTINUOUS
 62
    47
 10
-25.905883
 20
-79.820225
 11
-25.905883
 21
-79.320225
  0
LINE
  8
型材断面
  6
CONTINUOUS
 62
    47
 10
-28.805625
 20
-78.320223
 11
-29.700895
 21
-78.320223
  0
LINE
  8
型材断面
  6
CONTINUOUS
 62
    47
 10
-28.455895
 20
-78.320202
 11
-25.155895
 21
-78.570225
  0
LINE
  8
型材断面
  6
CONTINUOUS
 62
    47
 10
-25.155895
 20
-79.320225
 11
-25.155895
 21
-78.570225
  0
LINE
  8
型材断面
  6
CONTINUOUS
 62
    47
 10
-26.255895
 20
-75.120038
 11
-26.255895
 21
-74.920063
  0
LINE
  8
型材断面
  6
CONTINUOUS
 62
    47
 10
-28.455895
 20
-75.120038
 11
-28.455895
 21
-78.320223
  0
LINE
  8
型材断面
  6
CONTINUOUS
 62
    47
 10
-26.255895
 20
-75.120038
 11
-63.255937
 21
-75.120038
  0
LINE
  8
型材断面
  6
CONTINUOUS
 10
-26.255895
 20
-74.470082
 11
-63.255937
 21
-74.470082
  0
LINE
  8
型材断面
  6
CONTINUOUS
 10
-28.155623
 20
-74.370095
 11
-63.255937
 21
-74.370095
  0
LINE
  8
型材断面
  6
CONTINUOUS
 62
    47
 10
-26.255895
 20
-74.920063
 11
-63.255937
 21
-74.920063
  0
LINE
  8
型材断面
  6
CONTINUOUS
 62
    47
 10
-26.255895
 20
-74.72005
 11
-63.255937
 21
-74.72005
  0
LINE
  8
型材断面
  6
CONTINUOUS
 10
-28.455895
 20
-78.320223
 11
-63.255937
 21
-78.320223
  0
LINE
  8
型材断面
  6
CONTINUOUS
 10
-25.155895
 20
-78.570225
 11
-63.255937
 21
-78.570225
  0
LINE
  8
型材断面
  6
CONTINUOUS
 10
-25.155895
 20
-79.320225
 11
-63.255937
 21
-79.320225
  0
LINE
  8
型材断面
  6
CONTINUOUS
 10
-25.905883
 20
-79.820225
 11
-63.255937
 21
-79.820225
  0
LINE
  8
型材断面
  6
CONTINUOUS
 10
-100.25598
 20
-10.12966
 11
-63.255937
 21
-10.12966
  0
LINE
  8
型材断面
  6
CONTINUOUS
 10
-101.35598
 20
-11.22966
 11
-63.255937
 21
-11.22966
  0
LINE
  8
型材断面
  6
CONTINUOUS
 10
-101.35598
 20
-11.22966
 11
-101.35598
 21
26.870383
  0
LINE
  8
型材断面
  6
CONTINUOUS
 10
-100.25598
 20
-10.12966
 11
-100.25598
 21
26.870383
  0
LINE
  8
型材断面
  6
CONTINUOUS
 10
-26.255895
 20
-10.12966
 11
-63.255937
 21
-10.12966
  0
LINE
  8
型材断面
  6
CONTINUOUS
 10
-25.155895
 20
-11.22966
 11
-63.255937
 21
-11.22966
  0
LINE
  8
型材断面
  6
CONTINUOUS
 10
-25.155895
 20
-11.22966
 11
-25.155895
 21
26.870383
  0
LINE
  8
型材断面
  6
CONTINUOUS
 10
-26.255895
 20
-10.12966
 11
-26.255895
 21
26.870383
  0
LINE
  8
型材断面
  6
CONTINUOUS
 10
-26.255895
 20
63.870425
 11
-63.255937
 21
63.870425
  0
LINE
  8
型材断面
  6
CONTINUOUS
 10
-25.155895
 20
64.970425
 11
-63.255937
 21
64.970425
  0
LINE
  8
型材断面
  6
CONTINUOUS
 10
-25.155895
 20
64.970425
 11
-25.155895
 21
26.870383
  0
LINE
  8
型材断面
  6
CONTINUOUS
 10
-26.255895
 20
63.870425
 11
-26.255895
 21
26.870383
  0
LINE
  8
型材断面
  6
CONTINUOUS
 10
-100.25598
 20
63.870425
 11
-63.255937
 21
63.870425
  0
LINE
  8
型材断面
  6
CONTINUOUS
 10
-101.35598
 20
64.970425
 11
-63.255937
 21
64.970425
  0
LINE
  8
型材断面
  6
CONTINUOUS
 10
-101.35598
 20
64.970425
 11
-101.35598
 21
26.870383
  0
LINE
  8
型材断面
  6
CONTINUOUS
 10
-100.25598
 20
63.870425
 11
-100.25598
 21
26.870383
  0
LINE
  8
型材断面
  6
CONTINUOUS
 62
    47
 10
61.900415
 20
-74.72005
 11
60.820095
 21
-74.72005
  0
LINE
  8
型材断面
  6
CONTINUOUS
 62
    47
 10
60.88514
 20
-72.78007
 11
60.87014
 21
-72.76507
  0
LINE
  8
型材断面
  6
CONTINUOUS
 62
    47
 10
60.88514
 20
-72.78007
 11
60.87014
 21
-72.79507
  0
LINE
  8
型材断面
  6
CONTINUOUS
 62
    47
 10
60.88514
 20
-73.743418
 11
60.87014
 21
-73.728417
  0
LINE
  8
型材断面
  6
CONTINUOUS
 62
    47
 10
60.88514
 20
-73.743418
 11
60.87014
 21
-73.758417
  0
LINE
  8
型材断面
  6
CONTINUOUS
 62
    47
 10
60.87014
 20
-74.370095
 11
60.87014
 21
-73.758417
  0
LINE
  8
型材断面
  6
CONTINUOUS
 62
    47
 10
60.87014
 20
-73.728417
 11
60.87014
 21
-72.79507
  0
LINE
  8
型材断面
  6
CONTINUOUS
 62
    47
 10
58.6204
 20
-79.820225
 11
58.6204
 21
-79.320225
  0
LINE
  8
型材断面
  6
CONTINUOUS
 62
    47
 10
61.520142
 20
-78.320223
 11
62.415412
 21
-78.320223
  0
LINE
  8
型材断面
  6
CONTINUOUS
 62
    47
 10
61.170413
 20
-78.320202
 11
57.870413
 21
-78.570225
  0
LINE
  8
型材断面
  6
CONTINUOUS
 62
    47
 10
57.870413
 20
-79.320225
 11
57.870413
 21
-78.570225
  0
LINE
  8
型材断面
  6
CONTINUOUS
 62
    47
 10
58.970413
 20
-75.120038
 11
58.970413
 21
-74.920063
  0
LINE
  8
型材断面
  6
CONTINUOUS
 62
    47
 10
61.170413
 20
-75.120038
 11
61.170413
 21
-78.320223
  0
LINE
  8
型材断面
  6
CONTINUOUS
 62
    47
 10
58.970413
 20
-75.120038
 11
95.970455
 21
-75.120038
  0
LINE
  8
型材断面
  6
CONTINUOUS
 10
58.970413
 20
-74.470082
 11
95.970455
 21
-74.470082
  0
LINE
  8
型材断面
  6
CONTINUOUS
 10
60.87014
 20
-74.370095
 11
95.970455
 21
-74.370095
  0
LINE
  8
型材断面
  6
CONTINUOUS
 62
    47
 10
58.970413
 20
-74.920063
 11
95.970455
 21
-74.920063
  0
LINE
  8
型材断面
  6
CONTINUOUS
 62
    47
 10
58.970413
 20
-74.72005
 11
95.970455
 21
-74.72005
  0
LINE
  8
型材断面
  6
CONTINUOUS
 10
61.170413
 20
-78.320223
 11
95.970455
 21
-78.320223
  0
LINE
  8
型材断面
  6
CONTINUOUS
 10
57.870413
 20
-78.570225
 11
95.970455
 21
-78.570225
  0
LINE
  8
型材断面
  6
CONTINUOUS
 10
57.870413
 20
-79.320225
 11
95.970455
 21
-79.320225
  0
LINE
  8
型材断面
  6
CONTINUOUS
 10
58.6204
 20
-79.820225
 11
95.970455
 21
-79.820225
  0
LINE
  8
型材断面
  6
CONTINUOUS
 62
    47
 10
130.040495
 20
-74.72005
 11
131.120815
 21
-74.72005
  0
LINE
  8
型材断面
  6
CONTINUOUS
 62
    47
 10
131.05577
 20
-72.78007
 11
131.07077
 21
-72.76507
  0
LINE
  8
型材断面
  6
CONTINUOUS
 62
    47
 10
131.05577
 20
-72.78007
 11
131.07077
 21
-72.79507
  0
LINE
  8
型材断面
  6
CONTINUOUS
 62
    47
 10
131.05577
 20
-73.743418
 11
131.07077
 21
-73.728417
  0
LINE
  8
型材断面
  6
CONTINUOUS
 62
    47
 10
131.05577
 20
-73.743418
 11
131.07077
 21
-73.758417
  0
LINE
  8
型材断面
  6
CONTINUOUS
 62
    47
 10
131.07077
 20
-74.370095
 11
131.07077
 21
-73.758417
  0
LINE
  8
型材断面
  6
CONTINUOUS
 62
    47
 10
131.07077
 20
-73.728417
 11
131.07077
 21
-72.79507
  0
LINE
  8
型材断面
  6
CONTINUOUS
 62
    47
 10
133.32051
 20
-79.820225
 11
133.32051
 21
-79.320225
  0
LINE
  8
型材断面
  6
CONTINUOUS
 62
    47
 10
130.420767
 20
-78.320223
 11
129.525497
 21
-78.320223
  0
LINE
  8
型材断面
  6
CONTINUOUS
 62
    47
 10
130.770498
 20
-78.320202
 11
134.070498
 21
-78.570225
  0
LINE
  8
型材断面
  6
CONTINUOUS
 62
    47
 10
134.070498
 20
-79.320225
 11
134.070498
 21
-78.570225
  0
LINE
  8
型材断面
  6
CONTINUOUS
 62
    47
 10
132.970498
 20
-75.120038
 11
132.970498
 21
-74.920063
  0
LINE
  8
型材断面
  6
CONTINUOUS
 62
    47
 10
130.770498
 20
-75.120038
 11
130.770498
 21
-78.320223
  0
LINE
  8
型材断面
  6
CONTINUOUS
 62
    47
 10
132.970498
 20
-75.120038
 11
95.970455
 21
-75.120038
  0
LINE
  8
型材断面
  6
CONTINUOUS
 10
132.970498
 20
-74.470082
 11
95.970455
 21
-74.470082
  0
LINE
  8
型材断面
  6
CONTINUOUS
 10
131.07077
 20
-74.370095
 11
95.970455
 21
-74.370095
  0
LINE
  8
型材断面
  6
CONTINUOUS
 62
    47
 10
132.970498
 20
-74.920063
 11
95.970455
 21
-74.920063
  0
LINE
  8
型材断面
  6
CONTINUOUS
 62
    47
 10
132.970498
 20
-74.72005
 11
95.970455
 21
-74.72005
  0
LINE
  8
型材断面
  6
CONTINUOUS
 10
130.770498
 20
-78.320223
 11
95.970455
 21
-78.320223
  0
LINE
  8
型材断面
  6
CONTINUOUS
 10
134.070498
 20
-78.570225
 11
95.970455
 21
-78.570225
  0
LINE
  8
型材断面
  6
CONTINUOUS
 10
134.070498
 20
-79.320225
 11
95.970455
 21
-79.320225
  0
LINE
  8
型材断面
  6
CONTINUOUS
 10
133.32051
 20
-79.820225
 11
95.970455
 21
-79.820225
  0
ARC
  8
型材断面
  6
DASHDOT
 10
58.460138
 20
-74.795038
 40
74.510397
 50
360.057663
 51
405.057662
  0
LINE
  8
型材断面
  6
CONTINUOUS
 10
-22.73206
 20
56.370383
 11
-18.8463
 21
55.476297
  0
LINE
  8
型材断面
  6
CONTINUOUS
 10
-22.73206
 20
56.370383
 11
-18.8463
 21
57.264467
  0
LINE
  8
型材断面
  6
CONTINUOUS
 10
-18.8463
 20
57.264467
 11
-18.8463
 21
55.476297
  0
LINE
  8
型材断面
  6
CONTINUOUS
 10
-22.73206
 20
-2.629618
 11
-18.8463
 21
-1.735533
  0
LINE
  8
型材断面
  6
CONTINUOUS
 10
-22.73206
 20
-2.629618
 11
-18.8463
 21
-3.523703
  0
LINE
  8
型材断面
  6
CONTINUOUS
 10
-18.8463
 20
-3.523703
 11
-18.8463
 21
-1.735533
  0
POLYLINE
  8
型材断面
  6
CONTINUOUS
 66
     1
 70
     1
  0
VERTEX
  8
型材断面
 10
-105.594575
 20
-72.018157
  0
VERTEX
  8
型材断面
 10
-119.190585
 20
-72.018157
  0
VERTEX
  8
型材断面
 10
-119.190585
 20
-77.311685
  0
VERTEX
  8
型材断面
 10
-105.594575
 20
-77.311685
  0
SEQEND
  0
LINE
  8
型材断面
  6
CONTINUOUS
 62
    47
 10
-98.816255
 20
-70.09505
 11
-98.816255
 21
-68.895047
  0
ARC
  8
型材断面
  6
CONTINUOUS
 10
-98.901037
 20
-68.795047
 40
0.15
 50
-270.0
 51
-180.0
  0
LINE
  8
型材断面
  6
CONTINUOUS
 62
    47
 10
-99.051037
 20
-68.795047
 11
-99.051037
 21
-68.895047
  0
LINE
  8
型材断面
  6
CONTINUOUS
 62
    47
 10
-98.815938
 20
-69.060232
 11
-98.815938
 21
-71.145047
  0
LINE
  8
型材断面
  6
CONTINUOUS
 62
    47
 10
-98.356253
 20
-72.76507
 11
-98.356253
 21
-71.145047
  0
LINE
  8
型材断面
  6
CONTINUOUS
 62
    47
 10
-99.051037
 20
-68.895047
 11
-63.255937
 21
-68.895047
  0
LINE
  8
型材断面
  6
CONTINUOUS
 62
    47
 10
-98.901037
 20
-68.645047
 11
-63.255937
 21
-68.645047
  0
LINE
  8
型材断面
  6
CONTINUOUS
 62
    47
 10
-98.815938
 20
-71.145047
 11
-63.255937
 21
-71.145047
  0
LINE
  8
型材断面
  6
CONTINUOUS
 62
    47
 10
-27.69562
 20
-70.09505
 11
-27.69562
 21
-68.895047
  0
ARC
  8
型材断面
  6
CONTINUOUS
 10
-27.610837
 20
-68.795047
 40
0.15
 50
0.0
 51
90.0
  0
LINE
  8
型材断面
  6
CONTINUOUS
 62
    47
 10
-27.460837
 20
-68.795047
 11
-27.460837
 21
-68.895047
  0
LINE
  8
型材断面
  6
CONTINUOUS
 62
    47
 10
-27.695938
 20
-69.060232
 11
-27.695938
 21
-71.145047
  0
LINE
  8
型材断面
  6
CONTINUOUS
 62
    47
 10
-27.460837
 20
-68.895047
 11
-63.255937
 21
-68.895047
  0
LINE
  8
型材断面
  6
CONTINUOUS
 62
    47
 10
-27.610837
 20
-68.645047
 11
-63.255937
 21
-68.645047
  0
LINE
  8
型材断面
  6
CONTINUOUS
 62
    47
 10
-27.695938
 20
-71.145047
 11
-63.255937
 21
-71.145047
  0
LINE
  8
型材断面
  6
CONTINUOUS
 62
    47
 10
-28.155623
 20
-72.76507
 11
-28.155623
 21
-71.145047
  0
LINE
  8
型材断面
  6
CONTINUOUS
 62
    47
 10
60.410138
 20
-70.09505
 11
60.410138
 21
-68.895047
  0
ARC
  8
型材断面
  6
CONTINUOUS
 10
60.325355
 20
-68.795047
 40
0.15
 50
-270.0
 51
-180.0
  0
LINE
  8
型材断面
  6
CONTINUOUS
 62
    47
 10
60.175355
 20
-68.795047
 11
60.175355
 21
-68.895047
  0
LINE
  8
型材断面
  6
CONTINUOUS
 62
    47
 10
60.410455
 20
-69.060232
 11
60.410455
 21
-71.145047
  0
LINE
  8
型材断面
  6
CONTINUOUS
 62
    47
 10
60.175355
 20
-68.895047
 11
95.970455
 21
-68.895047
  0
LINE
  8
型材断面
  6
CONTINUOUS
 62
    47
 10
60.325355
 20
-68.645047
 11
95.970455
 21
-68.645047
  0
LINE
  8
型材断面
  6
CONTINUOUS
 62
    47
 10
60.410455
 20
-71.145047
 11
95.970455
 21
-71.145047
  0
LINE
  8
型材断面
  6
CONTINUOUS
 62
    47
 10
131.530773
 20
-70.09505
 11
131.530773
 21
-68.895047
  0
ARC
  8
型材断面
  6
CONTINUOUS
 10
131.615555
 20
-68.795047
 40
0.15
 50
0.0
 51
90.0
  0
LINE
  8
型材断面
  6
CONTINUOUS
 62
    47
 10
131.765555
 20
-68.795047
 11
131.765555
 21
-68.895047
  0
LINE
  8
型材断面
  6
CONTINUOUS
 62
    47
 10
131.530455
 20
-69.060232
 11
131.530455
 21
-71.145047
  0
LINE
  8
型材断面
  6
CONTINUOUS
 62
    47
 10
131.765555
 20
-68.895047
 11
95.970455
 21
-68.895047
  0
LINE
  8
型材断面
  6
CONTINUOUS
 62
    47
 10
131.615555
 20
-68.645047
 11
95.970455
 21
-68.645047
  0
LINE
  8
型材断面
  6
CONTINUOUS
 62
    47
 10
131.530455
 20
-71.145047
 11
95.970455
 21
-71.145047
  0
LINE
  8
型材断面
  6
CONTINUOUS
 62
    47
 10
131.07077
 20
-72.76507
 11
131.07077
 21
-71.145047
  0
LINE
  8
型材断面
  6
CONTINUOUS
 62
    47
 10
60.87014
 20
-72.76507
 11
60.87014
 21
-71.145047
  0
INSERT
  2
*GRP_0014
  8
型材断面
  6
DOT
 10
0.0
 20
0.0
  0
LINE
  8
型材断面
  6
CONTINUOUS
 62
    47
 10
-100.25598
 20
-74.72005
 11
-100.25598
 21
-74.469557
  0
LINE
  8
型材断面
  6
CONTINUOUS
 62
    47
 10
-98.356253
 20
-74.370095
 11
-100.25598
 21
-74.469557
  0
LINE
  8
型材断面
  6
CONTINUOUS
 62
    47
 10
-26.255895
 20
-74.72005
 11
-26.255895
 21
-74.469557
  0
LINE
  8
型材断面
  6
CONTINUOUS
 62
    47
 10
-28.155623
 20
-74.370095
 11
-26.255895
 21
-74.469557
  0
LINE
  8
型材断面
  6
CONTINUOUS
 62
    47
 10
58.970413
 20
-74.72005
 11
58.970413
 21
-74.469557
  0
LINE
  8
型材断面
  6
CONTINUOUS
 62
    47
 10
60.87014
 20
-74.370095
 11
58.970413
 21
-74.469557
  0
LINE
  8
型材断面
  6
CONTINUOUS
 62
    47
 10
132.970498
 20
-74.72005
 11
132.970498
 21
-74.469557
  0
LINE
  8
型材断面
  6
CONTINUOUS
 62
    47
 10
131.07077
 20
-74.370095
 11
132.970498
 21
-74.469557
  0
LINE
  8
型材断面
  6
CONTINUOUS
 10
-27.814393
 20
-8.924718
 11
-27.460837
 21
-8.571162
  0
LINE
  8
型材断面
  6
CONTINUOUS
 10
-31.56471
 20
-5.1744
 11
-31.211155
 21
-4.820845
  0
LINE
  8
型材断面
  6
CONTINUOUS
 10
-31.211155
 20
-4.820845
 11
-27.460837
 21
-8.571162
  0
LINE
  8
型材断面
  6
CONTINUOUS
 10
-31.56471
 20
-5.1744
 11
-27.814393
 21
-8.924718
  0
LINE
  8
型材断面
  6
CONTINUOUS
 10
-25.155895
 20
-11.22966
 11
-27.637615
 21
-8.74794
  0
POLYLINE
  8
型材断面
  6
DASHDOT
 66
     1
  0
VERTEX
  8
型材断面
 10
-30.755937
 20
59.370383
  0
VERTEX
  8
型材断面
 10
-95.755937
 20
26.870383
  0
VERTEX
  8
型材断面
 10
-30.755937
 20
-5.629618
  0
SEQEND
  0
LINE
  8
型材断面
  6
CONTINUOUS
 10
-27.814393
 20
62.665482
 11
-27.460837
 21
62.311927
  0
LINE
  8
型材断面
  6
CONTINUOUS
 10
-31.56471
 20
58.915165
 11
-31.211155
 21
58.56161
  0
LINE
  8
型材断面
  6
CONTINUOUS
 10
-31.211155
 20
58.56161
 11
-27.460837
 21
62.311927
  0
LINE
  8
型材断面
  6
CONTINUOUS
 10
-31.56471
 20
58.915165
 11
-27.814393
 21
62.665482
  0
LINE
  8
型材断面
  6
CONTINUOUS
 10
-25.155895
 20
64.970425
 11
-27.637615
 21
62.488705
  0
LINE
  8
型材断面
  6
CONTINUOUS
 10
-98.697483
 20
62.665482
 11
-99.051037
 21
62.311927
  0
LINE
  8
型材断面
  6
CONTINUOUS
 10
-94.947165
 20
58.915165
 11
-95.30072
 21
58.56161
  0
LINE
  8
型材断面
  6
CONTINUOUS
 10
-95.30072
 20
58.56161
 11
-99.051037
 21
62.311927
  0
LINE
  8
型材断面
  6
CONTINUOUS
 10
-94.947165
 20
58.915165
 11
-98.697483
 21
62.665482
  0
LINE
  8
型材断面
  6
CONTINUOUS
 10
-101.35598
 20
64.970425
 11
-98.87426
 21
62.488705
  0
LINE
  8
型材断面
  6
CONTINUOUS
 10
-98.697483
 20
-8.924718
 11
-99.051037
 21
-8.571162
  0
LINE
  8
型材断面
  6
CONTINUOUS
 10
-94.947165
 20
-5.1744
 11
-95.30072
 21
-4.820845
  0
LINE
  8
型材断面
  6
CONTINUOUS
 10
-95.30072
 20
-4.820845
 11
-99.051037
 21
-8.571162
  0
LINE
  8
型材断面
  6
CONTINUOUS
 10
-94.947165
 20
-5.1744
 11
-98.697483
 21
-8.924718
  0
LINE
  8
型材断面
  6
CONTINUOUS
 10
-101.35598
 20
-11.22966
 11
-98.87426
 21
-8.74794
  0
LINE
  8
型材断面
  6
CONTINUOUS
 10
-27.460837
 20
-8.571162
 11
-27.460837
 21
62.311927
  0
LINE
  8
型材断面
  6
CONTINUOUS
 10
-27.814393
 20
62.665482
 11
-98.697483
 21
62.665482
  0
LINE
  8
型材断面
  6
CONTINUOUS
 10
-27.814393
 20
-8.924718
 11
-98.697483
 21
-8.924718
  0
LINE
  8
型材断面
  6
CONTINUOUS
 10
-99.051037
 20
62.311927
 11
-99.051037
 21
-8.571162
  0
LINE
  8
型材断面
  6
CONTINUOUS
 10
-62.630937
 20
-5.1744
 11
-62.630937
 21
-8.924718
  0
LINE
  8
型材断面
  6
CONTINUOUS
 10
-63.880937
 20
-5.1744
 11
-63.880937
 21
-8.924718
  0
LINE
  8
型材断面
  6
CONTINUOUS
 10
-31.211155
 20
26.245383
 11
-27.460837
 21
26.245383
  0
LINE
  8
型材断面
  6
CONTINUOUS
 10
-31.211155
 20
27.495383
 11
-27.460837
 21
27.495383
  0
LINE
  8
型材断面
  6
CONTINUOUS
 10
-63.880937
 20
58.915165
 11
-63.880937
 21
62.665482
  0
LINE
  8
型材断面
  6
CONTINUOUS
 10
-62.630937
 20
58.915165
 11
-62.630937
 21
62.665482
  0
LINE
  8
型材断面
  6
CONTINUOUS
 10
-95.30072
 20
27.495383
 11
-99.051037
 21
27.495383
  0
LINE
  8
型材断面
  6
CONTINUOUS
 10
-95.30072
 20
26.245383
 11
-99.051037
 21
26.245383
  0
LINE
  8
型材断面
  6
CONTINUOUS
 10
-31.56471
 20
-5.1744
 11
-62.630937
 21
-5.1744
  0
LINE
  8
型材断面
  6
CONTINUOUS
 10
-63.880937
 20
-5.1744
 11
-94.947165
 21
-5.1744
  0
LINE
  8
型材断面
  6
CONTINUOUS
 10
-31.56471
 20
58.915165
 11
-62.630937
 21
58.915165
  0
LINE
  8
型材断面
  6
CONTINUOUS
 10
-63.880937
 20
58.915165
 11
-94.947165
 21
58.915165
  0
LINE
  8
型材断面
  6
CONTINUOUS
 10
-31.211155
 20
-4.820845
 11
-31.211155
 21
26.245383
  0
LINE
  8
型材断面
  6
CONTINUOUS
 10
-31.211155
 20
27.495383
 11
-31.211155
 21
58.56161
  0
LINE
  8
型材断面
  6
CONTINUOUS
 10
-95.30072
 20
58.56161
 11
-95.30072
 21
27.495383
  0
LINE
  8
型材断面
  6
CONTINUOUS
 10
-95.30072
 20
26.245383
 11
-95.30072
 21
-4.820845
  0
LINE
  8
ガラス
  6
CONTINUOUS
 10
167.304785
 20
74.557477
 11
102.054785
 21
74.557477
  0
LINE
  8
ガラス
  6
CONTINUOUS
 10
102.054785
 20
74.557477
 11
102.054785
 21
9.307477
  0
LINE
  8
ガラス
  6
CONTINUOUS
 10
102.054785
 20
9.307477
 11
167.304785
 21
9.307477
  0
LINE
  8
ガラス
  6
CONTINUOUS
 10
167.304785
 20
74.557477
 11
167.304785
 21
9.307477
  0
TEXT
  7
TextStyle03
  8
文字
  6
CONTINUOUS
 10
9.175
 20
-14.975
  1
は排水穴位置を示す
 40
3.0
 72
     5
 11
39.175
 21
-14.975
  0
TEXT
  7
TextStyle03
  8
文字
  6
CONTINUOUS
 10
9.175
 20
-22.825
  1
はケーシング位置を示す
 40
3.0
 72
     5
 11
45.925
 21
-22.825
  0
TEXT
  7
TextStyle03
  8
文字
  6
CONTINUOUS
 10
9.175
 20
-26.2
  1
２ヶ所中1ヶ所に設定
 40
3.0
 72
     5
 11
40.8625
 21
-26.2
  0
TEXT
  7
TextStyle03
  8
文字
  6
CONTINUOUS
 10
130.7
 20
-47.6
  1
45°
 40
3.0
 72
     5
 11
137.075
 21
-47.6
  0
TEXT
  7
TextStyle03
  8
文字
  6
CONTINUOUS
 10
-117.55
 20
-76.025
  1
丁番側
 40
3.0
 72
     5
 11
-107.8
 21
-76.025
  0
TEXT
  7
TextStyle03
  8
文字
  6
CONTINUOUS
 10
3.575
 20
-33.35
  1
アンカー数量　８ヶ所
 40
3.0
 72
     5
 11
36.95
 21
-33.35
  0
TEXT
  7
TextStyle03
  8
文字
  6
CONTINUOUS
 10
-110.25
 20
86.3
  1
アンカーピッチ
 40
3.0
 72
     5
 11
-87.0
 21
86.3
  0
TEXT
  7
TextStyle03
  8
文字
  6
CONTINUOUS
 10
-127.25
 20
-16.5
  1
アンカーピッチ
 40
3.0
 50
90.0
 72
     5
 11
-127.25
 21
6.75
  0
TEXT
  7
TextStyle03
  8
文字
  6
CONTINUOUS
 10
146.1
 20
19.35
  1
網入り6.8t
 40
3.0
 72
     5
 11
162.7875
 21
19.35
  0
TEXT
  7
TextStyle03
  8
文字
  6
CONTINUOUS
 10
152.725
 20
14.1
  1
×１枚
 40
3.0
 72
     5
 11
162.475
 21
14.1
  0
TEXT
  7
TextStyle03
  8
文字
  6
CONTINUOUS
 10
70.15
 20
121.425
  1
シリーズ：ＴＦＦＨ
 40
5.0
 72
     5
 11
120.15
 21
121.425
  0
TEXT
  7
TextStyle03
  8
文字
  6
CONTINUOUS
 10
70.15
 20
115.8
  1
　　　　　（片側開閉）1300×1300タイプ
 40
5.0
 72
     5
 11
176.4
 21
115.8
  0
TEXT
  7
TextStyle03
  8
文字
  6
CONTINUOUS
 10
70.15
 20
110.175
  1
図面名　：外観姿図
 40
5.0
 72
     5
 11
120.15
 21
110.175
  0
TEXT
  7
TextStyle03
  8
文字
  6
CONTINUOUS
 10
70.15
 20
104.55
  1
　　　　　　
 40
5.0
 72
     5
 11
103.275
 21
104.55
  0
INSERT
  2
*DIM_0002
  8
寸法
  6
CONTINUOUS
 10
0.0
 20
0.0
  0
INSERT
  2
*DIM_0004
  8
寸法
  6
CONTINUOUS
 10
0.0
 20
0.0
  0
INSERT
  2
*DIM_0005
  8
寸法
  6
CONTINUOUS
 10
0.0
 20
0.0
  0
INSERT
  2
*DIM_0007
  8
寸法
  6
CONTINUOUS
 10
0.0
 20
0.0
  0
INSERT
  2
*DIM_0008
  8
寸法
  6
CONTINUOUS
 10
0.0
 20
0.0
  0
INSERT
  2
*DIM_0009
  8
寸法
  6
CONTINUOUS
 10
0.0
 20
0.0
  0
INSERT
  2
*DIM_0010
  8
寸法
  6
CONTINUOUS
 10
0.0
 20
0.0
  0
INSERT
  2
*DIM_0011
  8
寸法
  6
CONTINUOUS
 10
0.0
 20
0.0
  0
INSERT
  2
*DIM_0012
  8
寸法
  6
CONTINUOUS
 10
0.0
 20
0.0
  0
INSERT
  2
*DIM_0013
  8
寸法
  6
CONTINUOUS
 10
0.0
 20
0.0
  0
INSERT
  2
*GRP_0003
  8
別途部材
  6
CONTINUOUS
 10
0.0
 20
0.0
  0
INSERT
  2
*GRP_0006
  8
別途部材
  6
CONTINUOUS
 10
0.0
 20
0.0
  0
ENDSEC
  0
EOF
