  0
SECTION
  2
HEADER
  9
$EXTMIN
 10
-210.0
 20
-148.5
  9
$EXTMAX
 10
210.0
 20
148.5
  9
$PDMODE
 70
    32
  9
$PDSIZE
 40
1.5
  9
$LTSCALE
 40
10.0
  0
ENDSEC
  0
SECTION
  2
TABLES
  0
TABLE
  2
LTYPE
 70
    15
  0
LTYPE
  2
CONTINUOUS
 70
    64
  3
実線
 72
    65
 73
     0
 40
0.0
  0
LTYPE
  2
DASHED
 70
    64
  3
破線A
 72
    65
 73
     2
 40
0.6
 49
0.4
 49
-0.2
  0
LTYPE
  2
DASHEDX2
 70
    64
  3
破線B
 72
    65
 73
     2
 40
1.3
 49
0.9
 49
-0.4
  0
LTYPE
  2
DASHDOT
 70
    64
  3
１点鎖線A
 72
    65
 73
     4
 40
0.5375
 49
0.375
 49
-0.05
 49
0.0625
 49
-0.05
  0
LTYPE
  2
DASHDOTX2
 70
    64
  3
１点鎖線B
 72
    65
 73
     4
 40
1.075
 49
0.75
 49
-0.1
 49
0.125
 49
-0.1
  0
LTYPE
  2
DIVIDE2
 70
    64
  3
２点鎖線A
 72
    65
 73
     6
 40
0.5125
 49
0.3
 49
-0.0375
 49
0.05
 49
-0.0375
 49
0.05
 49
-0.0375
  0
LTYPE
  2
DIVIDE
 70
    64
  3
２点鎖線B
 72
    65
 73
     6
 40
1.05
 49
0.55
 49
-0.1
 49
0.1
 49
-0.1
 49
0.1
 49
-0.1
  0
LTYPE
  2
DOT
 70
    64
  3
点線A
 72
    65
 73
     2
 40
0.1125
 49
0.0625
 49
-0.05
  0
LTYPE
  2
DOTX2
 70
    64
  3
点線B
 72
    65
 73
     2
 40
0.275
 49
0.15
 49
-0.125
  0
LTYPE
  2
CONTINUOUS
 70
    64
  3
実線
 72
    65
 73
     0
 40
0.0
  0
LTYPE
  2
CONTINUOUS
 70
    64
  3
実線
 72
    65
 73
     0
 40
0.0
  0
LTYPE
  2
CONTINUOUS
 70
    64
  3
実線
 72
    65
 73
     0
 40
0.0
  0
LTYPE
  2
CONTINUOUS
 70
    64
  3
実線
 72
    65
 73
     0
 40
0.0
  0
LTYPE
  2
CONTINUOUS
 70
    64
  3
実線
 72
    65
 73
     0
 40
0.0
  0
LTYPE
  2
CONTINUOUS
 70
    64
  3
実線
 72
    65
 73
     0
 40
0.0
  0
ENDTAB
  0
TABLE
  2
LAYER
 70
    34
  0
LAYER
  2
通り芯
 70
     0
 62
    15
  6
CONTINUOUS
  0
LAYER
  2
補助線
 70
     0
 62
    16
  6
DOT
  0
LAYER
  2
躯体
 70
     0
 62
    31
  6
CONTINUOUS
  0
LAYER
  2
型材
 70
     0
 62
    32
  6
CONTINUOUS
  0
LAYER
  2
型材断面
 70
     0
 62
    47
  6
CONTINUOUS
  0
LAYER
  2
ガラス
 70
     0
 62
    48
  6
CONTINUOUS
  0
LAYER
  2
ゴム等
 70
     0
 62
    63
  6
CONTINUOUS
  0
LAYER
  2
ボルト／ビス
 70
     0
 62
    64
  6
CONTINUOUS
  0
LAYER
  2
文字
 70
     0
 62
    79
  6
CONTINUOUS
  0
LAYER
  2
寸法
 70
     0
 62
    80
  6
CONTINUOUS
  0
LAYER
  2
ﾊｯﾁﾝｸﾞ
 70
     0
 62
    95
  6
CONTINUOUS
  0
LAYER
  2
別途部材
 70
     0
 62
    96
  6
CONTINUOUS
  0
LAYER
  2
曲げ物
 70
     0
 62
   111
  6
CONTINUOUS
  0
LAYER
  2
鉄骨等
 70
     0
 62
   112
  6
CONTINUOUS
  0
LAYER
  2
St
 70
     0
 62
   127
  6
CONTINUOUS
  0
LAYER
  2
その他部品等
 70
     0
 62
   128
  6
CONTINUOUS
  0
LAYER
  2
ｶﾞｽｹｯﾄ
 70
     0
 62
   143
  6
CONTINUOUS
  0
LAYER
  2
ｽｹｯﾁ
 70
     0
 62
    14
  6
CONTINUOUS
  0
LAYER
  2
0
 70
     0
 62
    17
  6
CONTINUOUS
  0
LAYER
  2
1
 70
     0
 62
    30
  6
CONTINUOUS
  0
LAYER
  2
4
 70
     0
 62
    33
  6
CONTINUOUS
  0
LAYER
  2
ﾚｲﾔ3
 70
     0
 62
    46
  6
CONTINUOUS
  0
LAYER
  2
外形線
 70
     0
 62
    49
  6
CONTINUOUS
  0
LAYER
  2
部品
 70
     0
 62
    14
  6
CONTINUOUS
  0
LAYER
  2
サッシ芯
 70
     0
 62
    17
  6
DASHDOTX2
  0
LAYER
  2
寸法線
 70
     0
 62
    62
  6
CONTINUOUS
  0
LAYER
  2
姿図外形線
 70
     0
 62
    65
  6
CONTINUOUS
  0
LAYER
  2
姿補助線
 70
     0
 62
    30
  6
CONTINUOUS
  0
LAYER
  2
透視線
 70
     0
 62
    78
  6
DOT
  0
LAYER
  2
用紙
 70
     0
 62
    81
  6
CONTINUOUS
  0
LAYER
  2
実線図枠
 70
     0
 62
    94
  6
CONTINUOUS
  0
LAYER
  2
補助図枠
 70
     0
 62
    97
  6
CONTINUOUS
  0
LAYER
  2
建具記号
 70
     0
 62
   110
  6
CONTINUOUS
  0
LAYER
  2
補助文字
 70
     0
 62
   113
  6
CONTINUOUS
  0
ENDTAB
  0
TABLE
  2
STYLE
 70
    10
  0
STYLE
  2
STANDARD
 70
     0
 40
1.0
 41
1.0
 42
1.0
 50
0.0
 71
     0
  3
TXT
  4
BIGFONT
  0
STYLE
  2
TATE
 70
     4
 40
1.0
 41
1.0
 42
1.0
 50
0.0
 71
     0
  3
TXT
  4
BIGFONT
  0
STYLE
  2
TextStyle03
 70
     0
 40
1.0
 41
1.0
 42
1.0
 50
0.0
 71
     0
  3
MONOTXT
  4
BIGFONT
  0
STYLE
  2
TextStyle04
 70
     0
 40
1.0
 41
1.0
 42
1.0
 50
0.0
 71
     0
  3
MONOTXT
  4
BIGFONT
  0
STYLE
  2
TextStyle05
 70
     0
 40
1.0
 41
1.0
 42
1.0
 50
0.0
 71
     0
  3
MONOTXT
  4
BIGFONT
  0
STYLE
  2
TextStyle06
 70
     0
 40
1.0
 41
1.0
 42
1.0
 50
0.0
 71
     0
  3
MONOTXT
  4
BIGFONT
  0
STYLE
  2
TextStyle07
 70
     0
 40
1.0
 41
1.0
 42
1.0
 50
0.0
 71
     0
  3
MONOTXT
  4
BIGFONT
  0
STYLE
  2
TextStyle08
 70
     0
 40
1.0
 41
1.0
 42
1.0
 50
0.0
 71
     0
  3
MONOTXT
  4
BIGFONT
  0
STYLE
  2
TextStyle09
 70
     0
 40
1.0
 41
1.0
 42
1.0
 50
0.0
 71
     0
  3
MONOTXT
  4
BIGFONT
  0
STYLE
  2
TextStyle10
 70
     0
 40
1.0
 41
1.0
 42
1.0
 50
0.0
 71
     0
  3
MONOTXT
  4
BIGFONT
  0
ENDTAB
  0
ENDSEC
  0
SECTION
  2
BLOCKS
  0
BLOCK
  2
*GRP_0001
 70
    65
 10
0.0
 20
0.0
  0
LINE
  8
型材断面
  6
CONTINUOUS
 10
195.0
 20
133.5
 11
195.0
 21
-133.5
  0
LINE
  8
型材断面
  6
CONTINUOUS
 10
195.0
 20
-133.5
 11
-185.0
 21
-133.5
  0
LINE
  8
型材断面
  6
CONTINUOUS
 10
-185.0
 20
-133.5
 11
-185.0
 21
133.5
  0
LINE
  8
型材断面
  6
CONTINUOUS
 10
195.0
 20
133.5
 11
-185.0
 21
133.5
  0
LINE
  8
型材断面
  6
CONTINUOUS
 10
145.0
 20
-133.5
 11
145.0
 21
-118.5
  0
LINE
  8
型材断面
  6
CONTINUOUS
 10
195.0
 20
-118.5
 11
145.0
 21
-118.5
  0
ENDBLK
  0
BLOCK
  2
*DIM_0002
 70
    65
 10
0.0
 20
0.0
  0
LINE
  8
寸法
  6
BYBLOCK
 62
     0
 10
-92.435405
 20
-26.094458
 11
-62.435405
 21
-26.094458
  0
POINT
  8
寸法
 62
     0
 10
-92.435405
 20
-26.094458
  0
POINT
  8
寸法
 62
     0
 10
-62.435405
 20
-26.094458
  0
TEXT
  7
TextStyle03
  8
寸法
  6
CONTINUOUS
 62
     0
 10
-88.325
 20
-25.725
  1
呼称寸法　600
 40
3.0
 72
     5
 11
-66.575
 21
-25.725
  0
ENDBLK
  0
BLOCK
  2
*DIM_0003
 70
    65
 10
0.0
 20
0.0
  0
LINE
  8
寸法
  6
BYBLOCK
 62
     0
 10
-61.435405
 20
31.69199
 11
-46.752115
 21
31.69199
  0
LINE
  8
寸法
  6
BYBLOCK
 62
     0
 10
-53.411528
 20
28.69199
 11
-46.752115
 21
28.69199
  0
LINE
  8
寸法
  6
BYBLOCK
 62
     0
 10
-46.752115
 20
31.69199
 11
-46.752115
 21
28.69199
  0
POINT
  8
寸法
 62
     0
 10
-46.752115
 20
31.69199
  0
POINT
  8
寸法
 62
     0
 10
-46.752115
 20
28.69199
  0
TEXT
  7
TextStyle03
  8
寸法
  6
CONTINUOUS
 62
     0
 10
-43.775
 20
28.58125
  1
60
 40
3.0
 50
90.0
 72
     5
 11
-43.775
 21
31.76875
  0
ENDBLK
  0
BLOCK
  2
*DIM_0004
 70
    65
 10
0.0
 20
0.0
  0
LINE
  8
寸法
  6
BYBLOCK
 62
     0
 10
-61.435405
 20
1.69199
 11
-46.752115
 21
1.69199
  0
LINE
  8
寸法
  6
BYBLOCK
 62
     0
 10
-53.411528
 20
4.69199
 11
-46.752115
 21
4.69199
  0
LINE
  8
寸法
  6
BYBLOCK
 62
     0
 10
-46.752115
 20
1.69199
 11
-46.752115
 21
4.69199
  0
POINT
  8
寸法
 62
     0
 10
-46.752115
 20
1.69199
  0
POINT
  8
寸法
 62
     0
 10
-46.752115
 20
4.69199
  0
TEXT
  7
TextStyle03
  8
寸法
  6
CONTINUOUS
 62
     0
 10
-43.775
 20
1.58125
  1
60
 40
3.0
 50
90.0
 72
     5
 11
-43.775
 21
4.76875
  0
ENDBLK
  0
BLOCK
  2
*DIM_0005
 70
    65
 10
0.0
 20
0.0
  0
LINE
  8
寸法
  6
BYBLOCK
 62
     0
 10
-56.835362
 20
-70.473618
 11
-56.835362
 21
-26.094458
  0
LINE
  8
寸法
  6
BYBLOCK
 62
     0
 10
-62.435405
 20
-26.094458
 11
-56.835362
 21
-26.094458
  0
POINT
  8
寸法
 62
     0
 10
-62.435405
 20
-26.094458
  0
POINT
  8
寸法
 62
     0
 10
-56.835362
 20
-26.094458
  0
TEXT
  7
TextStyle03
  8
寸法
  6
CONTINUOUS
 62
     0
 10
-62.0875
 20
-25.725
  1
112
 40
3.0
 72
     5
 11
-57.2125
 21
-25.725
  0
ENDBLK
  0
BLOCK
  2
*DIM_0006
 70
    65
 10
0.0
 20
0.0
  0
LINE
  8
寸法
  6
BYBLOCK
 62
     0
 10
-98.035448
 20
-70.473618
 11
-98.035448
 21
-26.094458
  0
LINE
  8
寸法
  6
BYBLOCK
 62
     0
 10
-92.435405
 20
-26.094458
 11
-98.035448
 21
-26.094458
  0
POINT
  8
寸法
 62
     0
 10
-92.435405
 20
-26.094458
  0
POINT
  8
寸法
 62
     0
 10
-98.035448
 20
-26.094458
  0
TEXT
  7
TextStyle03
  8
寸法
  6
CONTINUOUS
 62
     0
 10
-97.6875
 20
-25.725
  1
112
 40
3.0
 72
     5
 11
-92.8125
 21
-25.725
  0
ENDBLK
  0
BLOCK
  2
*GRP_0007
 70
    65
 10
0.0
 20
0.0
  0
LINE
  8
別途部材
  6
CONTINUOUS
 62
    96
 10
-94.885722
 20
-70.17343
 11
-94.735722
 21
-70.17343
  0
LINE
  8
別途部材
  6
CONTINUOUS
 62
    96
 10
-95.035722
 20
-67.02181
 11
-97.03193
 21
-67.12632
  0
LINE
  8
別途部材
  6
CONTINUOUS
 62
    96
 10
-97.045723
 20
-67.94843
 11
-97.445723
 21
-67.77343
  0
LINE
  8
別途部材
  6
CONTINUOUS
 62
    96
 10
-97.014347
 20
-67.79843
 11
-97.245848
 21
-67.69715
  0
LINE
  8
別途部材
  6
CONTINUOUS
 62
    96
 10
-97.071105
 20
-66.978165
 11
-97.461408
 21
-67.17384
  0
LINE
  8
別途部材
  6
CONTINUOUS
 62
    96
 10
-97.03193
 20
-67.12632
 11
-97.427347
 21
-67.32456
  0
LINE
  8
別途部材
  6
CONTINUOUS
 62
    96
 10
-97.330025
 20
-67.377963
 11
-97.21433
 21
-67.282492
  0
LINE
  8
別途部材
  6
DASHDOTX2
 62
    96
 10
-97.445723
 20
-67.47343
 11
-97.445723
 21
-67.003203
  0
LINE
  8
別途部材
  6
DASHDOTX2
 62
    96
 10
-97.445723
 20
-67.47343
 11
-97.445723
 21
-67.96912
  0
LINE
  8
別途部材
  6
DASHDOTX2
 62
    96
 10
-97.445723
 20
-67.47343
 11
-97.050515
 21
-67.47343
  0
LINE
  8
別途部材
  6
DASHDOTX2
 62
    96
 10
-97.445723
 20
-67.47343
 11
-97.863188
 21
-67.47343
  0
LINE
  8
別途部材
  6
CONTINUOUS
 62
    96
 10
-94.735722
 20
-67.79843
 11
-97.014347
 21
-67.79843
  0
LINE
  8
別途部材
  6
CONTINUOUS
 62
    96
 10
-94.885722
 20
-67.94843
 11
-97.045723
 21
-67.94843
  0
LINE
  8
別途部材
  6
CONTINUOUS
 62
    96
 10
-95.185725
 20
-65.17181
 11
-95.185725
 21
-66.879457
  0
LINE
  8
別途部材
  6
CONTINUOUS
 62
    96
 10
-95.035722
 20
-65.17181
 11
-95.185725
 21
-65.17181
  0
LINE
  8
別途部材
  6
CONTINUOUS
 62
    96
 10
-95.035722
 20
-65.17181
 11
-95.035722
 21
-67.02181
  0
CIRCLE
  8
別途部材
  6
CONTINUOUS
 62
    96
 10
-97.445723
 20
-67.47343
 40
0.15
  0
ARC
  8
別途部材
  6
CONTINUOUS
 62
    96
 10
-97.445724
 20
-67.473428
 40
0.3
 50
92.998444
 51
411.219394
  0
LINE
  8
別途部材
  6
CONTINUOUS
 62
    96
 10
-94.735722
 20
-67.79843
 11
-94.735722
 21
-70.17343
  0
LINE
  8
別途部材
  6
CONTINUOUS
 62
    96
 10
-94.885722
 20
-67.94843
 11
-94.885722
 21
-70.17343
  0
LINE
  8
別途部材
  6
CONTINUOUS
 62
    96
 10
-97.071105
 20
-66.978165
 11
-95.185725
 21
-66.879457
  0
ENDBLK
  0
BLOCK
  2
*DIM_0008
 70
    65
 10
0.0
 20
0.0
  0
LINE
  8
寸法
  6
BYBLOCK
 62
     0
 10
-87.435402
 20
32.691993
 11
-87.435402
 21
52.281172
  0
LINE
  8
寸法
  6
BYBLOCK
 62
     0
 10
-67.435402
 20
32.691993
 11
-67.435402
 21
52.281172
  0
LINE
  8
寸法
  6
BYBLOCK
 62
     0
 10
-87.435402
 20
52.281172
 11
-67.435402
 21
52.281172
  0
POINT
  8
寸法
 62
     0
 10
-87.435402
 20
52.281172
  0
POINT
  8
寸法
 62
     0
 10
-67.435402
 20
52.281172
  0
TEXT
  7
TextStyle03
  8
寸法
  6
CONTINUOUS
 62
     0
 10
-79.8875
 20
52.675
  1
400
 40
3.0
 72
     5
 11
-75.0125
 21
52.675
  0
ENDBLK
  0
BLOCK
  2
*GRP_0009
 70
    65
 10
0.0
 20
0.0
  0
LINE
  8
別途部材
  6
CONTINUOUS
 62
    96
 10
39.351495
 20
-70.17343
 11
39.501495
 21
-70.17343
  0
LINE
  8
別途部材
  6
CONTINUOUS
 62
    96
 10
39.201495
 20
-67.02181
 11
37.205287
 21
-67.12632
  0
LINE
  8
別途部材
  6
CONTINUOUS
 62
    96
 10
37.191495
 20
-67.94843
 11
36.791495
 21
-67.77343
  0
LINE
  8
別途部材
  6
CONTINUOUS
 62
    96
 10
37.22287
 20
-67.79843
 11
36.99137
 21
-67.69715
  0
LINE
  8
別途部材
  6
CONTINUOUS
 62
    96
 10
37.166113
 20
-66.978165
 11
36.77581
 21
-67.17384
  0
LINE
  8
別途部材
  6
CONTINUOUS
 62
    96
 10
37.205287
 20
-67.12632
 11
36.80987
 21
-67.32456
  0
LINE
  8
別途部材
  6
CONTINUOUS
 62
    96
 10
36.907193
 20
-67.377963
 11
37.022888
 21
-67.282492
  0
LINE
  8
別途部材
  6
DASHDOTX2
 62
    96
 10
36.791495
 20
-67.47343
 11
36.791495
 21
-67.003203
  0
LINE
  8
別途部材
  6
DASHDOTX2
 62
    96
 10
36.791495
 20
-67.47343
 11
36.791495
 21
-67.96912
  0
LINE
  8
別途部材
  6
DASHDOTX2
 62
    96
 10
36.791495
 20
-67.47343
 11
37.186702
 21
-67.47343
  0
LINE
  8
別途部材
  6
DASHDOTX2
 62
    96
 10
36.791495
 20
-67.47343
 11
36.37403
 21
-67.47343
  0
LINE
  8
別途部材
  6
CONTINUOUS
 62
    96
 10
39.501495
 20
-67.79843
 11
37.22287
 21
-67.79843
  0
LINE
  8
別途部材
  6
CONTINUOUS
 62
    96
 10
39.351495
 20
-67.94843
 11
37.191495
 21
-67.94843
  0
LINE
  8
別途部材
  6
CONTINUOUS
 62
    96
 10
39.051492
 20
-65.17181
 11
39.051492
 21
-66.879457
  0
LINE
  8
別途部材
  6
CONTINUOUS
 62
    96
 10
39.201495
 20
-65.17181
 11
39.051492
 21
-65.17181
  0
LINE
  8
別途部材
  6
CONTINUOUS
 62
    96
 10
39.201495
 20
-65.17181
 11
39.201495
 21
-67.02181
  0
CIRCLE
  8
別途部材
  6
CONTINUOUS
 62
    96
 10
36.791495
 20
-67.47343
 40
0.15
  0
ARC
  8
別途部材
  6
CONTINUOUS
 62
    96
 10
36.791495
 20
-67.473428
 40
0.3
 50
92.998444
 51
411.219394
  0
LINE
  8
別途部材
  6
CONTINUOUS
 62
    96
 10
39.501495
 20
-67.79843
 11
39.501495
 21
-70.17343
  0
LINE
  8
別途部材
  6
CONTINUOUS
 62
    96
 10
39.351495
 20
-67.94843
 11
39.351495
 21
-70.17343
  0
LINE
  8
別途部材
  6
CONTINUOUS
 62
    96
 10
37.166113
 20
-66.978165
 11
39.051492
 21
-66.879457
  0
ENDBLK
  0
BLOCK
  2
*DIM_0010
 70
    65
 10
0.0
 20
0.0
  0
LINE
  8
寸法
  6
CONTINUOUS
 10
167.304785
 20
69.724703
 11
167.304785
 21
75.54922
  0
LINE
  8
寸法
  6
CONTINUOUS
 10
137.054785
 20
69.724703
 11
137.054785
 21
75.54922
  0
LINE
  8
寸法
  6
CONTINUOUS
 10
167.304785
 20
75.54922
 11
137.054785
 21
75.54922
  0
POINT
  8
寸法
 10
167.304785
 20
75.54922
  0
POINT
  8
寸法
 10
137.054785
 20
75.54922
  0
TEXT
  7
TextStyle03
  8
寸法
  6
CONTINUOUS
 10
149.7375
 20
75.9
  1
605
 40
3.0
 72
     5
 11
154.6125
 21
75.9
  0
ENDBLK
  0
BLOCK
  2
*DIM_0011
 70
    65
 10
0.0
 20
0.0
  0
LINE
  8
寸法
  6
CONTINUOUS
 10
172.304785
 20
64.724703
 11
179.960675
 21
64.724703
  0
LINE
  8
寸法
  6
CONTINUOUS
 10
172.304785
 20
34.474703
 11
179.960675
 21
34.474703
  0
LINE
  8
寸法
  6
CONTINUOUS
 10
179.960675
 20
64.724703
 11
179.960675
 21
34.474703
  0
POINT
  8
寸法
 10
179.960675
 20
64.724703
  0
POINT
  8
寸法
 10
179.960675
 20
34.474703
  0
TEXT
  7
TextStyle03
  8
寸法
  6
CONTINUOUS
 10
179.575
 20
47.1375
  1
605
 40
3.0
 50
90.0
 72
     5
 11
179.575
 21
52.0125
  0
ENDBLK
  0
BLOCK
  2
*DIM_0012
 70
    65
 10
0.0
 20
0.0
  0
LINE
  8
寸法
  6
CONTINUOUS
 10
-51.835362
 20
-71.998617
 11
-41.30588
 21
-71.998617
  0
LINE
  8
寸法
  6
CONTINUOUS
 10
-54.290305
 20
-61.32344
 11
-41.30588
 21
-61.32344
  0
LINE
  8
寸法
  6
CONTINUOUS
 10
-41.30588
 20
-71.998617
 11
-41.30588
 21
-61.32344
  0
POINT
  8
寸法
 10
-41.30588
 20
-71.998617
  0
POINT
  8
寸法
 10
-41.30588
 20
-61.32344
  0
TEXT
  7
TextStyle03
  8
寸法
  6
CONTINUOUS
 10
-38.325
 20
-70.8
  1
213.5
 40
3.0
 50
90.0
 72
     5
 11
-38.325
 21
-62.55
  0
ENDBLK
  0
BLOCK
  2
*GRP_0013
 70
    65
 10
0.0
 20
0.0
  0
LINE
  8
型材断面
  6
DOT
 62
    47
 10
39.171115
 20
-64.987763
 11
38.407213
 21
-65.751665
  0
LINE
  8
型材断面
  6
DOT
 62
    47
 10
37.081432
 20
-64.333897
 11
37.06022
 21
-64.333897
  0
LINE
  8
型材断面
  6
DOT
 62
    47
 10
37.081432
 20
-64.333897
 11
37.081432
 21
-64.35511
  0
LINE
  8
型材断面
  6
DOT
 62
    47
 10
37.762622
 20
-65.015088
 11
37.74141
 21
-65.015088
  0
LINE
  8
型材断面
  6
DOT
 62
    47
 10
37.762622
 20
-65.015088
 11
37.762622
 21
-65.0363
  0
LINE
  8
型材断面
  6
DOT
 62
    47
 10
38.195145
 20
-65.46882
 11
37.762622
 21
-65.0363
  0
LINE
  8
型材断面
  6
DOT
 62
    47
 10
37.74141
 20
-65.015088
 11
37.081432
 21
-64.35511
  0
LINE
  8
型材断面
  6
DOT
 62
    47
 10
50.887903
 20
-53.270975
 11
37.09929
 21
-67.059587
  0
LINE
  8
型材断面
  6
DOT
 62
    47
 10
36.922535
 20
-66.882833
 11
37.09929
 21
-67.059587
  0
LINE
  8
型材断面
  6
DOT
 62
    47
 10
38.195145
 20
-65.46882
 11
36.915443
 21
-66.889925
  0
LINE
  8
型材断面
  6
DOT
 10
38.195145
 20
-65.46882
 11
50.640447
 21
-53.02352
  0
LINE
  8
型材断面
  6
DOT
 10
36.922535
 20
-66.882833
 11
50.711147
 21
-53.09422
  0
LINE
  8
型材断面
  6
DOT
 62
    47
 10
62.60469
 20
-41.554187
 11
63.368592
 21
-40.790285
  0
LINE
  8
型材断面
  6
DOT
 62
    47
 10
61.950825
 20
-39.464505
 11
61.950825
 21
-39.443293
  0
LINE
  8
型材断面
  6
DOT
 62
    47
 10
61.950825
 20
-39.464505
 11
61.972038
 21
-39.464505
  0
LINE
  8
型材断面
  6
DOT
 62
    47
 10
62.632015
 20
-40.145695
 11
62.632015
 21
-40.124482
  0
LINE
  8
型材断面
  6
DOT
 62
    47
 10
62.632015
 20
-40.145695
 11
62.653227
 21
-40.145695
  0
LINE
  8
型材断面
  6
DOT
 62
    47
 10
63.085748
 20
-40.578218
 11
62.653227
 21
-40.145695
  0
LINE
  8
型材断面
  6
DOT
 62
    47
 10
62.632015
 20
-40.124482
 11
61.972038
 21
-39.464505
  0
LINE
  8
型材断面
  6
DOT
 62
    47
 10
50.887903
 20
-53.270975
 11
64.676515
 21
-39.482363
  0
LINE
  8
型材断面
  6
DOT
 62
    47
 10
64.49976
 20
-39.305608
 11
64.676515
 21
-39.482363
  0
LINE
  8
型材断面
  6
DOT
 62
    47
 10
63.085748
 20
-40.578218
 11
64.506853
 21
-39.298517
  0
LINE
  8
型材断面
  6
DOT
 10
63.085748
 20
-40.578218
 11
50.640447
 21
-53.02352
  0
LINE
  8
型材断面
  6
DOT
 10
64.49976
 20
-39.305608
 11
50.711147
 21
-53.09422
  0
LINE
  8
型材断面
  6
DOT
 62
    47
 10
34.84696
 20
-62.771177
 11
33.99843
 21
-61.92265
  0
ARC
  8
型材断面
  6
DOT
 10
33.867768
 20
-61.911889
 40
0.15
 50
135.0
 51
225.0
  0
LINE
  8
型材断面
  6
DOT
 62
    47
 10
33.761702
 20
-62.017955
 11
33.832415
 21
-62.088665
  0
LINE
  8
型材断面
  6
DOT
 62
    47
 10
34.115458
 20
-62.039228
 11
35.589645
 21
-63.513415
  0
LINE
  8
型材断面
  6
DOT
 62
    47
 10
35.589645
 20
-63.513415
 11
48.359993
 21
-50.743065
  0
LINE
  8
型材断面
  6
DOT
 62
    47
 10
33.832415
 20
-62.088665
 11
46.769002
 21
-49.152075
  0
LINE
  8
型材断面
  6
DOT
 62
    47
 10
33.761702
 20
-61.805822
 11
46.592228
 21
-48.9753
  0
LINE
  8
型材断面
  6
DOT
 62
    47
 10
60.388105
 20
-37.230033
 11
59.539575
 21
-36.381502
  0
ARC
  8
型材断面
  6
DOT
 10
59.528815
 20
-36.250842
 40
0.15
 50
45.0
 51
135.0
  0
LINE
  8
型材断面
  6
DOT
 62
    47
 10
59.634882
 20
-36.144775
 11
59.705593
 21
-36.215488
  0
LINE
  8
型材断面
  6
DOT
 62
    47
 10
59.656155
 20
-36.49853
 11
61.130343
 21
-37.972718
  0
LINE
  8
型材断面
  6
DOT
 62
    47
 10
61.130343
 20
-37.972718
 11
48.359993
 21
-50.743065
  0
LINE
  8
型材断面
  6
DOT
 62
    47
 10
59.705593
 20
-36.215488
 11
46.769002
 21
-49.152075
  0
LINE
  8
型材断面
  6
DOT
 62
    47
 10
59.42275
 20
-36.144775
 11
46.592228
 21
-48.9753
  0
LINE
  8
型材断面
  6
DOT
 62
    47
 10
61.950825
 20
-39.443293
 11
60.805295
 21
-38.297765
  0
LINE
  8
型材断面
  6
DOT
 62
    47
 10
37.06022
 20
-64.333897
 11
35.914692
 21
-63.188368
  0
ENDBLK
  0
ENDSEC
  0
SECTION
  2
ENTITIES
  0
POLYLINE
  8
通り芯
  6
CONTINUOUS
 66
     1
 70
     1
  0
VERTEX
  8
通り芯
 10
-210.0
 20
-148.5
  0
VERTEX
  8
通り芯
 10
210.0
 20
-148.5
  0
VERTEX
  8
通り芯
 10
210.0
 20
148.5
  0
VERTEX
  8
通り芯
 10
-210.0
 20
148.5
  0
SEQEND
  0
INSERT
  2
*GRP_0001
  8
型材断面
  6
CONTINUOUS
 10
0.0
 20
0.0
  0
LINE
  8
型材断面
  6
DASHDOT
 10
-92.435405
 20
1.69199
 11
-62.435405
 21
1.69199
  0
LINE
  8
型材断面
  6
DASHDOT
 10
-92.435405
 20
-77.76228
 11
-92.435405
 21
31.69199
  0
LINE
  8
型材断面
  6
DASHDOT
 10
-77.435405
 20
-77.76228
 11
-77.435405
 21
31.69199
  0
LINE
  8
型材断面
  6
DASHDOT
 10
-62.435405
 20
-77.76228
 11
-62.435405
 21
31.69199
  0
LINE
  8
型材断面
  6
DASHDOT
 10
-92.435405
 20
16.69199
 11
-62.435405
 21
16.69199
  0
LINE
  8
型材断面
  6
DASHDOT
 10
-92.435405
 20
31.69199
 11
-62.435405
 21
31.69199
  0
LINE
  8
型材断面
  6
CONTINUOUS
 10
-100.459278
 20
16.69199
 11
-104.345038
 21
14.448545
  0
LINE
  8
型材断面
  6
CONTINUOUS
 10
-100.459278
 20
16.69199
 11
-104.345038
 21
18.935435
  0
LINE
  8
型材断面
  6
CONTINUOUS
 10
-104.345038
 20
18.935435
 11
-104.345038
 21
14.448545
  0
LINE
  8
型材断面
  6
CONTINUOUS
 10
-54.411528
 20
16.69199
 11
-50.525767
 21
14.448545
  0
LINE
  8
型材断面
  6
CONTINUOUS
 10
-54.411528
 20
16.69199
 11
-50.525767
 21
18.935435
  0
LINE
  8
型材断面
  6
CONTINUOUS
 10
-50.525767
 20
18.935435
 11
-50.525767
 21
14.448545
  0
LINE
  8
型材断面
  6
CONTINUOUS
 10
-77.435405
 20
39.715863
 11
-79.67885
 21
43.601622
  0
LINE
  8
型材断面
  6
CONTINUOUS
 10
-77.435405
 20
39.715863
 11
-75.19196
 21
43.601622
  0
LINE
  8
型材断面
  6
CONTINUOUS
 10
-75.19196
 20
43.601622
 11
-79.67885
 21
43.601622
  0
LINE
  8
型材断面
  6
CONTINUOUS
 10
-77.435405
 20
-6.331887
 11
-79.67885
 21
-10.217648
  0
LINE
  8
型材断面
  6
CONTINUOUS
 10
-77.435405
 20
-6.331887
 11
-75.19196
 21
-10.217648
  0
LINE
  8
型材断面
  6
CONTINUOUS
 10
-75.19196
 20
-10.217648
 11
-79.67885
 21
-10.217648
  0
LINE
  8
型材断面
  6
CONTINUOUS
 10
-35.48472
 20
-6.182028
 11
-37.728165
 21
-10.067788
  0
LINE
  8
型材断面
  6
CONTINUOUS
 10
-35.48472
 20
-6.182028
 11
-33.241275
 21
-10.067788
  0
LINE
  8
型材断面
  6
CONTINUOUS
 10
-33.241275
 20
-10.067788
 11
-37.728165
 21
-10.067788
  0
LINE
  8
型材断面
  6
CONTINUOUS
 10
-35.48472
 20
-13.871575
 11
-34.590635
 21
-17.757335
  0
LINE
  8
型材断面
  6
CONTINUOUS
 10
-35.48472
 20
-13.871575
 11
-36.378805
 21
-17.757335
  0
LINE
  8
型材断面
  6
CONTINUOUS
 10
-36.378805
 20
-17.757335
 11
-34.590635
 21
-17.757335
  0
LINE
  8
型材断面
  6
CONTINUOUS
 10
-44.5186
 20
-11.47568
 11
8.13808
 21
-11.47568
  0
LINE
  8
型材断面
  6
CONTINUOUS
 10
-44.5186
 20
-22.675673
 11
8.13808
 21
-22.675673
  0
LINE
  8
型材断面
  6
CONTINUOUS
 10
-44.5186
 20
-29.515618
 11
8.13808
 21
-29.515618
  0
LINE
  8
型材断面
  6
CONTINUOUS
 10
-98.035448
 20
-3.908053
 11
-98.035448
 21
16.69199
  0
LINE
  8
型材断面
  6
CONTINUOUS
 10
-96.935448
 20
-2.808053
 11
-96.935448
 21
16.69199
  0
LINE
  8
型材断面
  6
CONTINUOUS
 10
-98.035448
 20
-3.908053
 11
-77.435405
 21
-3.908053
  0
LINE
  8
型材断面
  6
CONTINUOUS
 10
-96.935448
 20
-2.808053
 11
-77.435405
 21
-2.808053
  0
LINE
  8
型材断面
  6
CONTINUOUS
 10
-56.835362
 20
-3.908053
 11
-56.835362
 21
16.69199
  0
LINE
  8
型材断面
  6
CONTINUOUS
 10
-57.935362
 20
-2.808053
 11
-57.935362
 21
16.69199
  0
LINE
  8
型材断面
  6
CONTINUOUS
 10
-56.835362
 20
-3.908053
 11
-77.435405
 21
-3.908053
  0
LINE
  8
型材断面
  6
CONTINUOUS
 10
-57.935362
 20
-2.808053
 11
-77.435405
 21
-2.808053
  0
LINE
  8
型材断面
  6
CONTINUOUS
 10
-56.835362
 20
37.292032
 11
-56.835362
 21
16.69199
  0
LINE
  8
型材断面
  6
CONTINUOUS
 10
-57.935362
 20
36.192032
 11
-57.935362
 21
16.69199
  0
LINE
  8
型材断面
  6
CONTINUOUS
 10
-56.835362
 20
37.292032
 11
-77.435405
 21
37.292032
  0
LINE
  8
型材断面
  6
CONTINUOUS
 10
-57.935362
 20
36.192032
 11
-77.435405
 21
36.192032
  0
LINE
  8
型材断面
  6
CONTINUOUS
 10
-98.035448
 20
37.292032
 11
-98.035448
 21
16.69199
  0
LINE
  8
型材断面
  6
CONTINUOUS
 10
-96.935448
 20
36.192032
 11
-96.935448
 21
16.69199
  0
LINE
  8
型材断面
  6
CONTINUOUS
 10
-98.035448
 20
37.292032
 11
-77.435405
 21
37.292032
  0
LINE
  8
型材断面
  6
CONTINUOUS
 10
-96.935448
 20
36.192032
 11
-77.435405
 21
36.192032
  0
LINE
  8
型材断面
  6
CONTINUOUS
 10
-54.411528
 20
28.69199
 11
-50.525767
 21
27.797905
  0
LINE
  8
型材断面
  6
CONTINUOUS
 10
-54.411528
 20
28.69199
 11
-50.525767
 21
29.586075
  0
LINE
  8
型材断面
  6
CONTINUOUS
 10
-50.525767
 20
29.586075
 11
-50.525767
 21
27.797905
  0
LINE
  8
型材断面
  6
CONTINUOUS
 10
-54.411528
 20
4.69199
 11
-50.525767
 21
5.586075
  0
LINE
  8
型材断面
  6
CONTINUOUS
 10
-54.411528
 20
4.69199
 11
-50.525767
 21
3.797905
  0
LINE
  8
型材断面
  6
CONTINUOUS
 10
-50.525767
 20
3.797905
 11
-50.525767
 21
5.586075
  0
LINE
  8
型材断面
  6
CONTINUOUS
 62
    47
 10
-94.005445
 20
-67.398442
 11
-95.085765
 21
-67.398442
  0
LINE
  8
型材断面
  6
CONTINUOUS
 62
    47
 10
-95.02072
 20
-65.458463
 11
-95.03572
 21
-65.443462
  0
LINE
  8
型材断面
  6
CONTINUOUS
 62
    47
 10
-95.02072
 20
-65.458463
 11
-95.03572
 21
-65.473463
  0
LINE
  8
型材断面
  6
CONTINUOUS
 62
    47
 10
-95.02072
 20
-66.42181
 11
-95.03572
 21
-66.40681
  0
LINE
  8
型材断面
  6
CONTINUOUS
 62
    47
 10
-95.02072
 20
-66.42181
 11
-95.03572
 21
-66.43681
  0
LINE
  8
型材断面
  6
CONTINUOUS
 62
    47
 10
-95.03572
 20
-67.048488
 11
-95.03572
 21
-66.43681
  0
LINE
  8
型材断面
  6
CONTINUOUS
 62
    47
 10
-95.03572
 20
-66.40681
 11
-95.03572
 21
-65.473463
  0
LINE
  8
型材断面
  6
CONTINUOUS
 62
    47
 10
-97.28546
 20
-72.498617
 11
-97.28546
 21
-71.998617
  0
LINE
  8
型材断面
  6
CONTINUOUS
 62
    47
 10
-94.385718
 20
-70.998615
 11
-93.490448
 21
-70.998615
  0
LINE
  8
型材断面
  6
CONTINUOUS
 62
    47
 10
-94.735448
 20
-70.998595
 11
-98.035448
 21
-71.248617
  0
LINE
  8
型材断面
  6
CONTINUOUS
 62
    47
 10
-98.035448
 20
-71.998617
 11
-98.035448
 21
-71.248617
  0
LINE
  8
型材断面
  6
CONTINUOUS
 62
    47
 10
-96.935448
 20
-67.79843
 11
-77.435405
 21
-67.79843
  0
LINE
  8
型材断面
  6
CONTINUOUS
 10
-77.435405
 20
-70.998615
 11
-94.735448
 21
-70.998615
  0
LINE
  8
型材断面
  6
CONTINUOUS
 10
-77.435405
 20
-72.498617
 11
-97.28546
 21
-72.498617
  0
LINE
  8
型材断面
  6
CONTINUOUS
 10
-77.435405
 20
-71.998617
 11
-98.035448
 21
-71.998617
  0
LINE
  8
型材断面
  6
CONTINUOUS
 62
    47
 10
-77.435405
 20
-67.398442
 11
-96.935448
 21
-67.398442
  0
LINE
  8
型材断面
  6
CONTINUOUS
 62
    47
 10
-77.435405
 20
-67.598455
 11
-96.935448
 21
-67.598455
  0
LINE
  8
型材断面
  6
CONTINUOUS
 62
    47
 10
-96.935448
 20
-67.79843
 11
-96.935448
 21
-67.598455
  0
LINE
  8
型材断面
  6
CONTINUOUS
 62
    47
 10
-94.735448
 20
-67.79843
 11
-94.735448
 21
-70.998615
  0
LINE
  8
型材断面
  6
CONTINUOUS
 10
-77.435405
 20
-71.248617
 11
-98.035448
 21
-71.248617
  0
LINE
  8
型材断面
  6
CONTINUOUS
 10
-95.03572
 20
-67.048488
 11
-77.435405
 21
-67.048488
  0
LINE
  8
型材断面
  6
CONTINUOUS
 10
-96.935448
 20
-67.148475
 11
-77.435405
 21
-67.148475
  0
LINE
  8
型材断面
  6
CONTINUOUS
 62
    47
 10
-60.865365
 20
-67.398442
 11
-59.785045
 21
-67.398442
  0
LINE
  8
型材断面
  6
CONTINUOUS
 62
    47
 10
-59.85009
 20
-65.458463
 11
-59.83509
 21
-65.443462
  0
LINE
  8
型材断面
  6
CONTINUOUS
 62
    47
 10
-59.85009
 20
-65.458463
 11
-59.83509
 21
-65.473463
  0
LINE
  8
型材断面
  6
CONTINUOUS
 62
    47
 10
-59.85009
 20
-66.42181
 11
-59.83509
 21
-66.40681
  0
LINE
  8
型材断面
  6
CONTINUOUS
 62
    47
 10
-59.85009
 20
-66.42181
 11
-59.83509
 21
-66.43681
  0
LINE
  8
型材断面
  6
CONTINUOUS
 62
    47
 10
-59.83509
 20
-67.048488
 11
-59.83509
 21
-66.43681
  0
LINE
  8
型材断面
  6
CONTINUOUS
 62
    47
 10
-59.83509
 20
-66.40681
 11
-59.83509
 21
-65.473463
  0
LINE
  8
型材断面
  6
CONTINUOUS
 62
    47
 10
-57.58535
 20
-72.498617
 11
-57.58535
 21
-71.998617
  0
LINE
  8
型材断面
  6
CONTINUOUS
 62
    47
 10
-60.485092
 20
-70.998615
 11
-61.380362
 21
-70.998615
  0
LINE
  8
型材断面
  6
CONTINUOUS
 62
    47
 10
-60.135362
 20
-70.998595
 11
-56.835362
 21
-71.248617
  0
LINE
  8
型材断面
  6
CONTINUOUS
 62
    47
 10
-56.835362
 20
-71.998617
 11
-56.835362
 21
-71.248617
  0
LINE
  8
型材断面
  6
CONTINUOUS
 62
    47
 10
-57.935362
 20
-67.79843
 11
-77.435405
 21
-67.79843
  0
LINE
  8
型材断面
  6
CONTINUOUS
 10
-77.435405
 20
-70.998615
 11
-60.135362
 21
-70.998615
  0
LINE
  8
型材断面
  6
CONTINUOUS
 10
-77.435405
 20
-72.498617
 11
-57.58535
 21
-72.498617
  0
LINE
  8
型材断面
  6
CONTINUOUS
 10
-77.435405
 20
-71.998617
 11
-56.835362
 21
-71.998617
  0
LINE
  8
型材断面
  6
CONTINUOUS
 62
    47
 10
-77.435405
 20
-67.398442
 11
-57.935362
 21
-67.398442
  0
LINE
  8
型材断面
  6
CONTINUOUS
 62
    47
 10
-77.435405
 20
-67.598455
 11
-57.935362
 21
-67.598455
  0
LINE
  8
型材断面
  6
CONTINUOUS
 62
    47
 10
-57.935362
 20
-67.79843
 11
-57.935362
 21
-67.598455
  0
LINE
  8
型材断面
  6
CONTINUOUS
 62
    47
 10
-60.135362
 20
-67.79843
 11
-60.135362
 21
-70.998615
  0
LINE
  8
型材断面
  6
CONTINUOUS
 10
-77.435405
 20
-71.248617
 11
-56.835362
 21
-71.248617
  0
LINE
  8
型材断面
  6
CONTINUOUS
 10
-59.83509
 20
-67.048488
 11
-77.435405
 21
-67.048488
  0
LINE
  8
型材断面
  6
CONTINUOUS
 10
-57.935362
 20
-67.148475
 11
-77.435405
 21
-67.148475
  0
POLYLINE
  8
型材断面
  6
CONTINUOUS
 66
     1
 70
     1
  0
VERTEX
  8
型材断面
 10
-101.415475
 20
-64.546893
  0
VERTEX
  8
型材断面
 10
-115.011485
 20
-64.546893
  0
VERTEX
  8
型材断面
 10
-115.011485
 20
-69.84042
  0
VERTEX
  8
型材断面
 10
-101.415475
 20
-69.84042
  0
SEQEND
  0
POLYLINE
  8
型材断面
  6
DASHDOT
 66
     1
  0
VERTEX
  8
型材断面
 10
-62.435405
 20
31.69199
  0
VERTEX
  8
型材断面
 10
-92.435405
 20
16.69199
  0
VERTEX
  8
型材断面
 10
-62.435405
 20
1.69199
  0
SEQEND
  0
LINE
  8
型材断面
  6
CONTINUOUS
 62
    47
 10
40.231773
 20
-67.398442
 11
39.151453
 21
-67.398442
  0
LINE
  8
型材断面
  6
CONTINUOUS
 62
    47
 10
39.216497
 20
-65.458463
 11
39.201498
 21
-65.443462
  0
LINE
  8
型材断面
  6
CONTINUOUS
 62
    47
 10
39.216497
 20
-65.458463
 11
39.201498
 21
-65.473463
  0
LINE
  8
型材断面
  6
CONTINUOUS
 62
    47
 10
39.216497
 20
-66.42181
 11
39.201498
 21
-66.40681
  0
LINE
  8
型材断面
  6
CONTINUOUS
 62
    47
 10
39.216497
 20
-66.42181
 11
39.201498
 21
-66.43681
  0
LINE
  8
型材断面
  6
CONTINUOUS
 62
    47
 10
39.201498
 20
-67.048488
 11
39.201498
 21
-66.43681
  0
LINE
  8
型材断面
  6
CONTINUOUS
 62
    47
 10
39.201498
 20
-66.40681
 11
39.201498
 21
-65.473463
  0
LINE
  8
型材断面
  6
CONTINUOUS
 62
    47
 10
36.951757
 20
-72.498617
 11
36.951757
 21
-71.998617
  0
LINE
  8
型材断面
  6
CONTINUOUS
 62
    47
 10
39.8515
 20
-70.998615
 11
40.74677
 21
-70.998615
  0
LINE
  8
型材断面
  6
CONTINUOUS
 62
    47
 10
39.50177
 20
-70.998595
 11
36.20177
 21
-71.248617
  0
LINE
  8
型材断面
  6
CONTINUOUS
 62
    47
 10
36.20177
 20
-71.998617
 11
36.20177
 21
-71.248617
  0
LINE
  8
型材断面
  6
CONTINUOUS
 62
    47
 10
37.30177
 20
-67.79843
 11
56.801813
 21
-67.79843
  0
LINE
  8
型材断面
  6
CONTINUOUS
 10
56.801813
 20
-70.998615
 11
39.50177
 21
-70.998615
  0
LINE
  8
型材断面
  6
CONTINUOUS
 10
56.801813
 20
-72.498617
 11
36.951757
 21
-72.498617
  0
LINE
  8
型材断面
  6
CONTINUOUS
 10
56.801813
 20
-71.998617
 11
36.20177
 21
-71.998617
  0
LINE
  8
型材断面
  6
CONTINUOUS
 62
    47
 10
56.801813
 20
-67.398442
 11
37.30177
 21
-67.398442
  0
LINE
  8
型材断面
  6
CONTINUOUS
 62
    47
 10
56.801813
 20
-67.598455
 11
37.30177
 21
-67.598455
  0
LINE
  8
型材断面
  6
CONTINUOUS
 62
    47
 10
37.30177
 20
-67.79843
 11
37.30177
 21
-67.598455
  0
LINE
  8
型材断面
  6
CONTINUOUS
 62
    47
 10
39.50177
 20
-67.79843
 11
39.50177
 21
-70.998615
  0
LINE
  8
型材断面
  6
CONTINUOUS
 10
56.801813
 20
-71.248617
 11
36.20177
 21
-71.248617
  0
LINE
  8
型材断面
  6
CONTINUOUS
 10
39.201498
 20
-67.048488
 11
56.801813
 21
-67.048488
  0
LINE
  8
型材断面
  6
CONTINUOUS
 10
37.30177
 20
-67.148475
 11
56.801813
 21
-67.148475
  0
LINE
  8
型材断面
  6
CONTINUOUS
 62
    47
 10
73.371853
 20
-67.398442
 11
74.452173
 21
-67.398442
  0
LINE
  8
型材断面
  6
CONTINUOUS
 62
    47
 10
74.387127
 20
-65.458463
 11
74.402127
 21
-65.443462
  0
LINE
  8
型材断面
  6
CONTINUOUS
 62
    47
 10
74.387127
 20
-65.458463
 11
74.402127
 21
-65.473463
  0
LINE
  8
型材断面
  6
CONTINUOUS
 62
    47
 10
74.387127
 20
-66.42181
 11
74.402127
 21
-66.40681
  0
LINE
  8
型材断面
  6
CONTINUOUS
 62
    47
 10
74.387127
 20
-66.42181
 11
74.402127
 21
-66.43681
  0
LINE
  8
型材断面
  6
CONTINUOUS
 62
    47
 10
74.402127
 20
-67.048488
 11
74.402127
 21
-66.43681
  0
LINE
  8
型材断面
  6
CONTINUOUS
 62
    47
 10
74.402127
 20
-66.40681
 11
74.402127
 21
-65.473463
  0
LINE
  8
型材断面
  6
CONTINUOUS
 62
    47
 10
76.651867
 20
-72.498617
 11
76.651867
 21
-71.998617
  0
LINE
  8
型材断面
  6
CONTINUOUS
 62
    47
 10
73.752125
 20
-70.998615
 11
72.856855
 21
-70.998615
  0
LINE
  8
型材断面
  6
CONTINUOUS
 62
    47
 10
74.101855
 20
-70.998595
 11
77.401855
 21
-71.248617
  0
LINE
  8
型材断面
  6
CONTINUOUS
 62
    47
 10
77.401855
 20
-71.998617
 11
77.401855
 21
-71.248617
  0
LINE
  8
型材断面
  6
CONTINUOUS
 62
    47
 10
76.301855
 20
-67.79843
 11
56.801813
 21
-67.79843
  0
LINE
  8
型材断面
  6
CONTINUOUS
 10
56.801813
 20
-70.998615
 11
74.101855
 21
-70.998615
  0
LINE
  8
型材断面
  6
CONTINUOUS
 10
56.801813
 20
-72.498617
 11
76.651867
 21
-72.498617
  0
LINE
  8
型材断面
  6
CONTINUOUS
 10
56.801813
 20
-71.998617
 11
77.401855
 21
-71.998617
  0
LINE
  8
型材断面
  6
CONTINUOUS
 62
    47
 10
56.801813
 20
-67.398442
 11
76.301855
 21
-67.398442
  0
LINE
  8
型材断面
  6
CONTINUOUS
 62
    47
 10
56.801813
 20
-67.598455
 11
76.301855
 21
-67.598455
  0
LINE
  8
型材断面
  6
CONTINUOUS
 62
    47
 10
76.301855
 20
-67.79843
 11
76.301855
 21
-67.598455
  0
LINE
  8
型材断面
  6
CONTINUOUS
 62
    47
 10
74.101855
 20
-67.79843
 11
74.101855
 21
-70.998615
  0
LINE
  8
型材断面
  6
CONTINUOUS
 10
56.801813
 20
-71.248617
 11
77.401855
 21
-71.248617
  0
LINE
  8
型材断面
  6
CONTINUOUS
 10
74.402127
 20
-67.048488
 11
56.801813
 21
-67.048488
  0
LINE
  8
型材断面
  6
CONTINUOUS
 10
76.301855
 20
-67.148475
 11
56.801813
 21
-67.148475
  0
ARC
  8
型材断面
  6
DASHDOT
 10
36.791495
 20
-67.47343
 40
39.51043
 50
360.108743
 51
405.108742
  0
LINE
  8
型材断面
  6
DASHDOT
 10
-92.435405
 20
31.69199
 11
-62.435405
 21
31.69199
  0
LINE
  8
型材断面
  6
CONTINUOUS
 62
    47
 10
-95.495723
 20
-62.773442
 11
-95.495723
 21
-61.57344
  0
ARC
  8
型材断面
  6
CONTINUOUS
 10
-95.580505
 20
-61.47344
 40
0.15
 50
-270.0
 51
-180.0
  0
LINE
  8
型材断面
  6
CONTINUOUS
 62
    47
 10
-95.730505
 20
-61.47344
 11
-95.730505
 21
-61.57344
  0
LINE
  8
型材断面
  6
CONTINUOUS
 62
    47
 10
-95.495405
 20
-61.738625
 11
-95.495405
 21
-63.82344
  0
LINE
  8
型材断面
  6
CONTINUOUS
 62
    47
 10
-95.03572
 20
-65.443462
 11
-95.03572
 21
-63.82344
  0
LINE
  8
型材断面
  6
CONTINUOUS
 62
    47
 10
-95.495405
 20
-63.82344
 11
-77.435405
 21
-63.82344
  0
LINE
  8
型材断面
  6
CONTINUOUS
 62
    47
 10
-95.730505
 20
-61.57344
 11
-77.435405
 21
-61.57344
  0
LINE
  8
型材断面
  6
CONTINUOUS
 62
    47
 10
-95.580505
 20
-61.32344
 11
-77.435405
 21
-61.32344
  0
LINE
  8
型材断面
  6
CONTINUOUS
 62
    47
 10
-59.375087
 20
-62.773442
 11
-59.375087
 21
-61.57344
  0
ARC
  8
型材断面
  6
CONTINUOUS
 10
-59.290305
 20
-61.47344
 40
0.15
 50
0.0
 51
90.0
  0
LINE
  8
型材断面
  6
CONTINUOUS
 62
    47
 10
-59.140305
 20
-61.47344
 11
-59.140305
 21
-61.57344
  0
LINE
  8
型材断面
  6
CONTINUOUS
 62
    47
 10
-59.375405
 20
-61.738625
 11
-59.375405
 21
-63.82344
  0
LINE
  8
型材断面
  6
CONTINUOUS
 62
    47
 10
-59.375405
 20
-63.82344
 11
-77.435405
 21
-63.82344
  0
LINE
  8
型材断面
  6
CONTINUOUS
 62
    47
 10
-59.140305
 20
-61.57344
 11
-77.435405
 21
-61.57344
  0
LINE
  8
型材断面
  6
CONTINUOUS
 62
    47
 10
-59.290305
 20
-61.32344
 11
-77.435405
 21
-61.32344
  0
LINE
  8
型材断面
  6
CONTINUOUS
 62
    47
 10
-59.83509
 20
-65.443462
 11
-59.83509
 21
-63.82344
  0
LINE
  8
型材断面
  6
CONTINUOUS
 62
    47
 10
38.741495
 20
-62.773442
 11
38.741495
 21
-61.57344
  0
ARC
  8
型材断面
  6
CONTINUOUS
 10
38.656713
 20
-61.47344
 40
0.15
 50
-270.0
 51
-180.0
  0
LINE
  8
型材断面
  6
CONTINUOUS
 62
    47
 10
38.506712
 20
-61.47344
 11
38.506712
 21
-61.57344
  0
LINE
  8
型材断面
  6
CONTINUOUS
 62
    47
 10
38.741813
 20
-61.738625
 11
38.741813
 21
-63.82344
  0
LINE
  8
型材断面
  6
CONTINUOUS
 62
    47
 10
38.741813
 20
-63.82344
 11
56.801813
 21
-63.82344
  0
LINE
  8
型材断面
  6
CONTINUOUS
 62
    47
 10
38.506712
 20
-61.57344
 11
56.801813
 21
-61.57344
  0
LINE
  8
型材断面
  6
CONTINUOUS
 62
    47
 10
38.656712
 20
-61.32344
 11
56.801813
 21
-61.32344
  0
LINE
  8
型材断面
  6
CONTINUOUS
 62
    47
 10
74.86213
 20
-62.773442
 11
74.86213
 21
-61.57344
  0
ARC
  8
型材断面
  6
CONTINUOUS
 10
74.946912
 20
-61.47344
 40
0.15
 50
0.0
 51
90.0
  0
LINE
  8
型材断面
  6
CONTINUOUS
 62
    47
 10
75.096912
 20
-61.47344
 11
75.096912
 21
-61.57344
  0
LINE
  8
型材断面
  6
CONTINUOUS
 62
    47
 10
74.861813
 20
-61.738625
 11
74.861813
 21
-63.82344
  0
LINE
  8
型材断面
  6
CONTINUOUS
 62
    47
 10
74.861813
 20
-63.82344
 11
56.801813
 21
-63.82344
  0
LINE
  8
型材断面
  6
CONTINUOUS
 62
    47
 10
75.096912
 20
-61.57344
 11
56.801813
 21
-61.57344
  0
LINE
  8
型材断面
  6
CONTINUOUS
 62
    47
 10
74.946912
 20
-61.32344
 11
56.801813
 21
-61.32344
  0
LINE
  8
型材断面
  6
CONTINUOUS
 62
    47
 10
74.402127
 20
-65.443462
 11
74.402127
 21
-63.82344
  0
LINE
  8
型材断面
  6
CONTINUOUS
 62
    47
 10
39.201498
 20
-65.443462
 11
39.201498
 21
-63.82344
  0
LINE
  8
型材断面
  6
CONTINUOUS
 62
    47
 10
-96.935448
 20
-67.398442
 11
-96.935448
 21
-67.14795
  0
LINE
  8
型材断面
  6
CONTINUOUS
 62
    47
 10
-95.03572
 20
-67.048488
 11
-96.935448
 21
-67.14795
  0
LINE
  8
型材断面
  6
CONTINUOUS
 62
    47
 10
-57.935362
 20
-67.398442
 11
-57.935362
 21
-67.14795
  0
LINE
  8
型材断面
  6
CONTINUOUS
 62
    47
 10
-59.83509
 20
-67.048488
 11
-57.935362
 21
-67.14795
  0
LINE
  8
型材断面
  6
CONTINUOUS
 62
    47
 10
37.30177
 20
-67.398442
 11
37.30177
 21
-67.14795
  0
LINE
  8
型材断面
  6
CONTINUOUS
 62
    47
 10
39.201498
 20
-67.048488
 11
37.30177
 21
-67.14795
  0
LINE
  8
型材断面
  6
CONTINUOUS
 62
    47
 10
76.301855
 20
-67.398442
 11
76.301855
 21
-67.14795
  0
LINE
  8
型材断面
  6
CONTINUOUS
 62
    47
 10
74.402127
 20
-67.048488
 11
76.301855
 21
-67.14795
  0
LINE
  8
型材断面
  6
CONTINUOUS
 10
-59.49386
 20
-1.60311
 11
-59.140305
 21
-1.249555
  0
LINE
  8
型材断面
  6
CONTINUOUS
 10
-63.244178
 20
2.147207
 11
-62.890622
 21
2.500763
  0
LINE
  8
型材断面
  6
CONTINUOUS
 10
-62.890622
 20
2.500763
 11
-59.140305
 21
-1.249555
  0
LINE
  8
型材断面
  6
CONTINUOUS
 10
-63.244178
 20
2.147207
 11
-59.49386
 21
-1.60311
  0
LINE
  8
型材断面
  6
CONTINUOUS
 10
-56.835362
 20
-3.908053
 11
-59.317083
 21
-1.426332
  0
LINE
  8
型材断面
  6
CONTINUOUS
 10
-59.49386
 20
34.98709
 11
-59.140305
 21
34.633535
  0
LINE
  8
型材断面
  6
CONTINUOUS
 10
-63.244178
 20
31.236773
 11
-62.890622
 21
30.883217
  0
LINE
  8
型材断面
  6
CONTINUOUS
 10
-62.890622
 20
30.883217
 11
-59.140305
 21
34.633535
  0
LINE
  8
型材断面
  6
CONTINUOUS
 10
-63.244178
 20
31.236773
 11
-59.49386
 21
34.98709
  0
LINE
  8
型材断面
  6
CONTINUOUS
 10
-56.835362
 20
37.292032
 11
-59.317083
 21
34.810312
  0
LINE
  8
型材断面
  6
CONTINUOUS
 10
-95.37695
 20
34.98709
 11
-95.730505
 21
34.633535
  0
LINE
  8
型材断面
  6
CONTINUOUS
 10
-91.626632
 20
31.236773
 11
-91.980188
 21
30.883217
  0
LINE
  8
型材断面
  6
CONTINUOUS
 10
-91.980188
 20
30.883217
 11
-95.730505
 21
34.633535
  0
LINE
  8
型材断面
  6
CONTINUOUS
 10
-91.626632
 20
31.236773
 11
-95.37695
 21
34.98709
  0
LINE
  8
型材断面
  6
CONTINUOUS
 10
-98.035448
 20
37.292032
 11
-95.553727
 21
34.810312
  0
LINE
  8
型材断面
  6
CONTINUOUS
 10
-95.37695
 20
-1.60311
 11
-95.730505
 21
-1.249555
  0
LINE
  8
型材断面
  6
CONTINUOUS
 10
-91.626632
 20
2.147207
 11
-91.980188
 21
2.500763
  0
LINE
  8
型材断面
  6
CONTINUOUS
 10
-91.980188
 20
2.500763
 11
-95.730505
 21
-1.249555
  0
LINE
  8
型材断面
  6
CONTINUOUS
 10
-91.626632
 20
2.147207
 11
-95.37695
 21
-1.60311
  0
LINE
  8
型材断面
  6
CONTINUOUS
 10
-98.035448
 20
-3.908053
 11
-95.553727
 21
-1.426332
  0
LINE
  8
型材断面
  6
CONTINUOUS
 10
-59.49386
 20
-1.60311
 11
-95.37695
 21
-1.60311
  0
LINE
  8
型材断面
  6
CONTINUOUS
 10
-95.730505
 20
-1.249555
 11
-95.730505
 21
34.633535
  0
LINE
  8
型材断面
  6
CONTINUOUS
 10
-59.140305
 20
-1.249555
 11
-59.140305
 21
34.633535
  0
LINE
  8
型材断面
  6
CONTINUOUS
 10
-95.37695
 20
34.98709
 11
-59.49386
 21
34.98709
  0
LINE
  8
型材断面
  6
CONTINUOUS
 10
-78.060405
 20
2.147207
 11
-78.060405
 21
-1.60311
  0
LINE
  8
型材断面
  6
CONTINUOUS
 10
-76.810405
 20
2.147207
 11
-76.810405
 21
-1.60311
  0
LINE
  8
型材断面
  6
CONTINUOUS
 10
-63.244178
 20
2.147207
 11
-76.810405
 21
2.147207
  0
LINE
  8
型材断面
  6
CONTINUOUS
 10
-78.060405
 20
2.147207
 11
-91.626632
 21
2.147207
  0
LINE
  8
型材断面
  6
CONTINUOUS
 10
-62.890622
 20
17.31699
 11
-59.140305
 21
17.31699
  0
LINE
  8
型材断面
  6
CONTINUOUS
 10
-62.890622
 20
16.06699
 11
-59.140305
 21
16.06699
  0
LINE
  8
型材断面
  6
CONTINUOUS
 10
-76.810405
 20
31.236773
 11
-76.810405
 21
34.98709
  0
LINE
  8
型材断面
  6
CONTINUOUS
 10
-78.060405
 20
31.236773
 11
-78.060405
 21
34.98709
  0
LINE
  8
型材断面
  6
CONTINUOUS
 10
-91.980188
 20
16.06699
 11
-95.730505
 21
16.06699
  0
LINE
  8
型材断面
  6
CONTINUOUS
 10
-91.980188
 20
17.31699
 11
-95.730505
 21
17.31699
  0
LINE
  8
型材断面
  6
CONTINUOUS
 10
-91.980188
 20
2.500763
 11
-91.980188
 21
16.06699
  0
LINE
  8
型材断面
  6
CONTINUOUS
 10
-91.980188
 20
17.31699
 11
-91.980188
 21
30.883217
  0
LINE
  8
型材断面
  6
CONTINUOUS
 10
-62.890622
 20
2.500763
 11
-62.890622
 21
16.06699
  0
LINE
  8
型材断面
  6
CONTINUOUS
 10
-62.890622
 20
17.31699
 11
-62.890622
 21
30.883217
  0
LINE
  8
型材断面
  6
CONTINUOUS
 10
-91.626632
 20
31.236773
 11
-78.060405
 21
31.236773
  0
LINE
  8
型材断面
  6
CONTINUOUS
 10
-76.810405
 20
31.236773
 11
-63.244178
 21
31.236773
  0
LINE
  8
ガラス
  6
CONTINUOUS
 10
137.054785
 20
34.474703
 11
137.054785
 21
64.724703
  0
LINE
  8
ガラス
  6
CONTINUOUS
 10
167.304785
 20
64.724703
 11
137.054785
 21
64.724703
  0
LINE
  8
ガラス
  6
CONTINUOUS
 10
167.304785
 20
64.724703
 11
167.304785
 21
34.474703
  0
LINE
  8
ガラス
  6
CONTINUOUS
 10
137.054785
 20
34.474703
 11
167.304785
 21
34.474703
  0
INSERT
  2
*GRP_0013
  8
ガラス
  6
CONTINUOUS
 10
0.0
 20
0.0
  0
TEXT
  7
TextStyle03
  8
文字
  6
CONTINUOUS
 10
-31.2
 20
-9.725
  1
は排水穴位置を示す
 40
3.0
 72
     5
 11
-1.2
 21
-9.725
  0
TEXT
  7
TextStyle03
  8
文字
  6
CONTINUOUS
 10
-36.8
 20
-28.1
  1
アンカー数量　４ヶ所
 40
3.0
 72
     5
 11
-3.425
 21
-28.1
  0
TEXT
  7
TextStyle03
  8
文字
  6
CONTINUOUS
 10
-31.2
 20
-17.575
  1
はケーシング位置を示す
 40
3.0
 72
     5
 11
5.55
 21
-17.575
  0
TEXT
  7
TextStyle03
  8
文字
  6
CONTINUOUS
 10
-31.2
 20
-20.95
  1
２ヶ所中1ヶ所に設定
 40
3.0
 72
     5
 11
0.4875
 21
-20.95
  0
TEXT
  7
TextStyle03
  8
文字
  6
CONTINUOUS
 10
-98.825
 20
58.1
  1
アンカーピッチ
 40
3.0
 72
     5
 11
-75.575
 21
58.1
  0
TEXT
  7
TextStyle03
  8
文字
  6
CONTINUOUS
 10
-113.4
 20
-68.55
  1
丁番側
 40
3.0
 72
     5
 11
-103.65
 21
-68.55
  0
TEXT
  7
TextStyle03
  8
文字
  6
CONTINUOUS
 10
76.375
 20
-52.525
  1
45°
 40
3.0
 72
     5
 11
82.75
 21
-52.525
  0
TEXT
  7
TextStyle03
  8
文字
  6
CONTINUOUS
 10
147.5
 20
42.675
  1
網入り6.8t
 40
3.0
 72
     5
 11
164.1875
 21
42.675
  0
TEXT
  7
TextStyle03
  8
文字
  6
CONTINUOUS
 10
154.125
 20
37.425
  1
×１枚
 40
3.0
 72
     5
 11
163.875
 21
37.425
  0
TEXT
  7
TextStyle03
  8
文字
  6
CONTINUOUS
 10
64.95
 20
116.5
  1
シリーズ：ＴＦＦＨ
 40
5.0
 72
     5
 11
114.95
 21
116.5
  0
TEXT
  7
TextStyle03
  8
文字
  6
CONTINUOUS
 10
64.95
 20
110.875
  1
　　　　　（片側開閉）600×600タイプ
 40
5.0
 72
     5
 11
165.575
 21
110.875
  0
TEXT
  7
TextStyle03
  8
文字
  6
CONTINUOUS
 10
64.95
 20
105.25
  1
図面名　：外観姿図
 40
5.0
 72
     5
 11
114.95
 21
105.25
  0
TEXT
  7
TextStyle03
  8
文字
  6
CONTINUOUS
 10
64.95
 20
99.625
  1
　　　　　　
 40
5.0
 72
     5
 11
98.075
 21
99.625
  0
INSERT
  2
*DIM_0002
  8
寸法
  6
CONTINUOUS
 10
0.0
 20
0.0
  0
INSERT
  2
*DIM_0003
  8
寸法
  6
CONTINUOUS
 10
0.0
 20
0.0
  0
INSERT
  2
*DIM_0004
  8
寸法
  6
CONTINUOUS
 10
0.0
 20
0.0
  0
INSERT
  2
*DIM_0005
  8
寸法
  6
CONTINUOUS
 10
0.0
 20
0.0
  0
INSERT
  2
*DIM_0006
  8
寸法
  6
CONTINUOUS
 10
0.0
 20
0.0
  0
INSERT
  2
*DIM_0008
  8
寸法
  6
CONTINUOUS
 10
0.0
 20
0.0
  0
INSERT
  2
*DIM_0010
  8
寸法
  6
CONTINUOUS
 10
0.0
 20
0.0
  0
INSERT
  2
*DIM_0011
  8
寸法
  6
CONTINUOUS
 10
0.0
 20
0.0
  0
INSERT
  2
*DIM_0012
  8
寸法
  6
CONTINUOUS
 10
0.0
 20
0.0
  0
INSERT
  2
*GRP_0007
  8
別途部材
  6
CONTINUOUS
 10
0.0
 20
0.0
  0
INSERT
  2
*GRP_0009
  8
別途部材
  6
CONTINUOUS
 10
0.0
 20
0.0
  0
ENDSEC
  0
EOF
