  0
SECTION
  2
HEADER
  9
$EXTMIN
 10
-210.0
 20
-148.5
  9
$EXTMAX
 10
210.0
 20
148.5
  9
$PDMODE
 70
    32
  9
$PDSIZE
 40
1.5
  9
$LTSCALE
 40
10.0
  0
ENDSEC
  0
SECTION
  2
TABLES
  0
TABLE
  2
LTYPE
 70
    15
  0
LTYPE
  2
CONTINUOUS
 70
    64
  3
実線
 72
    65
 73
     0
 40
0.0
  0
LTYPE
  2
DASHED
 70
    64
  3
破線A
 72
    65
 73
     2
 40
0.6
 49
0.4
 49
-0.2
  0
LTYPE
  2
DASHEDX2
 70
    64
  3
破線B
 72
    65
 73
     2
 40
1.3
 49
0.9
 49
-0.4
  0
LTYPE
  2
DASHDOT
 70
    64
  3
１点鎖線A
 72
    65
 73
     4
 40
0.5375
 49
0.375
 49
-0.05
 49
0.0625
 49
-0.05
  0
LTYPE
  2
DASHDOTX2
 70
    64
  3
１点鎖線B
 72
    65
 73
     4
 40
1.075
 49
0.75
 49
-0.1
 49
0.125
 49
-0.1
  0
LTYPE
  2
DIVIDE2
 70
    64
  3
２点鎖線A
 72
    65
 73
     6
 40
0.5125
 49
0.3
 49
-0.0375
 49
0.05
 49
-0.0375
 49
0.05
 49
-0.0375
  0
LTYPE
  2
DIVIDE
 70
    64
  3
２点鎖線B
 72
    65
 73
     6
 40
1.05
 49
0.55
 49
-0.1
 49
0.1
 49
-0.1
 49
0.1
 49
-0.1
  0
LTYPE
  2
DOT
 70
    64
  3
点線A
 72
    65
 73
     2
 40
0.1125
 49
0.0625
 49
-0.05
  0
LTYPE
  2
DOTX2
 70
    64
  3
点線B
 72
    65
 73
     2
 40
0.275
 49
0.15
 49
-0.125
  0
LTYPE
  2
CONTINUOUS
 70
    64
  3
実線
 72
    65
 73
     0
 40
0.0
  0
LTYPE
  2
CONTINUOUS
 70
    64
  3
実線
 72
    65
 73
     0
 40
0.0
  0
LTYPE
  2
CONTINUOUS
 70
    64
  3
実線
 72
    65
 73
     0
 40
0.0
  0
LTYPE
  2
CONTINUOUS
 70
    64
  3
実線
 72
    65
 73
     0
 40
0.0
  0
LTYPE
  2
CONTINUOUS
 70
    64
  3
実線
 72
    65
 73
     0
 40
0.0
  0
LTYPE
  2
CONTINUOUS
 70
    64
  3
実線
 72
    65
 73
     0
 40
0.0
  0
ENDTAB
  0
TABLE
  2
LAYER
 70
    34
  0
LAYER
  2
通り芯
 70
     0
 62
    15
  6
CONTINUOUS
  0
LAYER
  2
補助線
 70
     0
 62
    16
  6
DOT
  0
LAYER
  2
躯体
 70
     0
 62
    31
  6
CONTINUOUS
  0
LAYER
  2
型材
 70
     0
 62
    32
  6
CONTINUOUS
  0
LAYER
  2
型材断面
 70
     0
 62
    47
  6
CONTINUOUS
  0
LAYER
  2
ガラス
 70
     0
 62
    48
  6
CONTINUOUS
  0
LAYER
  2
ゴム等
 70
     0
 62
    63
  6
CONTINUOUS
  0
LAYER
  2
ボルト／ビス
 70
     0
 62
    64
  6
CONTINUOUS
  0
LAYER
  2
文字
 70
     0
 62
    79
  6
CONTINUOUS
  0
LAYER
  2
寸法
 70
     0
 62
    80
  6
CONTINUOUS
  0
LAYER
  2
ﾊｯﾁﾝｸﾞ
 70
     0
 62
    95
  6
CONTINUOUS
  0
LAYER
  2
別途部材
 70
     0
 62
    96
  6
CONTINUOUS
  0
LAYER
  2
曲げ物
 70
     0
 62
   111
  6
CONTINUOUS
  0
LAYER
  2
鉄骨等
 70
     0
 62
   112
  6
CONTINUOUS
  0
LAYER
  2
St
 70
     0
 62
   127
  6
CONTINUOUS
  0
LAYER
  2
その他部品等
 70
     0
 62
   128
  6
CONTINUOUS
  0
LAYER
  2
ｶﾞｽｹｯﾄ
 70
     0
 62
   143
  6
CONTINUOUS
  0
LAYER
  2
ｽｹｯﾁ
 70
     0
 62
    14
  6
CONTINUOUS
  0
LAYER
  2
0
 70
     0
 62
    17
  6
CONTINUOUS
  0
LAYER
  2
1
 70
     0
 62
    30
  6
CONTINUOUS
  0
LAYER
  2
4
 70
     0
 62
    33
  6
CONTINUOUS
  0
LAYER
  2
ﾚｲﾔ3
 70
     0
 62
    46
  6
CONTINUOUS
  0
LAYER
  2
外形線
 70
     0
 62
    49
  6
CONTINUOUS
  0
LAYER
  2
部品
 70
     0
 62
    14
  6
CONTINUOUS
  0
LAYER
  2
サッシ芯
 70
     0
 62
    17
  6
DASHDOTX2
  0
LAYER
  2
寸法線
 70
     0
 62
    62
  6
CONTINUOUS
  0
LAYER
  2
姿図外形線
 70
     0
 62
    65
  6
CONTINUOUS
  0
LAYER
  2
姿補助線
 70
     0
 62
    30
  6
CONTINUOUS
  0
LAYER
  2
透視線
 70
     0
 62
    78
  6
DOT
  0
LAYER
  2
用紙
 70
     0
 62
    81
  6
CONTINUOUS
  0
LAYER
  2
実線図枠
 70
     0
 62
    94
  6
CONTINUOUS
  0
LAYER
  2
補助図枠
 70
     0
 62
    97
  6
CONTINUOUS
  0
LAYER
  2
建具記号
 70
     0
 62
   110
  6
CONTINUOUS
  0
LAYER
  2
補助文字
 70
     0
 62
   113
  6
CONTINUOUS
  0
ENDTAB
  0
TABLE
  2
STYLE
 70
    10
  0
STYLE
  2
STANDARD
 70
     0
 40
1.0
 41
1.0
 42
1.0
 50
0.0
 71
     0
  3
TXT
  4
BIGFONT
  0
STYLE
  2
TATE
 70
     4
 40
1.0
 41
1.0
 42
1.0
 50
0.0
 71
     0
  3
TXT
  4
BIGFONT
  0
STYLE
  2
TextStyle03
 70
     0
 40
1.0
 41
1.0
 42
1.0
 50
0.0
 71
     0
  3
MONOTXT
  4
BIGFONT
  0
STYLE
  2
TextStyle04
 70
     0
 40
1.0
 41
1.0
 42
1.0
 50
0.0
 71
     0
  3
MONOTXT
  4
BIGFONT
  0
STYLE
  2
TextStyle05
 70
     0
 40
1.0
 41
1.0
 42
1.0
 50
0.0
 71
     0
  3
MONOTXT
  4
BIGFONT
  0
STYLE
  2
TextStyle06
 70
     0
 40
1.0
 41
1.0
 42
1.0
 50
0.0
 71
     0
  3
MONOTXT
  4
BIGFONT
  0
STYLE
  2
TextStyle07
 70
     0
 40
1.0
 41
1.0
 42
1.0
 50
0.0
 71
     0
  3
MONOTXT
  4
BIGFONT
  0
STYLE
  2
TextStyle08
 70
     0
 40
1.0
 41
1.0
 42
1.0
 50
0.0
 71
     0
  3
MONOTXT
  4
BIGFONT
  0
STYLE
  2
TextStyle09
 70
     0
 40
1.0
 41
1.0
 42
1.0
 50
0.0
 71
     0
  3
MONOTXT
  4
BIGFONT
  0
STYLE
  2
TextStyle10
 70
     0
 40
1.0
 41
1.0
 42
1.0
 50
0.0
 71
     0
  3
MONOTXT
  4
BIGFONT
  0
ENDTAB
  0
ENDSEC
  0
SECTION
  2
BLOCKS
  0
BLOCK
  2
*GRP_0001
 70
    65
 10
0.0
 20
0.0
  0
LINE
  8
型材断面
  6
CONTINUOUS
 10
195.0
 20
133.5
 11
195.0
 21
-133.5
  0
LINE
  8
型材断面
  6
CONTINUOUS
 10
195.0
 20
-133.5
 11
-185.0
 21
-133.5
  0
LINE
  8
型材断面
  6
CONTINUOUS
 10
-185.0
 20
-133.5
 11
-185.0
 21
133.5
  0
LINE
  8
型材断面
  6
CONTINUOUS
 10
195.0
 20
133.5
 11
-185.0
 21
133.5
  0
LINE
  8
型材断面
  6
CONTINUOUS
 10
145.0
 20
-133.5
 11
145.0
 21
-118.5
  0
LINE
  8
型材断面
  6
CONTINUOUS
 10
195.0
 20
-118.5
 11
145.0
 21
-118.5
  0
ENDBLK
  0
BLOCK
  2
*DIM_0002
 70
    65
 10
0.0
 20
0.0
  0
LINE
  8
寸法
  6
BYBLOCK
 62
     0
 10
-92.435405
 20
-16.126177
 11
-47.435405
 21
-16.126177
  0
POINT
  8
寸法
 62
     0
 10
-92.435405
 20
-16.126177
  0
POINT
  8
寸法
 62
     0
 10
-47.435405
 20
-16.126177
  0
TEXT
  7
TextStyle03
  8
寸法
  6
CONTINUOUS
 62
     0
 10
-80.85
 20
-15.775
  1
呼称寸法　900
 40
3.0
 72
     5
 11
-59.1
 21
-15.775
  0
ENDBLK
  0
BLOCK
  2
*GRP_0003
 70
    65
 10
0.0
 20
0.0
  0
LINE
  8
別途部材
  6
CONTINUOUS
 62
    96
 10
-94.885722
 20
-60.20515
 11
-94.735722
 21
-60.20515
  0
LINE
  8
別途部材
  6
CONTINUOUS
 62
    96
 10
-95.035722
 20
-57.05353
 11
-97.03193
 21
-57.15804
  0
LINE
  8
別途部材
  6
CONTINUOUS
 62
    96
 10
-97.045723
 20
-57.98015
 11
-97.445723
 21
-57.80515
  0
LINE
  8
別途部材
  6
CONTINUOUS
 62
    96
 10
-97.014347
 20
-57.83015
 11
-97.245848
 21
-57.72887
  0
LINE
  8
別途部材
  6
CONTINUOUS
 62
    96
 10
-97.071105
 20
-57.009885
 11
-97.461408
 21
-57.20556
  0
LINE
  8
別途部材
  6
CONTINUOUS
 62
    96
 10
-97.03193
 20
-57.15804
 11
-97.427347
 21
-57.35628
  0
LINE
  8
別途部材
  6
CONTINUOUS
 62
    96
 10
-97.330025
 20
-57.409682
 11
-97.21433
 21
-57.314213
  0
LINE
  8
別途部材
  6
DASHDOTX2
 62
    96
 10
-97.445723
 20
-57.50515
 11
-97.445723
 21
-57.034922
  0
LINE
  8
別途部材
  6
DASHDOTX2
 62
    96
 10
-97.445723
 20
-57.50515
 11
-97.445723
 21
-58.00084
  0
LINE
  8
別途部材
  6
DASHDOTX2
 62
    96
 10
-97.445723
 20
-57.50515
 11
-97.050515
 21
-57.50515
  0
LINE
  8
別途部材
  6
DASHDOTX2
 62
    96
 10
-97.445723
 20
-57.50515
 11
-97.863188
 21
-57.50515
  0
LINE
  8
別途部材
  6
CONTINUOUS
 62
    96
 10
-94.735722
 20
-57.83015
 11
-97.014347
 21
-57.83015
  0
LINE
  8
別途部材
  6
CONTINUOUS
 62
    96
 10
-94.885722
 20
-57.98015
 11
-97.045723
 21
-57.98015
  0
LINE
  8
別途部材
  6
CONTINUOUS
 62
    96
 10
-95.185725
 20
-55.20353
 11
-95.185725
 21
-56.911178
  0
LINE
  8
別途部材
  6
CONTINUOUS
 62
    96
 10
-95.035722
 20
-55.20353
 11
-95.185725
 21
-55.20353
  0
LINE
  8
別途部材
  6
CONTINUOUS
 62
    96
 10
-95.035722
 20
-55.20353
 11
-95.035722
 21
-57.05353
  0
CIRCLE
  8
別途部材
  6
CONTINUOUS
 62
    96
 10
-97.445723
 20
-57.50515
 40
0.15
  0
ARC
  8
別途部材
  6
CONTINUOUS
 62
    96
 10
-97.445724
 20
-57.505148
 40
0.3
 50
92.998444
 51
411.219394
  0
LINE
  8
別途部材
  6
CONTINUOUS
 62
    96
 10
-94.735722
 20
-57.83015
 11
-94.735722
 21
-60.20515
  0
LINE
  8
別途部材
  6
CONTINUOUS
 62
    96
 10
-94.885722
 20
-57.98015
 11
-94.885722
 21
-60.20515
  0
LINE
  8
別途部材
  6
CONTINUOUS
 62
    96
 10
-97.071105
 20
-57.009885
 11
-95.185725
 21
-56.911178
  0
ENDBLK
  0
BLOCK
  2
*DIM_0004
 70
    65
 10
0.0
 20
0.0
  0
LINE
  8
寸法
  6
BYBLOCK
 62
     0
 10
-41.835362
 20
-60.280338
 11
-41.835362
 21
-16.126177
  0
LINE
  8
寸法
  6
BYBLOCK
 62
     0
 10
-47.435405
 20
-16.126177
 11
-41.835362
 21
-16.126177
  0
POINT
  8
寸法
 62
     0
 10
-47.435405
 20
-16.126177
  0
POINT
  8
寸法
 62
     0
 10
-41.835362
 20
-16.126177
  0
TEXT
  7
TextStyle03
  8
寸法
  6
CONTINUOUS
 62
     0
 10
-47.0875
 20
-15.775
  1
112
 40
3.0
 72
     5
 11
-42.2125
 21
-15.775
  0
ENDBLK
  0
BLOCK
  2
*DIM_0005
 70
    65
 10
0.0
 20
0.0
  0
LINE
  8
寸法
  6
BYBLOCK
 62
     0
 10
-98.035448
 20
-60.280338
 11
-98.035448
 21
-16.126177
  0
LINE
  8
寸法
  6
BYBLOCK
 62
     0
 10
-92.435405
 20
-16.126177
 11
-98.035448
 21
-16.126177
  0
POINT
  8
寸法
 62
     0
 10
-92.435405
 20
-16.126177
  0
POINT
  8
寸法
 62
     0
 10
-98.035448
 20
-16.126177
  0
TEXT
  7
TextStyle03
  8
寸法
  6
CONTINUOUS
 62
     0
 10
-97.6875
 20
-15.775
  1
112
 40
3.0
 72
     5
 11
-92.8125
 21
-15.775
  0
ENDBLK
  0
BLOCK
  2
*DIM_0006
 70
    65
 10
0.0
 20
0.0
  0
LINE
  8
寸法
  6
BYBLOCK
 62
     0
 10
-84.935405
 20
57.66027
 11
-84.935405
 21
75.599285
  0
LINE
  8
寸法
  6
BYBLOCK
 62
     0
 10
-54.935405
 20
57.66027
 11
-54.935405
 21
75.599285
  0
LINE
  8
寸法
  6
BYBLOCK
 62
     0
 10
-84.935405
 20
75.599285
 11
-54.935405
 21
75.599285
  0
POINT
  8
寸法
 62
     0
 10
-84.935405
 20
75.599285
  0
POINT
  8
寸法
 62
     0
 10
-54.935405
 20
75.599285
  0
TEXT
  7
TextStyle03
  8
寸法
  6
CONTINUOUS
 62
     0
 10
-72.3875
 20
75.95
  1
600
 40
3.0
 72
     5
 11
-67.5125
 21
75.95
  0
ENDBLK
  0
BLOCK
  2
*DIM_0007
 70
    65
 10
0.0
 20
0.0
  0
LINE
  8
寸法
  6
BYBLOCK
 62
     0
 10
-93.435405
 20
56.66027
 11
-116.343648
 21
56.66027
  0
LINE
  8
寸法
  6
BYBLOCK
 62
     0
 10
-93.435405
 20
34.16027
 11
-116.343648
 21
34.16027
  0
LINE
  8
寸法
  6
BYBLOCK
 62
     0
 10
-116.343648
 20
56.66027
 11
-116.343648
 21
34.16027
  0
POINT
  8
寸法
 62
     0
 10
-116.343648
 20
56.66027
  0
POINT
  8
寸法
 62
     0
 10
-116.343648
 20
34.16027
  0
TEXT
  7
TextStyle03
  8
寸法
  6
CONTINUOUS
 62
     0
 10
-116.725
 20
42.9375
  1
450
 40
3.0
 50
90.0
 72
     5
 11
-116.725
 21
47.8125
  0
ENDBLK
  0
BLOCK
  2
*DIM_0008
 70
    65
 10
0.0
 20
0.0
  0
LINE
  8
寸法
  6
BYBLOCK
 62
     0
 10
-93.435405
 20
11.66027
 11
-116.343648
 21
11.66027
  0
LINE
  8
寸法
  6
BYBLOCK
 62
     0
 10
-116.343648
 20
34.16027
 11
-116.343648
 21
11.66027
  0
POINT
  8
寸法
 62
     0
 10
-116.343648
 20
11.66027
  0
TEXT
  7
TextStyle03
  8
寸法
  6
CONTINUOUS
 62
     0
 10
-116.725
 20
20.4375
  1
450
 40
3.0
 50
90.0
 72
     5
 11
-116.725
 21
25.3125
  0
ENDBLK
  0
BLOCK
  2
*DIM_0009
 70
    65
 10
0.0
 20
0.0
  0
LINE
  8
寸法
  6
BYBLOCK
 62
     0
 10
-46.435405
 20
56.66027
 11
-31.752115
 21
56.66027
  0
LINE
  8
寸法
  6
BYBLOCK
 62
     0
 10
-38.411528
 20
53.66027
 11
-31.752115
 21
53.66027
  0
LINE
  8
寸法
  6
BYBLOCK
 62
     0
 10
-31.752115
 20
56.66027
 11
-31.752115
 21
53.66027
  0
POINT
  8
寸法
 62
     0
 10
-31.752115
 20
56.66027
  0
POINT
  8
寸法
 62
     0
 10
-31.752115
 20
53.66027
  0
TEXT
  7
TextStyle03
  8
寸法
  6
CONTINUOUS
 62
     0
 10
-28.775
 20
53.53125
  1
60
 40
3.0
 50
90.0
 72
     5
 11
-28.775
 21
56.71875
  0
ENDBLK
  0
BLOCK
  2
*DIM_0010
 70
    65
 10
0.0
 20
0.0
  0
LINE
  8
寸法
  6
BYBLOCK
 62
     0
 10
-46.435405
 20
11.66027
 11
-31.752115
 21
11.66027
  0
LINE
  8
寸法
  6
BYBLOCK
 62
     0
 10
-38.411528
 20
14.66027
 11
-31.752115
 21
14.66027
  0
LINE
  8
寸法
  6
BYBLOCK
 62
     0
 10
-31.752115
 20
11.66027
 11
-31.752115
 21
14.66027
  0
POINT
  8
寸法
 62
     0
 10
-31.752115
 20
11.66027
  0
POINT
  8
寸法
 62
     0
 10
-31.752115
 20
14.66027
  0
TEXT
  7
TextStyle03
  8
寸法
  6
CONTINUOUS
 62
     0
 10
-28.775
 20
11.55625
  1
60
 40
3.0
 50
90.0
 72
     5
 11
-28.775
 21
14.74375
  0
ENDBLK
  0
BLOCK
  2
*GRP_0011
 70
    65
 10
0.0
 20
0.0
  0
LINE
  8
別途部材
  6
CONTINUOUS
 62
    96
 10
49.33359
 20
-60.20515
 11
49.48359
 21
-60.20515
  0
LINE
  8
別途部材
  6
CONTINUOUS
 62
    96
 10
49.18359
 20
-57.05353
 11
47.187383
 21
-57.15804
  0
LINE
  8
別途部材
  6
CONTINUOUS
 62
    96
 10
47.17359
 20
-57.98015
 11
46.77359
 21
-57.80515
  0
LINE
  8
別途部材
  6
CONTINUOUS
 62
    96
 10
47.204965
 20
-57.83015
 11
46.973465
 21
-57.72887
  0
LINE
  8
別途部材
  6
CONTINUOUS
 62
    96
 10
47.148207
 20
-57.009885
 11
46.757905
 21
-57.20556
  0
LINE
  8
別途部材
  6
CONTINUOUS
 62
    96
 10
47.187383
 20
-57.15804
 11
46.791965
 21
-57.35628
  0
LINE
  8
別途部材
  6
CONTINUOUS
 62
    96
 10
46.889287
 20
-57.409682
 11
47.004983
 21
-57.314213
  0
LINE
  8
別途部材
  6
DASHDOTX2
 62
    96
 10
46.77359
 20
-57.50515
 11
46.77359
 21
-57.034922
  0
LINE
  8
別途部材
  6
DASHDOTX2
 62
    96
 10
46.77359
 20
-57.50515
 11
46.77359
 21
-58.00084
  0
LINE
  8
別途部材
  6
DASHDOTX2
 62
    96
 10
46.77359
 20
-57.50515
 11
47.168798
 21
-57.50515
  0
LINE
  8
別途部材
  6
DASHDOTX2
 62
    96
 10
46.77359
 20
-57.50515
 11
46.356125
 21
-57.50515
  0
LINE
  8
別途部材
  6
CONTINUOUS
 62
    96
 10
49.48359
 20
-57.83015
 11
47.204965
 21
-57.83015
  0
LINE
  8
別途部材
  6
CONTINUOUS
 62
    96
 10
49.33359
 20
-57.98015
 11
47.17359
 21
-57.98015
  0
LINE
  8
別途部材
  6
CONTINUOUS
 62
    96
 10
49.033588
 20
-55.20353
 11
49.033588
 21
-56.911178
  0
LINE
  8
別途部材
  6
CONTINUOUS
 62
    96
 10
49.18359
 20
-55.20353
 11
49.033588
 21
-55.20353
  0
LINE
  8
別途部材
  6
CONTINUOUS
 62
    96
 10
49.18359
 20
-55.20353
 11
49.18359
 21
-57.05353
  0
CIRCLE
  8
別途部材
  6
CONTINUOUS
 62
    96
 10
46.77359
 20
-57.50515
 40
0.15
  0
ARC
  8
別途部材
  6
CONTINUOUS
 62
    96
 10
46.773589
 20
-57.505148
 40
0.3
 50
92.998444
 51
411.219394
  0
LINE
  8
別途部材
  6
CONTINUOUS
 62
    96
 10
49.48359
 20
-57.83015
 11
49.48359
 21
-60.20515
  0
LINE
  8
別途部材
  6
CONTINUOUS
 62
    96
 10
49.33359
 20
-57.98015
 11
49.33359
 21
-60.20515
  0
LINE
  8
別途部材
  6
CONTINUOUS
 62
    96
 10
47.148207
 20
-57.009885
 11
49.033588
 21
-56.911178
  0
ENDBLK
  0
BLOCK
  2
*DIM_0012
 70
    65
 10
0.0
 20
0.0
  0
LINE
  8
寸法
  6
CONTINUOUS
 10
172.304785
 20
74.557477
 11
179.009588
 21
74.557477
  0
LINE
  8
寸法
  6
CONTINUOUS
 10
172.304785
 20
29.307477
 11
179.009588
 21
29.307477
  0
LINE
  8
寸法
  6
CONTINUOUS
 10
179.009588
 20
74.557477
 11
179.009588
 21
29.307477
  0
POINT
  8
寸法
 10
179.009588
 20
74.557477
  0
POINT
  8
寸法
 10
179.009588
 20
29.307477
  0
TEXT
  7
TextStyle03
  8
寸法
  6
CONTINUOUS
 10
178.625
 20
49.4875
  1
905
 40
3.0
 50
90.0
 72
     5
 11
178.625
 21
54.3625
  0
ENDBLK
  0
BLOCK
  2
*DIM_0013
 70
    65
 10
0.0
 20
0.0
  0
LINE
  8
寸法
  6
CONTINUOUS
 10
122.054785
 20
79.557477
 11
122.054785
 21
85.37054
  0
LINE
  8
寸法
  6
CONTINUOUS
 10
167.304785
 20
79.557477
 11
167.304785
 21
85.37054
  0
LINE
  8
寸法
  6
CONTINUOUS
 10
122.054785
 20
85.37054
 11
167.304785
 21
85.37054
  0
POINT
  8
寸法
 10
122.054785
 20
85.37054
  0
POINT
  8
寸法
 10
167.304785
 20
85.37054
  0
TEXT
  7
TextStyle03
  8
寸法
  6
CONTINUOUS
 10
142.2375
 20
85.725
  1
905
 40
3.0
 72
     5
 11
147.1125
 21
85.725
  0
ENDBLK
  0
BLOCK
  2
*DIM_0014
 70
    65
 10
0.0
 20
0.0
  0
LINE
  8
寸法
  6
CONTINUOUS
 10
-36.835362
 20
-62.030338
 11
-25.043632
 21
-62.030338
  0
LINE
  8
寸法
  6
CONTINUOUS
 10
-39.39068
 20
-51.35516
 11
-25.043632
 21
-51.35516
  0
LINE
  8
寸法
  6
CONTINUOUS
 10
-25.043632
 20
-62.030338
 11
-25.043632
 21
-51.35516
  0
POINT
  8
寸法
 10
-25.043632
 20
-62.030338
  0
POINT
  8
寸法
 10
-25.043632
 20
-51.35516
  0
TEXT
  7
TextStyle03
  8
寸法
  6
CONTINUOUS
 10
-22.05
 20
-60.825
  1
213.5
 40
3.0
 50
90.0
 72
     5
 11
-22.05
 21
-52.575
  0
ENDBLK
  0
BLOCK
  2
*GRP_0015
 70
    65
 10
0.0
 20
0.0
  0
LINE
  8
型材断面
  6
DOT
 62
    47
 10
47.063528
 20
-54.365618
 11
47.042315
 21
-54.365618
  0
LINE
  8
型材断面
  6
DOT
 62
    47
 10
47.063528
 20
-54.365618
 11
47.063528
 21
-54.38683
  0
LINE
  8
型材断面
  6
DOT
 62
    47
 10
47.744717
 20
-55.046807
 11
47.723505
 21
-55.046807
  0
LINE
  8
型材断面
  6
DOT
 62
    47
 10
47.744717
 20
-55.046807
 11
47.744717
 21
-55.06802
  0
LINE
  8
型材断面
  6
DOT
 62
    47
 10
48.17724
 20
-55.50054
 11
47.744717
 21
-55.06802
  0
LINE
  8
型材断面
  6
DOT
 62
    47
 10
47.723505
 20
-55.046807
 11
47.063528
 21
-54.38683
  0
LINE
  8
型材断面
  6
DOT
 62
    47
 10
46.90463
 20
-56.914552
 11
47.081385
 21
-57.091308
  0
LINE
  8
型材断面
  6
DOT
 62
    47
 10
48.17724
 20
-55.50054
 11
46.897537
 21
-56.921645
  0
LINE
  8
型材断面
  6
DOT
 10
46.90463
 20
-56.914552
 11
65.996545
 21
-37.82264
  0
LINE
  8
型材断面
  6
DOT
 62
    47
 10
47.081385
 20
-57.091308
 11
66.173298
 21
-37.999395
  0
LINE
  8
型材断面
  6
DOT
 10
48.17724
 20
-55.50054
 11
65.925843
 21
-37.751937
  0
LINE
  8
型材断面
  6
DOT
 62
    47
 10
82.53952
 20
-18.889625
 11
82.53952
 21
-18.86841
  0
LINE
  8
型材断面
  6
DOT
 62
    47
 10
82.53952
 20
-18.889625
 11
82.560735
 21
-18.889625
  0
LINE
  8
型材断面
  6
DOT
 62
    47
 10
83.22071
 20
-19.570815
 11
83.22071
 21
-19.5496
  0
LINE
  8
型材断面
  6
DOT
 62
    47
 10
83.22071
 20
-19.570815
 11
83.241925
 21
-19.570815
  0
LINE
  8
型材断面
  6
DOT
 62
    47
 10
83.674445
 20
-20.003335
 11
83.241925
 21
-19.570815
  0
LINE
  8
型材断面
  6
DOT
 62
    47
 10
83.22071
 20
-19.5496
 11
82.560735
 21
-18.889625
  0
LINE
  8
型材断面
  6
DOT
 62
    47
 10
85.088458
 20
-18.730728
 11
85.26521
 21
-18.90748
  0
LINE
  8
型材断面
  6
DOT
 62
    47
 10
83.674445
 20
-20.003335
 11
85.09555
 21
-18.723635
  0
LINE
  8
型材断面
  6
DOT
 10
85.088458
 20
-18.730728
 11
65.996545
 21
-37.82264
  0
LINE
  8
型材断面
  6
DOT
 62
    47
 10
85.26521
 20
-18.90748
 11
66.173298
 21
-37.999395
  0
LINE
  8
型材断面
  6
DOT
 10
83.674445
 20
-20.003335
 11
65.925843
 21
-37.751937
  0
LINE
  8
型材断面
  6
DOT
 62
    47
 10
47.063528
 20
-54.365618
 11
47.042315
 21
-54.365618
  0
LINE
  8
型材断面
  6
DOT
 62
    47
 10
47.063528
 20
-54.365618
 11
47.063528
 21
-54.38683
  0
LINE
  8
型材断面
  6
DOT
 62
    47
 10
47.744717
 20
-55.046807
 11
47.723505
 21
-55.046807
  0
LINE
  8
型材断面
  6
DOT
 62
    47
 10
47.744717
 20
-55.046807
 11
47.744717
 21
-55.06802
  0
LINE
  8
型材断面
  6
DOT
 62
    47
 10
48.17724
 20
-55.50054
 11
47.744717
 21
-55.06802
  0
LINE
  8
型材断面
  6
DOT
 62
    47
 10
47.723505
 20
-55.046807
 11
47.063528
 21
-54.38683
  0
LINE
  8
型材断面
  6
DOT
 62
    47
 10
48.17724
 20
-55.50054
 11
46.897537
 21
-56.921645
  0
LINE
  8
型材断面
  6
DOT
 10
46.90463
 20
-56.914552
 11
65.996545
 21
-37.82264
  0
LINE
  8
型材断面
  6
DOT
 10
48.17724
 20
-55.50054
 11
65.925843
 21
-37.751937
  0
LINE
  8
型材断面
  6
DOT
 62
    47
 10
82.53952
 20
-18.889625
 11
82.53952
 21
-18.86841
  0
LINE
  8
型材断面
  6
DOT
 62
    47
 10
82.53952
 20
-18.889625
 11
82.560735
 21
-18.889625
  0
LINE
  8
型材断面
  6
DOT
 62
    47
 10
83.22071
 20
-19.570815
 11
83.22071
 21
-19.5496
  0
LINE
  8
型材断面
  6
DOT
 62
    47
 10
83.22071
 20
-19.570815
 11
83.241925
 21
-19.570815
  0
LINE
  8
型材断面
  6
DOT
 62
    47
 10
83.674445
 20
-20.003335
 11
83.241925
 21
-19.570815
  0
LINE
  8
型材断面
  6
DOT
 62
    47
 10
83.22071
 20
-19.5496
 11
82.560735
 21
-18.889625
  0
LINE
  8
型材断面
  6
DOT
 62
    47
 10
83.674445
 20
-20.003335
 11
85.09555
 21
-18.723635
  0
LINE
  8
型材断面
  6
DOT
 10
85.088458
 20
-18.730728
 11
65.996545
 21
-37.82264
  0
LINE
  8
型材断面
  6
DOT
 10
83.674445
 20
-20.003335
 11
65.925843
 21
-37.751937
  0
LINE
  8
型材断面
  6
DOT
 62
    47
 10
44.829055
 20
-52.802898
 11
43.980525
 21
-51.95437
  0
ARC
  8
型材断面
  6
DOT
 10
43.849865
 20
-51.943609
 40
0.15
 50
135.0
 51
225.0
  0
LINE
  8
型材断面
  6
DOT
 62
    47
 10
43.743798
 20
-52.049675
 11
43.81451
 21
-52.120385
  0
LINE
  8
型材断面
  6
DOT
 62
    47
 10
44.097552
 20
-52.070947
 11
45.57174
 21
-53.545135
  0
LINE
  8
型材断面
  6
DOT
 62
    47
 10
45.57174
 20
-53.545135
 11
63.64539
 21
-35.471485
  0
LINE
  8
型材断面
  6
DOT
 62
    47
 10
43.81451
 20
-52.120385
 11
62.0544
 21
-33.880495
  0
LINE
  8
型材断面
  6
DOT
 62
    47
 10
43.743798
 20
-51.837543
 11
61.877622
 21
-33.703718
  0
LINE
  8
型材断面
  6
DOT
 62
    47
 10
80.976802
 20
-16.65515
 11
80.128272
 21
-15.80662
  0
ARC
  8
型材断面
  6
DOT
 10
80.117514
 20
-15.67596
 40
0.15
 50
45.0
 51
135.0
  0
LINE
  8
型材断面
  6
DOT
 62
    47
 10
80.223577
 20
-15.569895
 11
80.29429
 21
-15.640605
  0
LINE
  8
型材断面
  6
DOT
 62
    47
 10
80.244852
 20
-15.92365
 11
81.719038
 21
-17.397835
  0
LINE
  8
型材断面
  6
DOT
 62
    47
 10
81.719038
 20
-17.397835
 11
63.64539
 21
-35.471485
  0
LINE
  8
型材断面
  6
DOT
 62
    47
 10
80.29429
 20
-15.640605
 11
62.0544
 21
-33.880495
  0
LINE
  8
型材断面
  6
DOT
 62
    47
 10
80.011448
 20
-15.569895
 11
61.877622
 21
-33.703718
  0
LINE
  8
型材断面
  6
DOT
 62
    47
 10
47.042315
 20
-54.365618
 11
45.896788
 21
-53.220088
  0
LINE
  8
型材断面
  6
DOT
 62
    47
 10
47.042315
 20
-54.365618
 11
45.896788
 21
-53.220088
  0
LINE
  8
型材断面
  6
DOT
 62
    47
 10
82.53952
 20
-18.86841
 11
81.393993
 21
-17.722883
  0
LINE
  8
型材断面
  6
DOT
 62
    47
 10
82.53952
 20
-18.86841
 11
81.393993
 21
-17.722883
  0
ENDBLK
  0
ENDSEC
  0
SECTION
  2
ENTITIES
  0
POLYLINE
  8
通り芯
  6
CONTINUOUS
 66
     1
 70
     1
  0
VERTEX
  8
通り芯
 10
-210.0
 20
-148.5
  0
VERTEX
  8
通り芯
 10
210.0
 20
-148.5
  0
VERTEX
  8
通り芯
 10
210.0
 20
148.5
  0
VERTEX
  8
通り芯
 10
-210.0
 20
148.5
  0
SEQEND
  0
INSERT
  2
*GRP_0001
  8
型材断面
  6
CONTINUOUS
 10
0.0
 20
0.0
  0
LINE
  8
型材断面
  6
DASHDOT
 10
-69.935405
 20
-67.794
 11
-69.935405
 21
56.66027
  0
LINE
  8
型材断面
  6
DASHDOT
 10
-92.435405
 20
-67.794
 11
-92.435405
 21
56.66027
  0
LINE
  8
型材断面
  6
DASHDOT
 10
-47.435405
 20
-67.794
 11
-47.435405
 21
56.66027
  0
LINE
  8
型材断面
  6
DASHDOT
 10
-92.435405
 20
56.66027
 11
-47.435405
 21
56.66027
  0
LINE
  8
型材断面
  6
DASHDOT
 10
-92.435405
 20
34.16027
 11
-47.435405
 21
34.16027
  0
LINE
  8
型材断面
  6
DASHDOT
 10
-92.435405
 20
11.66027
 11
-47.435405
 21
11.66027
  0
LINE
  8
型材断面
  6
CONTINUOUS
 10
-69.935405
 20
64.684145
 11
-72.17885
 21
68.569905
  0
LINE
  8
型材断面
  6
CONTINUOUS
 10
-69.935405
 20
64.684145
 11
-67.69196
 21
68.569905
  0
LINE
  8
型材断面
  6
CONTINUOUS
 10
-67.69196
 20
68.569905
 11
-72.17885
 21
68.569905
  0
LINE
  8
型材断面
  6
CONTINUOUS
 10
-69.935405
 20
3.636395
 11
-72.17885
 21
-0.249365
  0
LINE
  8
型材断面
  6
CONTINUOUS
 10
-69.935405
 20
3.636395
 11
-67.69196
 21
-0.249365
  0
LINE
  8
型材断面
  6
CONTINUOUS
 10
-67.69196
 20
-0.249365
 11
-72.17885
 21
-0.249365
  0
LINE
  8
型材断面
  6
CONTINUOUS
 10
-39.41153
 20
34.16027
 11
-35.52577
 21
36.403715
  0
LINE
  8
型材断面
  6
CONTINUOUS
 10
-39.41153
 20
34.16027
 11
-35.52577
 21
31.916825
  0
LINE
  8
型材断面
  6
CONTINUOUS
 10
-35.52577
 20
31.916825
 11
-35.52577
 21
36.403715
  0
LINE
  8
型材断面
  6
CONTINUOUS
 10
-100.45928
 20
34.16027
 11
-104.34504
 21
36.403715
  0
LINE
  8
型材断面
  6
CONTINUOUS
 10
-100.45928
 20
34.16027
 11
-104.34504
 21
31.916825
  0
LINE
  8
型材断面
  6
CONTINUOUS
 10
-104.34504
 20
31.916825
 11
-104.34504
 21
36.403715
  0
LINE
  8
型材断面
  6
CONTINUOUS
 10
-7.342083
 20
5.196457
 11
-9.585527
 21
1.310698
  0
LINE
  8
型材断面
  6
CONTINUOUS
 10
-7.342083
 20
5.196457
 11
-5.098638
 21
1.310698
  0
LINE
  8
型材断面
  6
CONTINUOUS
 10
-5.098638
 20
1.310698
 11
-9.585527
 21
1.310698
  0
LINE
  8
型材断面
  6
CONTINUOUS
 10
-7.342083
 20
-2.49309
 11
-6.447998
 21
-6.37885
  0
LINE
  8
型材断面
  6
CONTINUOUS
 10
-7.342083
 20
-2.49309
 11
-8.236168
 21
-6.37885
  0
LINE
  8
型材断面
  6
CONTINUOUS
 10
-8.236168
 20
-6.37885
 11
-6.447998
 21
-6.37885
  0
LINE
  8
型材断面
  6
CONTINUOUS
 10
-16.375962
 20
-0.097195
 11
36.280717
 21
-0.097195
  0
LINE
  8
型材断面
  6
CONTINUOUS
 10
-16.375962
 20
-11.297188
 11
36.280717
 21
-11.297188
  0
LINE
  8
型材断面
  6
CONTINUOUS
 10
-16.375962
 20
-18.137133
 11
36.280717
 21
-18.137133
  0
LINE
  8
型材断面
  6
CONTINUOUS
 62
    47
 10
-94.005445
 20
-57.430163
 11
-95.085765
 21
-57.430163
  0
LINE
  8
型材断面
  6
CONTINUOUS
 62
    47
 10
-95.02072
 20
-55.490182
 11
-95.03572
 21
-55.475183
  0
LINE
  8
型材断面
  6
CONTINUOUS
 62
    47
 10
-95.02072
 20
-55.490182
 11
-95.03572
 21
-55.505182
  0
LINE
  8
型材断面
  6
CONTINUOUS
 62
    47
 10
-95.02072
 20
-56.45353
 11
-95.03572
 21
-56.43853
  0
LINE
  8
型材断面
  6
CONTINUOUS
 62
    47
 10
-95.02072
 20
-56.45353
 11
-95.03572
 21
-56.46853
  0
LINE
  8
型材断面
  6
CONTINUOUS
 62
    47
 10
-95.03572
 20
-57.080207
 11
-95.03572
 21
-56.46853
  0
LINE
  8
型材断面
  6
CONTINUOUS
 62
    47
 10
-95.03572
 20
-56.43853
 11
-95.03572
 21
-55.505182
  0
LINE
  8
型材断面
  6
CONTINUOUS
 62
    47
 10
-97.28546
 20
-62.530338
 11
-97.28546
 21
-62.030338
  0
LINE
  8
型材断面
  6
CONTINUOUS
 62
    47
 10
-94.385718
 20
-61.030335
 11
-93.490448
 21
-61.030335
  0
LINE
  8
型材断面
  6
CONTINUOUS
 62
    47
 10
-94.735448
 20
-61.030315
 11
-98.035448
 21
-61.280338
  0
LINE
  8
型材断面
  6
CONTINUOUS
 62
    47
 10
-98.035448
 20
-62.030338
 11
-98.035448
 21
-61.280338
  0
LINE
  8
型材断面
  6
CONTINUOUS
 62
    47
 10
-96.935448
 20
-57.83015
 11
-96.935448
 21
-57.630175
  0
LINE
  8
型材断面
  6
CONTINUOUS
 62
    47
 10
-94.735448
 20
-57.83015
 11
-94.735448
 21
-61.030335
  0
LINE
  8
型材断面
  6
CONTINUOUS
 62
    47
 10
-96.935448
 20
-57.83015
 11
-69.935405
 21
-57.83015
  0
LINE
  8
型材断面
  6
CONTINUOUS
 62
    47
 10
-96.935448
 20
-57.430163
 11
-69.935405
 21
-57.430163
  0
LINE
  8
型材断面
  6
CONTINUOUS
 10
-95.03572
 20
-57.080207
 11
-69.935405
 21
-57.080207
  0
LINE
  8
型材断面
  6
CONTINUOUS
 62
    47
 10
-96.935448
 20
-57.630175
 11
-69.935405
 21
-57.630175
  0
LINE
  8
型材断面
  6
CONTINUOUS
 10
-94.735448
 20
-61.030335
 11
-69.935405
 21
-61.030335
  0
LINE
  8
型材断面
  6
CONTINUOUS
 10
-98.035448
 20
-61.280338
 11
-69.935405
 21
-61.280338
  0
LINE
  8
型材断面
  6
CONTINUOUS
 10
-97.28546
 20
-62.530338
 11
-69.935405
 21
-62.530338
  0
LINE
  8
型材断面
  6
CONTINUOUS
 10
-98.035448
 20
-62.030338
 11
-69.935405
 21
-62.030338
  0
LINE
  8
型材断面
  6
CONTINUOUS
 62
    47
 10
-45.865365
 20
-57.430163
 11
-44.785045
 21
-57.430163
  0
LINE
  8
型材断面
  6
CONTINUOUS
 62
    47
 10
-44.85009
 20
-55.490182
 11
-44.83509
 21
-55.475183
  0
LINE
  8
型材断面
  6
CONTINUOUS
 62
    47
 10
-44.85009
 20
-55.490182
 11
-44.83509
 21
-55.505182
  0
LINE
  8
型材断面
  6
CONTINUOUS
 62
    47
 10
-44.85009
 20
-56.45353
 11
-44.83509
 21
-56.43853
  0
LINE
  8
型材断面
  6
CONTINUOUS
 62
    47
 10
-44.85009
 20
-56.45353
 11
-44.83509
 21
-56.46853
  0
LINE
  8
型材断面
  6
CONTINUOUS
 62
    47
 10
-44.83509
 20
-57.080207
 11
-44.83509
 21
-56.46853
  0
LINE
  8
型材断面
  6
CONTINUOUS
 62
    47
 10
-44.83509
 20
-56.43853
 11
-44.83509
 21
-55.505182
  0
LINE
  8
型材断面
  6
CONTINUOUS
 62
    47
 10
-42.58535
 20
-62.530338
 11
-42.58535
 21
-62.030338
  0
LINE
  8
型材断面
  6
CONTINUOUS
 62
    47
 10
-45.485092
 20
-61.030335
 11
-46.380362
 21
-61.030335
  0
LINE
  8
型材断面
  6
CONTINUOUS
 62
    47
 10
-45.135362
 20
-61.030315
 11
-41.835362
 21
-61.280338
  0
LINE
  8
型材断面
  6
CONTINUOUS
 62
    47
 10
-41.835362
 20
-62.030338
 11
-41.835362
 21
-61.280338
  0
LINE
  8
型材断面
  6
CONTINUOUS
 62
    47
 10
-42.935362
 20
-57.83015
 11
-42.935362
 21
-57.630175
  0
LINE
  8
型材断面
  6
CONTINUOUS
 62
    47
 10
-45.135362
 20
-57.83015
 11
-45.135362
 21
-61.030335
  0
LINE
  8
型材断面
  6
CONTINUOUS
 62
    47
 10
-42.935362
 20
-57.83015
 11
-69.935405
 21
-57.83015
  0
LINE
  8
型材断面
  6
CONTINUOUS
 62
    47
 10
-42.935362
 20
-57.430163
 11
-69.935405
 21
-57.430163
  0
LINE
  8
型材断面
  6
CONTINUOUS
 10
-44.83509
 20
-57.080207
 11
-69.935405
 21
-57.080207
  0
LINE
  8
型材断面
  6
CONTINUOUS
 62
    47
 10
-42.935362
 20
-57.630175
 11
-69.935405
 21
-57.630175
  0
LINE
  8
型材断面
  6
CONTINUOUS
 10
-45.135362
 20
-61.030335
 11
-69.935405
 21
-61.030335
  0
LINE
  8
型材断面
  6
CONTINUOUS
 10
-41.835362
 20
-61.280338
 11
-69.935405
 21
-61.280338
  0
LINE
  8
型材断面
  6
CONTINUOUS
 10
-42.58535
 20
-62.530338
 11
-69.935405
 21
-62.530338
  0
LINE
  8
型材断面
  6
CONTINUOUS
 10
-41.835362
 20
-62.030338
 11
-69.935405
 21
-62.030338
  0
LINE
  8
型材断面
  6
CONTINUOUS
 10
-39.411528
 20
53.66027
 11
-35.525767
 21
52.766185
  0
LINE
  8
型材断面
  6
CONTINUOUS
 10
-39.411528
 20
53.66027
 11
-35.525767
 21
54.554355
  0
LINE
  8
型材断面
  6
CONTINUOUS
 10
-35.525767
 20
54.554355
 11
-35.525767
 21
52.766185
  0
LINE
  8
型材断面
  6
CONTINUOUS
 10
-39.411528
 20
14.66027
 11
-35.525767
 21
15.554355
  0
LINE
  8
型材断面
  6
CONTINUOUS
 10
-39.411528
 20
14.66027
 11
-35.525767
 21
13.766185
  0
LINE
  8
型材断面
  6
CONTINUOUS
 10
-35.525767
 20
13.766185
 11
-35.525767
 21
15.554355
  0
LINE
  8
型材断面
  6
CONTINUOUS
 10
-96.935448
 20
61.160312
 11
-69.935405
 21
61.160312
  0
LINE
  8
型材断面
  6
CONTINUOUS
 10
-98.035448
 20
62.260312
 11
-69.935405
 21
62.260312
  0
LINE
  8
型材断面
  6
CONTINUOUS
 10
-96.935448
 20
61.160312
 11
-96.935448
 21
34.16027
  0
LINE
  8
型材断面
  6
CONTINUOUS
 10
-98.035448
 20
62.260312
 11
-98.035448
 21
34.16027
  0
LINE
  8
型材断面
  6
CONTINUOUS
 10
-42.935362
 20
61.160312
 11
-69.935405
 21
61.160312
  0
LINE
  8
型材断面
  6
CONTINUOUS
 10
-41.835362
 20
62.260312
 11
-69.935405
 21
62.260312
  0
LINE
  8
型材断面
  6
CONTINUOUS
 10
-42.935362
 20
61.160312
 11
-42.935362
 21
34.16027
  0
LINE
  8
型材断面
  6
CONTINUOUS
 10
-41.835362
 20
62.260312
 11
-41.835362
 21
34.16027
  0
LINE
  8
型材断面
  6
CONTINUOUS
 10
-42.935362
 20
7.160227
 11
-69.935405
 21
7.160227
  0
LINE
  8
型材断面
  6
CONTINUOUS
 10
-41.835362
 20
6.060227
 11
-69.935405
 21
6.060227
  0
LINE
  8
型材断面
  6
CONTINUOUS
 10
-42.935362
 20
7.160227
 11
-42.935362
 21
34.16027
  0
LINE
  8
型材断面
  6
CONTINUOUS
 10
-41.835362
 20
6.060227
 11
-41.835362
 21
34.16027
  0
LINE
  8
型材断面
  6
CONTINUOUS
 10
-96.935448
 20
7.160227
 11
-69.935405
 21
7.160227
  0
LINE
  8
型材断面
  6
CONTINUOUS
 10
-98.035448
 20
6.060227
 11
-69.935405
 21
6.060227
  0
LINE
  8
型材断面
  6
CONTINUOUS
 10
-96.935448
 20
7.160227
 11
-96.935448
 21
34.16027
  0
LINE
  8
型材断面
  6
CONTINUOUS
 10
-98.035448
 20
6.060227
 11
-98.035448
 21
34.16027
  0
LINE
  8
型材断面
  6
CONTINUOUS
 62
    47
 10
50.213868
 20
-57.430163
 11
49.133547
 21
-57.430163
  0
LINE
  8
型材断面
  6
CONTINUOUS
 62
    47
 10
49.198593
 20
-55.490182
 11
49.183592
 21
-55.475183
  0
LINE
  8
型材断面
  6
CONTINUOUS
 62
    47
 10
49.198593
 20
-55.490182
 11
49.183592
 21
-55.505182
  0
LINE
  8
型材断面
  6
CONTINUOUS
 62
    47
 10
49.198593
 20
-56.45353
 11
49.183592
 21
-56.43853
  0
LINE
  8
型材断面
  6
CONTINUOUS
 62
    47
 10
49.198593
 20
-56.45353
 11
49.183592
 21
-56.46853
  0
LINE
  8
型材断面
  6
CONTINUOUS
 62
    47
 10
49.183592
 20
-57.080207
 11
49.183592
 21
-56.46853
  0
LINE
  8
型材断面
  6
CONTINUOUS
 62
    47
 10
49.183592
 20
-56.43853
 11
49.183592
 21
-55.505182
  0
LINE
  8
型材断面
  6
CONTINUOUS
 62
    47
 10
46.933852
 20
-62.530338
 11
46.933852
 21
-62.030338
  0
LINE
  8
型材断面
  6
CONTINUOUS
 62
    47
 10
49.833595
 20
-61.030335
 11
50.728865
 21
-61.030335
  0
LINE
  8
型材断面
  6
CONTINUOUS
 62
    47
 10
49.483865
 20
-61.030315
 11
46.183865
 21
-61.280338
  0
LINE
  8
型材断面
  6
CONTINUOUS
 62
    47
 10
46.183865
 20
-62.030338
 11
46.183865
 21
-61.280338
  0
LINE
  8
型材断面
  6
CONTINUOUS
 62
    47
 10
47.283865
 20
-57.83015
 11
47.283865
 21
-57.630175
  0
LINE
  8
型材断面
  6
CONTINUOUS
 62
    47
 10
49.483865
 20
-57.83015
 11
49.483865
 21
-61.030335
  0
LINE
  8
型材断面
  6
CONTINUOUS
 62
    47
 10
47.283865
 20
-57.83015
 11
74.283907
 21
-57.83015
  0
LINE
  8
型材断面
  6
CONTINUOUS
 10
47.283865
 20
-57.180195
 11
74.283907
 21
-57.180195
  0
LINE
  8
型材断面
  6
CONTINUOUS
 62
    47
 10
47.283865
 20
-57.430163
 11
74.283907
 21
-57.430163
  0
LINE
  8
型材断面
  6
CONTINUOUS
 10
49.183592
 20
-57.080207
 11
74.283907
 21
-57.080207
  0
LINE
  8
型材断面
  6
CONTINUOUS
 62
    47
 10
47.283865
 20
-57.630175
 11
74.283907
 21
-57.630175
  0
LINE
  8
型材断面
  6
CONTINUOUS
 10
49.483865
 20
-61.030335
 11
74.283907
 21
-61.030335
  0
LINE
  8
型材断面
  6
CONTINUOUS
 10
46.183865
 20
-61.280338
 11
74.283907
 21
-61.280338
  0
LINE
  8
型材断面
  6
CONTINUOUS
 10
46.933852
 20
-62.530338
 11
74.283907
 21
-62.530338
  0
LINE
  8
型材断面
  6
CONTINUOUS
 10
46.183865
 20
-62.030338
 11
74.283907
 21
-62.030338
  0
LINE
  8
型材断面
  6
CONTINUOUS
 62
    47
 10
98.353947
 20
-57.430163
 11
99.434267
 21
-57.430163
  0
LINE
  8
型材断面
  6
CONTINUOUS
 62
    47
 10
99.369223
 20
-55.490182
 11
99.384223
 21
-55.475183
  0
LINE
  8
型材断面
  6
CONTINUOUS
 62
    47
 10
99.369223
 20
-55.490182
 11
99.384223
 21
-55.505182
  0
LINE
  8
型材断面
  6
CONTINUOUS
 62
    47
 10
99.369223
 20
-56.45353
 11
99.384223
 21
-56.43853
  0
LINE
  8
型材断面
  6
CONTINUOUS
 62
    47
 10
99.369223
 20
-56.45353
 11
99.384223
 21
-56.46853
  0
LINE
  8
型材断面
  6
CONTINUOUS
 62
    47
 10
99.384223
 20
-57.080207
 11
99.384223
 21
-56.46853
  0
LINE
  8
型材断面
  6
CONTINUOUS
 62
    47
 10
99.384223
 20
-56.43853
 11
99.384223
 21
-55.505182
  0
LINE
  8
型材断面
  6
CONTINUOUS
 62
    47
 10
101.633963
 20
-62.530338
 11
101.633963
 21
-62.030338
  0
LINE
  8
型材断面
  6
CONTINUOUS
 62
    47
 10
98.73422
 20
-61.030335
 11
97.83895
 21
-61.030335
  0
LINE
  8
型材断面
  6
CONTINUOUS
 62
    47
 10
99.08395
 20
-61.030315
 11
102.38395
 21
-61.280338
  0
LINE
  8
型材断面
  6
CONTINUOUS
 62
    47
 10
102.38395
 20
-62.030338
 11
102.38395
 21
-61.280338
  0
LINE
  8
型材断面
  6
CONTINUOUS
 62
    47
 10
101.28395
 20
-57.83015
 11
101.28395
 21
-57.630175
  0
LINE
  8
型材断面
  6
CONTINUOUS
 62
    47
 10
99.08395
 20
-57.83015
 11
99.08395
 21
-61.030335
  0
LINE
  8
型材断面
  6
CONTINUOUS
 62
    47
 10
101.28395
 20
-57.83015
 11
74.283907
 21
-57.83015
  0
LINE
  8
型材断面
  6
CONTINUOUS
 62
    47
 10
101.28395
 20
-57.430163
 11
74.283907
 21
-57.430163
  0
LINE
  8
型材断面
  6
CONTINUOUS
 10
99.384223
 20
-57.080207
 11
74.283907
 21
-57.080207
  0
LINE
  8
型材断面
  6
CONTINUOUS
 62
    47
 10
101.28395
 20
-57.630175
 11
74.283907
 21
-57.630175
  0
LINE
  8
型材断面
  6
CONTINUOUS
 10
99.08395
 20
-61.030335
 11
74.283907
 21
-61.030335
  0
LINE
  8
型材断面
  6
CONTINUOUS
 10
102.38395
 20
-61.280338
 11
74.283907
 21
-61.280338
  0
LINE
  8
型材断面
  6
CONTINUOUS
 10
101.633963
 20
-62.530338
 11
74.283907
 21
-62.530338
  0
LINE
  8
型材断面
  6
CONTINUOUS
 10
102.38395
 20
-62.030338
 11
74.283907
 21
-62.030338
  0
LINE
  8
型材断面
  6
CONTINUOUS
 62
    47
 10
50.213868
 20
-57.430163
 11
49.133547
 21
-57.430163
  0
LINE
  8
型材断面
  6
CONTINUOUS
 62
    47
 10
49.198593
 20
-55.490182
 11
49.183592
 21
-55.475183
  0
LINE
  8
型材断面
  6
CONTINUOUS
 62
    47
 10
49.198593
 20
-55.490182
 11
49.183592
 21
-55.505182
  0
LINE
  8
型材断面
  6
CONTINUOUS
 62
    47
 10
49.198593
 20
-56.45353
 11
49.183592
 21
-56.43853
  0
LINE
  8
型材断面
  6
CONTINUOUS
 62
    47
 10
49.198593
 20
-56.45353
 11
49.183592
 21
-56.46853
  0
LINE
  8
型材断面
  6
CONTINUOUS
 62
    47
 10
49.183592
 20
-57.080207
 11
49.183592
 21
-56.46853
  0
LINE
  8
型材断面
  6
CONTINUOUS
 62
    47
 10
49.183592
 20
-56.43853
 11
49.183592
 21
-55.505182
  0
LINE
  8
型材断面
  6
CONTINUOUS
 62
    47
 10
47.283865
 20
-57.180195
 11
47.283865
 21
-57.430163
  0
LINE
  8
型材断面
  6
CONTINUOUS
 10
47.283865
 20
-57.180195
 11
74.283907
 21
-57.180195
  0
LINE
  8
型材断面
  6
CONTINUOUS
 62
    47
 10
47.283865
 20
-57.430163
 11
74.283907
 21
-57.430163
  0
LINE
  8
型材断面
  6
CONTINUOUS
 10
49.183592
 20
-57.080207
 11
74.283907
 21
-57.080207
  0
LINE
  8
型材断面
  6
CONTINUOUS
 62
    47
 10
98.353947
 20
-57.430163
 11
99.434267
 21
-57.430163
  0
LINE
  8
型材断面
  6
CONTINUOUS
 62
    47
 10
99.369223
 20
-55.490182
 11
99.384223
 21
-55.475183
  0
LINE
  8
型材断面
  6
CONTINUOUS
 62
    47
 10
99.369223
 20
-55.490182
 11
99.384223
 21
-55.505182
  0
LINE
  8
型材断面
  6
CONTINUOUS
 62
    47
 10
99.369223
 20
-56.45353
 11
99.384223
 21
-56.43853
  0
LINE
  8
型材断面
  6
CONTINUOUS
 62
    47
 10
99.369223
 20
-56.45353
 11
99.384223
 21
-56.46853
  0
LINE
  8
型材断面
  6
CONTINUOUS
 62
    47
 10
99.384223
 20
-57.080207
 11
99.384223
 21
-56.46853
  0
LINE
  8
型材断面
  6
CONTINUOUS
 62
    47
 10
99.384223
 20
-56.43853
 11
99.384223
 21
-55.505182
  0
LINE
  8
型材断面
  6
CONTINUOUS
 62
    47
 10
101.28395
 20
-57.430163
 11
74.283907
 21
-57.430163
  0
LINE
  8
型材断面
  6
CONTINUOUS
 10
99.384223
 20
-57.080207
 11
74.283907
 21
-57.080207
  0
ARC
  8
型材断面
  6
DASHDOT
 10
46.77359
 20
-57.50515
 40
54.510412
 50
360.078819
 51
405.07882
  0
POLYLINE
  8
型材断面
  6
CONTINUOUS
 66
     1
 70
     1
  0
VERTEX
  8
型材断面
 10
-103.31
 20
-54.880725
  0
VERTEX
  8
型材断面
 10
-116.90601
 20
-54.880725
  0
VERTEX
  8
型材断面
 10
-116.90601
 20
-60.174252
  0
VERTEX
  8
型材断面
 10
-103.31
 20
-60.174252
  0
SEQEND
  0
POLYLINE
  8
型材断面
  6
DASHDOT
 66
     1
  0
VERTEX
  8
型材断面
 10
-47.435405
 20
56.66027
  0
VERTEX
  8
型材断面
 10
-92.435405
 20
34.16027
  0
VERTEX
  8
型材断面
 10
-47.435405
 20
11.66027
  0
SEQEND
  0
LINE
  8
型材断面
  6
CONTINUOUS
 62
    47
 10
-95.495723
 20
-52.805163
 11
-95.495723
 21
-51.60516
  0
ARC
  8
型材断面
  6
CONTINUOUS
 10
-95.580505
 20
-51.50516
 40
0.15
 50
-270.0
 51
-180.0
  0
LINE
  8
型材断面
  6
CONTINUOUS
 62
    47
 10
-95.730505
 20
-51.50516
 11
-95.730505
 21
-51.60516
  0
LINE
  8
型材断面
  6
CONTINUOUS
 62
    47
 10
-95.495405
 20
-51.770345
 11
-95.495405
 21
-53.85516
  0
LINE
  8
型材断面
  6
CONTINUOUS
 62
    47
 10
-95.03572
 20
-55.475183
 11
-95.03572
 21
-53.85516
  0
LINE
  8
型材断面
  6
CONTINUOUS
 62
    47
 10
-95.495405
 20
-53.85516
 11
-69.935405
 21
-53.85516
  0
LINE
  8
型材断面
  6
CONTINUOUS
 62
    47
 10
-95.730505
 20
-51.60516
 11
-69.935405
 21
-51.60516
  0
LINE
  8
型材断面
  6
CONTINUOUS
 62
    47
 10
-95.580505
 20
-51.35516
 11
-69.935405
 21
-51.35516
  0
LINE
  8
型材断面
  6
CONTINUOUS
 62
    47
 10
-44.375087
 20
-52.805163
 11
-44.375087
 21
-51.60516
  0
ARC
  8
型材断面
  6
CONTINUOUS
 10
-44.290305
 20
-51.50516
 40
0.15
 50
0.0
 51
90.0
  0
LINE
  8
型材断面
  6
CONTINUOUS
 62
    47
 10
-44.140305
 20
-51.50516
 11
-44.140305
 21
-51.60516
  0
LINE
  8
型材断面
  6
CONTINUOUS
 62
    47
 10
-44.375405
 20
-51.770345
 11
-44.375405
 21
-53.85516
  0
LINE
  8
型材断面
  6
CONTINUOUS
 62
    47
 10
-44.375405
 20
-53.85516
 11
-69.935405
 21
-53.85516
  0
LINE
  8
型材断面
  6
CONTINUOUS
 62
    47
 10
-44.140305
 20
-51.60516
 11
-69.935405
 21
-51.60516
  0
LINE
  8
型材断面
  6
CONTINUOUS
 62
    47
 10
-44.290305
 20
-51.35516
 11
-69.935405
 21
-51.35516
  0
LINE
  8
型材断面
  6
CONTINUOUS
 62
    47
 10
-44.83509
 20
-55.475183
 11
-44.83509
 21
-53.85516
  0
LINE
  8
型材断面
  6
CONTINUOUS
 62
    47
 10
48.72359
 20
-52.805163
 11
48.72359
 21
-51.60516
  0
ARC
  8
型材断面
  6
CONTINUOUS
 10
48.638807
 20
-51.50516
 40
0.15
 50
-270.0
 51
-180.0
  0
LINE
  8
型材断面
  6
CONTINUOUS
 62
    47
 10
48.488808
 20
-51.50516
 11
48.488808
 21
-51.60516
  0
LINE
  8
型材断面
  6
CONTINUOUS
 62
    47
 10
48.723907
 20
-51.770345
 11
48.723907
 21
-53.85516
  0
LINE
  8
型材断面
  6
CONTINUOUS
 62
    47
 10
48.723907
 20
-53.85516
 11
74.283907
 21
-53.85516
  0
LINE
  8
型材断面
  6
CONTINUOUS
 62
    47
 10
48.488808
 20
-51.60516
 11
74.283907
 21
-51.60516
  0
LINE
  8
型材断面
  6
CONTINUOUS
 62
    47
 10
48.638808
 20
-51.35516
 11
74.283907
 21
-51.35516
  0
LINE
  8
型材断面
  6
CONTINUOUS
 62
    47
 10
99.844225
 20
-52.805163
 11
99.844225
 21
-51.60516
  0
ARC
  8
型材断面
  6
CONTINUOUS
 10
99.929008
 20
-51.50516
 40
0.15
 50
0.0
 51
90.0
  0
LINE
  8
型材断面
  6
CONTINUOUS
 62
    47
 10
100.079008
 20
-51.50516
 11
100.079008
 21
-51.60516
  0
LINE
  8
型材断面
  6
CONTINUOUS
 62
    47
 10
99.843908
 20
-51.770345
 11
99.843908
 21
-53.85516
  0
LINE
  8
型材断面
  6
CONTINUOUS
 62
    47
 10
99.843908
 20
-53.85516
 11
74.283907
 21
-53.85516
  0
LINE
  8
型材断面
  6
CONTINUOUS
 62
    47
 10
100.079008
 20
-51.60516
 11
74.283907
 21
-51.60516
  0
LINE
  8
型材断面
  6
CONTINUOUS
 62
    47
 10
99.929008
 20
-51.35516
 11
74.283907
 21
-51.35516
  0
LINE
  8
型材断面
  6
CONTINUOUS
 62
    47
 10
49.183592
 20
-55.475183
 11
49.183592
 21
-53.85516
  0
LINE
  8
型材断面
  6
CONTINUOUS
 62
    47
 10
49.183592
 20
-55.475183
 11
49.183592
 21
-53.85516
  0
LINE
  8
型材断面
  6
CONTINUOUS
 62
    47
 10
99.384223
 20
-55.475183
 11
99.384223
 21
-53.85516
  0
LINE
  8
型材断面
  6
CONTINUOUS
 62
    47
 10
99.384223
 20
-55.475183
 11
99.384223
 21
-53.85516
  0
LINE
  8
型材断面
  6
CONTINUOUS
 62
    47
 10
-95.03572
 20
-57.080207
 11
-96.935448
 21
-57.17967
  0
LINE
  8
型材断面
  6
CONTINUOUS
 62
    47
 10
-96.935448
 20
-57.430163
 11
-96.935448
 21
-57.17967
  0
LINE
  8
型材断面
  6
CONTINUOUS
 10
-96.935448
 20
-57.17967
 11
-69.935405
 21
-57.17967
  0
LINE
  8
型材断面
  6
CONTINUOUS
 62
    47
 10
-44.83509
 20
-57.080207
 11
-42.935362
 21
-57.17967
  0
LINE
  8
型材断面
  6
CONTINUOUS
 62
    47
 10
-42.935362
 20
-57.430163
 11
-42.935362
 21
-57.17967
  0
LINE
  8
型材断面
  6
CONTINUOUS
 10
-42.935362
 20
-57.17967
 11
-69.935405
 21
-57.17967
  0
LINE
  8
型材断面
  6
CONTINUOUS
 62
    47
 10
47.283865
 20
-57.430163
 11
47.283865
 21
-57.17967
  0
LINE
  8
型材断面
  6
CONTINUOUS
 62
    47
 10
49.183592
 20
-57.080207
 11
47.283865
 21
-57.17967
  0
LINE
  8
型材断面
  6
CONTINUOUS
 62
    47
 10
101.28395
 20
-57.430163
 11
101.28395
 21
-57.17967
  0
LINE
  8
型材断面
  6
CONTINUOUS
 62
    47
 10
99.384223
 20
-57.080207
 11
101.28395
 21
-57.17967
  0
LINE
  8
型材断面
  6
CONTINUOUS
 62
    47
 10
101.28395
 20
-57.430163
 11
101.28395
 21
-57.17967
  0
LINE
  8
型材断面
  6
CONTINUOUS
 10
101.28395
 20
-57.17967
 11
74.283907
 21
-57.17967
  0
LINE
  8
型材断面
  6
CONTINUOUS
 10
-44.49386
 20
8.36517
 11
-44.140305
 21
8.718725
  0
LINE
  8
型材断面
  6
CONTINUOUS
 10
-48.244178
 20
12.115488
 11
-47.890622
 21
12.469043
  0
LINE
  8
型材断面
  6
CONTINUOUS
 10
-47.890622
 20
12.469043
 11
-44.140305
 21
8.718725
  0
LINE
  8
型材断面
  6
CONTINUOUS
 10
-48.244178
 20
12.115488
 11
-44.49386
 21
8.36517
  0
LINE
  8
型材断面
  6
CONTINUOUS
 10
-41.835362
 20
6.060227
 11
-44.317083
 21
8.541948
  0
LINE
  8
型材断面
  6
CONTINUOUS
 10
-44.49386
 20
59.95537
 11
-44.140305
 21
59.601815
  0
LINE
  8
型材断面
  6
CONTINUOUS
 10
-48.244178
 20
56.205053
 11
-47.890622
 21
55.851498
  0
LINE
  8
型材断面
  6
CONTINUOUS
 10
-47.890622
 20
55.851498
 11
-44.140305
 21
59.601815
  0
LINE
  8
型材断面
  6
CONTINUOUS
 10
-48.244178
 20
56.205053
 11
-44.49386
 21
59.95537
  0
LINE
  8
型材断面
  6
CONTINUOUS
 10
-41.835362
 20
62.260312
 11
-44.317083
 21
59.778593
  0
LINE
  8
型材断面
  6
CONTINUOUS
 10
-95.37695
 20
59.95537
 11
-95.730505
 21
59.601815
  0
LINE
  8
型材断面
  6
CONTINUOUS
 10
-91.626632
 20
56.205053
 11
-91.980188
 21
55.851498
  0
LINE
  8
型材断面
  6
CONTINUOUS
 10
-91.980188
 20
55.851498
 11
-95.730505
 21
59.601815
  0
LINE
  8
型材断面
  6
CONTINUOUS
 10
-91.626632
 20
56.205053
 11
-95.37695
 21
59.95537
  0
LINE
  8
型材断面
  6
CONTINUOUS
 10
-98.035448
 20
62.260312
 11
-95.553727
 21
59.778593
  0
LINE
  8
型材断面
  6
CONTINUOUS
 10
-95.37695
 20
8.36517
 11
-95.730505
 21
8.718725
  0
LINE
  8
型材断面
  6
CONTINUOUS
 10
-91.626632
 20
12.115488
 11
-91.980188
 21
12.469043
  0
LINE
  8
型材断面
  6
CONTINUOUS
 10
-91.980188
 20
12.469043
 11
-95.730505
 21
8.718725
  0
LINE
  8
型材断面
  6
CONTINUOUS
 10
-91.626632
 20
12.115488
 11
-95.37695
 21
8.36517
  0
LINE
  8
型材断面
  6
CONTINUOUS
 10
-98.035448
 20
6.060227
 11
-95.553727
 21
8.541948
  0
LINE
  8
型材断面
  6
CONTINUOUS
 10
-44.140305
 20
8.718725
 11
-44.140305
 21
59.601815
  0
LINE
  8
型材断面
  6
CONTINUOUS
 10
-44.49386
 20
59.95537
 11
-95.37695
 21
59.95537
  0
LINE
  8
型材断面
  6
CONTINUOUS
 10
-44.49386
 20
8.36517
 11
-95.37695
 21
8.36517
  0
LINE
  8
型材断面
  6
CONTINUOUS
 10
-95.730505
 20
59.601815
 11
-95.730505
 21
8.718725
  0
LINE
  8
型材断面
  6
CONTINUOUS
 10
-69.310405
 20
12.115488
 11
-69.310405
 21
8.36517
  0
LINE
  8
型材断面
  6
CONTINUOUS
 10
-70.560405
 20
12.115488
 11
-70.560405
 21
8.36517
  0
LINE
  8
型材断面
  6
CONTINUOUS
 10
-47.890622
 20
33.53527
 11
-44.140305
 21
33.53527
  0
LINE
  8
型材断面
  6
CONTINUOUS
 10
-47.890622
 20
34.78527
 11
-44.140305
 21
34.78527
  0
LINE
  8
型材断面
  6
CONTINUOUS
 10
-70.560405
 20
56.205053
 11
-70.560405
 21
59.95537
  0
LINE
  8
型材断面
  6
CONTINUOUS
 10
-69.310405
 20
56.205053
 11
-69.310405
 21
59.95537
  0
LINE
  8
型材断面
  6
CONTINUOUS
 10
-91.980188
 20
34.78527
 11
-95.730505
 21
34.78527
  0
LINE
  8
型材断面
  6
CONTINUOUS
 10
-91.980188
 20
33.53527
 11
-95.730505
 21
33.53527
  0
LINE
  8
型材断面
  6
CONTINUOUS
 10
-48.244178
 20
12.115488
 11
-69.310405
 21
12.115488
  0
LINE
  8
型材断面
  6
CONTINUOUS
 10
-70.560405
 20
12.115488
 11
-91.626632
 21
12.115488
  0
LINE
  8
型材断面
  6
CONTINUOUS
 10
-48.244178
 20
56.205053
 11
-69.310405
 21
56.205053
  0
LINE
  8
型材断面
  6
CONTINUOUS
 10
-70.560405
 20
56.205053
 11
-91.626632
 21
56.205053
  0
LINE
  8
型材断面
  6
CONTINUOUS
 10
-47.890622
 20
12.469043
 11
-47.890622
 21
33.53527
  0
LINE
  8
型材断面
  6
CONTINUOUS
 10
-47.890622
 20
34.78527
 11
-47.890622
 21
55.851498
  0
LINE
  8
型材断面
  6
CONTINUOUS
 10
-91.980188
 20
55.851498
 11
-91.980188
 21
34.78527
  0
LINE
  8
型材断面
  6
CONTINUOUS
 10
-91.980188
 20
33.53527
 11
-91.980188
 21
12.469043
  0
LINE
  8
ガラス
  6
CONTINUOUS
 10
167.304785
 20
74.557477
 11
122.054785
 21
74.557477
  0
LINE
  8
ガラス
  6
CONTINUOUS
 10
122.054785
 20
74.557477
 11
122.054785
 21
29.307477
  0
LINE
  8
ガラス
  6
CONTINUOUS
 10
122.054785
 20
29.307477
 11
167.304785
 21
29.307477
  0
LINE
  8
ガラス
  6
CONTINUOUS
 10
167.304785
 20
74.557477
 11
167.304785
 21
29.307477
  0
TEXT
  7
TextStyle03
  8
文字
  6
CONTINUOUS
 10
-3.075
 20
1.625
  1
は排水穴位置を示す
 40
3.0
 72
     5
 11
26.925
 21
1.625
  0
TEXT
  7
TextStyle03
  8
文字
  6
CONTINUOUS
 10
-8.675
 20
-16.75
  1
アンカー数量　６ヶ所
 40
3.0
 72
     5
 11
24.7
 21
-16.75
  0
TEXT
  7
TextStyle03
  8
文字
  6
CONTINUOUS
 10
-3.075
 20
-6.225
  1
はケーシング位置を示す
 40
3.0
 72
     5
 11
33.675
 21
-6.225
  0
TEXT
  7
TextStyle03
  8
文字
  6
CONTINUOUS
 10
-3.075
 20
-9.6
  1
２ヶ所中1ヶ所に設定
 40
3.0
 72
     5
 11
28.6125
 21
-9.6
  0
TEXT
  7
TextStyle03
  8
文字
  6
CONTINUOUS
 10
-98.825
 20
79.85
  1
アンカーピッチ
 40
3.0
 72
     5
 11
-75.575
 21
79.85
  0
TEXT
  7
TextStyle03
  8
文字
  6
CONTINUOUS
 10
-122.475
 20
1.75
  1
アンカーピッチ
 40
3.0
 50
90.0
 72
     5
 11
-122.475
 21
25.0
  0
TEXT
  7
TextStyle03
  8
文字
  6
CONTINUOUS
 10
100.3
 20
-38.575
  1
45°
 40
3.0
 72
     5
 11
106.675
 21
-38.575
  0
TEXT
  7
TextStyle03
  8
文字
  6
CONTINUOUS
 10
-115.275
 20
-58.9
  1
丁番側
 40
3.0
 72
     5
 11
-105.525
 21
-58.9
  0
TEXT
  7
TextStyle03
  8
文字
  6
CONTINUOUS
 10
146.1
 20
39.35
  1
網入り6.8t
 40
3.0
 72
     5
 11
162.7875
 21
39.35
  0
TEXT
  7
TextStyle03
  8
文字
  6
CONTINUOUS
 10
152.725
 20
34.1
  1
×１枚
 40
3.0
 72
     5
 11
162.475
 21
34.1
  0
TEXT
  7
TextStyle03
  8
文字
  6
CONTINUOUS
 10
64.7
 20
116.5
  1
シリーズ：ＴＦＦＨ
 40
5.0
 72
     5
 11
114.7
 21
116.5
  0
TEXT
  7
TextStyle03
  8
文字
  6
CONTINUOUS
 10
64.7
 20
110.875
  1
　　　　　（片側開閉）900×900タイプ
 40
5.0
 72
     5
 11
165.325
 21
110.875
  0
TEXT
  7
TextStyle03
  8
文字
  6
CONTINUOUS
 10
64.7
 20
105.25
  1
図面名　：外観姿図
 40
5.0
 72
     5
 11
114.7
 21
105.25
  0
TEXT
  7
TextStyle03
  8
文字
  6
CONTINUOUS
 10
64.7
 20
99.625
  1
　　　　　　
 40
5.0
 72
     5
 11
97.825
 21
99.625
  0
INSERT
  2
*DIM_0002
  8
寸法
  6
CONTINUOUS
 10
0.0
 20
0.0
  0
INSERT
  2
*DIM_0004
  8
寸法
  6
CONTINUOUS
 10
0.0
 20
0.0
  0
INSERT
  2
*DIM_0005
  8
寸法
  6
CONTINUOUS
 10
0.0
 20
0.0
  0
INSERT
  2
*DIM_0006
  8
寸法
  6
CONTINUOUS
 10
0.0
 20
0.0
  0
INSERT
  2
*DIM_0007
  8
寸法
  6
CONTINUOUS
 10
0.0
 20
0.0
  0
INSERT
  2
*DIM_0008
  8
寸法
  6
CONTINUOUS
 10
0.0
 20
0.0
  0
INSERT
  2
*DIM_0009
  8
寸法
  6
CONTINUOUS
 10
0.0
 20
0.0
  0
INSERT
  2
*DIM_0010
  8
寸法
  6
CONTINUOUS
 10
0.0
 20
0.0
  0
CIRCLE
  8
寸法
  6
CONTINUOUS
 10
-111.453763
 20
34.16027
 40
1.73792
  0
INSERT
  2
*DIM_0012
  8
寸法
  6
CONTINUOUS
 10
0.0
 20
0.0
  0
INSERT
  2
*DIM_0013
  8
寸法
  6
CONTINUOUS
 10
0.0
 20
0.0
  0
INSERT
  2
*DIM_0014
  8
寸法
  6
CONTINUOUS
 10
0.0
 20
0.0
  0
INSERT
  2
*GRP_0003
  8
別途部材
  6
CONTINUOUS
 10
0.0
 20
0.0
  0
INSERT
  2
*GRP_0011
  8
別途部材
  6
CONTINUOUS
 10
0.0
 20
0.0
  0
INSERT
  2
*GRP_0015
  8
別途部材
  6
DOT
 10
0.0
 20
0.0
  0
ENDSEC
  0
EOF
