  0
SECTION
  2
HEADER
  9
$EXTMIN
 10
-210.0
 20
-148.5
  9
$EXTMAX
 10
210.0
 20
148.5
  9
$PDMODE
 70
    32
  9
$PDSIZE
 40
1.5
  9
$LTSCALE
 40
10.0
  0
ENDSEC
  0
SECTION
  2
TABLES
  0
TABLE
  2
LTYPE
 70
    15
  0
LTYPE
  2
CONTINUOUS
 70
    64
  3
実線
 72
    65
 73
     0
 40
0.0
  0
LTYPE
  2
DASHED
 70
    64
  3
破線A
 72
    65
 73
     2
 40
0.6
 49
0.4
 49
-0.2
  0
LTYPE
  2
DASHEDX2
 70
    64
  3
破線B
 72
    65
 73
     2
 40
1.3
 49
0.9
 49
-0.4
  0
LTYPE
  2
DASHDOT
 70
    64
  3
１点鎖線A
 72
    65
 73
     4
 40
0.5375
 49
0.375
 49
-0.05
 49
0.0625
 49
-0.05
  0
LTYPE
  2
DASHDOTX2
 70
    64
  3
１点鎖線B
 72
    65
 73
     4
 40
1.075
 49
0.75
 49
-0.1
 49
0.125
 49
-0.1
  0
LTYPE
  2
DIVIDE2
 70
    64
  3
２点鎖線A
 72
    65
 73
     6
 40
0.5125
 49
0.3
 49
-0.0375
 49
0.05
 49
-0.0375
 49
0.05
 49
-0.0375
  0
LTYPE
  2
DIVIDE
 70
    64
  3
２点鎖線B
 72
    65
 73
     6
 40
1.05
 49
0.55
 49
-0.1
 49
0.1
 49
-0.1
 49
0.1
 49
-0.1
  0
LTYPE
  2
DOT
 70
    64
  3
点線A
 72
    65
 73
     2
 40
0.1125
 49
0.0625
 49
-0.05
  0
LTYPE
  2
DOTX2
 70
    64
  3
点線B
 72
    65
 73
     2
 40
0.275
 49
0.15
 49
-0.125
  0
LTYPE
  2
CONTINUOUS
 70
    64
  3
実線
 72
    65
 73
     0
 40
0.0
  0
LTYPE
  2
CONTINUOUS
 70
    64
  3
実線
 72
    65
 73
     0
 40
0.0
  0
LTYPE
  2
CONTINUOUS
 70
    64
  3
実線
 72
    65
 73
     0
 40
0.0
  0
LTYPE
  2
CONTINUOUS
 70
    64
  3
実線
 72
    65
 73
     0
 40
0.0
  0
LTYPE
  2
CONTINUOUS
 70
    64
  3
実線
 72
    65
 73
     0
 40
0.0
  0
LTYPE
  2
CONTINUOUS
 70
    64
  3
実線
 72
    65
 73
     0
 40
0.0
  0
ENDTAB
  0
TABLE
  2
LAYER
 70
    34
  0
LAYER
  2
通り芯
 70
     0
 62
    15
  6
CONTINUOUS
  0
LAYER
  2
補助線
 70
     0
 62
    16
  6
DOT
  0
LAYER
  2
躯体
 70
     0
 62
    31
  6
CONTINUOUS
  0
LAYER
  2
型材
 70
     0
 62
    32
  6
CONTINUOUS
  0
LAYER
  2
型材断面
 70
     0
 62
    47
  6
CONTINUOUS
  0
LAYER
  2
ガラス
 70
     0
 62
    48
  6
CONTINUOUS
  0
LAYER
  2
ゴム等
 70
     0
 62
    63
  6
CONTINUOUS
  0
LAYER
  2
ボルト／ビス
 70
     0
 62
    64
  6
CONTINUOUS
  0
LAYER
  2
文字
 70
     0
 62
    79
  6
CONTINUOUS
  0
LAYER
  2
寸法
 70
     0
 62
    80
  6
CONTINUOUS
  0
LAYER
  2
ﾊｯﾁﾝｸﾞ
 70
     0
 62
    95
  6
CONTINUOUS
  0
LAYER
  2
別途部材
 70
     0
 62
    96
  6
CONTINUOUS
  0
LAYER
  2
曲げ物
 70
     0
 62
   111
  6
CONTINUOUS
  0
LAYER
  2
鉄骨等
 70
     0
 62
   112
  6
CONTINUOUS
  0
LAYER
  2
St
 70
     0
 62
   127
  6
CONTINUOUS
  0
LAYER
  2
その他部品等
 70
     0
 62
   128
  6
CONTINUOUS
  0
LAYER
  2
ｶﾞｽｹｯﾄ
 70
     0
 62
   143
  6
CONTINUOUS
  0
LAYER
  2
ｽｹｯﾁ
 70
     0
 62
    14
  6
CONTINUOUS
  0
LAYER
  2
0
 70
     0
 62
    17
  6
CONTINUOUS
  0
LAYER
  2
1
 70
     0
 62
    30
  6
CONTINUOUS
  0
LAYER
  2
4
 70
     0
 62
    33
  6
CONTINUOUS
  0
LAYER
  2
ﾚｲﾔ3
 70
     0
 62
    46
  6
CONTINUOUS
  0
LAYER
  2
外形線
 70
     0
 62
    49
  6
CONTINUOUS
  0
LAYER
  2
部品
 70
     0
 62
    14
  6
CONTINUOUS
  0
LAYER
  2
サッシ芯
 70
     0
 62
    17
  6
DASHDOTX2
  0
LAYER
  2
寸法線
 70
     0
 62
    62
  6
CONTINUOUS
  0
LAYER
  2
姿図外形線
 70
     0
 62
    65
  6
CONTINUOUS
  0
LAYER
  2
姿補助線
 70
     0
 62
    30
  6
CONTINUOUS
  0
LAYER
  2
透視線
 70
     0
 62
    78
  6
DOT
  0
LAYER
  2
用紙
 70
     0
 62
    81
  6
CONTINUOUS
  0
LAYER
  2
実線図枠
 70
     0
 62
    94
  6
CONTINUOUS
  0
LAYER
  2
補助図枠
 70
     0
 62
    97
  6
CONTINUOUS
  0
LAYER
  2
建具記号
 70
     0
 62
   110
  6
CONTINUOUS
  0
LAYER
  2
補助文字
 70
     0
 62
   113
  6
CONTINUOUS
  0
ENDTAB
  0
TABLE
  2
STYLE
 70
    10
  0
STYLE
  2
STANDARD
 70
     0
 40
1.0
 41
1.0
 42
1.0
 50
0.0
 71
     0
  3
TXT
  4
BIGFONT
  0
STYLE
  2
TATE
 70
     4
 40
1.0
 41
1.0
 42
1.0
 50
0.0
 71
     0
  3
TXT
  4
BIGFONT
  0
STYLE
  2
TextStyle03
 70
     0
 40
1.0
 41
1.0
 42
1.0
 50
0.0
 71
     0
  3
MONOTXT
  4
BIGFONT
  0
STYLE
  2
TextStyle04
 70
     0
 40
1.0
 41
1.0
 42
1.0
 50
0.0
 71
     0
  3
MONOTXT
  4
BIGFONT
  0
STYLE
  2
TextStyle05
 70
     0
 40
1.0
 41
1.0
 42
1.0
 50
0.0
 71
     0
  3
MONOTXT
  4
BIGFONT
  0
STYLE
  2
TextStyle06
 70
     0
 40
1.0
 41
1.0
 42
1.0
 50
0.0
 71
     0
  3
MONOTXT
  4
BIGFONT
  0
STYLE
  2
TextStyle07
 70
     0
 40
1.0
 41
1.0
 42
1.0
 50
0.0
 71
     0
  3
MONOTXT
  4
BIGFONT
  0
STYLE
  2
TextStyle08
 70
     0
 40
1.0
 41
1.0
 42
1.0
 50
0.0
 71
     0
  3
MONOTXT
  4
BIGFONT
  0
STYLE
  2
TextStyle09
 70
     0
 40
1.0
 41
1.0
 42
1.0
 50
0.0
 71
     0
  3
MONOTXT
  4
BIGFONT
  0
STYLE
  2
TextStyle10
 70
     0
 40
1.0
 41
1.0
 42
1.0
 50
0.0
 71
     0
  3
MONOTXT
  4
BIGFONT
  0
ENDTAB
  0
ENDSEC
  0
SECTION
  2
BLOCKS
  0
BLOCK
  2
*GRP_0001
 70
    65
 10
0.0
 20
0.0
  0
LINE
  8
型材断面
  6
CONTINUOUS
 10
195.0
 20
133.5
 11
195.0
 21
-133.5
  0
LINE
  8
型材断面
  6
CONTINUOUS
 10
195.0
 20
-133.5
 11
-185.0
 21
-133.5
  0
LINE
  8
型材断面
  6
CONTINUOUS
 10
-185.0
 20
-133.5
 11
-185.0
 21
133.5
  0
LINE
  8
型材断面
  6
CONTINUOUS
 10
195.0
 20
133.5
 11
-185.0
 21
133.5
  0
LINE
  8
型材断面
  6
CONTINUOUS
 10
145.0
 20
-133.5
 11
145.0
 21
-118.5
  0
LINE
  8
型材断面
  6
CONTINUOUS
 10
195.0
 20
-118.5
 11
145.0
 21
-118.5
  0
ENDBLK
  0
BLOCK
  2
*DIM_0002
 70
    65
 10
0.0
 20
0.0
  0
LINE
  8
寸法
  6
CONTINUOUS
 10
258.03031
 20
-90.81691
 11
258.03031
 21
-84.992393
  0
LINE
  8
寸法
  6
CONTINUOUS
 10
227.78031
 20
-90.81691
 11
227.78031
 21
-84.992393
  0
LINE
  8
寸法
  6
CONTINUOUS
 10
258.03031
 20
-84.992393
 11
227.78031
 21
-84.992393
  0
POINT
  8
寸法
 10
258.03031
 20
-84.992393
  0
POINT
  8
寸法
 10
227.78031
 20
-84.992393
  0
TEXT
  7
TextStyle03
  8
寸法
  6
CONTINUOUS
 10
240.4875
 20
-84.625
  1
605
 40
3.0
 72
     5
 11
245.3625
 21
-84.625
  0
ENDBLK
  0
BLOCK
  2
*DIM_0003
 70
    65
 10
0.0
 20
0.0
  0
LINE
  8
寸法
  6
CONTINUOUS
 10
263.03031
 20
-95.81691
 11
270.6862
 21
-95.81691
  0
LINE
  8
寸法
  6
CONTINUOUS
 10
263.03031
 20
-126.06691
 11
270.6862
 21
-126.06691
  0
LINE
  8
寸法
  6
CONTINUOUS
 10
270.6862
 20
-95.81691
 11
270.6862
 21
-126.06691
  0
POINT
  8
寸法
 10
270.6862
 20
-95.81691
  0
POINT
  8
寸法
 10
270.6862
 20
-126.06691
  0
TEXT
  7
TextStyle03
  8
寸法
  6
CONTINUOUS
 10
270.325
 20
-113.3875
  1
605
 40
3.0
 50
90.0
 72
     5
 11
270.325
 21
-108.5125
  0
ENDBLK
  0
BLOCK
  2
*GRP_0004
 70
    65
 10
0.0
 20
0.0
  0
LINE
  8
型材断面
  6
DOT
 62
    47
 10
303.93478
 20
52.621083
 11
304.444047
 21
53.13035
  0
LINE
  8
型材断面
  6
DOT
 62
    47
 10
303.49887
 20
54.014202
 11
303.49887
 21
54.028345
  0
LINE
  8
型材断面
  6
DOT
 62
    47
 10
303.49887
 20
54.014202
 11
303.513012
 21
54.014202
  0
LINE
  8
型材断面
  6
DOT
 62
    47
 10
303.952997
 20
53.560078
 11
303.952997
 21
53.574217
  0
LINE
  8
型材断面
  6
DOT
 62
    47
 10
303.952997
 20
53.560078
 11
303.967137
 21
53.560078
  0
LINE
  8
型材断面
  6
DOT
 62
    47
 10
304.255485
 20
53.271728
 11
303.967137
 21
53.560078
  0
LINE
  8
型材断面
  6
DOT
 62
    47
 10
303.952997
 20
53.574217
 11
303.513012
 21
54.014202
  0
LINE
  8
型材断面
  6
DOT
 62
    47
 10
296.123588
 20
44.80989
 11
305.315998
 21
54.002297
  0
LINE
  8
型材断面
  6
DOT
 62
    47
 10
305.19816
 20
54.120135
 11
305.315998
 21
54.002297
  0
LINE
  8
型材断面
  6
DOT
 62
    47
 10
304.255485
 20
53.271728
 11
305.202887
 21
54.124863
  0
LINE
  8
型材断面
  6
DOT
 10
304.255485
 20
53.271728
 11
295.958618
 21
44.97486
  0
LINE
  8
型材断面
  6
DOT
 10
305.19816
 20
54.120135
 11
296.005753
 21
44.927728
  0
LINE
  8
型材断面
  6
DOT
 62
    47
 10
288.312398
 20
36.998697
 11
287.803127
 21
36.48943
  0
LINE
  8
型材断面
  6
DOT
 62
    47
 10
286.919275
 20
37.434607
 11
286.905133
 21
37.434607
  0
LINE
  8
型材断面
  6
DOT
 62
    47
 10
286.919275
 20
37.434607
 11
286.919275
 21
37.420468
  0
LINE
  8
型材断面
  6
DOT
 62
    47
 10
287.373403
 20
36.980482
 11
287.35926
 21
36.980482
  0
LINE
  8
型材断面
  6
DOT
 62
    47
 10
287.373403
 20
36.980482
 11
287.373403
 21
36.96634
  0
LINE
  8
型材断面
  6
DOT
 62
    47
 10
287.66175
 20
36.677993
 11
287.373403
 21
36.96634
  0
LINE
  8
型材断面
  6
DOT
 62
    47
 10
287.35926
 20
36.980482
 11
286.919275
 21
37.420468
  0
LINE
  8
型材断面
  6
DOT
 62
    47
 10
296.123588
 20
44.80989
 11
286.93118
 21
35.617483
  0
LINE
  8
型材断面
  6
DOT
 62
    47
 10
286.813342
 20
35.735318
 11
286.93118
 21
35.617483
  0
LINE
  8
型材断面
  6
DOT
 62
    47
 10
287.66175
 20
36.677993
 11
286.808618
 21
35.73059
  0
LINE
  8
型材断面
  6
DOT
 10
287.66175
 20
36.677993
 11
295.958618
 21
44.97486
  0
LINE
  8
型材断面
  6
DOT
 10
286.813342
 20
35.735318
 11
296.005753
 21
44.927728
  0
LINE
  8
型材断面
  6
DOT
 62
    47
 10
302.457057
 20
55.503852
 11
301.891373
 21
56.069537
  0
ARC
  8
型材断面
  6
DOT
 10
301.8842
 20
56.156647
 40
0.1
 50
45.0
 51
135.0
  0
LINE
  8
型材断面
  6
DOT
 62
    47
 10
301.954908
 20
56.227357
 11
302.002047
 21
56.180215
  0
LINE
  8
型材断面
  6
DOT
 62
    47
 10
301.96909
 20
55.99152
 11
302.951882
 21
55.008727
  0
LINE
  8
型材断面
  6
DOT
 62
    47
 10
302.951882
 20
55.008727
 11
294.438315
 21
46.495162
  0
LINE
  8
型材断面
  6
DOT
 62
    47
 10
302.002047
 20
56.180215
 11
293.377655
 21
47.555823
  0
LINE
  8
型材断面
  6
DOT
 62
    47
 10
301.813487
 20
56.227357
 11
293.259805
 21
47.673673
  0
LINE
  8
型材断面
  6
DOT
 62
    47
 10
285.429628
 20
38.476423
 11
284.86394
 21
39.042108
  0
ARC
  8
型材断面
  6
DOT
 10
284.776836
 20
39.049283
 40
0.1
 50
135.0
 51
225.0
  0
LINE
  8
型材断面
  6
DOT
 62
    47
 10
284.706122
 20
38.97857
 11
284.753263
 21
38.93143
  0
LINE
  8
型材断面
  6
DOT
 62
    47
 10
284.941958
 20
38.964387
 11
285.92475
 21
37.981597
  0
LINE
  8
型材断面
  6
DOT
 62
    47
 10
285.92475
 20
37.981597
 11
294.438315
 21
46.495162
  0
LINE
  8
型材断面
  6
DOT
 62
    47
 10
284.753263
 20
38.93143
 11
293.377655
 21
47.555823
  0
LINE
  8
型材断面
  6
DOT
 62
    47
 10
284.706122
 20
39.119993
 11
293.259805
 21
47.673673
  0
LINE
  8
型材断面
  6
DOT
 62
    47
 10
286.905133
 20
37.434607
 11
286.141447
 21
38.198295
  0
LINE
  8
型材断面
  6
DOT
 62
    47
 10
303.49887
 20
54.028345
 11
302.735182
 21
54.79203
  0
ENDBLK
  0
BLOCK
  2
*DIM_0005
 70
    65
 10
0.0
 20
0.0
  0
LINE
  8
寸法
  6
CONTINUOUS
 10
308.608683
 20
22.133922
 11
308.608683
 21
15.791205
  0
LINE
  8
寸法
  6
CONTINUOUS
 10
301.491898
 20
23.868932
 11
301.491898
 21
15.791205
  0
LINE
  8
寸法
  6
CONTINUOUS
 10
308.608683
 20
15.791205
 11
301.491898
 21
15.791205
  0
POINT
  8
寸法
 10
308.608683
 20
15.791205
  0
POINT
  8
寸法
 10
301.491898
 20
15.791205
  0
TEXT
  7
TextStyle03
  8
寸法
  6
CONTINUOUS
 10
300.925
 20
12.775
  1
213.5
 40
3.0
 72
     5
 11
309.175
 21
12.775
  0
ENDBLK
  0
BLOCK
  2
*DIM_0006
 70
    65
 10
0.0
 20
0.0
  0
LINE
  8
寸法
  6
CONTINUOUS
 10
303.108683
 20
54.600645
 11
268.89034
 21
54.600645
  0
LINE
  8
寸法
  6
CONTINUOUS
 10
268.89034
 20
50.867282
 11
268.89034
 21
54.600645
  0
POINT
  8
寸法
 10
268.89034
 20
50.867282
  0
POINT
  8
寸法
 10
268.89034
 20
54.600645
  0
TEXT
  7
TextStyle03
  8
寸法
  6
CONTINUOUS
 10
268.5
 20
55.3375
  1
112
 40
3.0
 50
90.0
 72
     5
 11
268.5
 21
60.2125
  0
ENDBLK
  0
BLOCK
  2
*DIM_0007
 70
    65
 10
0.0
 20
0.0
  0
LINE
  8
寸法
  6
CONTINUOUS
 10
303.108683
 20
27.133922
 11
268.89034
 21
27.133922
  0
LINE
  8
寸法
  6
CONTINUOUS
 10
268.89034
 20
30.867282
 11
268.89034
 21
27.133922
  0
POINT
  8
寸法
 10
268.89034
 20
30.867282
  0
POINT
  8
寸法
 10
268.89034
 20
27.133922
  0
TEXT
  7
TextStyle03
  8
寸法
  6
CONTINUOUS
 10
268.5
 20
21.5125
  1
112
 40
3.0
 50
90.0
 72
     5
 11
268.5
 21
26.3875
  0
ENDBLK
  0
BLOCK
  2
*DIM_0008
 70
    65
 10
0.0
 20
0.0
  0
LINE
  8
寸法
  6
CONTINUOUS
 10
268.89034
 20
30.867282
 11
268.89034
 21
50.867282
  0
POINT
  8
寸法
 10
268.89034
 20
30.867282
  0
POINT
  8
寸法
 10
268.89034
 20
50.867282
  0
TEXT
  7
TextStyle03
  8
寸法
  6
CONTINUOUS
 10
268.5
 20
29.975
  1
呼称寸法　600
 40
3.0
 50
90.0
 72
     5
 11
268.5
 21
51.725
  0
ENDBLK
  0
BLOCK
  2
*GRP_0009
 70
    65
 10
0.0
 20
0.0
  0
LINE
  8
別途部材
  6
CONTINUOUS
 62
    96
 10
307.391892
 20
52.500828
 11
307.391892
 21
52.400828
  0
LINE
  8
別途部材
  6
CONTINUOUS
 62
    96
 10
305.290813
 20
52.600828
 11
305.360485
 21
53.931632
  0
LINE
  8
別途部材
  6
CONTINUOUS
 62
    96
 10
305.908557
 20
53.940827
 11
305.791893
 21
54.207495
  0
LINE
  8
別途部材
  6
CONTINUOUS
 62
    96
 10
305.808557
 20
53.919912
 11
305.741037
 21
54.074245
  0
LINE
  8
別途部材
  6
CONTINUOUS
 62
    96
 10
305.261715
 20
53.95775
 11
305.392165
 21
54.217952
  0
LINE
  8
別途部材
  6
CONTINUOUS
 62
    96
 10
305.360485
 20
53.931632
 11
305.492645
 21
54.195245
  0
LINE
  8
別途部材
  6
CONTINUOUS
 62
    96
 10
305.528248
 20
54.130363
 11
305.4646
 21
54.053233
  0
LINE
  8
別途部材
  6
DASHDOTX2
 62
    96
 10
305.591892
 20
54.207495
 11
305.278407
 21
54.207495
  0
LINE
  8
別途部材
  6
DASHDOTX2
 62
    96
 10
305.591892
 20
54.207495
 11
305.922352
 21
54.207495
  0
LINE
  8
別途部材
  6
DASHDOTX2
 62
    96
 10
305.591892
 20
54.207495
 11
305.591892
 21
53.944023
  0
LINE
  8
別途部材
  6
DASHDOTX2
 62
    96
 10
305.591892
 20
54.207495
 11
305.591892
 21
54.485805
  0
LINE
  8
別途部材
  6
CONTINUOUS
 62
    96
 10
305.808557
 20
52.400828
 11
305.808557
 21
53.919912
  0
LINE
  8
別途部材
  6
CONTINUOUS
 62
    96
 10
305.908557
 20
52.500828
 11
305.908557
 21
53.940827
  0
LINE
  8
別途部材
  6
CONTINUOUS
 62
    96
 10
304.057477
 20
52.70083
 11
305.19591
 21
52.70083
  0
LINE
  8
別途部材
  6
CONTINUOUS
 62
    96
 10
304.057477
 20
52.600828
 11
304.057477
 21
52.70083
  0
LINE
  8
別途部材
  6
CONTINUOUS
 62
    96
 10
304.057477
 20
52.600828
 11
305.290813
 21
52.600828
  0
CIRCLE
  8
別途部材
  6
CONTINUOUS
 62
    96
 10
305.591892
 20
54.207495
 40
0.1
  0
ARC
  8
別途部材
  6
CONTINUOUS
 62
    96
 10
305.591893
 20
54.207496
 40
0.2
 50
218.780606
 51
537.001556
  0
LINE
  8
別途部材
  6
CONTINUOUS
 62
    96
 10
305.808557
 20
52.400828
 11
307.391892
 21
52.400828
  0
LINE
  8
別途部材
  6
CONTINUOUS
 62
    96
 10
305.908557
 20
52.500828
 11
307.391892
 21
52.500828
  0
LINE
  8
別途部材
  6
CONTINUOUS
 62
    96
 10
305.261715
 20
53.95775
 11
305.19591
 21
52.70083
  0
ENDBLK
  0
BLOCK
  2
*GRP_0010
 70
    65
 10
0.0
 20
0.0
  0
LINE
  8
型材断面
  6
DOT
 62
    47
 10
120.27588
 20
66.715642
 11
120.27588
 21
66.729782
  0
LINE
  8
型材断面
  6
DOT
 62
    47
 10
120.27588
 20
66.715642
 11
120.290022
 21
66.715642
  0
LINE
  8
型材断面
  6
DOT
 62
    47
 10
120.730007
 20
66.261515
 11
120.730007
 21
66.275657
  0
LINE
  8
型材断面
  6
DOT
 62
    47
 10
120.730007
 20
66.261515
 11
120.74415
 21
66.261515
  0
LINE
  8
型材断面
  6
DOT
 62
    47
 10
121.032495
 20
65.973168
 11
120.74415
 21
66.261515
  0
LINE
  8
型材断面
  6
DOT
 62
    47
 10
120.730007
 20
66.275657
 11
120.290022
 21
66.715642
  0
LINE
  8
型材断面
  6
DOT
 62
    47
 10
121.97517
 20
66.821573
 11
122.093008
 21
66.703737
  0
LINE
  8
型材断面
  6
DOT
 62
    47
 10
121.032495
 20
65.973168
 11
121.9799
 21
66.826303
  0
LINE
  8
型材断面
  6
DOT
 10
121.97517
 20
66.821573
 11
104.533185
 21
49.379585
  0
LINE
  8
型材断面
  6
DOT
 10
121.032495
 20
65.973168
 11
104.48605
 21
49.42672
  0
LINE
  8
型材断面
  6
DOT
 62
    47
 10
122.093008
 20
66.703737
 11
104.65102
 21
49.26175
  0
LINE
  8
型材断面
  6
DOT
 62
    47
 10
88.59025
 20
33.200978
 11
88.08098
 21
32.691712
  0
LINE
  8
型材断面
  6
DOT
 62
    47
 10
87.19713
 20
33.636888
 11
87.182985
 21
33.636888
  0
LINE
  8
型材断面
  6
DOT
 62
    47
 10
87.19713
 20
33.636888
 11
87.19713
 21
33.622747
  0
LINE
  8
型材断面
  6
DOT
 62
    47
 10
87.651255
 20
33.182762
 11
87.637112
 21
33.182762
  0
LINE
  8
型材断面
  6
DOT
 62
    47
 10
87.651255
 20
33.182762
 11
87.651255
 21
33.16862
  0
LINE
  8
型材断面
  6
DOT
 62
    47
 10
87.939603
 20
32.880272
 11
87.651255
 21
33.16862
  0
LINE
  8
型材断面
  6
DOT
 62
    47
 10
87.637112
 20
33.182762
 11
87.19713
 21
33.622747
  0
LINE
  8
型材断面
  6
DOT
 62
    47
 10
87.091198
 20
31.937598
 11
87.209032
 21
31.819763
  0
LINE
  8
型材断面
  6
DOT
 62
    47
 10
87.939603
 20
32.880272
 11
87.08647
 21
31.93287
  0
LINE
  8
型材断面
  6
DOT
 10
87.091198
 20
31.937598
 11
104.533185
 21
49.379585
  0
LINE
  8
型材断面
  6
DOT
 10
87.939603
 20
32.880272
 11
104.48605
 21
49.42672
  0
LINE
  8
型材断面
  6
DOT
 62
    47
 10
87.209032
 20
31.819763
 11
104.65102
 21
49.26175
  0
LINE
  8
型材断面
  6
DOT
 62
    47
 10
119.234067
 20
68.20529
 11
118.668383
 21
68.770977
  0
ARC
  8
型材断面
  6
DOT
 10
118.661207
 20
68.858084
 40
0.1
 50
45.0
 51
135.0
  0
LINE
  8
型材断面
  6
DOT
 62
    47
 10
118.73192
 20
68.928795
 11
118.77906
 21
68.881653
  0
LINE
  8
型材断面
  6
DOT
 62
    47
 10
118.7461
 20
68.692958
 11
119.728893
 21
67.710167
  0
LINE
  8
型材断面
  6
DOT
 62
    47
 10
118.77906
 20
68.881653
 11
101.905088
 21
52.007683
  0
LINE
  8
型材断面
  6
DOT
 62
    47
 10
118.590497
 20
68.928795
 11
101.787235
 21
52.125533
  0
LINE
  8
型材断面
  6
DOT
 62
    47
 10
119.728893
 20
67.710167
 11
102.965747
 21
50.947022
  0
LINE
  8
型材断面
  6
DOT
 62
    47
 10
85.70748
 20
34.678702
 11
85.141792
 21
35.244388
  0
ARC
  8
型材断面
  6
DOT
 10
85.054685
 20
35.251562
 40
0.1
 50
135.0
 51
225.0
  0
LINE
  8
型材断面
  6
DOT
 62
    47
 10
84.983975
 20
35.18085
 11
85.031115
 21
35.13371
  0
LINE
  8
型材断面
  6
DOT
 62
    47
 10
85.21981
 20
35.166668
 11
86.202602
 21
34.183878
  0
LINE
  8
型材断面
  6
DOT
 62
    47
 10
85.031115
 20
35.13371
 11
101.905088
 21
52.007683
  0
LINE
  8
型材断面
  6
DOT
 62
    47
 10
84.983975
 20
35.322272
 11
101.787235
 21
52.125533
  0
LINE
  8
型材断面
  6
DOT
 62
    47
 10
86.202602
 20
34.183878
 11
102.965747
 21
50.947022
  0
LINE
  8
型材断面
  6
DOT
 62
    47
 10
87.182985
 20
33.636888
 11
86.4193
 21
34.400575
  0
LINE
  8
型材断面
  6
DOT
 62
    47
 10
120.27588
 20
66.729782
 11
119.512195
 21
67.493468
  0
ENDBLK
  0
BLOCK
  2
*DIM_0011
 70
    65
 10
0.0
 20
0.0
  0
LINE
  8
寸法
  6
CONTINUOUS
 10
72.904165
 20
20.235388
 11
72.904165
 21
63.56872
  0
POINT
  8
寸法
 10
72.904165
 20
20.235388
  0
POINT
  8
寸法
 10
72.904165
 20
63.56872
  0
TEXT
  7
TextStyle03
  8
寸法
  6
CONTINUOUS
 10
72.525
 20
30.18125
  1
呼称寸法　1300
 40
3.0
 50
90.0
 72
     5
 11
72.525
 21
53.61875
  0
ENDBLK
  0
BLOCK
  2
*DIM_0012
 70
    65
 10
0.0
 20
0.0
  0
LINE
  8
寸法
  6
CONTINUOUS
 10
119.885695
 20
16.502028
 11
72.904165
 21
16.502028
  0
LINE
  8
寸法
  6
CONTINUOUS
 10
72.904165
 20
20.235388
 11
72.904165
 21
16.502028
  0
POINT
  8
寸法
 10
72.904165
 20
20.235388
  0
POINT
  8
寸法
 10
72.904165
 20
16.502028
  0
TEXT
  7
TextStyle03
  8
寸法
  6
CONTINUOUS
 10
72.525
 20
15.9375
  1
112
 40
3.0
 50
90.0
 72
     5
 11
72.525
 21
20.8125
  0
ENDBLK
  0
BLOCK
  2
*DIM_0013
 70
    65
 10
0.0
 20
0.0
  0
LINE
  8
寸法
  6
CONTINUOUS
 10
119.885695
 20
67.302082
 11
72.904165
 21
67.302082
  0
LINE
  8
寸法
  6
CONTINUOUS
 10
72.904165
 20
63.56872
 11
72.904165
 21
67.302082
  0
POINT
  8
寸法
 10
72.904165
 20
63.56872
  0
POINT
  8
寸法
 10
72.904165
 20
67.302082
  0
TEXT
  7
TextStyle03
  8
寸法
  6
CONTINUOUS
 10
72.525
 20
62.9875
  1
112
 40
3.0
 50
90.0
 72
     5
 11
72.525
 21
67.8625
  0
ENDBLK
  0
BLOCK
  2
*GRP_0014
 70
    65
 10
0.0
 20
0.0
  0
LINE
  8
別途部材
  6
CONTINUOUS
 62
    96
 10
124.168902
 20
65.202268
 11
124.168902
 21
65.102268
  0
LINE
  8
別途部材
  6
CONTINUOUS
 62
    96
 10
122.067822
 20
65.302268
 11
122.137495
 21
66.633072
  0
LINE
  8
別途部材
  6
CONTINUOUS
 62
    96
 10
122.68557
 20
66.642267
 11
122.568902
 21
66.908933
  0
LINE
  8
別途部材
  6
CONTINUOUS
 62
    96
 10
122.58557
 20
66.62135
 11
122.51805
 21
66.775683
  0
LINE
  8
別途部材
  6
CONTINUOUS
 62
    96
 10
122.038725
 20
66.659188
 11
122.169175
 21
66.91939
  0
LINE
  8
別途部材
  6
CONTINUOUS
 62
    96
 10
122.137495
 20
66.633072
 11
122.269655
 21
66.896682
  0
LINE
  8
別途部材
  6
CONTINUOUS
 62
    96
 10
122.305257
 20
66.831803
 11
122.24161
 21
66.754673
  0
LINE
  8
別途部材
  6
DASHDOTX2
 62
    96
 10
122.368902
 20
66.908933
 11
122.055417
 21
66.908933
  0
LINE
  8
別途部材
  6
DASHDOTX2
 62
    96
 10
122.368902
 20
66.908933
 11
122.699362
 21
66.908933
  0
LINE
  8
別途部材
  6
DASHDOTX2
 62
    96
 10
122.368902
 20
66.908933
 11
122.368902
 21
66.645463
  0
LINE
  8
別途部材
  6
DASHDOTX2
 62
    96
 10
122.368902
 20
66.908933
 11
122.368902
 21
67.187242
  0
LINE
  8
別途部材
  6
CONTINUOUS
 62
    96
 10
122.58557
 20
65.102268
 11
122.58557
 21
66.62135
  0
LINE
  8
別途部材
  6
CONTINUOUS
 62
    96
 10
122.68557
 20
65.202268
 11
122.68557
 21
66.642267
  0
LINE
  8
別途部材
  6
CONTINUOUS
 62
    96
 10
120.83449
 20
65.402268
 11
121.97292
 21
65.402268
  0
LINE
  8
別途部材
  6
CONTINUOUS
 62
    96
 10
120.83449
 20
65.302268
 11
120.83449
 21
65.402268
  0
LINE
  8
別途部材
  6
CONTINUOUS
 62
    96
 10
120.83449
 20
65.302268
 11
122.067822
 21
65.302268
  0
CIRCLE
  8
別途部材
  6
CONTINUOUS
 62
    96
 10
122.368902
 20
66.908933
 40
0.1
  0
ARC
  8
別途部材
  6
CONTINUOUS
 62
    96
 10
122.3689
 20
66.908935
 40
0.2
 50
218.780606
 51
537.001556
  0
LINE
  8
別途部材
  6
CONTINUOUS
 62
    96
 10
122.58557
 20
65.102268
 11
124.168902
 21
65.102268
  0
LINE
  8
別途部材
  6
CONTINUOUS
 62
    96
 10
122.68557
 20
65.202268
 11
124.168902
 21
65.202268
  0
LINE
  8
別途部材
  6
CONTINUOUS
 62
    96
 10
122.038725
 20
66.659188
 11
121.97292
 21
65.402268
  0
ENDBLK
  0
BLOCK
  2
*DIM_0015
 70
    65
 10
0.0
 20
0.0
  0
LINE
  8
寸法
  6
CONTINUOUS
 10
-15.323578
 20
-82.47314
 11
-15.323578
 21
-53.220367
  0
LINE
  8
寸法
  6
CONTINUOUS
 10
-19.056938
 20
-53.220367
 11
-15.323578
 21
-53.220367
  0
POINT
  8
寸法
 10
-19.056938
 20
-53.220367
  0
POINT
  8
寸法
 10
-15.323578
 20
-53.220367
  0
TEXT
  7
TextStyle03
  8
寸法
  6
CONTINUOUS
 10
-19.6375
 20
-52.85
  1
112
 40
3.0
 72
     5
 11
-14.7625
 21
-52.85
  0
ENDBLK
  0
BLOCK
  2
*DIM_0016
 70
    65
 10
0.0
 20
0.0
  0
LINE
  8
寸法
  6
CONTINUOUS
 10
-10.323578
 20
-83.82314
 11
1.1575
 21
-83.82314
  0
LINE
  8
寸法
  6
CONTINUOUS
 10
-12.057895
 20
-76.706355
 11
1.1575
 21
-76.706355
  0
LINE
  8
寸法
  6
CONTINUOUS
 10
1.1575
 20
-83.82314
 11
1.1575
 21
-76.706355
  0
POINT
  8
寸法
 10
1.1575
 20
-83.82314
  0
POINT
  8
寸法
 10
1.1575
 20
-76.706355
  0
TEXT
  7
TextStyle03
  8
寸法
  6
CONTINUOUS
 10
4.15
 20
-84.4
  1
213.5
 40
3.0
 50
90.0
 72
     5
 11
4.15
 21
-76.15
  0
ENDBLK
  0
BLOCK
  2
*DIM_0017
 70
    65
 10
0.0
 20
0.0
  0
LINE
  8
寸法
  6
CONTINUOUS
 10
-106.123632
 20
-82.47314
 11
-106.123632
 21
-53.220367
  0
LINE
  8
寸法
  6
CONTINUOUS
 10
-102.39027
 20
-53.220367
 11
-106.123632
 21
-53.220367
  0
POINT
  8
寸法
 10
-102.39027
 20
-53.220367
  0
POINT
  8
寸法
 10
-106.123632
 20
-53.220367
  0
TEXT
  7
TextStyle03
  8
寸法
  6
CONTINUOUS
 10
-106.7125
 20
-52.85
  1
112
 40
3.0
 72
     5
 11
-101.8375
 21
-52.85
  0
ENDBLK
  0
BLOCK
  2
*DIM_0018
 70
    65
 10
0.0
 20
0.0
  0
LINE
  8
寸法
  6
CONTINUOUS
 10
-102.39027
 20
-53.220367
 11
-19.056938
 21
-53.220367
  0
POINT
  8
寸法
 10
-102.39027
 20
-53.220367
  0
POINT
  8
寸法
 10
-19.056938
 20
-53.220367
  0
TEXT
  7
TextStyle03
  8
寸法
  6
CONTINUOUS
 10
-72.44375
 20
-52.85
  1
呼称寸法　2500
 40
3.0
 72
     5
 11
-49.00625
 21
-52.85
  0
ENDBLK
  0
BLOCK
  2
*DIM_0019
 70
    65
 10
0.0
 20
0.0
  0
LINE
  8
寸法
  6
BYBLOCK
 62
     0
 10
-21.056938
 20
14.628575
 11
-21.056938
 21
11.603533
  0
LINE
  8
寸法
  6
BYBLOCK
 62
     0
 10
-19.056938
 20
11.603533
 11
-21.056938
 21
11.603533
  0
POINT
  8
寸法
 62
     0
 10
-19.056938
 20
11.603533
  0
POINT
  8
寸法
 62
     0
 10
-21.056938
 20
11.603533
  0
TEXT
  7
TextStyle03
  8
寸法
  6
CONTINUOUS
 62
     0
 10
-22.96875
 20
7.825
  1
60
 40
3.0
 72
     5
 11
-19.78125
 21
7.825
  0
ENDBLK
  0
BLOCK
  2
*DIM_0020
 70
    65
 10
0.0
 20
0.0
  0
LINE
  8
寸法
  6
CONTINUOUS
 10
-100.390272
 20
14.628575
 11
-100.390272
 21
11.603533
  0
LINE
  8
寸法
  6
CONTINUOUS
 10
-102.390272
 20
11.603533
 11
-100.390272
 21
11.603533
  0
POINT
  8
寸法
 10
-102.390272
 20
11.603533
  0
POINT
  8
寸法
 10
-100.390272
 20
11.603533
  0
TEXT
  7
TextStyle03
  8
寸法
  6
CONTINUOUS
 10
-101.59375
 20
7.8
  1
60
 40
3.0
 72
     5
 11
-98.40625
 21
7.8
  0
ENDBLK
  0
BLOCK
  2
*DIM_0021
 70
    65
 10
0.0
 20
0.0
  0
LINE
  8
寸法
  6
BYBLOCK
 62
     0
 10
-85.723603
 20
16.60526
 11
-85.723603
 21
11.60213
  0
LINE
  8
寸法
  6
BYBLOCK
 62
     0
 10
-35.723607
 20
16.60526
 11
-35.723607
 21
11.60213
  0
LINE
  8
寸法
  6
BYBLOCK
 62
     0
 10
-85.723603
 20
11.60213
 11
-35.723607
 21
11.60213
  0
POINT
  8
寸法
 62
     0
 10
-85.723603
 20
11.60213
  0
POINT
  8
寸法
 62
     0
 10
-35.723607
 20
11.60213
  0
TEXT
  7
TextStyle03
  8
寸法
  6
CONTINUOUS
 62
     0
 10
-64.00625
 20
11.95
  1
1500
 40
3.0
 72
     5
 11
-57.44375
 21
11.95
  0
ENDBLK
  0
BLOCK
  2
*DIM_0022
 70
    65
 10
0.0
 20
0.0
  0
LINE
  8
寸法
  6
BYBLOCK
 62
     0
 10
-105.39027
 20
30.235388
 11
-134.335435
 21
30.235388
  0
LINE
  8
寸法
  6
BYBLOCK
 62
     0
 10
-105.39027
 20
53.568722
 11
-134.335435
 21
53.568722
  0
LINE
  8
寸法
  6
BYBLOCK
 62
     0
 10
-134.335435
 20
30.235388
 11
-134.335435
 21
53.568722
  0
POINT
  8
寸法
 62
     0
 10
-134.335435
 20
30.235388
  0
POINT
  8
寸法
 62
     0
 10
-134.335435
 20
53.568722
  0
TEXT
  7
TextStyle03
  8
寸法
  6
CONTINUOUS
 62
     0
 10
-134.7
 20
39.4375
  1
700
 40
3.0
 50
90.0
 72
     5
 11
-134.7
 21
44.3125
  0
ENDBLK
  0
BLOCK
  2
*DIM_0023
 70
    65
 10
0.0
 20
0.0
  0
LINE
  8
寸法
  6
BYBLOCK
 62
     0
 10
-95.723605
 20
66.56872
 11
-95.723605
 21
96.31634
  0
LINE
  8
寸法
  6
BYBLOCK
 62
     0
 10
-72.390272
 20
66.56872
 11
-72.390272
 21
96.31634
  0
LINE
  8
寸法
  6
BYBLOCK
 62
     0
 10
-95.723605
 20
96.31634
 11
-72.390272
 21
96.31634
  0
POINT
  8
寸法
 62
     0
 10
-95.723605
 20
96.31634
  0
POINT
  8
寸法
 62
     0
 10
-72.390272
 20
96.31634
  0
TEXT
  7
TextStyle03
  8
寸法
  6
CONTINUOUS
 62
     0
 10
-86.4875
 20
96.675
  1
700
 40
3.0
 72
     5
 11
-81.6125
 21
96.675
  0
ENDBLK
  0
BLOCK
  2
*DIM_0024
 70
    65
 10
0.0
 20
0.0
  0
LINE
  8
寸法
  6
BYBLOCK
 62
     0
 10
-49.056938
 20
66.56872
 11
-49.056938
 21
96.31634
  0
LINE
  8
寸法
  6
BYBLOCK
 62
     0
 10
-72.390272
 20
96.31634
 11
-49.056938
 21
96.31634
  0
POINT
  8
寸法
 62
     0
 10
-49.056938
 20
96.31634
  0
TEXT
  7
TextStyle03
  8
寸法
  6
CONTINUOUS
 62
     0
 10
-63.1625
 20
96.675
  1
700
 40
3.0
 72
     5
 11
-58.2875
 21
96.675
  0
ENDBLK
  0
BLOCK
  2
*DIM_0025
 70
    65
 10
0.0
 20
0.0
  0
LINE
  8
寸法
  6
BYBLOCK
 62
     0
 10
-25.723605
 20
66.56872
 11
-25.723605
 21
96.31634
  0
LINE
  8
寸法
  6
BYBLOCK
 62
     0
 10
-49.056938
 20
96.31634
 11
-25.723605
 21
96.31634
  0
POINT
  8
寸法
 62
     0
 10
-25.723605
 20
96.31634
  0
TEXT
  7
TextStyle03
  8
寸法
  6
CONTINUOUS
 62
     0
 10
-39.8125
 20
96.675
  1
700
 40
3.0
 72
     5
 11
-34.9375
 21
96.675
  0
ENDBLK
  0
BLOCK
  2
*DIM_0026
 70
    65
 10
0.0
 20
0.0
  0
LINE
  8
寸法
  6
CONTINUOUS
 10
83.789892
 20
-40.716288
 11
83.789892
 21
-29.1
  0
LINE
  8
寸法
  6
CONTINUOUS
 10
124.999892
 20
-40.716288
 11
124.999892
 21
-29.1
  0
LINE
  8
寸法
  6
CONTINUOUS
 10
83.789892
 20
-29.1
 11
124.999892
 21
-29.1
  0
POINT
  8
寸法
 10
83.789892
 20
-29.1
  0
POINT
  8
寸法
 10
124.999892
 20
-29.1
  0
TEXT
  7
TextStyle03
  8
寸法
  6
CONTINUOUS
 10
99.40625
 20
-28.725
  1
1236.3
 40
3.0
 72
     5
 11
109.34375
 21
-28.725
  0
ENDBLK
  0
BLOCK
  2
*DIM_0027
 70
    65
 10
0.0
 20
0.0
  0
LINE
  8
寸法
  6
CONTINUOUS
 10
129.999892
 20
-45.716288
 11
142.607128
 21
-45.716288
  0
LINE
  8
寸法
  6
CONTINUOUS
 10
129.999892
 20
-89.216287
 11
142.607128
 21
-89.216287
  0
LINE
  8
寸法
  6
CONTINUOUS
 10
142.607128
 20
-45.716288
 11
142.607128
 21
-89.216287
  0
POINT
  8
寸法
 10
142.607128
 20
-45.716288
  0
POINT
  8
寸法
 10
142.607128
 20
-89.216287
  0
TEXT
  7
TextStyle03
  8
寸法
  6
CONTINUOUS
 10
142.225
 20
-70.75625
  1
1305
 40
3.0
 50
90.0
 72
     5
 11
142.225
 21
-64.19375
  0
ENDBLK
  0
ENDSEC
  0
SECTION
  2
ENTITIES
  0
POLYLINE
  8
通り芯
  6
CONTINUOUS
 66
     1
 70
     1
  0
VERTEX
  8
通り芯
 10
-210.0
 20
-148.5
  0
VERTEX
  8
通り芯
 10
210.0
 20
-148.5
  0
VERTEX
  8
通り芯
 10
210.0
 20
148.5
  0
VERTEX
  8
通り芯
 10
-210.0
 20
148.5
  0
SEQEND
  0
INSERT
  2
*GRP_0001
  8
型材断面
  6
CONTINUOUS
 10
0.0
 20
0.0
  0
LINE
  8
型材断面
  6
CONTINUOUS
 10
218.31481
 20
-40.837608
 11
216.071365
 21
-44.723368
  0
LINE
  8
型材断面
  6
CONTINUOUS
 10
218.31481
 20
-40.837608
 11
220.558255
 21
-44.723368
  0
LINE
  8
型材断面
  6
CONTINUOUS
 10
220.558255
 20
-44.723368
 11
216.071365
 21
-44.723368
  0
LINE
  8
型材断面
  6
CONTINUOUS
 10
218.31481
 20
-48.527155
 11
219.208895
 21
-52.412915
  0
LINE
  8
型材断面
  6
CONTINUOUS
 10
218.31481
 20
-48.527155
 11
217.420725
 21
-52.412915
  0
LINE
  8
型材断面
  6
CONTINUOUS
 10
217.420725
 20
-52.412915
 11
219.208895
 21
-52.412915
  0
LINE
  8
型材断面
  6
CONTINUOUS
 10
209.28093
 20
-46.13126
 11
261.93761
 21
-46.13126
  0
LINE
  8
型材断面
  6
CONTINUOUS
 10
209.28093
 20
-57.331253
 11
261.93761
 21
-57.331253
  0
LINE
  8
型材断面
  6
CONTINUOUS
 10
209.28093
 20
-64.171198
 11
261.93761
 21
-64.171198
  0
LINE
  8
型材断面
  6
CONTINUOUS
 10
236.532798
 20
23.944355
 11
236.532798
 21
37.677715
  0
LINE
  8
型材断面
  6
CONTINUOUS
 10
237.26613
 20
24.677687
 11
237.26613
 21
37.677715
  0
LINE
  8
型材断面
  6
CONTINUOUS
 10
236.532798
 20
23.944355
 11
250.26616
 21
23.944355
  0
LINE
  8
型材断面
  6
CONTINUOUS
 10
237.26613
 20
24.677687
 11
250.26616
 21
24.677687
  0
LINE
  8
型材断面
  6
CONTINUOUS
 10
236.532798
 20
51.411077
 11
236.532798
 21
37.677715
  0
LINE
  8
型材断面
  6
CONTINUOUS
 10
237.26613
 20
50.677745
 11
237.26613
 21
37.677715
  0
LINE
  8
型材断面
  6
CONTINUOUS
 10
236.532798
 20
51.411077
 11
250.26616
 21
51.411077
  0
LINE
  8
型材断面
  6
CONTINUOUS
 10
237.26613
 20
50.677745
 11
250.26616
 21
50.677745
  0
LINE
  8
型材断面
  6
CONTINUOUS
 10
238.30513
 20
49.87445
 11
238.069425
 21
49.638745
  0
LINE
  8
型材断面
  6
CONTINUOUS
 10
240.80534
 20
47.374237
 11
240.569637
 21
47.138535
  0
LINE
  8
型材断面
  6
CONTINUOUS
 10
240.569637
 20
47.138535
 11
238.069425
 21
49.638745
  0
LINE
  8
型材断面
  6
CONTINUOUS
 10
240.80534
 20
47.374237
 11
238.30513
 21
49.87445
  0
LINE
  8
型材断面
  6
CONTINUOUS
 10
236.532798
 20
51.411077
 11
238.187277
 21
49.756597
  0
LINE
  8
型材断面
  6
CONTINUOUS
 10
238.30513
 20
25.480983
 11
238.069425
 21
25.716685
  0
LINE
  8
型材断面
  6
CONTINUOUS
 10
240.80534
 20
27.981195
 11
240.569637
 21
28.216898
  0
LINE
  8
型材断面
  6
CONTINUOUS
 10
240.569637
 20
28.216898
 11
238.069425
 21
25.716685
  0
LINE
  8
型材断面
  6
CONTINUOUS
 10
240.80534
 20
27.981195
 11
238.30513
 21
25.480983
  0
LINE
  8
型材断面
  6
CONTINUOUS
 10
236.532798
 20
23.944355
 11
238.187277
 21
25.598835
  0
LINE
  8
型材断面
  6
CONTINUOUS
 10
238.069425
 20
25.716685
 11
238.069425
 21
49.638745
  0
LINE
  8
型材断面
  6
CONTINUOUS
 10
249.849493
 20
27.981195
 11
249.849493
 21
25.480983
  0
LINE
  8
型材断面
  6
CONTINUOUS
 10
250.682825
 20
27.981195
 11
250.682825
 21
25.480983
  0
LINE
  8
型材断面
  6
CONTINUOUS
 10
249.849493
 20
27.981195
 11
240.80534
 21
27.981195
  0
LINE
  8
型材断面
  6
CONTINUOUS
 10
250.682825
 20
47.374237
 11
250.682825
 21
49.87445
  0
LINE
  8
型材断面
  6
CONTINUOUS
 10
249.849493
 20
47.374237
 11
249.849493
 21
49.87445
  0
LINE
  8
型材断面
  6
CONTINUOUS
 10
240.569637
 20
37.26105
 11
238.069425
 21
37.26105
  0
LINE
  8
型材断面
  6
CONTINUOUS
 10
240.569637
 20
38.094383
 11
238.069425
 21
38.094383
  0
LINE
  8
型材断面
  6
CONTINUOUS
 10
240.569637
 20
28.216898
 11
240.569637
 21
37.26105
  0
LINE
  8
型材断面
  6
CONTINUOUS
 10
240.569637
 20
38.094383
 11
240.569637
 21
47.138535
  0
LINE
  8
型材断面
  6
CONTINUOUS
 10
240.80534
 20
47.374237
 11
249.849493
 21
47.374237
  0
LINE
  8
型材断面
  6
CONTINUOUS
 62
    47
 10
305.5419
 20
51.913977
 11
305.5419
 21
52.63419
  0
LINE
  8
型材断面
  6
CONTINUOUS
 62
    47
 10
304.24858
 20
52.590827
 11
304.23858
 21
52.600828
  0
LINE
  8
型材断面
  6
CONTINUOUS
 62
    47
 10
304.24858
 20
52.590827
 11
304.25858
 21
52.600828
  0
LINE
  8
型材断面
  6
CONTINUOUS
 62
    47
 10
304.890812
 20
52.590827
 11
304.880812
 21
52.600828
  0
LINE
  8
型材断面
  6
CONTINUOUS
 62
    47
 10
304.890812
 20
52.590827
 11
304.900813
 21
52.600828
  0
LINE
  8
型材断面
  6
CONTINUOUS
 62
    47
 10
305.308598
 20
52.600828
 11
304.900813
 21
52.600828
  0
LINE
  8
型材断面
  6
CONTINUOUS
 62
    47
 10
304.880812
 20
52.600828
 11
304.25858
 21
52.600828
  0
LINE
  8
型材断面
  6
CONTINUOUS
 62
    47
 10
308.942017
 20
54.100653
 11
308.608683
 21
54.100653
  0
LINE
  8
型材断面
  6
CONTINUOUS
 62
    47
 10
307.942015
 20
52.167492
 11
307.942015
 21
51.570645
  0
LINE
  8
型材断面
  6
CONTINUOUS
 62
    47
 10
307.942002
 20
52.400645
 11
308.108683
 21
54.600645
  0
LINE
  8
型材断面
  6
CONTINUOUS
 62
    47
 10
308.608683
 20
54.600645
 11
308.108683
 21
54.600645
  0
LINE
  8
型材断面
  6
CONTINUOUS
 62
    47
 10
305.808557
 20
53.867312
 11
305.808557
 21
40.867282
  0
LINE
  8
型材断面
  6
CONTINUOUS
 10
307.942015
 20
40.867282
 11
307.942015
 21
52.400645
  0
LINE
  8
型材断面
  6
CONTINUOUS
 10
308.942017
 20
40.867282
 11
308.942017
 21
54.100653
  0
LINE
  8
型材断面
  6
CONTINUOUS
 10
308.608683
 20
40.867282
 11
308.608683
 21
54.600645
  0
LINE
  8
型材断面
  6
CONTINUOUS
 62
    47
 10
305.5419
 20
40.867282
 11
305.5419
 21
53.867312
  0
LINE
  8
型材断面
  6
CONTINUOUS
 62
    47
 10
305.675243
 20
40.867282
 11
305.675243
 21
53.867312
  0
LINE
  8
型材断面
  6
CONTINUOUS
 62
    47
 10
305.808557
 20
53.867312
 11
305.675243
 21
53.867312
  0
LINE
  8
型材断面
  6
CONTINUOUS
 62
    47
 10
305.808557
 20
52.400645
 11
307.942015
 21
52.400645
  0
LINE
  8
型材断面
  6
CONTINUOUS
 10
308.108683
 20
40.867282
 11
308.108683
 21
54.600645
  0
LINE
  8
型材断面
  6
CONTINUOUS
 10
305.308598
 20
52.600828
 11
305.308598
 21
40.867282
  0
LINE
  8
型材断面
  6
CONTINUOUS
 10
305.375255
 20
53.867312
 11
305.375255
 21
40.867282
  0
LINE
  8
型材断面
  6
CONTINUOUS
 62
    47
 10
305.5419
 20
29.82059
 11
305.5419
 21
29.100377
  0
LINE
  8
型材断面
  6
CONTINUOUS
 62
    47
 10
304.24858
 20
29.14374
 11
304.23858
 21
29.13374
  0
LINE
  8
型材断面
  6
CONTINUOUS
 62
    47
 10
304.24858
 20
29.14374
 11
304.25858
 21
29.13374
  0
LINE
  8
型材断面
  6
CONTINUOUS
 62
    47
 10
304.890812
 20
29.14374
 11
304.880812
 21
29.13374
  0
LINE
  8
型材断面
  6
CONTINUOUS
 62
    47
 10
304.890812
 20
29.14374
 11
304.900813
 21
29.13374
  0
LINE
  8
型材断面
  6
CONTINUOUS
 62
    47
 10
305.308598
 20
29.13374
 11
304.900813
 21
29.13374
  0
LINE
  8
型材断面
  6
CONTINUOUS
 62
    47
 10
304.880812
 20
29.13374
 11
304.25858
 21
29.13374
  0
LINE
  8
型材断面
  6
CONTINUOUS
 62
    47
 10
308.942017
 20
27.633913
 11
308.608683
 21
27.633913
  0
LINE
  8
型材断面
  6
CONTINUOUS
 62
    47
 10
307.942015
 20
29.567075
 11
307.942015
 21
30.163923
  0
LINE
  8
型材断面
  6
CONTINUOUS
 62
    47
 10
307.942002
 20
29.333922
 11
308.108683
 21
27.133922
  0
LINE
  8
型材断面
  6
CONTINUOUS
 62
    47
 10
308.608683
 20
27.133922
 11
308.108683
 21
27.133922
  0
LINE
  8
型材断面
  6
CONTINUOUS
 62
    47
 10
305.808557
 20
27.867255
 11
305.808557
 21
40.867282
  0
LINE
  8
型材断面
  6
CONTINUOUS
 10
307.942015
 20
40.867282
 11
307.942015
 21
29.333922
  0
LINE
  8
型材断面
  6
CONTINUOUS
 10
308.942017
 20
40.867282
 11
308.942017
 21
27.633913
  0
LINE
  8
型材断面
  6
CONTINUOUS
 10
308.608683
 20
40.867282
 11
308.608683
 21
27.133922
  0
LINE
  8
型材断面
  6
CONTINUOUS
 62
    47
 10
305.5419
 20
40.867282
 11
305.5419
 21
27.867255
  0
LINE
  8
型材断面
  6
CONTINUOUS
 62
    47
 10
305.675243
 20
40.867282
 11
305.675243
 21
27.867255
  0
LINE
  8
型材断面
  6
CONTINUOUS
 62
    47
 10
305.808557
 20
27.867255
 11
305.675243
 21
27.867255
  0
LINE
  8
型材断面
  6
CONTINUOUS
 62
    47
 10
305.808557
 20
29.333922
 11
307.942015
 21
29.333922
  0
LINE
  8
型材断面
  6
CONTINUOUS
 10
308.108683
 20
40.867282
 11
308.108683
 21
27.133922
  0
LINE
  8
型材断面
  6
CONTINUOUS
 10
305.308598
 20
29.13374
 11
305.308598
 21
40.867282
  0
LINE
  8
型材断面
  6
CONTINUOUS
 10
305.375255
 20
27.867255
 11
305.375255
 21
40.867282
  0
ARC
  8
型材断面
  6
DASHDOT
 10
305.591895
 20
54.207496
 40
26.340287
 50
224.891258
 51
269.891257
  0
LINE
  8
型材断面
  6
CONTINUOUS
 62
    47
 10
302.458568
 20
52.907495
 11
301.658565
 21
52.907495
  0
ARC
  8
型材断面
  6
CONTINUOUS
 10
301.591901
 20
52.964018
 40
0.1
 50
90.0
 51
180.0
  0
LINE
  8
型材断面
  6
CONTINUOUS
 62
    47
 10
301.591898
 20
53.064018
 11
301.658565
 21
53.064018
  0
LINE
  8
型材断面
  6
CONTINUOUS
 62
    47
 10
301.768687
 20
52.907282
 11
303.158565
 21
52.907282
  0
LINE
  8
型材断面
  6
CONTINUOUS
 62
    47
 10
303.158565
 20
52.907282
 11
303.158565
 21
40.867282
  0
LINE
  8
型材断面
  6
CONTINUOUS
 62
    47
 10
301.658565
 20
53.064018
 11
301.658565
 21
40.867282
  0
LINE
  8
型材断面
  6
CONTINUOUS
 62
    47
 10
301.491898
 20
52.964018
 11
301.491898
 21
40.867282
  0
LINE
  8
型材断面
  6
CONTINUOUS
 62
    47
 10
302.458568
 20
28.827073
 11
301.658565
 21
28.827073
  0
ARC
  8
型材断面
  6
CONTINUOUS
 10
301.591901
 20
28.770551
 40
0.1
 50
180.0
 51
270.0
  0
LINE
  8
型材断面
  6
CONTINUOUS
 62
    47
 10
301.591898
 20
28.67055
 11
301.658565
 21
28.67055
  0
LINE
  8
型材断面
  6
CONTINUOUS
 62
    47
 10
301.768687
 20
28.827283
 11
303.158565
 21
28.827283
  0
LINE
  8
型材断面
  6
CONTINUOUS
 62
    47
 10
303.158565
 20
28.827283
 11
303.158565
 21
40.867282
  0
LINE
  8
型材断面
  6
CONTINUOUS
 62
    47
 10
301.658565
 20
28.67055
 11
301.658565
 21
40.867282
  0
LINE
  8
型材断面
  6
CONTINUOUS
 62
    47
 10
301.491898
 20
28.77055
 11
301.491898
 21
40.867282
  0
LINE
  8
型材断面
  6
CONTINUOUS
 62
    47
 10
304.23858
 20
29.13374
 11
303.158565
 21
29.13374
  0
LINE
  8
型材断面
  6
CONTINUOUS
 62
    47
 10
304.23858
 20
52.600828
 11
303.158565
 21
52.600828
  0
LINE
  8
型材断面
  6
CONTINUOUS
 62
    47
 10
305.5419
 20
53.867312
 11
305.374905
 21
53.867312
  0
LINE
  8
型材断面
  6
CONTINUOUS
 62
    47
 10
305.308598
 20
52.600828
 11
305.374905
 21
53.867312
  0
LINE
  8
型材断面
  6
CONTINUOUS
 62
    47
 10
305.5419
 20
27.867255
 11
305.374905
 21
27.867255
  0
LINE
  8
型材断面
  6
CONTINUOUS
 62
    47
 10
305.308598
 20
29.13374
 11
305.374905
 21
27.867255
  0
LINE
  8
型材断面
  6
CONTINUOUS
 62
    47
 10
122.31891
 20
64.615415
 11
122.31891
 21
65.335628
  0
LINE
  8
型材断面
  6
CONTINUOUS
 62
    47
 10
121.02559
 20
65.292265
 11
121.01559
 21
65.302265
  0
LINE
  8
型材断面
  6
CONTINUOUS
 62
    47
 10
121.02559
 20
65.292265
 11
121.03559
 21
65.302265
  0
LINE
  8
型材断面
  6
CONTINUOUS
 62
    47
 10
121.667822
 20
65.292265
 11
121.657822
 21
65.302265
  0
LINE
  8
型材断面
  6
CONTINUOUS
 62
    47
 10
121.667822
 20
65.292265
 11
121.677823
 21
65.302265
  0
LINE
  8
型材断面
  6
CONTINUOUS
 62
    47
 10
122.085607
 20
65.302265
 11
121.677823
 21
65.302265
  0
LINE
  8
型材断面
  6
CONTINUOUS
 62
    47
 10
121.657822
 20
65.302265
 11
121.03559
 21
65.302265
  0
LINE
  8
型材断面
  6
CONTINUOUS
 62
    47
 10
125.719028
 20
66.802093
 11
125.385695
 21
66.802093
  0
LINE
  8
型材断面
  6
CONTINUOUS
 62
    47
 10
124.719025
 20
64.86893
 11
124.719025
 21
64.272083
  0
LINE
  8
型材断面
  6
CONTINUOUS
 62
    47
 10
124.719012
 20
65.102082
 11
124.885695
 21
67.302082
  0
LINE
  8
型材断面
  6
CONTINUOUS
 62
    47
 10
125.385695
 20
67.302082
 11
124.885695
 21
67.302082
  0
LINE
  8
型材断面
  6
CONTINUOUS
 62
    47
 10
122.58557
 20
66.56875
 11
122.452253
 21
66.56875
  0
LINE
  8
型材断面
  6
CONTINUOUS
 62
    47
 10
122.58557
 20
65.102082
 11
124.719025
 21
65.102082
  0
LINE
  8
型材断面
  6
CONTINUOUS
 62
    47
 10
122.58557
 20
66.56875
 11
122.58557
 21
41.902055
  0
LINE
  8
型材断面
  6
CONTINUOUS
 10
122.152265
 20
66.56875
 11
122.152265
 21
41.902055
  0
LINE
  8
型材断面
  6
CONTINUOUS
 10
122.085607
 20
65.302265
 11
122.085607
 21
41.902055
  0
LINE
  8
型材断面
  6
CONTINUOUS
 62
    47
 10
122.452253
 20
66.56875
 11
122.452253
 21
41.902055
  0
LINE
  8
型材断面
  6
CONTINUOUS
 62
    47
 10
122.31891
 20
66.56875
 11
122.31891
 21
41.902055
  0
LINE
  8
型材断面
  6
CONTINUOUS
 10
124.719025
 20
65.102082
 11
124.719025
 21
41.902055
  0
LINE
  8
型材断面
  6
CONTINUOUS
 10
124.885695
 20
67.302082
 11
124.885695
 21
41.902055
  0
LINE
  8
型材断面
  6
CONTINUOUS
 10
125.385695
 20
67.302082
 11
125.385695
 21
41.902055
  0
LINE
  8
型材断面
  6
CONTINUOUS
 10
125.719028
 20
66.802093
 11
125.719028
 21
41.902055
  0
LINE
  8
型材断面
  6
CONTINUOUS
 62
    47
 10
122.31891
 20
19.188695
 11
122.31891
 21
18.468483
  0
LINE
  8
型材断面
  6
CONTINUOUS
 62
    47
 10
121.02559
 20
18.511845
 11
121.01559
 21
18.501845
  0
LINE
  8
型材断面
  6
CONTINUOUS
 62
    47
 10
121.02559
 20
18.511845
 11
121.03559
 21
18.501845
  0
LINE
  8
型材断面
  6
CONTINUOUS
 62
    47
 10
121.667822
 20
18.511845
 11
121.657822
 21
18.501845
  0
LINE
  8
型材断面
  6
CONTINUOUS
 62
    47
 10
121.667822
 20
18.511845
 11
121.677823
 21
18.501845
  0
LINE
  8
型材断面
  6
CONTINUOUS
 62
    47
 10
122.085607
 20
18.501845
 11
121.677823
 21
18.501845
  0
LINE
  8
型材断面
  6
CONTINUOUS
 62
    47
 10
121.657822
 20
18.501845
 11
121.03559
 21
18.501845
  0
LINE
  8
型材断面
  6
CONTINUOUS
 62
    47
 10
125.719028
 20
17.002017
 11
125.385695
 21
17.002017
  0
LINE
  8
型材断面
  6
CONTINUOUS
 62
    47
 10
124.719025
 20
18.93518
 11
124.719025
 21
19.532028
  0
LINE
  8
型材断面
  6
CONTINUOUS
 62
    47
 10
124.719012
 20
18.702028
 11
124.885695
 21
16.502028
  0
LINE
  8
型材断面
  6
CONTINUOUS
 62
    47
 10
125.385695
 20
16.502028
 11
124.885695
 21
16.502028
  0
LINE
  8
型材断面
  6
CONTINUOUS
 62
    47
 10
122.58557
 20
17.23536
 11
122.452253
 21
17.23536
  0
LINE
  8
型材断面
  6
CONTINUOUS
 62
    47
 10
122.58557
 20
18.702028
 11
124.719025
 21
18.702028
  0
LINE
  8
型材断面
  6
CONTINUOUS
 62
    47
 10
122.58557
 20
17.23536
 11
122.58557
 21
41.902055
  0
LINE
  8
型材断面
  6
CONTINUOUS
 10
122.152265
 20
17.23536
 11
122.152265
 21
41.902055
  0
LINE
  8
型材断面
  6
CONTINUOUS
 10
122.085607
 20
18.501845
 11
122.085607
 21
41.902055
  0
LINE
  8
型材断面
  6
CONTINUOUS
 62
    47
 10
122.452253
 20
17.23536
 11
122.452253
 21
41.902055
  0
LINE
  8
型材断面
  6
CONTINUOUS
 62
    47
 10
122.31891
 20
17.23536
 11
122.31891
 21
41.902055
  0
LINE
  8
型材断面
  6
CONTINUOUS
 10
124.719025
 20
18.702028
 11
124.719025
 21
41.902055
  0
LINE
  8
型材断面
  6
CONTINUOUS
 10
124.885695
 20
16.502028
 11
124.885695
 21
41.902055
  0
LINE
  8
型材断面
  6
CONTINUOUS
 10
125.385695
 20
16.502028
 11
125.385695
 21
41.902055
  0
LINE
  8
型材断面
  6
CONTINUOUS
 10
125.719028
 20
17.002017
 11
125.719028
 21
41.902055
  0
ARC
  8
型材断面
  6
DASHDOT
 10
122.368902
 20
66.908934
 40
49.673598
 50
224.942338
 51
269.942337
  0
LINE
  8
型材断面
  6
CONTINUOUS
 62
    47
 10
119.235578
 20
65.608933
 11
118.435575
 21
65.608933
  0
ARC
  8
型材断面
  6
CONTINUOUS
 10
118.368908
 20
65.665456
 40
0.1
 50
90.0
 51
180.0
  0
LINE
  8
型材断面
  6
CONTINUOUS
 62
    47
 10
118.36891
 20
65.765455
 11
118.435575
 21
65.765455
  0
LINE
  8
型材断面
  6
CONTINUOUS
 62
    47
 10
118.5457
 20
65.608722
 11
119.935575
 21
65.608722
  0
LINE
  8
型材断面
  6
CONTINUOUS
 62
    47
 10
118.435575
 20
65.765455
 11
118.435575
 21
41.902055
  0
LINE
  8
型材断面
  6
CONTINUOUS
 62
    47
 10
118.26891
 20
65.665455
 11
118.26891
 21
41.902055
  0
LINE
  8
型材断面
  6
CONTINUOUS
 62
    47
 10
119.935575
 20
65.608722
 11
119.935575
 21
41.902055
  0
LINE
  8
型材断面
  6
CONTINUOUS
 62
    47
 10
119.235578
 20
18.195177
 11
118.435575
 21
18.195177
  0
ARC
  8
型材断面
  6
CONTINUOUS
 10
118.368908
 20
18.138656
 40
0.1
 50
180.0
 51
270.0
  0
LINE
  8
型材断面
  6
CONTINUOUS
 62
    47
 10
118.36891
 20
18.038655
 11
118.435575
 21
18.038655
  0
LINE
  8
型材断面
  6
CONTINUOUS
 62
    47
 10
118.5457
 20
18.195387
 11
119.935575
 21
18.195387
  0
LINE
  8
型材断面
  6
CONTINUOUS
 62
    47
 10
118.435575
 20
18.038655
 11
118.435575
 21
41.902055
  0
LINE
  8
型材断面
  6
CONTINUOUS
 62
    47
 10
118.26891
 20
18.138655
 11
118.26891
 21
41.902055
  0
LINE
  8
型材断面
  6
CONTINUOUS
 62
    47
 10
119.935575
 20
18.195387
 11
119.935575
 21
41.902055
  0
LINE
  8
型材断面
  6
CONTINUOUS
 62
    47
 10
121.01559
 20
18.501845
 11
119.935575
 21
18.501845
  0
LINE
  8
型材断面
  6
CONTINUOUS
 62
    47
 10
121.01559
 20
65.302265
 11
119.935575
 21
65.302265
  0
INSERT
  2
*GRP_0010
  8
型材断面
  6
DOT
 10
0.0
 20
0.0
  0
LINE
  8
型材断面
  6
CONTINUOUS
 62
    47
 10
122.31891
 20
66.56875
 11
122.151915
 21
66.56875
  0
LINE
  8
型材断面
  6
CONTINUOUS
 62
    47
 10
122.085607
 20
65.302265
 11
122.151915
 21
66.56875
  0
LINE
  8
型材断面
  6
CONTINUOUS
 62
    47
 10
122.31891
 20
17.23536
 11
122.151915
 21
17.23536
  0
LINE
  8
型材断面
  6
CONTINUOUS
 62
    47
 10
122.085607
 20
18.501845
 11
122.151915
 21
17.23536
  0
LINE
  8
型材断面
  6
DASHDOT
 10
-60.723605
 20
-88.160228
 11
-60.723605
 21
63.56872
  0
LINE
  8
型材断面
  6
CONTINUOUS
 10
-17.095907
 20
18.038655
 11
-16.860205
 21
18.274358
  0
LINE
  8
型材断面
  6
CONTINUOUS
 10
-19.59612
 20
20.538868
 11
-19.360418
 21
20.77457
  0
LINE
  8
型材断面
  6
CONTINUOUS
 10
-19.360418
 20
20.77457
 11
-16.860205
 21
18.274358
  0
LINE
  8
型材断面
  6
CONTINUOUS
 10
-19.59612
 20
20.538868
 11
-17.095907
 21
18.038655
  0
LINE
  8
型材断面
  6
CONTINUOUS
 10
-15.323578
 20
16.502028
 11
-16.978057
 21
18.156508
  0
LINE
  8
型材断面
  6
CONTINUOUS
 62
    47
 10
-18.010245
 20
-80.756358
 11
-17.290032
 21
-80.756358
  0
LINE
  8
型材断面
  6
CONTINUOUS
 62
    47
 10
-17.333395
 20
-79.463037
 11
-17.323395
 21
-79.453038
  0
LINE
  8
型材断面
  6
CONTINUOUS
 62
    47
 10
-17.333395
 20
-79.463037
 11
-17.323395
 21
-79.473038
  0
LINE
  8
型材断面
  6
CONTINUOUS
 62
    47
 10
-17.333395
 20
-80.10527
 11
-17.323395
 21
-80.09527
  0
LINE
  8
型材断面
  6
CONTINUOUS
 62
    47
 10
-17.333395
 20
-80.10527
 11
-17.323395
 21
-80.11527
  0
LINE
  8
型材断面
  6
CONTINUOUS
 62
    47
 10
-17.323395
 20
-80.523055
 11
-17.323395
 21
-80.11527
  0
LINE
  8
型材断面
  6
CONTINUOUS
 62
    47
 10
-17.323395
 20
-80.09527
 11
-17.323395
 21
-79.473038
  0
LINE
  8
型材断面
  6
CONTINUOUS
 62
    47
 10
-15.823567
 20
-84.156475
 11
-15.823567
 21
-83.82314
  0
LINE
  8
型材断面
  6
CONTINUOUS
 62
    47
 10
-17.75673
 20
-83.156473
 11
-18.353578
 21
-83.156473
  0
LINE
  8
型材断面
  6
CONTINUOUS
 62
    47
 10
-17.523578
 20
-83.15646
 11
-15.323578
 21
-83.32314
  0
LINE
  8
型材断面
  6
CONTINUOUS
 62
    47
 10
-15.323578
 20
-83.82314
 11
-15.323578
 21
-83.32314
  0
LINE
  8
型材断面
  6
CONTINUOUS
 62
    47
 10
-16.05691
 20
-81.023015
 11
-16.05691
 21
-80.8897
  0
LINE
  8
型材断面
  6
CONTINUOUS
 62
    47
 10
-17.523578
 20
-81.023015
 11
-17.523578
 21
-83.156473
  0
LINE
  8
型材断面
  6
CONTINUOUS
 62
    47
 10
-17.016727
 20
-77.673025
 11
-17.016727
 21
-76.873023
  0
ARC
  8
型材断面
  6
CONTINUOUS
 10
-16.960203
 20
-76.806354
 40
0.1
 50
0.0
 51
90.0
  0
LINE
  8
型材断面
  6
CONTINUOUS
 62
    47
 10
-16.860205
 20
-76.806355
 11
-16.860205
 21
-76.873023
  0
LINE
  8
型材断面
  6
CONTINUOUS
 62
    47
 10
-17.016938
 20
-76.983145
 11
-17.016938
 21
-78.373023
  0
LINE
  8
型材断面
  6
CONTINUOUS
 62
    47
 10
-17.323395
 20
-79.453038
 11
-17.323395
 21
-78.373023
  0
LINE
  8
型材断面
  6
CONTINUOUS
 62
    47
 10
-16.05691
 20
-80.756358
 11
-16.05691
 21
-80.589362
  0
LINE
  8
型材断面
  6
CONTINUOUS
 62
    47
 10
-17.323395
 20
-80.523055
 11
-16.05691
 21
-80.589362
  0
LINE
  8
型材断面
  6
CONTINUOUS
 10
-15.323578
 20
-83.32314
 11
-60.723605
 21
-83.32314
  0
LINE
  8
型材断面
  6
CONTINUOUS
 10
-17.523578
 20
-83.156473
 11
-60.723605
 21
-83.156473
  0
LINE
  8
型材断面
  6
CONTINUOUS
 10
-15.323578
 20
-83.82314
 11
-60.723605
 21
-83.82314
  0
LINE
  8
型材断面
  6
CONTINUOUS
 10
-15.823567
 20
-84.156475
 11
-60.723605
 21
-84.156475
  0
LINE
  8
型材断面
  6
CONTINUOUS
 62
    47
 10
-16.05691
 20
-80.8897
 11
-60.723605
 21
-80.8897
  0
LINE
  8
型材断面
  6
CONTINUOUS
 10
-16.05691
 20
-80.589713
 11
-60.723605
 21
-80.589713
  0
LINE
  8
型材断面
  6
CONTINUOUS
 62
    47
 10
-16.05691
 20
-81.023015
 11
-60.723605
 21
-81.023015
  0
LINE
  8
型材断面
  6
CONTINUOUS
 62
    47
 10
-16.05691
 20
-80.756358
 11
-60.723605
 21
-80.756358
  0
LINE
  8
型材断面
  6
CONTINUOUS
 10
-17.323395
 20
-80.523055
 11
-60.723605
 21
-80.523055
  0
LINE
  8
型材断面
  6
CONTINUOUS
 62
    47
 10
-17.016938
 20
-78.373023
 11
-60.723605
 21
-78.373023
  0
LINE
  8
型材断面
  6
CONTINUOUS
 62
    47
 10
-16.860205
 20
-76.873023
 11
-60.723605
 21
-76.873023
  0
LINE
  8
型材断面
  6
CONTINUOUS
 62
    47
 10
-16.960205
 20
-76.706355
 11
-60.723605
 21
-76.706355
  0
LINE
  8
型材断面
  6
CONTINUOUS
 10
-17.095907
 20
18.038655
 11
-60.723605
 21
18.038655
  0
LINE
  8
型材断面
  6
CONTINUOUS
 10
-15.323578
 20
16.502028
 11
-60.723605
 21
16.502028
  0
LINE
  8
型材断面
  6
CONTINUOUS
 10
-16.05691
 20
17.23536
 11
-60.723605
 21
17.23536
  0
LINE
  8
型材断面
  6
CONTINUOUS
 10
-17.095907
 20
65.765455
 11
-16.860205
 21
65.52975
  0
LINE
  8
型材断面
  6
CONTINUOUS
 10
-19.59612
 20
63.265243
 11
-19.360418
 21
63.02954
  0
LINE
  8
型材断面
  6
CONTINUOUS
 10
-19.360418
 20
63.02954
 11
-16.860205
 21
65.52975
  0
LINE
  8
型材断面
  6
CONTINUOUS
 10
-19.59612
 20
63.265243
 11
-17.095907
 21
65.765455
  0
LINE
  8
型材断面
  6
CONTINUOUS
 10
-15.323578
 20
67.302082
 11
-16.978057
 21
65.647602
  0
LINE
  8
型材断面
  6
CONTINUOUS
 10
-16.05691
 20
66.56875
 11
-60.723605
 21
66.56875
  0
LINE
  8
型材断面
  6
CONTINUOUS
 10
-15.323578
 20
67.302082
 11
-60.723605
 21
67.302082
  0
LINE
  8
型材断面
  6
CONTINUOUS
 10
-17.095907
 20
65.765455
 11
-60.723605
 21
65.765455
  0
LINE
  8
型材断面
  6
CONTINUOUS
 10
-19.360418
 20
42.318722
 11
-16.860205
 21
42.318722
  0
LINE
  8
型材断面
  6
CONTINUOUS
 10
-19.360418
 20
41.48539
 11
-16.860205
 21
41.48539
  0
LINE
  8
型材断面
  6
CONTINUOUS
 10
-15.323578
 20
41.902055
 11
-15.323578
 21
67.302082
  0
LINE
  8
型材断面
  6
CONTINUOUS
 10
-16.05691
 20
41.902055
 11
-16.05691
 21
66.56875
  0
LINE
  8
型材断面
  6
CONTINUOUS
 10
-19.360418
 20
42.318722
 11
-19.360418
 21
63.02954
  0
LINE
  8
型材断面
  6
CONTINUOUS
 10
-16.860205
 20
18.274358
 11
-16.860205
 21
65.52975
  0
LINE
  8
型材断面
  6
CONTINUOUS
 10
-16.05691
 20
17.23536
 11
-16.05691
 21
41.902055
  0
LINE
  8
型材断面
  6
CONTINUOUS
 10
-15.323578
 20
16.502028
 11
-15.323578
 21
41.902055
  0
LINE
  8
型材断面
  6
CONTINUOUS
 10
-19.360418
 20
20.77457
 11
-19.360418
 21
41.48539
  0
LINE
  8
型材断面
  6
DASHDOT
 10
-19.056938
 20
-88.160228
 11
-19.056938
 21
63.56872
  0
LINE
  8
型材断面
  6
DASHDOT
 10
130.329942
 20
20.235388
 11
-102.39027
 21
20.235388
  0
LINE
  8
型材断面
  6
CONTINUOUS
 62
    47
 10
-103.436965
 20
-80.756358
 11
-104.157178
 21
-80.756358
  0
LINE
  8
型材断面
  6
CONTINUOUS
 62
    47
 10
-104.113815
 20
-79.463037
 11
-104.123815
 21
-79.453038
  0
LINE
  8
型材断面
  6
CONTINUOUS
 62
    47
 10
-104.113815
 20
-79.463037
 11
-104.123815
 21
-79.473038
  0
LINE
  8
型材断面
  6
CONTINUOUS
 62
    47
 10
-104.113815
 20
-80.10527
 11
-104.123815
 21
-80.09527
  0
LINE
  8
型材断面
  6
CONTINUOUS
 62
    47
 10
-104.113815
 20
-80.10527
 11
-104.123815
 21
-80.11527
  0
LINE
  8
型材断面
  6
CONTINUOUS
 62
    47
 10
-104.123815
 20
-80.523055
 11
-104.123815
 21
-80.11527
  0
LINE
  8
型材断面
  6
CONTINUOUS
 62
    47
 10
-104.123815
 20
-80.09527
 11
-104.123815
 21
-79.473038
  0
LINE
  8
型材断面
  6
CONTINUOUS
 62
    47
 10
-105.623643
 20
-84.156475
 11
-105.623643
 21
-83.82314
  0
LINE
  8
型材断面
  6
CONTINUOUS
 62
    47
 10
-103.69048
 20
-83.156473
 11
-103.093632
 21
-83.156473
  0
LINE
  8
型材断面
  6
CONTINUOUS
 62
    47
 10
-103.923632
 20
-83.15646
 11
-106.123632
 21
-83.32314
  0
LINE
  8
型材断面
  6
CONTINUOUS
 62
    47
 10
-106.123632
 20
-83.82314
 11
-106.123632
 21
-83.32314
  0
LINE
  8
型材断面
  6
CONTINUOUS
 62
    47
 10
-105.3903
 20
-81.023015
 11
-105.3903
 21
-80.8897
  0
LINE
  8
型材断面
  6
CONTINUOUS
 62
    47
 10
-103.923632
 20
-81.023015
 11
-103.923632
 21
-83.156473
  0
LINE
  8
型材断面
  6
CONTINUOUS
 62
    47
 10
-104.430483
 20
-77.673025
 11
-104.430483
 21
-76.873023
  0
ARC
  8
型材断面
  6
CONTINUOUS
 10
-104.487006
 20
-76.806354
 40
0.1
 50
90.0
 51
180.0
  0
LINE
  8
型材断面
  6
CONTINUOUS
 62
    47
 10
-104.587005
 20
-76.806355
 11
-104.587005
 21
-76.873023
  0
LINE
  8
型材断面
  6
CONTINUOUS
 62
    47
 10
-104.430272
 20
-76.983145
 11
-104.430272
 21
-78.373023
  0
LINE
  8
型材断面
  6
CONTINUOUS
 62
    47
 10
-104.123815
 20
-79.453038
 11
-104.123815
 21
-78.373023
  0
LINE
  8
型材断面
  6
CONTINUOUS
 62
    47
 10
-105.3903
 20
-80.756358
 11
-105.3903
 21
-80.589362
  0
LINE
  8
型材断面
  6
CONTINUOUS
 62
    47
 10
-104.123815
 20
-80.523055
 11
-105.3903
 21
-80.589362
  0
LINE
  8
型材断面
  6
CONTINUOUS
 10
-106.123632
 20
-83.32314
 11
-60.723605
 21
-83.32314
  0
LINE
  8
型材断面
  6
CONTINUOUS
 10
-103.923632
 20
-83.156473
 11
-60.723605
 21
-83.156473
  0
LINE
  8
型材断面
  6
CONTINUOUS
 10
-106.123632
 20
-83.82314
 11
-60.723605
 21
-83.82314
  0
LINE
  8
型材断面
  6
CONTINUOUS
 10
-105.623643
 20
-84.156475
 11
-60.723605
 21
-84.156475
  0
LINE
  8
型材断面
  6
CONTINUOUS
 62
    47
 10
-105.3903
 20
-80.8897
 11
-60.723605
 21
-80.8897
  0
LINE
  8
型材断面
  6
CONTINUOUS
 10
-105.3903
 20
-80.589713
 11
-60.723605
 21
-80.589713
  0
LINE
  8
型材断面
  6
CONTINUOUS
 62
    47
 10
-105.3903
 20
-81.023015
 11
-60.723605
 21
-81.023015
  0
LINE
  8
型材断面
  6
CONTINUOUS
 62
    47
 10
-105.3903
 20
-80.756358
 11
-60.723605
 21
-80.756358
  0
LINE
  8
型材断面
  6
CONTINUOUS
 10
-104.123815
 20
-80.523055
 11
-60.723605
 21
-80.523055
  0
LINE
  8
型材断面
  6
CONTINUOUS
 62
    47
 10
-104.430272
 20
-78.373023
 11
-60.723605
 21
-78.373023
  0
LINE
  8
型材断面
  6
CONTINUOUS
 62
    47
 10
-104.587005
 20
-76.873023
 11
-60.723605
 21
-76.873023
  0
LINE
  8
型材断面
  6
CONTINUOUS
 62
    47
 10
-104.487005
 20
-76.706355
 11
-60.723605
 21
-76.706355
  0
LINE
  8
型材断面
  6
CONTINUOUS
 10
-104.351303
 20
18.038655
 11
-104.587005
 21
18.274358
  0
LINE
  8
型材断面
  6
CONTINUOUS
 10
-101.85109
 20
20.538868
 11
-102.086792
 21
20.77457
  0
LINE
  8
型材断面
  6
CONTINUOUS
 10
-102.086792
 20
20.77457
 11
-104.587005
 21
18.274358
  0
LINE
  8
型材断面
  6
CONTINUOUS
 10
-101.85109
 20
20.538868
 11
-104.351303
 21
18.038655
  0
LINE
  8
型材断面
  6
CONTINUOUS
 10
-106.123632
 20
16.502028
 11
-104.469153
 21
18.156508
  0
LINE
  8
型材断面
  6
CONTINUOUS
 10
-104.351303
 20
18.038655
 11
-60.723605
 21
18.038655
  0
LINE
  8
型材断面
  6
CONTINUOUS
 10
-106.123632
 20
16.502028
 11
-60.723605
 21
16.502028
  0
LINE
  8
型材断面
  6
CONTINUOUS
 10
-105.3903
 20
17.23536
 11
-60.723605
 21
17.23536
  0
LINE
  8
型材断面
  6
CONTINUOUS
 10
-104.351303
 20
65.765455
 11
-104.587005
 21
65.52975
  0
LINE
  8
型材断面
  6
CONTINUOUS
 10
-101.85109
 20
63.265243
 11
-102.086792
 21
63.02954
  0
LINE
  8
型材断面
  6
CONTINUOUS
 10
-102.086792
 20
63.02954
 11
-104.587005
 21
65.52975
  0
LINE
  8
型材断面
  6
CONTINUOUS
 10
-101.85109
 20
63.265243
 11
-104.351303
 21
65.765455
  0
LINE
  8
型材断面
  6
CONTINUOUS
 10
-106.123632
 20
67.302082
 11
-104.469153
 21
65.647602
  0
LINE
  8
型材断面
  6
CONTINUOUS
 10
-105.3903
 20
66.56875
 11
-60.723605
 21
66.56875
  0
LINE
  8
型材断面
  6
CONTINUOUS
 10
-106.123632
 20
67.302082
 11
-60.723605
 21
67.302082
  0
LINE
  8
型材断面
  6
CONTINUOUS
 10
-104.351303
 20
65.765455
 11
-60.723605
 21
65.765455
  0
LINE
  8
型材断面
  6
DASHDOT
 10
130.329942
 20
41.902055
 11
-102.39027
 21
41.902055
  0
LINE
  8
型材断面
  6
CONTINUOUS
 10
-102.086792
 20
42.318722
 11
-104.587005
 21
42.318722
  0
LINE
  8
型材断面
  6
CONTINUOUS
 10
-102.086792
 20
41.48539
 11
-104.587005
 21
41.48539
  0
LINE
  8
型材断面
  6
CONTINUOUS
 10
-102.086792
 20
42.318722
 11
-102.086792
 21
63.02954
  0
LINE
  8
型材断面
  6
CONTINUOUS
 10
-104.587005
 20
18.274358
 11
-104.587005
 21
65.52975
  0
LINE
  8
型材断面
  6
CONTINUOUS
 10
-106.123632
 20
41.902055
 11
-106.123632
 21
67.302082
  0
LINE
  8
型材断面
  6
CONTINUOUS
 10
-105.3903
 20
41.902055
 11
-105.3903
 21
66.56875
  0
LINE
  8
型材断面
  6
CONTINUOUS
 10
-106.123632
 20
16.502028
 11
-106.123632
 21
41.902055
  0
LINE
  8
型材断面
  6
CONTINUOUS
 10
-105.3903
 20
17.23536
 11
-105.3903
 21
41.902055
  0
LINE
  8
型材断面
  6
CONTINUOUS
 10
-102.086792
 20
20.77457
 11
-102.086792
 21
41.48539
  0
LINE
  8
型材断面
  6
DASHDOT
 10
-102.39027
 20
-88.160228
 11
-102.39027
 21
63.56872
  0
LINE
  8
型材断面
  6
DASHDOT
 10
-102.39027
 20
63.56872
 11
-19.056938
 21
63.56872
  0
LINE
  8
型材断面
  6
CONTINUOUS
 10
-21.056938
 20
17.628575
 11
-21.652995
 21
15.03807
  0
LINE
  8
型材断面
  6
CONTINUOUS
 10
-21.056938
 20
17.628575
 11
-20.46088
 21
15.03807
  0
LINE
  8
型材断面
  6
CONTINUOUS
 10
-20.46088
 20
15.03807
 11
-21.652995
 21
15.03807
  0
LINE
  8
型材断面
  6
CONTINUOUS
 10
-100.390272
 20
17.628575
 11
-99.794215
 21
15.03807
  0
LINE
  8
型材断面
  6
CONTINUOUS
 10
-100.390272
 20
17.628575
 11
-100.98633
 21
15.03807
  0
LINE
  8
型材断面
  6
CONTINUOUS
 10
-100.98633
 20
15.03807
 11
-99.794215
 21
15.03807
  0
LINE
  8
型材断面
  6
CONTINUOUS
 10
-105.0204
 20
41.902055
 11
-107.610908
 21
43.397685
  0
LINE
  8
型材断面
  6
CONTINUOUS
 10
-105.0204
 20
41.902055
 11
-107.610908
 21
40.406425
  0
LINE
  8
型材断面
  6
CONTINUOUS
 10
-107.610908
 20
40.406425
 11
-107.610908
 21
43.397685
  0
LINE
  8
型材断面
  6
CONTINUOUS
 10
-85.723603
 20
66.19885
 11
-87.219233
 21
68.789358
  0
LINE
  8
型材断面
  6
CONTINUOUS
 10
-85.723603
 20
66.19885
 11
-84.227973
 21
68.789358
  0
LINE
  8
型材断面
  6
CONTINUOUS
 10
-84.227973
 20
68.789358
 11
-87.219233
 21
68.789358
  0
LINE
  8
型材断面
  6
CONTINUOUS
 10
-143.242478
 20
101.546192
 11
-142.646422
 21
98.955685
  0
LINE
  8
型材断面
  6
CONTINUOUS
 10
-143.242478
 20
101.546192
 11
-143.838535
 21
98.955685
  0
LINE
  8
型材断面
  6
CONTINUOUS
 10
-143.838535
 20
98.955685
 11
-142.646422
 21
98.955685
  0
LINE
  8
型材断面
  6
CONTINUOUS
 10
-149.265065
 20
95.676793
 11
-103.023287
 21
95.676793
  0
LINE
  8
型材断面
  6
CONTINUOUS
 10
-143.242478
 20
108.076067
 11
-144.738108
 21
105.48556
  0
LINE
  8
型材断面
  6
CONTINUOUS
 10
-143.242478
 20
108.076067
 11
-141.746847
 21
105.48556
  0
LINE
  8
型材断面
  6
CONTINUOUS
 10
-141.746847
 20
105.48556
 11
-144.738108
 21
105.48556
  0
LINE
  8
型材断面
  6
CONTINUOUS
 10
-149.265065
 20
104.546965
 11
-103.023287
 21
104.546965
  0
LINE
  8
型材断面
  6
CONTINUOUS
 10
-149.265065
 20
89.88876
 11
-103.023287
 21
89.88876
  0
LINE
  8
型材断面
  6
CONTINUOUS
 10
-85.723603
 20
17.60526
 11
-87.219233
 21
15.014753
  0
LINE
  8
型材断面
  6
CONTINUOUS
 10
-85.723603
 20
17.60526
 11
-84.227973
 21
15.014753
  0
LINE
  8
型材断面
  6
CONTINUOUS
 10
-84.227973
 20
15.014753
 11
-87.219233
 21
15.014753
  0
LINE
  8
型材断面
  6
CONTINUOUS
 10
-16.42681
 20
41.902055
 11
-13.836302
 21
43.397685
  0
LINE
  8
型材断面
  6
CONTINUOUS
 10
-16.42681
 20
41.902055
 11
-13.836302
 21
40.406425
  0
LINE
  8
型材断面
  6
CONTINUOUS
 10
-13.836302
 20
40.406425
 11
-13.836302
 21
43.397685
  0
LINE
  8
型材断面
  6
CONTINUOUS
 10
-35.723607
 20
66.19885
 11
-34.227977
 21
68.789358
  0
LINE
  8
型材断面
  6
CONTINUOUS
 10
-35.723607
 20
66.19885
 11
-37.219237
 21
68.789358
  0
LINE
  8
型材断面
  6
CONTINUOUS
 10
-37.219237
 20
68.789358
 11
-34.227977
 21
68.789358
  0
LINE
  8
型材断面
  6
CONTINUOUS
 10
-35.723607
 20
17.60526
 11
-34.227977
 21
15.014753
  0
LINE
  8
型材断面
  6
CONTINUOUS
 10
-35.723607
 20
17.60526
 11
-37.219237
 21
15.014753
  0
LINE
  8
型材断面
  6
CONTINUOUS
 10
-37.219237
 20
15.014753
 11
-34.227977
 21
15.014753
  0
POLYLINE
  8
型材断面
  6
DASHDOT
 66
     1
  0
VERTEX
  8
型材断面
 10
-102.39027
 20
20.235388
  0
VERTEX
  8
型材断面
 10
-60.723605
 20
63.56872
  0
VERTEX
  8
型材断面
 10
-19.056938
 20
20.235388
  0
SEQEND
  0
LINE
  8
型材断面
  6
DASHDOT
 10
-40.306938
 20
63.56872
 11
-102.39027
 21
63.56872
  0
LINE
  8
型材断面
  6
CONTINUOUS
 10
-19.59612
 20
63.265243
 11
-39.473603
 21
63.265243
  0
LINE
  8
型材断面
  6
CONTINUOUS
 10
-40.306938
 20
63.265243
 11
-60.723605
 21
63.265243
  0
LINE
  8
型材断面
  6
DASHDOT
 10
130.329942
 20
63.56872
 11
-102.39027
 21
63.56872
  0
LINE
  8
型材断面
  6
CONTINUOUS
 10
-19.59612
 20
20.538868
 11
-39.473603
 21
20.538868
  0
LINE
  8
型材断面
  6
CONTINUOUS
 10
-40.306938
 20
20.538868
 11
-60.723605
 21
20.538868
  0
LINE
  8
型材断面
  6
CONTINUOUS
 10
-101.85109
 20
63.265243
 11
-81.973607
 21
63.265243
  0
LINE
  8
型材断面
  6
CONTINUOUS
 10
-81.140272
 20
63.265243
 11
-60.723605
 21
63.265243
  0
LINE
  8
型材断面
  6
CONTINUOUS
 10
-101.85109
 20
20.538868
 11
-81.973607
 21
20.538868
  0
LINE
  8
型材断面
  6
CONTINUOUS
 10
-81.140272
 20
20.538868
 11
-60.723605
 21
20.538868
  0
LINE
  8
型材断面
  6
CONTINUOUS
 10
-61.973605
 20
21.3722
 11
-61.973605
 21
62.43191
  0
LINE
  8
型材断面
  6
CONTINUOUS
 10
-59.473605
 20
21.3722
 11
-59.473605
 21
62.43191
  0
LINE
  8
ガラス
  6
CONTINUOUS
 10
227.78031
 20
-126.06691
 11
227.78031
 21
-95.81691
  0
LINE
  8
ガラス
  6
CONTINUOUS
 10
258.03031
 20
-95.81691
 11
227.78031
 21
-95.81691
  0
LINE
  8
ガラス
  6
CONTINUOUS
 10
258.03031
 20
-95.81691
 11
258.03031
 21
-126.06691
  0
LINE
  8
ガラス
  6
CONTINUOUS
 10
227.78031
 20
-126.06691
 11
258.03031
 21
-126.06691
  0
INSERT
  2
*GRP_0004
  8
ガラス
  6
CONTINUOUS
 10
0.0
 20
0.0
  0
POLYLINE
  8
ガラス
  6
CONTINUOUS
 66
     1
 70
     1
  0
VERTEX
  8
ガラス
 10
124.999892
 20
-45.716288
  0
VERTEX
  8
ガラス
 10
83.789892
 20
-45.716288
  0
VERTEX
  8
ガラス
 10
83.789892
 20
-89.216287
  0
VERTEX
  8
ガラス
 10
124.999892
 20
-89.216287
  0
SEQEND
  0
TEXT
  7
TextStyle03
  8
文字
  6
CONTINUOUS
 10
238.25
 20
-117.85
  1
網入り6.8t
 40
3.0
 72
     5
 11
254.9375
 21
-117.85
  0
TEXT
  7
TextStyle03
  8
文字
  6
CONTINUOUS
 10
244.875
 20
-123.1
  1
×１枚
 40
3.0
 72
     5
 11
254.625
 21
-123.1
  0
TEXT
  7
TextStyle03
  8
文字
  6
CONTINUOUS
 10
222.6
 20
-44.375
  1
は排水穴位置を示す
 40
3.0
 72
     5
 11
252.6
 21
-44.375
  0
TEXT
  7
TextStyle03
  8
文字
  6
CONTINUOUS
 10
217.0
 20
-62.75
  1
アンカー数量　４ヶ所
 40
3.0
 72
     5
 11
250.375
 21
-62.75
  0
TEXT
  7
TextStyle03
  8
文字
  6
CONTINUOUS
 10
222.6
 20
-52.225
  1
はケーシング位置を示す
 40
3.0
 72
     5
 11
259.35
 21
-52.225
  0
TEXT
  7
TextStyle03
  8
文字
  6
CONTINUOUS
 10
222.6
 20
-55.6
  1
２ヶ所中1ヶ所に設定
 40
3.0
 72
     5
 11
254.2875
 21
-55.6
  0
TEXT
  7
TextStyle03
  8
文字
  6
CONTINUOUS
 10
295.625
 20
21.4
  1
45°
 40
3.0
 50
90.0
 72
     5
 11
295.625
 21
27.775
  0
TEXT
  7
TextStyle03
  8
文字
  6
CONTINUOUS
 10
104.25
 20
12.375
  1
45°
 40
3.0
 50
90.0
 72
     5
 11
104.25
 21
18.75
  0
TEXT
  7
TextStyle03
  8
文字
  6
CONTINUOUS
 10
64.95
 20
116.5
  1
シリーズ：ＴＦＦＨＬ
 40
5.0
 72
     5
 11
120.575
 21
116.5
  0
TEXT
  7
TextStyle03
  8
文字
  6
CONTINUOUS
 10
64.95
 20
110.875
  1
　　　　　（片側開閉）1300×2500タイプ
 40
5.0
 72
     5
 11
171.2
 21
110.875
  0
TEXT
  7
TextStyle03
  8
文字
  6
CONTINUOUS
 10
64.95
 20
105.25
  1
図面名　：外観姿図
 40
5.0
 72
     5
 11
114.95
 21
105.25
  0
TEXT
  7
TextStyle03
  8
文字
  6
CONTINUOUS
 10
64.95
 20
99.625
  1
　　　　　　
 40
5.0
 72
     5
 11
98.075
 21
99.625
  0
TEXT
  7
TextStyle03
  8
文字
  6
CONTINUOUS
 10
-140.475
 20
105.675
  1
は排水穴位置を示す
 40
3.0
 72
     5
 11
-110.475
 21
105.675
  0
TEXT
  7
TextStyle03
  8
文字
  6
CONTINUOUS
 10
-144.2
 20
90.8
  1
アンカー数量　１２ヶ所
 40
3.0
 72
     5
 11
-107.45
 21
90.8
  0
TEXT
  7
TextStyle03
  8
文字
  6
CONTINUOUS
 10
-140.475
 20
100.15
  1
はケーシング位置を示す
 40
3.0
 72
     5
 11
-103.725
 21
100.15
  0
TEXT
  7
TextStyle03
  8
文字
  6
CONTINUOUS
 10
-140.475
 20
96.775
  1
２ヶ所中1ヶ所に設定
 40
3.0
 72
     5
 11
-108.7875
 21
96.775
  0
TEXT
  7
TextStyle03
  8
文字
  6
CONTINUOUS
 10
-139.9
 20
30.8
  1
アンカーピッチ
 40
3.0
 50
90.0
 72
     5
 11
-139.9
 21
54.05
  0
TEXT
  7
TextStyle03
  8
文字
  6
CONTINUOUS
 10
-95.75
 20
101.575
  1
アンカーピッチ
 40
3.0
 72
     5
 11
-72.5
 21
101.575
  0
LINE
  8
文字
  6
CONTINUOUS
 10
-81.140272
 20
20.538868
 11
-81.140272
 21
18.038655
  0
LINE
  8
文字
  6
CONTINUOUS
 10
-81.973607
 20
20.538868
 11
-81.973607
 21
18.038655
  0
LINE
  8
文字
  6
CONTINUOUS
 10
-39.473603
 20
20.538868
 11
-39.473603
 21
18.038655
  0
LINE
  8
文字
  6
CONTINUOUS
 10
-40.306938
 20
20.538868
 11
-40.306938
 21
18.038655
  0
LINE
  8
文字
  6
CONTINUOUS
 10
-81.140272
 20
63.265243
 11
-81.140272
 21
65.765455
  0
LINE
  8
文字
  6
CONTINUOUS
 10
-81.973607
 20
63.265243
 11
-81.973607
 21
65.765455
  0
LINE
  8
文字
  6
CONTINUOUS
 10
-39.473603
 20
63.265243
 11
-39.473603
 21
65.765455
  0
LINE
  8
文字
  6
CONTINUOUS
 10
-40.306938
 20
63.265243
 11
-40.306938
 21
65.765455
  0
LINE
  8
文字
  6
CONTINUOUS
 10
-61.973605
 20
21.3722
 11
-59.473605
 21
21.3722
  0
LINE
  8
文字
  6
CONTINUOUS
 10
-61.973605
 20
62.43191
 11
-59.473605
 21
62.43191
  0
TEXT
  7
TextStyle03
  8
文字
  6
CONTINUOUS
 10
104.9
 20
-81.25
  1
網入り6.8t
 40
3.0
 72
     5
 11
121.5875
 21
-81.25
  0
TEXT
  7
TextStyle03
  8
文字
  6
CONTINUOUS
 10
111.525
 20
-86.5
  1
×２枚
 40
3.0
 72
     5
 11
121.275
 21
-86.5
  0
INSERT
  2
*DIM_0002
  8
寸法
  6
CONTINUOUS
 10
0.0
 20
0.0
  0
INSERT
  2
*DIM_0003
  8
寸法
  6
CONTINUOUS
 10
0.0
 20
0.0
  0
INSERT
  2
*DIM_0005
  8
寸法
  6
CONTINUOUS
 10
0.0
 20
0.0
  0
INSERT
  2
*DIM_0006
  8
寸法
  6
CONTINUOUS
 10
0.0
 20
0.0
  0
INSERT
  2
*DIM_0007
  8
寸法
  6
CONTINUOUS
 10
0.0
 20
0.0
  0
INSERT
  2
*DIM_0008
  8
寸法
  6
CONTINUOUS
 10
0.0
 20
0.0
  0
INSERT
  2
*DIM_0011
  8
寸法
  6
CONTINUOUS
 10
0.0
 20
0.0
  0
INSERT
  2
*DIM_0012
  8
寸法
  6
CONTINUOUS
 10
0.0
 20
0.0
  0
INSERT
  2
*DIM_0013
  8
寸法
  6
CONTINUOUS
 10
0.0
 20
0.0
  0
INSERT
  2
*DIM_0015
  8
寸法
  6
CONTINUOUS
 10
0.0
 20
0.0
  0
INSERT
  2
*DIM_0016
  8
寸法
  6
CONTINUOUS
 10
0.0
 20
0.0
  0
INSERT
  2
*DIM_0017
  8
寸法
  6
CONTINUOUS
 10
0.0
 20
0.0
  0
INSERT
  2
*DIM_0018
  8
寸法
  6
CONTINUOUS
 10
0.0
 20
0.0
  0
INSERT
  2
*DIM_0019
  8
寸法
  6
CONTINUOUS
 10
0.0
 20
0.0
  0
INSERT
  2
*DIM_0020
  8
寸法
  6
CONTINUOUS
 10
0.0
 20
0.0
  0
INSERT
  2
*DIM_0021
  8
寸法
  6
CONTINUOUS
 10
0.0
 20
0.0
  0
INSERT
  2
*DIM_0022
  8
寸法
  6
CONTINUOUS
 10
0.0
 20
0.0
  0
INSERT
  2
*DIM_0023
  8
寸法
  6
CONTINUOUS
 10
0.0
 20
0.0
  0
INSERT
  2
*DIM_0024
  8
寸法
  6
CONTINUOUS
 10
0.0
 20
0.0
  0
INSERT
  2
*DIM_0025
  8
寸法
  6
CONTINUOUS
 10
0.0
 20
0.0
  0
INSERT
  2
*DIM_0026
  8
寸法
  6
CONTINUOUS
 10
0.0
 20
0.0
  0
INSERT
  2
*DIM_0027
  8
寸法
  6
CONTINUOUS
 10
0.0
 20
0.0
  0
INSERT
  2
*GRP_0009
  8
別途部材
  6
CONTINUOUS
 10
0.0
 20
0.0
  0
INSERT
  2
*GRP_0014
  8
別途部材
  6
CONTINUOUS
 10
0.0
 20
0.0
  0
LINE
  8
曲げ物
  6
CONTINUOUS
 10
-37.469535
 20
43.858343
 11
-41.164847
 21
40.16303
  0
LINE
  8
曲げ物
  6
CONTINUOUS
 10
-38.173005
 20
42.322233
 11
-39.628735
 21
40.866503
  0
LINE
  8
曲げ物
  6
CONTINUOUS
 10
-39.005645
 20
43.154873
 11
-40.461375
 21
41.699143
  0
LINE
  8
曲げ物
  6
CONTINUOUS
 10
-78.69345
 20
43.858343
 11
-82.388763
 21
40.16303
  0
LINE
  8
曲げ物
  6
CONTINUOUS
 10
-79.39692
 20
42.322233
 11
-80.85265
 21
40.866503
  0
LINE
  8
曲げ物
  6
CONTINUOUS
 10
-80.22956
 20
43.154873
 11
-81.68529
 21
41.699143
  0
ENDSEC
  0
EOF
