  0
SECTION
  2
HEADER
  9
$EXTMIN
 10
-420.5
 20
-297.0
  9
$EXTMAX
 10
420.5
 20
297.0
  9
$PDMODE
 70
    32
  9
$PDSIZE
 40
1.5
  9
$LTSCALE
 40
10.0
  0
ENDSEC
  0
SECTION
  2
TABLES
  0
TABLE
  2
LTYPE
 70
    15
  0
LTYPE
  2
CONTINUOUS
 70
    64
  3
実線
 72
    65
 73
     0
 40
0.0
  0
LTYPE
  2
DASHED
 70
    64
  3
破線A
 72
    65
 73
     2
 40
0.6
 49
0.4
 49
-0.2
  0
LTYPE
  2
DASHEDX2
 70
    64
  3
破線B
 72
    65
 73
     2
 40
1.3
 49
0.9
 49
-0.4
  0
LTYPE
  2
DASHDOT
 70
    64
  3
１点鎖線A
 72
    65
 73
     4
 40
0.5375
 49
0.375
 49
-0.05
 49
0.0625
 49
-0.05
  0
LTYPE
  2
DASHDOTX2
 70
    64
  3
１点鎖線B
 72
    65
 73
     4
 40
1.075
 49
0.75
 49
-0.1
 49
0.125
 49
-0.1
  0
LTYPE
  2
DIVIDE2
 70
    64
  3
２点鎖線A
 72
    65
 73
     6
 40
0.5125
 49
0.3
 49
-0.0375
 49
0.05
 49
-0.0375
 49
0.05
 49
-0.0375
  0
LTYPE
  2
DIVIDE
 70
    64
  3
２点鎖線B
 72
    65
 73
     6
 40
1.05
 49
0.55
 49
-0.1
 49
0.1
 49
-0.1
 49
0.1
 49
-0.1
  0
LTYPE
  2
DOT
 70
    64
  3
点線A
 72
    65
 73
     2
 40
0.1125
 49
0.0625
 49
-0.05
  0
LTYPE
  2
DOTX2
 70
    64
  3
点線B
 72
    65
 73
     2
 40
0.275
 49
0.15
 49
-0.125
  0
LTYPE
  2
CONTINUOUS
 70
    64
  3
実線
 72
    65
 73
     0
 40
0.0
  0
LTYPE
  2
CONTINUOUS
 70
    64
  3
実線
 72
    65
 73
     0
 40
0.0
  0
LTYPE
  2
CONTINUOUS
 70
    64
  3
実線
 72
    65
 73
     0
 40
0.0
  0
LTYPE
  2
CONTINUOUS
 70
    64
  3
実線
 72
    65
 73
     0
 40
0.0
  0
LTYPE
  2
CONTINUOUS
 70
    64
  3
実線
 72
    65
 73
     0
 40
0.0
  0
LTYPE
  2
CONTINUOUS
 70
    64
  3
実線
 72
    65
 73
     0
 40
0.0
  0
ENDTAB
  0
TABLE
  2
LAYER
 70
    34
  0
LAYER
  2
通り芯
 70
     0
 62
    15
  6
CONTINUOUS
  0
LAYER
  2
補助線
 70
     0
 62
    16
  6
CONTINUOUS
  0
LAYER
  2
躯体
 70
     0
 62
    31
  6
CONTINUOUS
  0
LAYER
  2
型材
 70
     0
 62
    32
  6
CONTINUOUS
  0
LAYER
  2
型材断面
 70
     0
 62
    47
  6
CONTINUOUS
  0
LAYER
  2
ガラス
 70
     0
 62
    48
  6
CONTINUOUS
  0
LAYER
  2
ゴム等
 70
     0
 62
    63
  6
CONTINUOUS
  0
LAYER
  2
ボルト／ビス
 70
     0
 62
    64
  6
CONTINUOUS
  0
LAYER
  2
文字
 70
     0
 62
    14
  6
CONTINUOUS
  0
LAYER
  2
寸法
 70
     0
 62
    29
  6
CONTINUOUS
  0
LAYER
  2
ﾊｯﾁﾝｸﾞ
 70
     0
 62
    95
  6
CONTINUOUS
  0
LAYER
  2
別途部材
 70
     0
 62
    96
  6
CONTINUOUS
  0
LAYER
  2
曲げ物
 70
     0
 62
   111
  6
CONTINUOUS
  0
LAYER
  2
鉄骨等
 70
     0
 62
   112
  6
CONTINUOUS
  0
LAYER
  2
St
 70
     0
 62
   127
  6
CONTINUOUS
  0
LAYER
  2
その他部品等
 70
     0
 62
   128
  6
CONTINUOUS
  0
LAYER
  2
ｶﾞｽｹｯﾄ
 70
     0
 62
   143
  6
CONTINUOUS
  0
LAYER
  2
細線01
 70
     0
 62
   144
  6
CONTINUOUS
  0
LAYER
  2
細線02
 70
     0
 62
   159
  6
CONTINUOUS
  0
LAYER
  2
ｽｹｯﾁ
 70
     0
 62
    19
  6
CONTINUOUS
  0
LAYER
  2
4
 70
     0
 62
     6
  6
CONTINUOUS
  0
LAYER
  2
ﾚｲﾔ3
 70
     0
 62
    15
  6
CONTINUOUS
  0
LAYER
  2
外形線
 70
     0
 62
     7
  6
CONTINUOUS
  0
LAYER
  2
部品
 70
     0
 62
    14
  6
CONTINUOUS
  0
LAYER
  2
サッシ芯
 70
     0
 62
    17
  6
DASHDOTX2
  0
LAYER
  2
寸法線
 70
     0
 62
    28
  6
CONTINUOUS
  0
LAYER
  2
姿図外形線
 70
     0
 62
   249
  6
CONTINUOUS
  0
LAYER
  2
姿補助線
 70
     0
 62
    30
  6
CONTINUOUS
  0
LAYER
  2
透視線
 70
     0
 62
     3
  6
DOT
  0
LAYER
  2
用紙
 70
     0
 62
     7
  6
CONTINUOUS
  0
LAYER
  2
実線図枠
 70
     0
 62
     3
  6
CONTINUOUS
  0
LAYER
  2
補助図枠
 70
     0
 62
     4
  6
CONTINUOUS
  0
LAYER
  2
建具記号
 70
     0
 62
     5
  6
CONTINUOUS
  0
LAYER
  2
補助文字
 70
     0
 62
    10
  6
CONTINUOUS
  0
ENDTAB
  0
TABLE
  2
STYLE
 70
    10
  0
STYLE
  2
STANDARD
 70
     0
 40
1.0
 41
1.0
 42
1.0
 50
0.0
 71
     0
  3
TXT
  4
BIGFONT
  0
STYLE
  2
TATE
 70
     4
 40
1.0
 41
1.0
 42
1.0
 50
0.0
 71
     0
  3
TXT
  4
BIGFONT
  0
STYLE
  2
TextStyle03
 70
     0
 40
1.0
 41
1.0
 42
1.0
 50
0.0
 71
     0
  3
MONOTXT
  4
BIGFONT
  0
STYLE
  2
TextStyle04
 70
     0
 40
1.0
 41
1.0
 42
1.0
 50
0.0
 71
     0
  3
MONOTXT
  4
BIGFONT
  0
STYLE
  2
TextStyle05
 70
     0
 40
1.0
 41
1.0
 42
1.0
 50
0.0
 71
     0
  3
MONOTXT
  4
BIGFONT
  0
STYLE
  2
TextStyle06
 70
     0
 40
1.0
 41
1.0
 42
1.0
 50
0.0
 71
     0
  3
MONOTXT
  4
BIGFONT
  0
STYLE
  2
TextStyle07
 70
     0
 40
1.0
 41
1.0
 42
1.0
 50
0.0
 71
     0
  3
MONOTXT
  4
BIGFONT
  0
STYLE
  2
TextStyle08
 70
     0
 40
1.0
 41
1.0
 42
1.0
 50
0.0
 71
     0
  3
MONOTXT
  4
BIGFONT
  0
STYLE
  2
TextStyle09
 70
     0
 40
1.0
 41
1.0
 42
1.0
 50
0.0
 71
     0
  3
MONOTXT
  4
BIGFONT
  0
STYLE
  2
TextStyle10
 70
     0
 40
1.0
 41
1.0
 42
1.0
 50
0.0
 71
     0
  3
MONOTXT
  4
BIGFONT
  0
ENDTAB
  0
ENDSEC
  0
SECTION
  2
BLOCKS
  0
BLOCK
  2
*GRP_0001
 70
    65
 10
0.0
 20
0.0
  0
LINE
  8
躯体
  6
CONTINUOUS
 62
    31
 10
374.500033
 20
-251.999995
 11
374.500033
 21
-281.999988
  0
LINE
  8
躯体
  6
CONTINUOUS
 62
    31
 10
254.50002
 20
-251.999995
 11
254.50002
 21
-281.999988
  0
LINE
  8
躯体
  6
CONTINUOUS
 62
    31
 10
154.50005
 20
-251.999995
 11
154.50005
 21
-281.999988
  0
LINE
  8
躯体
  6
CONTINUOUS
 62
    31
 10
63.500072
 20
-251.999995
 11
63.500072
 21
-281.999988
  0
LINE
  8
躯体
  6
CONTINUOUS
 62
    31
 10
23.500082
 20
-251.999995
 11
23.500082
 21
-281.999988
  0
LINE
  8
躯体
  6
CONTINUOUS
 62
    31
 10
-66.49994
 20
-251.999995
 11
-66.49994
 21
-281.999988
  0
LINE
  8
躯体
  6
CONTINUOUS
 62
    31
 10
234.500025
 20
-251.999995
 11
234.500025
 21
-281.999988
  0
LINE
  8
躯体
  6
CONTINUOUS
 62
    31
 10
214.50003
 20
-251.999995
 11
214.50003
 21
-281.999988
  0
LINE
  8
躯体
  6
CONTINUOUS
 62
    31
 10
194.500037
 20
-251.999995
 11
194.500037
 21
-281.999988
  0
LINE
  8
躯体
  6
CONTINUOUS
 62
    31
 10
174.500043
 20
-251.999995
 11
174.500043
 21
-281.999988
  0
LINE
  8
躯体
  6
CONTINUOUS
 62
    31
 10
154.50005
 20
-259.0
 11
254.50002
 21
-259.0
  0
LINE
  8
躯体
  6
CONTINUOUS
 62
    31
 10
-66.49994
 20
-267.000005
 11
63.500072
 21
-267.000005
  0
LINE
  8
躯体
  6
CONTINUOUS
 62
    31
 10
-375.499978
 20
-251.999995
 11
-375.499978
 21
-282.0
  0
LINE
  8
躯体
  6
CONTINUOUS
 62
    31
 10
-360.49997
 20
-251.999995
 11
-360.49997
 21
-282.0
  0
LINE
  8
躯体
  6
CONTINUOUS
 62
    31
 10
-239.50005
 20
-251.999995
 11
-239.50005
 21
-282.0
  0
LINE
  8
躯体
  6
CONTINUOUS
 62
    31
 10
-382.999975
 20
-257.231555
 11
-377.999978
 21
-257.231555
  0
LINE
  8
躯体
  6
CONTINUOUS
 62
    31
 10
-377.999978
 20
-257.231555
 11
-380.499975
 21
-252.901428
  0
LINE
  8
躯体
  6
CONTINUOUS
 62
    31
 10
-380.499975
 20
-252.901428
 11
-382.999975
 21
-257.231555
  0
LINE
  8
躯体
  6
CONTINUOUS
 62
    31
 10
-382.999988
 20
-263.231555
 11
-377.99999
 21
-263.231555
  0
LINE
  8
躯体
  6
CONTINUOUS
 62
    31
 10
-377.99999
 20
-263.231555
 11
-380.499988
 21
-258.901428
  0
LINE
  8
躯体
  6
CONTINUOUS
 62
    31
 10
-380.499988
 20
-258.901428
 11
-382.999988
 21
-263.231555
  0
LINE
  8
躯体
  6
CONTINUOUS
 62
    31
 10
-383.0
 20
-269.231555
 11
-378.000003
 21
-269.231555
  0
LINE
  8
躯体
  6
CONTINUOUS
 62
    31
 10
-378.000003
 20
-269.231555
 11
-380.499988
 21
-264.901428
  0
LINE
  8
躯体
  6
CONTINUOUS
 62
    31
 10
-380.499988
 20
-264.901428
 11
-383.0
 21
-269.231555
  0
LINE
  8
躯体
  6
CONTINUOUS
 62
    31
 10
-383.0
 20
-275.231555
 11
-378.000003
 21
-275.231555
  0
LINE
  8
躯体
  6
CONTINUOUS
 62
    31
 10
-378.000003
 20
-275.231555
 11
-380.5
 21
-270.901428
  0
LINE
  8
躯体
  6
CONTINUOUS
 62
    31
 10
-380.5
 20
-270.901428
 11
-383.0
 21
-275.231555
  0
LINE
  8
躯体
  6
CONTINUOUS
 62
    31
 10
-383.000012
 20
-281.231555
 11
-378.000015
 21
-281.231555
  0
LINE
  8
躯体
  6
CONTINUOUS
 62
    31
 10
-378.000015
 20
-281.231555
 11
-380.500012
 21
-276.901428
  0
LINE
  8
躯体
  6
CONTINUOUS
 62
    31
 10
-380.500012
 20
-276.901428
 11
-383.000012
 21
-281.231555
  0
LINE
  8
躯体
  6
CONTINUOUS
 62
    31
 10
-385.499988
 20
-251.999995
 11
-385.499988
 21
-282.0
  0
LINE
  8
躯体
  6
CONTINUOUS
 62
    31
 10
-229.500053
 20
-251.999995
 11
-229.500053
 21
-282.0
  0
LINE
  8
躯体
  6
CONTINUOUS
 62
    31
 10
-395.499985
 20
282.000017
 11
-395.499985
 21
-281.99998
  0
LINE
  8
躯体
  6
CONTINUOUS
 62
    31
 10
404.500023
 20
282.000017
 11
404.500023
 21
-282.0
  0
LINE
  8
躯体
  6
CONTINUOUS
 62
    31
 10
404.500023
 20
282.000017
 11
-395.499985
 21
282.000017
  0
LINE
  8
躯体
  6
CONTINUOUS
 62
    31
 10
404.500023
 20
-282.0
 11
-395.499985
 21
-282.0
  0
LINE
  8
躯体
  6
CONTINUOUS
 62
    31
 10
404.500023
 20
-251.999995
 11
-395.499985
 21
-251.999995
  0
LINE
  8
躯体
  6
CONTINUOUS
 62
    31
 10
254.50002
 20
-272.0
 11
374.500033
 21
-272.0
  0
LINE
  8
躯体
  6
CONTINUOUS
 62
    31
 10
63.500072
 20
-262.0
 11
154.50005
 21
-262.0
  0
LINE
  8
躯体
  6
CONTINUOUS
 62
    31
 10
63.500072
 20
-272.0
 11
154.50005
 21
-272.0
  0
LINE
  8
躯体
  6
CONTINUOUS
 62
    31
 10
-385.499988
 20
-258.0
 11
-239.50005
 21
-258.0
  0
LINE
  8
躯体
  6
CONTINUOUS
 62
    31
 10
-385.499988
 20
-264.0
 11
-239.50005
 21
-264.0
  0
LINE
  8
躯体
  6
CONTINUOUS
 62
    31
 10
-385.499988
 20
-270.0
 11
-239.50005
 21
-270.0
  0
LINE
  8
躯体
  6
CONTINUOUS
 62
    31
 10
-385.499988
 20
-276.0
 11
-239.50005
 21
-276.0
  0
LINE
  8
躯体
  6
CONTINUOUS
 62
    31
 10
-229.500053
 20
-276.0
 11
-66.49994
 21
-276.0
  0
LINE
  8
躯体
  6
CONTINUOUS
 62
    31
 10
-229.500053
 20
-270.0
 11
-66.49994
 21
-270.0
  0
LINE
  8
躯体
  6
CONTINUOUS
 62
    31
 10
-229.500053
 20
-264.0
 11
-66.49994
 21
-264.0
  0
LINE
  8
躯体
  6
CONTINUOUS
 62
    31
 10
-229.500053
 20
-258.0
 11
-66.49994
 21
-258.0
  0
LINE
  8
躯体
  6
CONTINUOUS
 62
    31
 10
-395.499985
 20
282.000017
 11
-395.499985
 21
-281.99998
  0
LINE
  8
躯体
  6
CONTINUOUS
 62
    31
 10
-395.499985
 20
-281.99998
 11
404.500023
 21
-281.99998
  0
LINE
  8
躯体
  6
CONTINUOUS
 62
    31
 10
404.500023
 20
-281.99998
 11
404.500023
 21
282.000017
  0
LINE
  8
躯体
  6
CONTINUOUS
 62
    31
 10
404.500023
 20
282.000017
 11
-395.499985
 21
282.000017
  0
LINE
  8
躯体
  6
CONTINUOUS
 62
    31
 10
404.500023
 20
-251.999995
 11
-395.499985
 21
-251.999995
  0
LINE
  8
躯体
  6
CONTINUOUS
 62
    31
 10
-385.499988
 20
-251.999995
 11
-385.499988
 21
-282.0
  0
LINE
  8
躯体
  6
CONTINUOUS
 62
    31
 10
-375.49994
 20
-251.999995
 11
-375.49994
 21
-282.0
  0
LINE
  8
躯体
  6
CONTINUOUS
 62
    31
 10
-360.49997
 20
-251.999995
 11
-360.49997
 21
-282.0
  0
LINE
  8
躯体
  6
CONTINUOUS
 62
    31
 10
-239.50005
 20
-251.999995
 11
-239.50005
 21
-281.99998
  0
LINE
  8
躯体
  6
CONTINUOUS
 62
    31
 10
-229.500053
 20
-251.999995
 11
-229.500053
 21
-282.0
  0
LINE
  8
躯体
  6
CONTINUOUS
 62
    31
 10
-66.49994
 20
-251.999995
 11
-66.49994
 21
-282.0
  0
LINE
  8
躯体
  6
CONTINUOUS
 62
    31
 10
23.500082
 20
-251.999995
 11
23.500082
 21
-282.0
  0
LINE
  8
躯体
  6
CONTINUOUS
 62
    31
 10
63.500072
 20
-251.999995
 11
63.500072
 21
-281.99998
  0
LINE
  8
躯体
  6
CONTINUOUS
 62
    31
 10
154.50005
 20
-251.999995
 11
154.50005
 21
-281.999988
  0
LINE
  8
躯体
  6
CONTINUOUS
 62
    31
 10
174.500043
 20
-251.999995
 11
174.500043
 21
-282.0
  0
LINE
  8
躯体
  6
CONTINUOUS
 62
    31
 10
194.500037
 20
-251.999995
 11
194.500037
 21
-281.99998
  0
LINE
  8
躯体
  6
CONTINUOUS
 62
    31
 10
214.50003
 20
-251.999995
 11
214.50003
 21
-281.99998
  0
LINE
  8
躯体
  6
CONTINUOUS
 62
    31
 10
234.500025
 20
-251.999995
 11
234.500025
 21
-281.99998
  0
LINE
  8
躯体
  6
CONTINUOUS
 62
    31
 10
254.50002
 20
-251.999995
 11
254.50002
 21
-281.999988
  0
LINE
  8
躯体
  6
CONTINUOUS
 62
    31
 10
374.500033
 20
-251.999995
 11
374.500033
 21
-282.0
  0
LINE
  8
躯体
  6
CONTINUOUS
 62
    31
 10
-385.499988
 20
-258.0
 11
-239.50005
 21
-258.0
  0
LINE
  8
躯体
  6
CONTINUOUS
 62
    31
 10
-239.50005
 20
-264.0
 11
-385.499988
 21
-264.0
  0
LINE
  8
躯体
  6
CONTINUOUS
 62
    31
 10
-385.499988
 20
-270.0
 11
-239.50005
 21
-270.0
  0
LINE
  8
躯体
  6
CONTINUOUS
 62
    31
 10
-239.50005
 20
-276.0
 11
-385.499988
 21
-276.0
  0
LINE
  8
躯体
  6
CONTINUOUS
 62
    31
 10
-229.500053
 20
-258.0
 11
-66.49994
 21
-258.0
  0
LINE
  8
躯体
  6
CONTINUOUS
 62
    31
 10
-66.49994
 20
-264.0
 11
-229.500053
 21
-264.0
  0
LINE
  8
躯体
  6
CONTINUOUS
 62
    31
 10
-229.500053
 20
-270.0
 11
-66.49994
 21
-270.0
  0
LINE
  8
躯体
  6
CONTINUOUS
 62
    31
 10
-66.49994
 20
-276.0
 11
-229.500053
 21
-276.0
  0
LINE
  8
躯体
  6
CONTINUOUS
 62
    31
 10
-66.49994
 20
-267.000005
 11
63.500072
 21
-267.000005
  0
LINE
  8
躯体
  6
CONTINUOUS
 62
    31
 10
63.500072
 20
-262.0
 11
154.50005
 21
-262.0
  0
LINE
  8
躯体
  6
CONTINUOUS
 62
    31
 10
154.50005
 20
-272.0
 11
63.500072
 21
-272.0
  0
LINE
  8
躯体
  6
CONTINUOUS
 62
    31
 10
154.50005
 20
-259.0
 11
254.50002
 21
-259.0
  0
LINE
  8
躯体
  6
CONTINUOUS
 62
    31
 10
254.50002
 20
-272.0
 11
374.500033
 21
-272.0
  0
LINE
  8
躯体
  6
CONTINUOUS
 62
    31
 10
389.770925
 20
-177.427528
 11
401.770882
 21
-177.427528
  0
LINE
  8
躯体
  6
CONTINUOUS
 62
    31
 10
389.770925
 20
-192.266918
 11
401.770882
 21
-192.266918
  0
LINE
  8
躯体
  6
CONTINUOUS
 62
    31
 10
389.770925
 20
-207.106308
 11
401.770882
 21
-207.106308
  0
LINE
  8
躯体
  6
CONTINUOUS
 62
    31
 10
389.770925
 20
-221.945695
 11
401.770882
 21
-221.945695
  0
CIRCLE
  8
躯体
  6
CONTINUOUS
 62
    31
 10
395.770905
 20
-177.427528
 40
6.0
  0
CIRCLE
  8
躯体
  6
CONTINUOUS
 62
    31
 10
395.770905
 20
-192.266918
 40
6.0
  0
CIRCLE
  8
躯体
  6
CONTINUOUS
 62
    31
 10
395.770905
 20
-207.106308
 40
6.0
  0
CIRCLE
  8
躯体
  6
CONTINUOUS
 62
    31
 10
395.770905
 20
-221.945695
 40
6.0
  0
TEXT
  7
TextStyle03
  8
躯体
  6
CONTINUOUS
 62
    31
 10
-381.25
 20
-257.125
  1
5
 40
3.0
 72
     5
 11
-379.75
 21
-257.125
  0
TEXT
  7
TextStyle03
  8
躯体
  6
CONTINUOUS
 62
    31
 10
-381.25
 20
-263.125
  1
4
 40
3.0
 72
     5
 11
-379.75
 21
-263.125
  0
TEXT
  7
TextStyle03
  8
躯体
  6
CONTINUOUS
 62
    31
 10
-381.25
 20
-269.125
  1
3
 40
3.0
 72
     5
 11
-379.75
 21
-269.125
  0
TEXT
  7
TextStyle03
  8
躯体
  6
CONTINUOUS
 62
    31
 10
-381.25
 20
-275.125
  1
2
 40
3.0
 72
     5
 11
-379.75
 21
-275.125
  0
TEXT
  7
TextStyle03
  8
躯体
  6
CONTINUOUS
 62
    31
 10
-381.25
 20
-281.125
  1
1
 40
3.0
 72
     5
 11
-379.75
 21
-281.125
  0
TEXT
  7
TextStyle03
  8
躯体
  6
CONTINUOUS
 62
    31
 10
-375.0
 20
-257.5
  1
   ,  ,  
 40
3.0
 72
     5
 11
-361.5
 21
-257.5
  0
TEXT
  7
TextStyle03
  8
躯体
  6
CONTINUOUS
 62
    31
 10
-375.0
 20
-263.5
  1
   ,  ,  
 40
3.0
 72
     5
 11
-361.5
 21
-263.5
  0
TEXT
  7
TextStyle03
  8
躯体
  6
CONTINUOUS
 62
    31
 10
-375.0
 20
-269.5
  1
   ,  ,  
 40
3.0
 72
     5
 11
-361.5
 21
-269.5
  0
TEXT
  7
TextStyle03
  8
躯体
  6
CONTINUOUS
 62
    31
 10
-375.0
 20
-275.5
  1
   ,  ,  
 40
3.0
 72
     5
 11
-361.5
 21
-275.5
  0
TEXT
  7
TextStyle03
  8
躯体
  6
CONTINUOUS
 62
    31
 10
-375.0
 20
-281.5
  1
   ,  ,  
 40
3.0
 72
     5
 11
-361.5
 21
-281.5
  0
TEXT
  7
TextStyle03
  8
躯体
  6
CONTINUOUS
 62
    31
 10
-65.45
 20
-256.45
  1
設計監理
 40
3.5
 72
     5
 11
-51.45
 21
-256.45
  0
TEXT
  7
TextStyle03
  8
躯体
  6
CONTINUOUS
 62
    31
 10
-65.45
 20
-271.625
  1
施　　工
 40
3.5
 72
     5
 11
-51.45
 21
-271.625
  0
TEXT
  7
TextStyle03
  8
躯体
  6
CONTINUOUS
 62
    31
 10
16.3
 20
-264.025
  1
殿
 40
5.0
 72
     5
 11
21.3
 21
-264.025
  0
TEXT
  7
TextStyle03
  8
躯体
  6
CONTINUOUS
 62
    31
 10
16.3
 20
-279.025
  1
殿
 40
5.0
 72
     5
 11
21.3
 21
-279.025
  0
TEXT
  7
TextStyle03
  8
躯体
  6
CONTINUOUS
 62
    31
 10
45.5
 20
-266.525
  1
月　　日
 40
4.0
 72
     5
 11
63.0
 21
-266.525
  0
TEXT
  7
TextStyle03
  8
躯体
  6
CONTINUOUS
 62
    31
 10
45.5
 20
-281.5
  1
月　　日
 40
4.0
 72
     5
 11
63.0
 21
-281.5
  0
TEXT
  7
TextStyle03
  8
躯体
  6
CONTINUOUS
 62
    31
 10
159.925
 20
-281.125
  1
　月　日
 40
3.5
 72
     5
 11
173.925
 21
-281.125
  0
TEXT
  7
TextStyle03
  8
躯体
  6
CONTINUOUS
 62
    31
 10
179.925
 20
-281.125
  1
　月　日
 40
3.5
 72
     5
 11
193.925
 21
-281.125
  0
TEXT
  7
TextStyle03
  8
躯体
  6
CONTINUOUS
 62
    31
 10
199.925
 20
-281.125
  1
　月　日
 40
3.5
 72
     5
 11
213.925
 21
-281.125
  0
TEXT
  7
TextStyle03
  8
躯体
  6
CONTINUOUS
 62
    31
 10
219.925
 20
-281.125
  1
　月　日
 40
3.5
 72
     5
 11
233.925
 21
-281.125
  0
TEXT
  7
TextStyle03
  8
躯体
  6
CONTINUOUS
 62
    31
 10
197.35
 20
-257.4
  1
照　査
 40
4.0
 72
     5
 11
210.35
 21
-257.4
  0
TEXT
  7
TextStyle03
  8
躯体
  6
CONTINUOUS
 62
    31
 10
216.6
 20
-257.2
  1
担　当
 40
4.0
 72
     5
 11
229.6
 21
-257.2
  0
TEXT
  7
TextStyle03
  8
躯体
  6
CONTINUOUS
 62
    31
 10
236.225
 20
-257.0
  1
縮　尺
 40
4.0
 72
     5
 11
249.225
 21
-257.0
  0
TEXT
  7
TextStyle03
  8
躯体
  6
CONTINUOUS
 62
    31
 10
236.625
 20
-266.225
  1
１：１
 40
4.0
 72
     5
 11
249.625
 21
-266.225
  0
TEXT
  7
TextStyle03
  8
躯体
  6
CONTINUOUS
 62
    31
 10
236.425
 20
-272.65
  1
　：　
 40
4.0
 72
     5
 11
249.425
 21
-272.65
  0
TEXT
  7
TextStyle03
  8
躯体
  6
CONTINUOUS
 62
    31
 10
236.425
 20
-279.25
  1
　：　
 40
4.0
 72
     5
 11
249.425
 21
-279.25
  0
TEXT
  7
TextStyle03
  8
躯体
  6
CONTINUOUS
 62
    31
 10
256.875
 20
-258.05
  1
工事名
 40
4.0
 72
     5
 11
269.875
 21
-258.05
  0
TEXT
  7
TextStyle03
  8
躯体
  6
CONTINUOUS
 62
    31
 10
256.6
 20
-278.025
  1
図面名
 40
4.0
 72
     5
 11
269.6
 21
-278.025
  0
TEXT
  7
TextStyle03
  8
躯体
  6
CONTINUOUS
 62
    31
 10
375.675
 20
-257.25
  1
図番
 40
4.0
 72
     5
 11
384.175
 21
-257.25
  0
TEXT
  7
TextStyle03
  8
躯体
  6
CONTINUOUS
 62
    31
 10
393.025
 20
-281.175
  1
枚の内
 40
3.5
 72
     5
 11
403.525
 21
-281.175
  0
TEXT
  7
TextStyle04
  8
躯体
  6
CONTINUOUS
 62
    31
 10
76.15
 20
-259.85
  1
特殊技研金属株式会社
 40
6.0
 72
     5
 11
145.15
 21
-259.85
  0
TEXT
  7
TATE
  8
躯体
  6
CONTINUOUS
 62
    31
 10
-234.7
 20
-254.525
  1
特　記　事　項
 40
3.5
 72
     5
 11
-234.7
 21
-279.025
  0
TEXT
  7
TATE
  8
躯体
  6
CONTINUOUS
 62
    31
 10
-390.4
 20
-259.525
  1
訂　　正
 40
3.5
 72
     5
 11
-390.4
 21
-273.525
  0
ENDBLK
  0
ENDSEC
  0
SECTION
  2
ENTITIES
  0
POLYLINE
  8
通り芯
  6
CONTINUOUS
 66
     1
 70
     1
  0
VERTEX
  8
通り芯
 10
-420.5
 20
-297.0
  0
VERTEX
  8
通り芯
 10
420.5
 20
-297.0
  0
VERTEX
  8
通り芯
 10
420.5
 20
297.0
  0
VERTEX
  8
通り芯
 10
-420.5
 20
297.0
  0
SEQEND
  0
POINT
  8
型材
 62
    32
 10
72.398978
 20
176.7884
  0
POINT
  8
型材
 62
    32
 10
-33.201023
 20
176.7884
  0
LINE
  8
型材
  6
CONTINUOUS
 62
    32
 10
11.798978
 20
184.5884
 11
11.798978
 21
165.3884
  0
LINE
  8
型材
  6
CONTINUOUS
 62
    32
 10
-41.001022
 20
184.5884
 11
-41.001022
 21
165.3884
  0
LINE
  8
型材
  6
CONTINUOUS
 62
    32
 10
-38.601022
 20
184.5884
 11
-38.601022
 21
165.3884
  0
LINE
  8
型材
  6
CONTINUOUS
 62
    32
 10
64.598978
 20
184.5884
 11
64.598978
 21
165.3884
  0
LINE
  8
型材
  6
CONTINUOUS
 62
    32
 10
14.198978
 20
184.5884
 11
14.198978
 21
165.3884
  0
LINE
  8
型材
  6
CONTINUOUS
 62
    32
 10
-14.601022
 20
184.5884
 11
-14.601022
 21
165.3884
  0
LINE
  8
型材
  6
CONTINUOUS
 62
    32
 10
-12.201022
 20
184.5884
 11
-12.201022
 21
165.3884
  0
LINE
  8
型材
  6
CONTINUOUS
 62
    32
 10
24.998978
 20
184.5884
 11
24.998978
 21
165.3884
  0
LINE
  8
型材
  6
CONTINUOUS
 62
    32
 10
27.398978
 20
184.5884
 11
27.398978
 21
165.3884
  0
LINE
  8
型材
  6
CONTINUOUS
 62
    32
 10
66.998977
 20
184.5884
 11
66.998977
 21
165.3884
  0
LINE
  8
型材
  6
CONTINUOUS
 62
    32
 10
38.198977
 20
184.5884
 11
38.198977
 21
165.3884
  0
LINE
  8
型材
  6
CONTINUOUS
 62
    32
 10
40.598978
 20
184.5884
 11
40.598978
 21
165.3884
  0
LINE
  8
型材
  6
CONTINUOUS
 62
    32
 10
53.798977
 20
184.5884
 11
53.798977
 21
165.3884
  0
LINE
  8
型材
  6
CONTINUOUS
 62
    32
 10
51.398978
 20
184.5884
 11
51.398978
 21
165.3884
  0
LINE
  8
型材
  6
CONTINUOUS
 62
    32
 10
77.798978
 20
165.3884
 11
77.798978
 21
184.5884
  0
LINE
  8
型材
  6
DASHDOTX2
 62
    32
 10
72.398978
 20
170.7884
 11
72.398978
 21
182.7884
  0
LINE
  8
型材
  6
DASHDOTX2
 62
    32
 10
59.198977
 20
170.7884
 11
59.198977
 21
182.7884
  0
LINE
  8
型材
  6
DASHDOTX2
 62
    32
 10
45.998978
 20
170.7884
 11
45.998978
 21
182.7884
  0
LINE
  8
型材
  6
DASHDOTX2
 62
    32
 10
32.798977
 20
170.7884
 11
32.798977
 21
182.7884
  0
LINE
  8
型材
  6
DASHDOTX2
 62
    32
 10
19.598978
 20
170.7884
 11
19.598978
 21
182.7884
  0
LINE
  8
型材
  6
CONTINUOUS
 62
    32
 10
0.998978
 20
184.5884
 11
0.998978
 21
165.3884
  0
LINE
  8
型材
  6
CONTINUOUS
 62
    32
 10
-1.401022
 20
184.5884
 11
-1.401022
 21
165.3884
  0
LINE
  8
型材
  6
CONTINUOUS
 62
    32
 10
-51.801023
 20
165.3884
 11
-51.801023
 21
184.5884
  0
LINE
  8
型材
  6
DASHDOTX2
 62
    32
 10
6.398978
 20
170.7884
 11
6.398978
 21
182.7884
  0
LINE
  8
型材
  6
DASHDOTX2
 62
    32
 10
-6.801022
 20
170.7884
 11
-6.801022
 21
182.7884
  0
LINE
  8
型材
  6
DASHDOTX2
 62
    32
 10
-20.001022
 20
170.7884
 11
-20.001022
 21
182.7884
  0
LINE
  8
型材
  6
CONTINUOUS
 62
    32
 10
73.596165
 20
177.088318
 11
74.49897
 21
177.088318
  0
LINE
  8
型材
  6
CONTINUOUS
 62
    32
 10
72.698895
 20
178.888387
 11
72.698895
 21
177.985583
  0
LINE
  8
型材
  6
CONTINUOUS
 62
    32
 10
72.099063
 20
178.888387
 11
72.698895
 21
178.888387
  0
LINE
  8
型材
  6
CONTINUOUS
 62
    32
 10
72.099063
 20
178.888387
 11
72.099063
 21
177.985583
  0
LINE
  8
型材
  6
CONTINUOUS
 62
    32
 10
72.099063
 20
174.68841
 11
72.099063
 21
175.591215
  0
LINE
  8
型材
  6
CONTINUOUS
 62
    32
 10
72.698895
 20
174.68841
 11
72.698895
 21
175.591215
  0
LINE
  8
型材
  6
DASHDOTX2
 62
    32
 10
-46.401022
 20
170.7884
 11
-46.401022
 21
182.7884
  0
LINE
  8
型材
  6
CONTINUOUS
 62
    32
 10
-45.203833
 20
177.088318
 11
-44.30103
 21
177.088318
  0
LINE
  8
型材
  6
CONTINUOUS
 62
    32
 10
-46.101105
 20
178.888387
 11
-46.101105
 21
177.985583
  0
LINE
  8
型材
  6
CONTINUOUS
 62
    32
 10
-46.70094
 20
178.888387
 11
-46.101105
 21
178.888387
  0
LINE
  8
型材
  6
CONTINUOUS
 62
    32
 10
-46.70094
 20
178.888387
 11
-46.70094
 21
177.985583
  0
LINE
  8
型材
  6
CONTINUOUS
 62
    32
 10
-46.70094
 20
174.68841
 11
-46.70094
 21
175.591215
  0
LINE
  8
型材
  6
CONTINUOUS
 62
    32
 10
-46.101105
 20
174.68841
 11
-46.101105
 21
175.591215
  0
LINE
  8
型材
  6
CONTINUOUS
 62
    32
 10
-47.59821
 20
177.088318
 11
-48.501012
 21
177.088318
  0
LINE
  8
型材
  6
CONTINUOUS
 62
    32
 10
-47.59821
 20
176.488485
 11
-48.501012
 21
176.488485
  0
LINE
  8
型材
  6
CONTINUOUS
 62
    32
 10
-45.203833
 20
176.488485
 11
-44.30103
 21
176.488485
  0
LINE
  8
型材
  6
CONTINUOUS
 62
    32
 10
-46.70094
 20
174.68841
 11
-46.101105
 21
174.68841
  0
LINE
  8
型材
  6
CONTINUOUS
 62
    32
 10
-48.501012
 20
177.088318
 11
-48.501012
 21
176.488482
  0
LINE
  8
型材
  6
CONTINUOUS
 62
    32
 10
-44.30103
 20
177.088318
 11
-44.30103
 21
176.488482
  0
LINE
  8
型材
  6
CONTINUOUS
 62
    32
 10
71.201793
 20
177.088318
 11
70.298987
 21
177.088318
  0
LINE
  8
型材
  6
CONTINUOUS
 62
    32
 10
71.201793
 20
176.488485
 11
70.298987
 21
176.488485
  0
LINE
  8
型材
  6
CONTINUOUS
 62
    32
 10
73.59616
 20
176.488485
 11
74.49897
 21
176.488485
  0
LINE
  8
型材
  6
CONTINUOUS
 62
    32
 10
72.099063
 20
174.68841
 11
72.698895
 21
174.68841
  0
LINE
  8
型材
  6
CONTINUOUS
 62
    32
 10
70.298987
 20
177.088318
 11
70.298987
 21
176.488482
  0
LINE
  8
型材
  6
CONTINUOUS
 62
    32
 10
74.49897
 20
177.088318
 11
74.49897
 21
176.488482
  0
LINE
  8
型材
  6
CONTINUOUS
 62
    32
 10
20.79616
 20
177.088318
 11
21.69897
 21
177.088318
  0
LINE
  8
型材
  6
CONTINUOUS
 62
    32
 10
19.898895
 20
178.888387
 11
19.898895
 21
177.985583
  0
LINE
  8
型材
  6
CONTINUOUS
 62
    32
 10
19.29906
 20
178.888387
 11
19.898895
 21
178.888387
  0
LINE
  8
型材
  6
CONTINUOUS
 62
    32
 10
19.29906
 20
178.888387
 11
19.29906
 21
177.985583
  0
LINE
  8
型材
  6
CONTINUOUS
 62
    32
 10
19.29906
 20
174.68841
 11
19.29906
 21
175.591215
  0
LINE
  8
型材
  6
CONTINUOUS
 62
    32
 10
19.898895
 20
174.68841
 11
19.898895
 21
175.591215
  0
LINE
  8
型材
  6
CONTINUOUS
 62
    32
 10
-18.803833
 20
177.088318
 11
-17.90103
 21
177.088318
  0
LINE
  8
型材
  6
CONTINUOUS
 62
    32
 10
-19.701105
 20
178.888387
 11
-19.701105
 21
177.985583
  0
LINE
  8
型材
  6
CONTINUOUS
 62
    32
 10
-20.30094
 20
178.888387
 11
-19.701105
 21
178.888387
  0
LINE
  8
型材
  6
CONTINUOUS
 62
    32
 10
-20.30094
 20
178.888387
 11
-20.30094
 21
177.985583
  0
LINE
  8
型材
  6
CONTINUOUS
 62
    32
 10
-20.30094
 20
174.68841
 11
-20.30094
 21
175.591215
  0
LINE
  8
型材
  6
CONTINUOUS
 62
    32
 10
-19.701105
 20
174.68841
 11
-19.701105
 21
175.591215
  0
LINE
  8
型材
  6
CONTINUOUS
 62
    32
 10
-21.19821
 20
177.088318
 11
-22.101012
 21
177.088318
  0
LINE
  8
型材
  6
CONTINUOUS
 62
    32
 10
-21.19821
 20
176.488485
 11
-22.101012
 21
176.488485
  0
LINE
  8
型材
  6
CONTINUOUS
 62
    32
 10
-18.803833
 20
176.488485
 11
-17.90103
 21
176.488485
  0
LINE
  8
型材
  6
CONTINUOUS
 62
    32
 10
-20.30094
 20
174.68841
 11
-19.701105
 21
174.68841
  0
LINE
  8
型材
  6
CONTINUOUS
 62
    32
 10
-22.101012
 20
177.088318
 11
-22.101012
 21
176.488482
  0
LINE
  8
型材
  6
CONTINUOUS
 62
    32
 10
-17.90103
 20
177.088318
 11
-17.90103
 21
176.488482
  0
LINE
  8
型材
  6
CONTINUOUS
 62
    32
 10
-5.603833
 20
177.088318
 11
-4.70103
 21
177.088318
  0
LINE
  8
型材
  6
CONTINUOUS
 62
    32
 10
-6.501105
 20
178.888387
 11
-6.501105
 21
177.985583
  0
LINE
  8
型材
  6
CONTINUOUS
 62
    32
 10
-7.10094
 20
178.888387
 11
-6.501105
 21
178.888387
  0
LINE
  8
型材
  6
CONTINUOUS
 62
    32
 10
-7.10094
 20
178.888387
 11
-7.10094
 21
177.985583
  0
LINE
  8
型材
  6
CONTINUOUS
 62
    32
 10
-7.10094
 20
174.68841
 11
-7.10094
 21
175.591215
  0
LINE
  8
型材
  6
CONTINUOUS
 62
    32
 10
-6.501105
 20
174.68841
 11
-6.501105
 21
175.591215
  0
LINE
  8
型材
  6
CONTINUOUS
 62
    32
 10
-7.99821
 20
177.088318
 11
-8.901012
 21
177.088318
  0
LINE
  8
型材
  6
CONTINUOUS
 62
    32
 10
-7.99821
 20
176.488485
 11
-8.901012
 21
176.488485
  0
LINE
  8
型材
  6
CONTINUOUS
 62
    32
 10
-5.603833
 20
176.488485
 11
-4.70103
 21
176.488485
  0
LINE
  8
型材
  6
CONTINUOUS
 62
    32
 10
-7.10094
 20
174.68841
 11
-6.501105
 21
174.68841
  0
LINE
  8
型材
  6
CONTINUOUS
 62
    32
 10
-8.901012
 20
177.088318
 11
-8.901012
 21
176.488482
  0
LINE
  8
型材
  6
CONTINUOUS
 62
    32
 10
-4.70103
 20
177.088318
 11
-4.70103
 21
176.488482
  0
LINE
  8
型材
  6
CONTINUOUS
 62
    32
 10
18.401793
 20
177.088318
 11
17.498987
 21
177.088318
  0
LINE
  8
型材
  6
CONTINUOUS
 62
    32
 10
18.401793
 20
176.488485
 11
17.498987
 21
176.488485
  0
LINE
  8
型材
  6
CONTINUOUS
 62
    32
 10
20.79616
 20
176.488485
 11
21.69897
 21
176.488485
  0
LINE
  8
型材
  6
CONTINUOUS
 62
    32
 10
19.29906
 20
174.68841
 11
19.898895
 21
174.68841
  0
LINE
  8
型材
  6
CONTINUOUS
 62
    32
 10
17.498987
 20
177.088318
 11
17.498987
 21
176.488482
  0
LINE
  8
型材
  6
CONTINUOUS
 62
    32
 10
21.69897
 20
177.088318
 11
21.69897
 21
176.488482
  0
LINE
  8
型材
  6
CONTINUOUS
 62
    32
 10
33.99616
 20
177.088318
 11
34.89897
 21
177.088318
  0
LINE
  8
型材
  6
CONTINUOUS
 62
    32
 10
33.098895
 20
178.888387
 11
33.098895
 21
177.985583
  0
LINE
  8
型材
  6
CONTINUOUS
 62
    32
 10
32.499063
 20
178.888387
 11
33.098895
 21
178.888387
  0
LINE
  8
型材
  6
CONTINUOUS
 62
    32
 10
32.49906
 20
178.888387
 11
32.49906
 21
177.985583
  0
LINE
  8
型材
  6
CONTINUOUS
 62
    32
 10
32.49906
 20
174.68841
 11
32.49906
 21
175.591215
  0
LINE
  8
型材
  6
CONTINUOUS
 62
    32
 10
33.098895
 20
174.68841
 11
33.098895
 21
175.591215
  0
LINE
  8
型材
  6
CONTINUOUS
 62
    32
 10
31.601793
 20
177.088318
 11
30.698987
 21
177.088318
  0
LINE
  8
型材
  6
CONTINUOUS
 62
    32
 10
31.601793
 20
176.488485
 11
30.698987
 21
176.488485
  0
LINE
  8
型材
  6
CONTINUOUS
 62
    32
 10
33.99616
 20
176.488485
 11
34.89897
 21
176.488485
  0
LINE
  8
型材
  6
CONTINUOUS
 62
    32
 10
32.49906
 20
174.68841
 11
33.098895
 21
174.68841
  0
LINE
  8
型材
  6
CONTINUOUS
 62
    32
 10
30.698987
 20
177.088318
 11
30.698987
 21
176.488482
  0
LINE
  8
型材
  6
CONTINUOUS
 62
    32
 10
34.89897
 20
177.088318
 11
34.89897
 21
176.488482
  0
LINE
  8
型材
  6
CONTINUOUS
 62
    32
 10
47.19616
 20
177.088318
 11
48.09897
 21
177.088318
  0
LINE
  8
型材
  6
CONTINUOUS
 62
    32
 10
46.298895
 20
178.888387
 11
46.298895
 21
177.985583
  0
LINE
  8
型材
  6
CONTINUOUS
 62
    32
 10
45.699063
 20
178.888387
 11
46.298895
 21
178.888387
  0
LINE
  8
型材
  6
CONTINUOUS
 62
    32
 10
45.69906
 20
178.888387
 11
45.69906
 21
177.985583
  0
LINE
  8
型材
  6
CONTINUOUS
 62
    32
 10
45.69906
 20
174.68841
 11
45.69906
 21
175.591215
  0
LINE
  8
型材
  6
CONTINUOUS
 62
    32
 10
46.298895
 20
174.68841
 11
46.298895
 21
175.591215
  0
LINE
  8
型材
  6
CONTINUOUS
 62
    32
 10
44.801793
 20
177.088318
 11
43.898987
 21
177.088318
  0
LINE
  8
型材
  6
CONTINUOUS
 62
    32
 10
44.801793
 20
176.488485
 11
43.898987
 21
176.488485
  0
LINE
  8
型材
  6
CONTINUOUS
 62
    32
 10
47.19616
 20
176.488485
 11
48.09897
 21
176.488485
  0
LINE
  8
型材
  6
CONTINUOUS
 62
    32
 10
45.69906
 20
174.68841
 11
46.298895
 21
174.68841
  0
LINE
  8
型材
  6
CONTINUOUS
 62
    32
 10
43.898987
 20
177.088318
 11
43.898987
 21
176.488482
  0
LINE
  8
型材
  6
CONTINUOUS
 62
    32
 10
48.09897
 20
177.088318
 11
48.09897
 21
176.488482
  0
LINE
  8
型材
  6
CONTINUOUS
 62
    32
 10
60.39616
 20
177.088318
 11
61.298965
 21
177.088318
  0
LINE
  8
型材
  6
CONTINUOUS
 62
    32
 10
59.498895
 20
178.888387
 11
59.498895
 21
177.985583
  0
LINE
  8
型材
  6
CONTINUOUS
 62
    32
 10
58.899063
 20
178.888387
 11
59.498895
 21
178.888387
  0
LINE
  8
型材
  6
CONTINUOUS
 62
    32
 10
58.899063
 20
178.888387
 11
58.899063
 21
177.985583
  0
LINE
  8
型材
  6
CONTINUOUS
 62
    32
 10
58.899063
 20
174.68841
 11
58.899063
 21
175.591215
  0
LINE
  8
型材
  6
CONTINUOUS
 62
    32
 10
59.498895
 20
174.68841
 11
59.498895
 21
175.591215
  0
LINE
  8
型材
  6
CONTINUOUS
 62
    32
 10
58.001793
 20
177.088318
 11
57.098987
 21
177.088318
  0
LINE
  8
型材
  6
CONTINUOUS
 62
    32
 10
58.001793
 20
176.488485
 11
57.098987
 21
176.488485
  0
LINE
  8
型材
  6
CONTINUOUS
 62
    32
 10
60.39616
 20
176.488485
 11
61.298965
 21
176.488485
  0
LINE
  8
型材
  6
CONTINUOUS
 62
    32
 10
58.899063
 20
174.68841
 11
59.498895
 21
174.68841
  0
LINE
  8
型材
  6
CONTINUOUS
 62
    32
 10
57.098987
 20
177.088318
 11
57.098987
 21
176.488482
  0
LINE
  8
型材
  6
CONTINUOUS
 62
    32
 10
61.298965
 20
177.088318
 11
61.298965
 21
176.488482
  0
LINE
  8
型材
  6
DASHDOTX2
 62
    32
 10
-51.201023
 20
176.7884
 11
77.798978
 21
176.7884
  0
LINE
  8
型材
  6
CONTINUOUS
 62
    32
 10
7.596168
 20
177.088318
 11
8.49897
 21
177.088318
  0
LINE
  8
型材
  6
CONTINUOUS
 62
    32
 10
6.698895
 20
178.888387
 11
6.698895
 21
177.985583
  0
LINE
  8
型材
  6
CONTINUOUS
 62
    32
 10
6.09906
 20
178.888387
 11
6.698895
 21
178.888387
  0
LINE
  8
型材
  6
CONTINUOUS
 62
    32
 10
6.09906
 20
178.888387
 11
6.09906
 21
177.985583
  0
LINE
  8
型材
  6
CONTINUOUS
 62
    32
 10
6.09906
 20
174.68841
 11
6.09906
 21
175.591215
  0
LINE
  8
型材
  6
CONTINUOUS
 62
    32
 10
6.698895
 20
174.68841
 11
6.698895
 21
175.591215
  0
LINE
  8
型材
  6
CONTINUOUS
 62
    32
 10
5.20179
 20
177.088318
 11
4.298987
 21
177.088318
  0
LINE
  8
型材
  6
CONTINUOUS
 62
    32
 10
5.20179
 20
176.488485
 11
4.298987
 21
176.488485
  0
LINE
  8
型材
  6
CONTINUOUS
 62
    32
 10
7.596168
 20
176.488485
 11
8.49897
 21
176.488485
  0
LINE
  8
型材
  6
CONTINUOUS
 62
    32
 10
6.09906
 20
174.68841
 11
6.698895
 21
174.68841
  0
LINE
  8
型材
  6
CONTINUOUS
 62
    32
 10
4.298987
 20
177.088318
 11
4.298987
 21
176.488482
  0
LINE
  8
型材
  6
CONTINUOUS
 62
    32
 10
8.49897
 20
177.088318
 11
8.49897
 21
176.488482
  0
LINE
  8
型材
  6
CONTINUOUS
 62
    32
 10
-31.10103
 20
177.088318
 11
-31.10103
 21
176.488482
  0
LINE
  8
型材
  6
CONTINUOUS
 62
    32
 10
-35.301012
 20
177.088318
 11
-35.301012
 21
176.488482
  0
LINE
  8
型材
  6
CONTINUOUS
 62
    32
 10
-33.50094
 20
174.68841
 11
-32.901105
 21
174.68841
  0
LINE
  8
型材
  6
CONTINUOUS
 62
    32
 10
-32.003833
 20
176.488485
 11
-31.10103
 21
176.488485
  0
LINE
  8
型材
  6
CONTINUOUS
 62
    32
 10
-34.39821
 20
176.488485
 11
-35.301012
 21
176.488485
  0
LINE
  8
型材
  6
CONTINUOUS
 62
    32
 10
-34.39821
 20
177.088318
 11
-35.301012
 21
177.088318
  0
LINE
  8
型材
  6
CONTINUOUS
 62
    32
 10
-32.901105
 20
174.68841
 11
-32.901105
 21
175.591215
  0
LINE
  8
型材
  6
CONTINUOUS
 62
    32
 10
-33.50094
 20
174.68841
 11
-33.50094
 21
175.591215
  0
LINE
  8
型材
  6
CONTINUOUS
 62
    32
 10
-33.50094
 20
178.888387
 11
-33.50094
 21
177.985583
  0
LINE
  8
型材
  6
CONTINUOUS
 62
    32
 10
-33.50094
 20
178.888387
 11
-32.901105
 21
178.888387
  0
LINE
  8
型材
  6
CONTINUOUS
 62
    32
 10
-32.901105
 20
178.888387
 11
-32.901105
 21
177.985583
  0
LINE
  8
型材
  6
CONTINUOUS
 62
    32
 10
-32.003833
 20
177.088318
 11
-31.10103
 21
177.088318
  0
LINE
  8
型材
  6
DASHDOTX2
 62
    32
 10
-33.201023
 20
170.7884
 11
-33.201023
 21
182.7884
  0
LINE
  8
型材
  6
CONTINUOUS
 62
    32
 10
-25.401023
 20
184.5884
 11
-25.401023
 21
165.3884
  0
LINE
  8
型材
  6
CONTINUOUS
 62
    32
 10
-27.801022
 20
184.5884
 11
-27.801022
 21
165.3884
  0
ARC
  8
型材
  6
CONTINUOUS
 62
    32
 10
58.00179
 20
175.591214
 40
0.897268
 50
0.000022
 51
90.000066
  0
ARC
  8
型材
  6
CONTINUOUS
 62
    32
 10
60.396161
 20
175.591213
 40
0.897268
 50
90.000011
 51
180.000046
  0
CIRCLE
  8
型材
  6
CONTINUOUS
 62
    32
 10
59.198977
 20
176.7884
 40
4.14
  0
ARC
  8
型材
  6
CONTINUOUS
 62
    32
 10
5.201787
 20
175.591214
 40
0.897268
 50
0.000022
 51
90.000066
  0
ARC
  8
型材
  6
CONTINUOUS
 62
    32
 10
7.596165
 20
175.591213
 40
0.897268
 50
90.000011
 51
180.000046
  0
CIRCLE
  8
型材
  6
CONTINUOUS
 62
    32
 10
6.398978
 20
176.7884
 40
4.14
  0
ARC
  8
型材
  6
CONTINUOUS
 62
    32
 10
73.596161
 20
177.985583
 40
0.897268
 50
179.999978
 51
270.00003
  0
ARC
  8
型材
  6
CONTINUOUS
 62
    32
 10
71.201791
 20
177.985583
 40
0.897268
 50
269.999962
 51
360.000005
  0
ARC
  8
型材
  6
CONTINUOUS
 62
    32
 10
71.20179
 20
175.591214
 40
0.897268
 50
0.000022
 51
90.000066
  0
ARC
  8
型材
  6
CONTINUOUS
 62
    32
 10
73.596161
 20
175.591213
 40
0.897268
 50
90.000011
 51
180.000046
  0
CIRCLE
  8
型材
  6
CONTINUOUS
 62
    32
 10
72.398978
 20
176.7884
 40
4.14
  0
ARC
  8
型材
  6
CONTINUOUS
 62
    32
 10
-45.203835
 20
177.985583
 40
0.897268
 50
179.999978
 51
270.00003
  0
ARC
  8
型材
  6
CONTINUOUS
 62
    32
 10
-47.598213
 20
177.985583
 40
0.897268
 50
269.999962
 51
360.000005
  0
ARC
  8
型材
  6
CONTINUOUS
 62
    32
 10
-47.598213
 20
175.591214
 40
0.897268
 50
0.000022
 51
90.000066
  0
ARC
  8
型材
  6
CONTINUOUS
 62
    32
 10
-45.203835
 20
175.591213
 40
0.897268
 50
90.000011
 51
180.000046
  0
CIRCLE
  8
型材
  6
CONTINUOUS
 62
    32
 10
-46.401022
 20
176.7884
 40
4.14
  0
ARC
  8
型材
  6
CONTINUOUS
 62
    32
 10
20.796161
 20
177.985583
 40
0.897268
 50
179.999978
 51
270.00003
  0
ARC
  8
型材
  6
CONTINUOUS
 62
    32
 10
18.401791
 20
177.985583
 40
0.897268
 50
269.999962
 51
360.000005
  0
ARC
  8
型材
  6
CONTINUOUS
 62
    32
 10
18.401791
 20
175.591214
 40
0.897268
 50
0.000022
 51
90.000066
  0
ARC
  8
型材
  6
CONTINUOUS
 62
    32
 10
20.796161
 20
175.591213
 40
0.897268
 50
90.000011
 51
180.000046
  0
CIRCLE
  8
型材
  6
CONTINUOUS
 62
    32
 10
19.598978
 20
176.7884
 40
4.14
  0
ARC
  8
型材
  6
CONTINUOUS
 62
    32
 10
-18.803835
 20
177.985583
 40
0.897268
 50
179.999978
 51
270.00003
  0
ARC
  8
型材
  6
CONTINUOUS
 62
    32
 10
-21.198213
 20
177.985583
 40
0.897268
 50
269.999962
 51
360.000005
  0
ARC
  8
型材
  6
CONTINUOUS
 62
    32
 10
-21.198213
 20
175.591214
 40
0.897268
 50
0.000022
 51
90.000066
  0
ARC
  8
型材
  6
CONTINUOUS
 62
    32
 10
-18.803835
 20
175.591213
 40
0.897268
 50
90.000011
 51
180.000046
  0
CIRCLE
  8
型材
  6
CONTINUOUS
 62
    32
 10
-20.001022
 20
176.7884
 40
4.14
  0
ARC
  8
型材
  6
CONTINUOUS
 62
    32
 10
-5.603835
 20
177.985583
 40
0.897268
 50
179.999978
 51
270.00003
  0
ARC
  8
型材
  6
CONTINUOUS
 62
    32
 10
-7.998213
 20
177.985583
 40
0.897268
 50
269.999962
 51
360.000005
  0
ARC
  8
型材
  6
CONTINUOUS
 62
    32
 10
-7.998213
 20
175.591214
 40
0.897268
 50
0.000022
 51
90.000066
  0
ARC
  8
型材
  6
CONTINUOUS
 62
    32
 10
-5.603835
 20
175.591213
 40
0.897268
 50
90.000011
 51
180.000046
  0
CIRCLE
  8
型材
  6
CONTINUOUS
 62
    32
 10
-6.801022
 20
176.7884
 40
4.14
  0
ARC
  8
型材
  6
CONTINUOUS
 62
    32
 10
33.996161
 20
177.985583
 40
0.897268
 50
179.999978
 51
270.00003
  0
ARC
  8
型材
  6
CONTINUOUS
 62
    32
 10
31.601791
 20
177.985583
 40
0.897268
 50
269.999962
 51
360.000005
  0
ARC
  8
型材
  6
CONTINUOUS
 62
    32
 10
31.601791
 20
175.591214
 40
0.897268
 50
0.000022
 51
90.000066
  0
ARC
  8
型材
  6
CONTINUOUS
 62
    32
 10
33.996161
 20
175.591213
 40
0.897268
 50
90.000011
 51
180.000046
  0
CIRCLE
  8
型材
  6
CONTINUOUS
 62
    32
 10
32.798977
 20
176.7884
 40
4.14
  0
ARC
  8
型材
  6
CONTINUOUS
 62
    32
 10
47.196161
 20
177.985583
 40
0.897268
 50
179.999978
 51
270.00003
  0
ARC
  8
型材
  6
CONTINUOUS
 62
    32
 10
44.801791
 20
177.985583
 40
0.897268
 50
269.999962
 51
360.000005
  0
ARC
  8
型材
  6
CONTINUOUS
 62
    32
 10
44.801791
 20
175.591214
 40
0.897268
 50
0.000022
 51
90.000066
  0
ARC
  8
型材
  6
CONTINUOUS
 62
    32
 10
47.196161
 20
175.591213
 40
0.897268
 50
90.000011
 51
180.000046
  0
CIRCLE
  8
型材
  6
CONTINUOUS
 62
    32
 10
45.998978
 20
176.7884
 40
4.14
  0
ARC
  8
型材
  6
CONTINUOUS
 62
    32
 10
60.396161
 20
177.985583
 40
0.897268
 50
179.999978
 51
270.00003
  0
ARC
  8
型材
  6
CONTINUOUS
 62
    32
 10
58.001791
 20
177.985583
 40
0.897268
 50
269.999962
 51
360.000005
  0
ARC
  8
型材
  6
CONTINUOUS
 62
    32
 10
7.596165
 20
177.985583
 40
0.897268
 50
179.999978
 51
270.00003
  0
ARC
  8
型材
  6
CONTINUOUS
 62
    32
 10
5.201787
 20
177.985583
 40
0.897268
 50
269.999962
 51
360.000005
  0
CIRCLE
  8
型材
  6
CONTINUOUS
 62
    32
 10
-33.201023
 20
176.7884
 40
4.14
  0
ARC
  8
型材
  6
CONTINUOUS
 62
    32
 10
-32.003835
 20
175.591213
 40
0.897268
 50
90.000011
 51
180.000046
  0
ARC
  8
型材
  6
CONTINUOUS
 62
    32
 10
-34.398213
 20
175.591214
 40
0.897268
 50
0.000022
 51
90.000066
  0
ARC
  8
型材
  6
CONTINUOUS
 62
    32
 10
-34.398213
 20
177.985583
 40
0.897268
 50
269.999962
 51
360.000005
  0
ARC
  8
型材
  6
CONTINUOUS
 62
    32
 10
-32.003835
 20
177.985583
 40
0.897268
 50
179.999978
 51
270.00003
  0
POINT
  8
型材
 62
    32
 10
-41.00095
 20
184.588407
  0
LINE
  8
型材
  6
CONTINUOUS
 62
    32
 10
66.99905
 20
184.588407
 11
-41.00095
 21
184.588407
  0
LINE
  8
型材
  6
CONTINUOUS
 62
    32
 10
-41.00095
 20
184.588407
 11
-41.00095
 21
216.663915
  0
POINT
  8
型材
 62
    32
 10
85.598978
 20
176.7884
  0
LINE
  8
型材
  6
CONTINUOUS
 62
    32
 10
130.598977
 20
184.5884
 11
130.598977
 21
165.3884
  0
LINE
  8
型材
  6
CONTINUOUS
 62
    32
 10
80.198977
 20
184.5884
 11
80.198977
 21
165.3884
  0
LINE
  8
型材
  6
CONTINUOUS
 62
    32
 10
183.398978
 20
184.5884
 11
183.398978
 21
165.3884
  0
LINE
  8
型材
  6
CONTINUOUS
 62
    32
 10
132.998978
 20
184.5884
 11
132.998978
 21
165.3884
  0
LINE
  8
型材
  6
CONTINUOUS
 62
    32
 10
104.198978
 20
184.5884
 11
104.198978
 21
165.3884
  0
LINE
  8
型材
  6
CONTINUOUS
 62
    32
 10
106.598978
 20
184.5884
 11
106.598978
 21
165.3884
  0
LINE
  8
型材
  6
CONTINUOUS
 62
    32
 10
143.798978
 20
184.5884
 11
143.798978
 21
165.3884
  0
LINE
  8
型材
  6
CONTINUOUS
 62
    32
 10
146.198978
 20
184.5884
 11
146.198978
 21
165.3884
  0
LINE
  8
型材
  6
CONTINUOUS
 62
    32
 10
156.998978
 20
184.5884
 11
156.998978
 21
165.3884
  0
LINE
  8
型材
  6
CONTINUOUS
 62
    32
 10
159.398978
 20
184.5884
 11
159.398978
 21
165.3884
  0
LINE
  8
型材
  6
CONTINUOUS
 62
    32
 10
172.598977
 20
184.5884
 11
172.598977
 21
165.3884
  0
LINE
  8
型材
  6
CONTINUOUS
 62
    32
 10
170.198978
 20
184.5884
 11
170.198978
 21
165.3884
  0
LINE
  8
型材
  6
DASHDOTX2
 62
    32
 10
177.998978
 20
170.7884
 11
177.998978
 21
182.7884
  0
LINE
  8
型材
  6
DASHDOTX2
 62
    32
 10
164.798978
 20
170.7884
 11
164.798978
 21
182.7884
  0
LINE
  8
型材
  6
DASHDOTX2
 62
    32
 10
151.598977
 20
170.7884
 11
151.598977
 21
182.7884
  0
LINE
  8
型材
  6
DASHDOTX2
 62
    32
 10
138.398978
 20
170.7884
 11
138.398978
 21
182.7884
  0
LINE
  8
型材
  6
CONTINUOUS
 62
    32
 10
119.798978
 20
184.5884
 11
119.798978
 21
165.3884
  0
LINE
  8
型材
  6
CONTINUOUS
 62
    32
 10
117.398978
 20
184.5884
 11
117.398978
 21
165.3884
  0
LINE
  8
型材
  6
DASHDOTX2
 62
    32
 10
125.198978
 20
170.7884
 11
125.198978
 21
182.7884
  0
LINE
  8
型材
  6
DASHDOTX2
 62
    32
 10
111.998978
 20
170.7884
 11
111.998978
 21
182.7884
  0
LINE
  8
型材
  6
DASHDOTX2
 62
    32
 10
98.798978
 20
170.7884
 11
98.798978
 21
182.7884
  0
LINE
  8
型材
  6
CONTINUOUS
 62
    32
 10
139.59616
 20
177.088318
 11
140.49897
 21
177.088318
  0
LINE
  8
型材
  6
CONTINUOUS
 62
    32
 10
138.698895
 20
178.888387
 11
138.698895
 21
177.985583
  0
LINE
  8
型材
  6
CONTINUOUS
 62
    32
 10
138.09906
 20
178.888387
 11
138.698895
 21
178.888387
  0
LINE
  8
型材
  6
CONTINUOUS
 62
    32
 10
138.09906
 20
178.888387
 11
138.09906
 21
177.985583
  0
LINE
  8
型材
  6
CONTINUOUS
 62
    32
 10
138.09906
 20
174.68841
 11
138.09906
 21
175.591215
  0
LINE
  8
型材
  6
CONTINUOUS
 62
    32
 10
138.698895
 20
174.68841
 11
138.698895
 21
175.591215
  0
LINE
  8
型材
  6
CONTINUOUS
 62
    32
 10
99.996168
 20
177.088318
 11
100.89897
 21
177.088318
  0
LINE
  8
型材
  6
CONTINUOUS
 62
    32
 10
99.098895
 20
178.888387
 11
99.098895
 21
177.985583
  0
LINE
  8
型材
  6
CONTINUOUS
 62
    32
 10
98.49906
 20
178.888387
 11
99.098895
 21
178.888387
  0
LINE
  8
型材
  6
CONTINUOUS
 62
    32
 10
98.49906
 20
178.888387
 11
98.49906
 21
177.985583
  0
LINE
  8
型材
  6
CONTINUOUS
 62
    32
 10
98.49906
 20
174.68841
 11
98.49906
 21
175.591215
  0
LINE
  8
型材
  6
CONTINUOUS
 62
    32
 10
99.098895
 20
174.68841
 11
99.098895
 21
175.591215
  0
LINE
  8
型材
  6
CONTINUOUS
 62
    32
 10
97.60179
 20
177.088318
 11
96.698987
 21
177.088318
  0
LINE
  8
型材
  6
CONTINUOUS
 62
    32
 10
97.60179
 20
176.488485
 11
96.698987
 21
176.488485
  0
LINE
  8
型材
  6
CONTINUOUS
 62
    32
 10
99.996168
 20
176.488485
 11
100.89897
 21
176.488485
  0
LINE
  8
型材
  6
CONTINUOUS
 62
    32
 10
98.49906
 20
174.68841
 11
99.098895
 21
174.68841
  0
LINE
  8
型材
  6
CONTINUOUS
 62
    32
 10
96.698987
 20
177.088318
 11
96.698987
 21
176.488482
  0
LINE
  8
型材
  6
CONTINUOUS
 62
    32
 10
100.89897
 20
177.088318
 11
100.89897
 21
176.488482
  0
LINE
  8
型材
  6
CONTINUOUS
 62
    32
 10
113.196168
 20
177.088318
 11
114.09897
 21
177.088318
  0
LINE
  8
型材
  6
CONTINUOUS
 62
    32
 10
112.298895
 20
178.888387
 11
112.298895
 21
177.985583
  0
LINE
  8
型材
  6
CONTINUOUS
 62
    32
 10
111.69906
 20
178.888387
 11
112.298895
 21
178.888387
  0
LINE
  8
型材
  6
CONTINUOUS
 62
    32
 10
111.69906
 20
178.888387
 11
111.69906
 21
177.985583
  0
LINE
  8
型材
  6
CONTINUOUS
 62
    32
 10
111.69906
 20
174.68841
 11
111.69906
 21
175.591215
  0
LINE
  8
型材
  6
CONTINUOUS
 62
    32
 10
112.298895
 20
174.68841
 11
112.298895
 21
175.591215
  0
LINE
  8
型材
  6
CONTINUOUS
 62
    32
 10
110.80179
 20
177.088318
 11
109.898987
 21
177.088318
  0
LINE
  8
型材
  6
CONTINUOUS
 62
    32
 10
110.80179
 20
176.488485
 11
109.898987
 21
176.488485
  0
LINE
  8
型材
  6
CONTINUOUS
 62
    32
 10
113.196168
 20
176.488485
 11
114.09897
 21
176.488485
  0
LINE
  8
型材
  6
CONTINUOUS
 62
    32
 10
111.69906
 20
174.68841
 11
112.298895
 21
174.68841
  0
LINE
  8
型材
  6
CONTINUOUS
 62
    32
 10
109.898987
 20
177.088318
 11
109.898987
 21
176.488482
  0
LINE
  8
型材
  6
CONTINUOUS
 62
    32
 10
114.09897
 20
177.088318
 11
114.09897
 21
176.488482
  0
LINE
  8
型材
  6
CONTINUOUS
 62
    32
 10
137.201793
 20
177.088318
 11
136.298987
 21
177.088318
  0
LINE
  8
型材
  6
CONTINUOUS
 62
    32
 10
137.201793
 20
176.488485
 11
136.298987
 21
176.488485
  0
LINE
  8
型材
  6
CONTINUOUS
 62
    32
 10
139.59616
 20
176.488485
 11
140.49897
 21
176.488485
  0
LINE
  8
型材
  6
CONTINUOUS
 62
    32
 10
138.09906
 20
174.68841
 11
138.698895
 21
174.68841
  0
LINE
  8
型材
  6
CONTINUOUS
 62
    32
 10
136.298987
 20
177.088318
 11
136.298987
 21
176.488482
  0
LINE
  8
型材
  6
CONTINUOUS
 62
    32
 10
140.49897
 20
177.088318
 11
140.49897
 21
176.488482
  0
LINE
  8
型材
  6
CONTINUOUS
 62
    32
 10
152.79616
 20
177.088318
 11
153.69897
 21
177.088318
  0
LINE
  8
型材
  6
CONTINUOUS
 62
    32
 10
151.898895
 20
178.888387
 11
151.898895
 21
177.985583
  0
LINE
  8
型材
  6
CONTINUOUS
 62
    32
 10
151.299063
 20
178.888387
 11
151.898895
 21
178.888387
  0
LINE
  8
型材
  6
CONTINUOUS
 62
    32
 10
151.29906
 20
178.888387
 11
151.29906
 21
177.985583
  0
LINE
  8
型材
  6
CONTINUOUS
 62
    32
 10
151.29906
 20
174.68841
 11
151.29906
 21
175.591215
  0
LINE
  8
型材
  6
CONTINUOUS
 62
    32
 10
151.898895
 20
174.68841
 11
151.898895
 21
175.591215
  0
LINE
  8
型材
  6
CONTINUOUS
 62
    32
 10
150.401793
 20
177.088318
 11
149.498987
 21
177.088318
  0
LINE
  8
型材
  6
CONTINUOUS
 62
    32
 10
150.401793
 20
176.488485
 11
149.498987
 21
176.488485
  0
LINE
  8
型材
  6
CONTINUOUS
 62
    32
 10
152.79616
 20
176.488485
 11
153.69897
 21
176.488485
  0
LINE
  8
型材
  6
CONTINUOUS
 62
    32
 10
151.29906
 20
174.68841
 11
151.898895
 21
174.68841
  0
LINE
  8
型材
  6
CONTINUOUS
 62
    32
 10
149.498987
 20
177.088318
 11
149.498987
 21
176.488482
  0
LINE
  8
型材
  6
CONTINUOUS
 62
    32
 10
153.69897
 20
177.088318
 11
153.69897
 21
176.488482
  0
LINE
  8
型材
  6
CONTINUOUS
 62
    32
 10
165.99616
 20
177.088318
 11
166.89897
 21
177.088318
  0
LINE
  8
型材
  6
CONTINUOUS
 62
    32
 10
165.098895
 20
178.888387
 11
165.098895
 21
177.985583
  0
LINE
  8
型材
  6
CONTINUOUS
 62
    32
 10
164.499063
 20
178.888387
 11
165.098895
 21
178.888387
  0
LINE
  8
型材
  6
CONTINUOUS
 62
    32
 10
164.49906
 20
178.888387
 11
164.49906
 21
177.985583
  0
LINE
  8
型材
  6
CONTINUOUS
 62
    32
 10
164.49906
 20
174.68841
 11
164.49906
 21
175.591215
  0
LINE
  8
型材
  6
CONTINUOUS
 62
    32
 10
165.098895
 20
174.68841
 11
165.098895
 21
175.591215
  0
LINE
  8
型材
  6
CONTINUOUS
 62
    32
 10
163.601793
 20
177.088318
 11
162.698987
 21
177.088318
  0
LINE
  8
型材
  6
CONTINUOUS
 62
    32
 10
163.601793
 20
176.488485
 11
162.698987
 21
176.488485
  0
LINE
  8
型材
  6
CONTINUOUS
 62
    32
 10
165.99616
 20
176.488485
 11
166.89897
 21
176.488485
  0
LINE
  8
型材
  6
CONTINUOUS
 62
    32
 10
164.49906
 20
174.68841
 11
165.098895
 21
174.68841
  0
LINE
  8
型材
  6
CONTINUOUS
 62
    32
 10
162.698987
 20
177.088318
 11
162.698987
 21
176.488482
  0
LINE
  8
型材
  6
CONTINUOUS
 62
    32
 10
166.89897
 20
177.088318
 11
166.89897
 21
176.488482
  0
LINE
  8
型材
  6
CONTINUOUS
 62
    32
 10
179.19616
 20
177.088318
 11
180.098965
 21
177.088318
  0
LINE
  8
型材
  6
CONTINUOUS
 62
    32
 10
178.298895
 20
178.888387
 11
178.298895
 21
177.985583
  0
LINE
  8
型材
  6
CONTINUOUS
 62
    32
 10
177.699063
 20
178.888387
 11
178.298895
 21
178.888387
  0
LINE
  8
型材
  6
CONTINUOUS
 62
    32
 10
177.699063
 20
178.888387
 11
177.699063
 21
177.985583
  0
LINE
  8
型材
  6
CONTINUOUS
 62
    32
 10
177.699063
 20
174.68841
 11
177.699063
 21
175.591215
  0
LINE
  8
型材
  6
CONTINUOUS
 62
    32
 10
178.298895
 20
174.68841
 11
178.298895
 21
175.591215
  0
LINE
  8
型材
  6
CONTINUOUS
 62
    32
 10
176.801793
 20
177.088318
 11
175.898987
 21
177.088318
  0
LINE
  8
型材
  6
CONTINUOUS
 62
    32
 10
176.801793
 20
176.488485
 11
175.898987
 21
176.488485
  0
LINE
  8
型材
  6
CONTINUOUS
 62
    32
 10
179.19616
 20
176.488485
 11
180.098965
 21
176.488485
  0
LINE
  8
型材
  6
CONTINUOUS
 62
    32
 10
177.699063
 20
174.68841
 11
178.298895
 21
174.68841
  0
LINE
  8
型材
  6
CONTINUOUS
 62
    32
 10
175.898987
 20
177.088318
 11
175.898987
 21
176.488482
  0
LINE
  8
型材
  6
CONTINUOUS
 62
    32
 10
180.098965
 20
177.088318
 11
180.098965
 21
176.488482
  0
LINE
  8
型材
  6
CONTINUOUS
 62
    32
 10
126.396168
 20
177.088318
 11
127.29897
 21
177.088318
  0
LINE
  8
型材
  6
CONTINUOUS
 62
    32
 10
125.498895
 20
178.888387
 11
125.498895
 21
177.985583
  0
LINE
  8
型材
  6
CONTINUOUS
 62
    32
 10
124.89906
 20
178.888387
 11
125.498895
 21
178.888387
  0
LINE
  8
型材
  6
CONTINUOUS
 62
    32
 10
124.89906
 20
178.888387
 11
124.89906
 21
177.985583
  0
LINE
  8
型材
  6
CONTINUOUS
 62
    32
 10
124.89906
 20
174.68841
 11
124.89906
 21
175.591215
  0
LINE
  8
型材
  6
CONTINUOUS
 62
    32
 10
125.498895
 20
174.68841
 11
125.498895
 21
175.591215
  0
LINE
  8
型材
  6
CONTINUOUS
 62
    32
 10
124.00179
 20
177.088318
 11
123.098987
 21
177.088318
  0
LINE
  8
型材
  6
CONTINUOUS
 62
    32
 10
124.00179
 20
176.488485
 11
123.098987
 21
176.488485
  0
LINE
  8
型材
  6
CONTINUOUS
 62
    32
 10
126.396168
 20
176.488485
 11
127.29897
 21
176.488485
  0
LINE
  8
型材
  6
CONTINUOUS
 62
    32
 10
124.89906
 20
174.68841
 11
125.498895
 21
174.68841
  0
LINE
  8
型材
  6
CONTINUOUS
 62
    32
 10
123.098987
 20
177.088318
 11
123.098987
 21
176.488482
  0
LINE
  8
型材
  6
CONTINUOUS
 62
    32
 10
127.29897
 20
177.088318
 11
127.29897
 21
176.488482
  0
LINE
  8
型材
  6
CONTINUOUS
 62
    32
 10
87.69897
 20
177.088318
 11
87.69897
 21
176.488482
  0
LINE
  8
型材
  6
CONTINUOUS
 62
    32
 10
83.498987
 20
177.088318
 11
83.498987
 21
176.488482
  0
LINE
  8
型材
  6
CONTINUOUS
 62
    32
 10
85.29906
 20
174.68841
 11
85.898895
 21
174.68841
  0
LINE
  8
型材
  6
CONTINUOUS
 62
    32
 10
86.796168
 20
176.488485
 11
87.69897
 21
176.488485
  0
LINE
  8
型材
  6
CONTINUOUS
 62
    32
 10
84.40179
 20
176.488485
 11
83.498987
 21
176.488485
  0
LINE
  8
型材
  6
CONTINUOUS
 62
    32
 10
84.40179
 20
177.088318
 11
83.498987
 21
177.088318
  0
LINE
  8
型材
  6
CONTINUOUS
 62
    32
 10
85.898895
 20
174.68841
 11
85.898895
 21
175.591215
  0
LINE
  8
型材
  6
CONTINUOUS
 62
    32
 10
85.29906
 20
174.68841
 11
85.29906
 21
175.591215
  0
LINE
  8
型材
  6
CONTINUOUS
 62
    32
 10
85.29906
 20
178.888387
 11
85.29906
 21
177.985583
  0
LINE
  8
型材
  6
CONTINUOUS
 62
    32
 10
85.29906
 20
178.888387
 11
85.898895
 21
178.888387
  0
LINE
  8
型材
  6
CONTINUOUS
 62
    32
 10
85.898895
 20
178.888387
 11
85.898895
 21
177.985583
  0
LINE
  8
型材
  6
CONTINUOUS
 62
    32
 10
86.796168
 20
177.088318
 11
87.69897
 21
177.088318
  0
LINE
  8
型材
  6
DASHDOTX2
 62
    32
 10
85.598978
 20
170.7884
 11
85.598978
 21
182.7884
  0
LINE
  8
型材
  6
CONTINUOUS
 62
    32
 10
93.398978
 20
184.5884
 11
93.398978
 21
165.3884
  0
LINE
  8
型材
  6
CONTINUOUS
 62
    32
 10
90.998977
 20
184.5884
 11
90.998977
 21
165.3884
  0
ARC
  8
型材
  6
CONTINUOUS
 62
    32
 10
176.80179
 20
175.591214
 40
0.897268
 50
0.000022
 51
90.000066
  0
ARC
  8
型材
  6
CONTINUOUS
 62
    32
 10
179.196161
 20
175.591213
 40
0.897268
 50
90.000011
 51
180.000046
  0
CIRCLE
  8
型材
  6
CONTINUOUS
 62
    32
 10
177.998978
 20
176.7884
 40
4.14
  0
ARC
  8
型材
  6
CONTINUOUS
 62
    32
 10
124.001787
 20
175.591214
 40
0.897268
 50
0.000022
 51
90.000066
  0
ARC
  8
型材
  6
CONTINUOUS
 62
    32
 10
126.396165
 20
175.591213
 40
0.897268
 50
90.000011
 51
180.000046
  0
CIRCLE
  8
型材
  6
CONTINUOUS
 62
    32
 10
125.198978
 20
176.7884
 40
4.14
  0
ARC
  8
型材
  6
CONTINUOUS
 62
    32
 10
139.596161
 20
177.985583
 40
0.897268
 50
179.999978
 51
270.00003
  0
ARC
  8
型材
  6
CONTINUOUS
 62
    32
 10
137.201791
 20
177.985583
 40
0.897268
 50
269.999962
 51
360.000005
  0
ARC
  8
型材
  6
CONTINUOUS
 62
    32
 10
137.201791
 20
175.591214
 40
0.897268
 50
0.000022
 51
90.000066
  0
ARC
  8
型材
  6
CONTINUOUS
 62
    32
 10
139.596161
 20
175.591213
 40
0.897268
 50
90.000011
 51
180.000046
  0
CIRCLE
  8
型材
  6
CONTINUOUS
 62
    32
 10
138.398978
 20
176.7884
 40
4.14
  0
ARC
  8
型材
  6
CONTINUOUS
 62
    32
 10
99.996165
 20
177.985583
 40
0.897268
 50
179.999978
 51
270.00003
  0
ARC
  8
型材
  6
CONTINUOUS
 62
    32
 10
97.601787
 20
177.985583
 40
0.897268
 50
269.999962
 51
360.000005
  0
ARC
  8
型材
  6
CONTINUOUS
 62
    32
 10
97.601787
 20
175.591214
 40
0.897268
 50
0.000022
 51
90.000066
  0
ARC
  8
型材
  6
CONTINUOUS
 62
    32
 10
99.996165
 20
175.591213
 40
0.897268
 50
90.000011
 51
180.000046
  0
CIRCLE
  8
型材
  6
CONTINUOUS
 62
    32
 10
98.798978
 20
176.7884
 40
4.14
  0
ARC
  8
型材
  6
CONTINUOUS
 62
    32
 10
113.196165
 20
177.985583
 40
0.897268
 50
179.999978
 51
270.00003
  0
ARC
  8
型材
  6
CONTINUOUS
 62
    32
 10
110.801787
 20
177.985583
 40
0.897268
 50
269.999962
 51
360.000005
  0
ARC
  8
型材
  6
CONTINUOUS
 62
    32
 10
110.801787
 20
175.591214
 40
0.897268
 50
0.000022
 51
90.000066
  0
ARC
  8
型材
  6
CONTINUOUS
 62
    32
 10
113.196165
 20
175.591213
 40
0.897268
 50
90.000011
 51
180.000046
  0
CIRCLE
  8
型材
  6
CONTINUOUS
 62
    32
 10
111.998978
 20
176.7884
 40
4.14
  0
ARC
  8
型材
  6
CONTINUOUS
 62
    32
 10
152.796161
 20
177.985583
 40
0.897268
 50
179.999978
 51
270.00003
  0
ARC
  8
型材
  6
CONTINUOUS
 62
    32
 10
150.401791
 20
177.985583
 40
0.897268
 50
269.999962
 51
360.000005
  0
ARC
  8
型材
  6
CONTINUOUS
 62
    32
 10
150.401791
 20
175.591214
 40
0.897268
 50
0.000022
 51
90.000066
  0
ARC
  8
型材
  6
CONTINUOUS
 62
    32
 10
152.796161
 20
175.591213
 40
0.897268
 50
90.000011
 51
180.000046
  0
CIRCLE
  8
型材
  6
CONTINUOUS
 62
    32
 10
151.598977
 20
176.7884
 40
4.14
  0
ARC
  8
型材
  6
CONTINUOUS
 62
    32
 10
165.996161
 20
177.985583
 40
0.897268
 50
179.999978
 51
270.00003
  0
ARC
  8
型材
  6
CONTINUOUS
 62
    32
 10
163.601791
 20
177.985583
 40
0.897268
 50
269.999962
 51
360.000005
  0
ARC
  8
型材
  6
CONTINUOUS
 62
    32
 10
163.601791
 20
175.591214
 40
0.897268
 50
0.000022
 51
90.000066
  0
ARC
  8
型材
  6
CONTINUOUS
 62
    32
 10
165.996161
 20
175.591213
 40
0.897268
 50
90.000011
 51
180.000046
  0
CIRCLE
  8
型材
  6
CONTINUOUS
 62
    32
 10
164.798978
 20
176.7884
 40
4.14
  0
ARC
  8
型材
  6
CONTINUOUS
 62
    32
 10
179.196161
 20
177.985583
 40
0.897268
 50
179.999978
 51
270.00003
  0
ARC
  8
型材
  6
CONTINUOUS
 62
    32
 10
176.801791
 20
177.985583
 40
0.897268
 50
269.999962
 51
360.000005
  0
ARC
  8
型材
  6
CONTINUOUS
 62
    32
 10
126.396165
 20
177.985583
 40
0.897268
 50
179.999978
 51
270.00003
  0
ARC
  8
型材
  6
CONTINUOUS
 62
    32
 10
124.001787
 20
177.985583
 40
0.897268
 50
269.999962
 51
360.000005
  0
CIRCLE
  8
型材
  6
CONTINUOUS
 62
    32
 10
85.598978
 20
176.7884
 40
4.14
  0
ARC
  8
型材
  6
CONTINUOUS
 62
    32
 10
86.796165
 20
175.591213
 40
0.897268
 50
90.000011
 51
180.000046
  0
ARC
  8
型材
  6
CONTINUOUS
 62
    32
 10
84.401787
 20
175.591214
 40
0.897268
 50
0.000022
 51
90.000066
  0
ARC
  8
型材
  6
CONTINUOUS
 62
    32
 10
84.401787
 20
177.985583
 40
0.897268
 50
269.999962
 51
360.000005
  0
ARC
  8
型材
  6
CONTINUOUS
 62
    32
 10
86.796165
 20
177.985583
 40
0.897268
 50
179.999978
 51
270.00003
  0
LINE
  8
型材
  6
CONTINUOUS
 62
    32
 10
-51.801023
 20
165.3884
 11
183.398978
 21
165.3884
  0
LINE
  8
型材
  6
CONTINUOUS
 62
    32
 10
-51.801023
 20
184.5884
 11
183.398978
 21
184.5884
  0
LINE
  8
型材
  6
CONTINUOUS
 62
    32
 10
172.59905
 20
184.588407
 11
172.59905
 21
216.663915
  0
LINE
  8
型材
  6
CONTINUOUS
 62
    32
 10
-41.00095
 20
216.663915
 11
172.59905
 21
216.663915
  0
POLYLINE
  8
型材
  6
DOT
 66
     1
 70
     1
  0
VERTEX
  8
型材
 10
194.141302
 20
232.508362
  0
VERTEX
  8
型材
 10
-62.787267
 20
232.508362
  0
VERTEX
  8
型材
 10
-62.787267
 20
138.896118
  0
VERTEX
  8
型材
 10
194.141302
 20
138.896118
  0
SEQEND
  0
POINT
  8
型材
 62
    32
 10
-14.601022
 20
-2.844625
  0
LINE
  8
型材
  6
CONTINUOUS
 62
    32
 10
-14.601022
 20
-2.844625
 11
53.798977
 21
-2.844625
  0
POINT
  8
型材
 62
    32
 10
-20.001022
 20
4.955375
  0
POINT
  8
型材
 62
    32
 10
-14.601022
 20
4.955375
  0
POINT
  8
型材
 62
    32
 10
53.798977
 20
4.955375
  0
POINT
  8
型材
 62
    32
 10
-25.401023
 20
-2.844625
  0
POINT
  8
型材
 62
    32
 10
-20.001022
 20
4.955375
  0
POINT
  8
型材
 62
    32
 10
59.198977
 20
4.955375
  0
POINT
  8
型材
 62
    32
 10
59.198977
 20
4.955375
  0
POINT
  8
型材
 62
    32
 10
64.598978
 20
-2.844625
  0
LINE
  8
型材
  6
CONTINUOUS
 62
    32
 10
53.798977
 20
-2.844625
 11
53.798977
 21
16.355375
  0
LINE
  8
型材
  6
CONTINUOUS
 62
    32
 10
51.398978
 20
-2.844625
 11
51.398978
 21
16.355375
  0
LINE
  8
型材
  6
CONTINUOUS
 62
    32
 10
64.598978
 20
16.355375
 11
64.598978
 21
-2.844625
  0
LINE
  8
型材
  6
DASHDOTX2
 62
    32
 10
59.198977
 20
10.955375
 11
59.198977
 21
-1.044625
  0
LINE
  8
型材
  6
CONTINUOUS
 62
    32
 10
58.00179
 20
4.655458
 11
57.098987
 21
4.655458
  0
LINE
  8
型材
  6
CONTINUOUS
 62
    32
 10
58.899063
 20
2.855387
 11
58.899063
 21
3.758193
  0
LINE
  8
型材
  6
CONTINUOUS
 62
    32
 10
59.498898
 20
2.855387
 11
58.899063
 21
2.855387
  0
LINE
  8
型材
  6
CONTINUOUS
 62
    32
 10
59.498898
 20
2.855387
 11
59.498898
 21
3.758193
  0
LINE
  8
型材
  6
CONTINUOUS
 62
    32
 10
59.498898
 20
7.055365
 11
59.498898
 21
6.15256
  0
LINE
  8
型材
  6
CONTINUOUS
 62
    32
 10
58.899063
 20
7.055365
 11
58.899063
 21
6.15256
  0
LINE
  8
型材
  6
CONTINUOUS
 62
    32
 10
60.396168
 20
4.655458
 11
61.29897
 21
4.655458
  0
LINE
  8
型材
  6
CONTINUOUS
 62
    32
 10
60.396168
 20
5.25529
 11
61.29897
 21
5.25529
  0
LINE
  8
型材
  6
CONTINUOUS
 62
    32
 10
58.00179
 20
5.25529
 11
57.098987
 21
5.25529
  0
LINE
  8
型材
  6
CONTINUOUS
 62
    32
 10
59.498898
 20
7.055365
 11
58.899063
 21
7.055365
  0
LINE
  8
型材
  6
CONTINUOUS
 62
    32
 10
61.29897
 20
4.655458
 11
61.29897
 21
5.255292
  0
LINE
  8
型材
  6
CONTINUOUS
 62
    32
 10
57.098987
 20
4.655458
 11
57.098987
 21
5.255292
  0
LINE
  8
型材
  6
CONTINUOUS
 62
    32
 10
-14.601022
 20
-2.844625
 11
-14.601022
 21
16.355375
  0
LINE
  8
型材
  6
CONTINUOUS
 62
    32
 10
-25.401023
 20
16.355375
 11
64.598978
 21
16.355375
  0
LINE
  8
型材
  6
CONTINUOUS
 62
    32
 10
-12.201022
 20
-2.844625
 11
-12.201022
 21
16.355375
  0
LINE
  8
型材
  6
CONTINUOUS
 62
    32
 10
27.398978
 20
-2.844625
 11
27.398978
 21
16.355375
  0
LINE
  8
型材
  6
CONTINUOUS
 62
    32
 10
24.998978
 20
-2.844625
 11
24.998978
 21
16.355375
  0
LINE
  8
型材
  6
CONTINUOUS
 62
    32
 10
14.198978
 20
-2.844625
 11
14.198978
 21
16.355375
  0
LINE
  8
型材
  6
CONTINUOUS
 62
    32
 10
11.798978
 20
-2.844625
 11
11.798978
 21
16.355375
  0
LINE
  8
型材
  6
CONTINUOUS
 62
    32
 10
-1.401022
 20
-2.844625
 11
-1.401022
 21
16.355375
  0
LINE
  8
型材
  6
CONTINUOUS
 62
    32
 10
0.998978
 20
-2.844625
 11
0.998978
 21
16.355375
  0
LINE
  8
型材
  6
CONTINUOUS
 62
    32
 10
-25.401023
 20
16.355375
 11
-25.401023
 21
-2.844625
  0
LINE
  8
型材
  6
DASHDOTX2
 62
    32
 10
-20.001022
 20
10.955375
 11
-20.001022
 21
-1.044625
  0
LINE
  8
型材
  6
DASHDOTX2
 62
    32
 10
-6.801022
 20
10.955375
 11
-6.801022
 21
-1.044625
  0
LINE
  8
型材
  6
DASHDOTX2
 62
    32
 10
6.398978
 20
10.955375
 11
6.398978
 21
-1.044625
  0
LINE
  8
型材
  6
DASHDOTX2
 62
    32
 10
19.598978
 20
10.955375
 11
19.598978
 21
-1.044625
  0
LINE
  8
型材
  6
DASHDOTX2
 62
    32
 10
32.798977
 20
10.955375
 11
32.798977
 21
-1.044625
  0
LINE
  8
型材
  6
CONTINUOUS
 62
    32
 10
-21.198207
 20
4.655458
 11
-22.101012
 21
4.655458
  0
LINE
  8
型材
  6
CONTINUOUS
 62
    32
 10
-20.300937
 20
2.855387
 11
-20.300937
 21
3.758193
  0
LINE
  8
型材
  6
CONTINUOUS
 62
    32
 10
-19.701105
 20
2.855387
 11
-20.300937
 21
2.855387
  0
LINE
  8
型材
  6
CONTINUOUS
 62
    32
 10
-19.701105
 20
2.855387
 11
-19.701105
 21
3.758193
  0
LINE
  8
型材
  6
CONTINUOUS
 62
    32
 10
-19.701105
 20
7.055365
 11
-19.701105
 21
6.15256
  0
LINE
  8
型材
  6
CONTINUOUS
 62
    32
 10
-20.300937
 20
7.055365
 11
-20.300937
 21
6.15256
  0
LINE
  8
型材
  6
CONTINUOUS
 62
    32
 10
-18.803835
 20
4.655458
 11
-17.90103
 21
4.655458
  0
LINE
  8
型材
  6
CONTINUOUS
 62
    32
 10
-18.803835
 20
5.25529
 11
-17.90103
 21
5.25529
  0
LINE
  8
型材
  6
CONTINUOUS
 62
    32
 10
-21.198205
 20
5.25529
 11
-22.101012
 21
5.25529
  0
LINE
  8
型材
  6
CONTINUOUS
 62
    32
 10
-19.701105
 20
7.055365
 11
-20.300937
 21
7.055365
  0
LINE
  8
型材
  6
CONTINUOUS
 62
    32
 10
-17.90103
 20
4.655458
 11
-17.90103
 21
5.255292
  0
LINE
  8
型材
  6
CONTINUOUS
 62
    32
 10
-22.101012
 20
4.655458
 11
-22.101012
 21
5.255292
  0
LINE
  8
型材
  6
CONTINUOUS
 62
    32
 10
31.601795
 20
4.655458
 11
30.698987
 21
4.655458
  0
LINE
  8
型材
  6
CONTINUOUS
 62
    32
 10
32.499063
 20
2.855387
 11
32.499063
 21
3.758193
  0
LINE
  8
型材
  6
CONTINUOUS
 62
    32
 10
33.098898
 20
2.855387
 11
32.499063
 21
2.855387
  0
LINE
  8
型材
  6
CONTINUOUS
 62
    32
 10
33.098898
 20
2.855387
 11
33.098898
 21
3.758193
  0
LINE
  8
型材
  6
CONTINUOUS
 62
    32
 10
33.098898
 20
7.055365
 11
33.098898
 21
6.15256
  0
LINE
  8
型材
  6
CONTINUOUS
 62
    32
 10
32.499063
 20
7.055365
 11
32.499063
 21
6.15256
  0
LINE
  8
型材
  6
CONTINUOUS
 62
    32
 10
33.996165
 20
4.655458
 11
34.89897
 21
4.655458
  0
LINE
  8
型材
  6
CONTINUOUS
 62
    32
 10
33.996165
 20
5.25529
 11
34.89897
 21
5.25529
  0
LINE
  8
型材
  6
CONTINUOUS
 62
    32
 10
31.601795
 20
5.25529
 11
30.698987
 21
5.25529
  0
LINE
  8
型材
  6
CONTINUOUS
 62
    32
 10
33.098898
 20
7.055365
 11
32.499063
 21
7.055365
  0
LINE
  8
型材
  6
CONTINUOUS
 62
    32
 10
34.89897
 20
4.655458
 11
34.89897
 21
5.255292
  0
LINE
  8
型材
  6
CONTINUOUS
 62
    32
 10
30.698987
 20
4.655458
 11
30.698987
 21
5.255292
  0
LINE
  8
型材
  6
CONTINUOUS
 62
    32
 10
18.401795
 20
4.655458
 11
17.498987
 21
4.655458
  0
LINE
  8
型材
  6
CONTINUOUS
 62
    32
 10
19.299063
 20
2.855387
 11
19.299063
 21
3.758193
  0
LINE
  8
型材
  6
CONTINUOUS
 62
    32
 10
19.898895
 20
2.855387
 11
19.299063
 21
2.855387
  0
LINE
  8
型材
  6
CONTINUOUS
 62
    32
 10
19.898898
 20
2.855387
 11
19.898898
 21
3.758193
  0
LINE
  8
型材
  6
CONTINUOUS
 62
    32
 10
19.898898
 20
7.055365
 11
19.898898
 21
6.15256
  0
LINE
  8
型材
  6
CONTINUOUS
 62
    32
 10
19.299063
 20
7.055365
 11
19.299063
 21
6.15256
  0
LINE
  8
型材
  6
CONTINUOUS
 62
    32
 10
20.796165
 20
4.655458
 11
21.69897
 21
4.655458
  0
LINE
  8
型材
  6
CONTINUOUS
 62
    32
 10
20.796165
 20
5.25529
 11
21.69897
 21
5.25529
  0
LINE
  8
型材
  6
CONTINUOUS
 62
    32
 10
18.401795
 20
5.25529
 11
17.498987
 21
5.25529
  0
LINE
  8
型材
  6
CONTINUOUS
 62
    32
 10
19.898898
 20
7.055365
 11
19.299063
 21
7.055365
  0
LINE
  8
型材
  6
CONTINUOUS
 62
    32
 10
21.69897
 20
4.655458
 11
21.69897
 21
5.255292
  0
LINE
  8
型材
  6
CONTINUOUS
 62
    32
 10
17.498987
 20
4.655458
 11
17.498987
 21
5.255292
  0
LINE
  8
型材
  6
CONTINUOUS
 62
    32
 10
5.201795
 20
4.655458
 11
4.298987
 21
4.655458
  0
LINE
  8
型材
  6
CONTINUOUS
 62
    32
 10
6.099063
 20
2.855387
 11
6.099063
 21
3.758193
  0
LINE
  8
型材
  6
CONTINUOUS
 62
    32
 10
6.698895
 20
2.855387
 11
6.099063
 21
2.855387
  0
LINE
  8
型材
  6
CONTINUOUS
 62
    32
 10
6.698898
 20
2.855387
 11
6.698898
 21
3.758193
  0
LINE
  8
型材
  6
CONTINUOUS
 62
    32
 10
6.698898
 20
7.055365
 11
6.698898
 21
6.15256
  0
LINE
  8
型材
  6
CONTINUOUS
 62
    32
 10
6.099063
 20
7.055365
 11
6.099063
 21
6.15256
  0
LINE
  8
型材
  6
CONTINUOUS
 62
    32
 10
7.596165
 20
4.655458
 11
8.49897
 21
4.655458
  0
LINE
  8
型材
  6
CONTINUOUS
 62
    32
 10
7.596165
 20
5.25529
 11
8.49897
 21
5.25529
  0
LINE
  8
型材
  6
CONTINUOUS
 62
    32
 10
5.201795
 20
5.25529
 11
4.298987
 21
5.25529
  0
LINE
  8
型材
  6
CONTINUOUS
 62
    32
 10
6.698898
 20
7.055365
 11
6.099063
 21
7.055365
  0
LINE
  8
型材
  6
CONTINUOUS
 62
    32
 10
8.49897
 20
4.655458
 11
8.49897
 21
5.255292
  0
LINE
  8
型材
  6
CONTINUOUS
 62
    32
 10
4.298987
 20
4.655458
 11
4.298987
 21
5.255292
  0
LINE
  8
型材
  6
CONTINUOUS
 62
    32
 10
-7.998205
 20
4.655458
 11
-8.90101
 21
4.655458
  0
LINE
  8
型材
  6
CONTINUOUS
 62
    32
 10
-7.100937
 20
2.855387
 11
-7.100937
 21
3.758193
  0
LINE
  8
型材
  6
CONTINUOUS
 62
    32
 10
-6.501105
 20
2.855387
 11
-7.100937
 21
2.855387
  0
LINE
  8
型材
  6
CONTINUOUS
 62
    32
 10
-6.501105
 20
2.855387
 11
-6.501105
 21
3.758193
  0
LINE
  8
型材
  6
CONTINUOUS
 62
    32
 10
-6.501105
 20
7.055365
 11
-6.501105
 21
6.15256
  0
LINE
  8
型材
  6
CONTINUOUS
 62
    32
 10
-7.100937
 20
7.055365
 11
-7.100937
 21
6.15256
  0
LINE
  8
型材
  6
CONTINUOUS
 62
    32
 10
-5.603835
 20
4.655458
 11
-4.70103
 21
4.655458
  0
LINE
  8
型材
  6
CONTINUOUS
 62
    32
 10
-5.603835
 20
5.25529
 11
-4.70103
 21
5.25529
  0
LINE
  8
型材
  6
CONTINUOUS
 62
    32
 10
-7.998205
 20
5.25529
 11
-8.90101
 21
5.25529
  0
LINE
  8
型材
  6
CONTINUOUS
 62
    32
 10
-6.501105
 20
7.055365
 11
-7.100937
 21
7.055365
  0
LINE
  8
型材
  6
CONTINUOUS
 62
    32
 10
-4.70103
 20
4.655458
 11
-4.70103
 21
5.255292
  0
LINE
  8
型材
  6
CONTINUOUS
 62
    32
 10
-8.90101
 20
4.655458
 11
-8.90101
 21
5.255292
  0
LINE
  8
型材
  6
DASHDOTX2
 62
    32
 10
63.998978
 20
4.955375
 11
-25.401023
 21
4.955375
  0
LINE
  8
型材
  6
CONTINUOUS
 62
    32
 10
-25.401023
 20
-2.844625
 11
64.598978
 21
-2.844625
  0
LINE
  8
型材
  6
CONTINUOUS
 62
    32
 10
40.598978
 20
-2.844625
 11
40.598978
 21
16.355375
  0
LINE
  8
型材
  6
CONTINUOUS
 62
    32
 10
38.198977
 20
-2.844625
 11
38.198977
 21
16.355375
  0
LINE
  8
型材
  6
DASHDOTX2
 62
    32
 10
45.998978
 20
10.955375
 11
45.998978
 21
-1.044625
  0
LINE
  8
型材
  6
CONTINUOUS
 62
    32
 10
44.801795
 20
4.655458
 11
43.898987
 21
4.655458
  0
LINE
  8
型材
  6
CONTINUOUS
 62
    32
 10
45.699063
 20
2.855387
 11
45.699063
 21
3.758193
  0
LINE
  8
型材
  6
CONTINUOUS
 62
    32
 10
46.298898
 20
2.855387
 11
45.699063
 21
2.855387
  0
LINE
  8
型材
  6
CONTINUOUS
 62
    32
 10
46.298898
 20
2.855387
 11
46.298898
 21
3.758193
  0
LINE
  8
型材
  6
CONTINUOUS
 62
    32
 10
46.298898
 20
7.055365
 11
46.298898
 21
6.15256
  0
LINE
  8
型材
  6
CONTINUOUS
 62
    32
 10
45.699063
 20
7.055365
 11
45.699063
 21
6.15256
  0
LINE
  8
型材
  6
CONTINUOUS
 62
    32
 10
47.196165
 20
4.655458
 11
48.09897
 21
4.655458
  0
LINE
  8
型材
  6
CONTINUOUS
 62
    32
 10
47.196165
 20
5.25529
 11
48.09897
 21
5.25529
  0
LINE
  8
型材
  6
CONTINUOUS
 62
    32
 10
44.801795
 20
5.25529
 11
43.898987
 21
5.25529
  0
LINE
  8
型材
  6
CONTINUOUS
 62
    32
 10
46.298898
 20
7.055365
 11
45.699063
 21
7.055365
  0
LINE
  8
型材
  6
CONTINUOUS
 62
    32
 10
48.09897
 20
4.655458
 11
48.09897
 21
5.255292
  0
LINE
  8
型材
  6
CONTINUOUS
 62
    32
 10
43.898987
 20
4.655458
 11
43.898987
 21
5.255292
  0
ARC
  8
型材
  6
CONTINUOUS
 62
    32
 10
58.001793
 20
3.758195
 40
0.897268
 50
359.999978
 51
450.00003
  0
ARC
  8
型材
  6
CONTINUOUS
 62
    32
 10
60.396172
 20
3.758195
 40
0.897268
 50
89.999962
 51
180.000005
  0
ARC
  8
型材
  6
CONTINUOUS
 62
    32
 10
60.396172
 20
6.152565
 40
0.897268
 50
180.000022
 51
270.000066
  0
ARC
  8
型材
  6
CONTINUOUS
 62
    32
 10
58.001793
 20
6.152566
 40
0.897268
 50
270.000011
 51
360.000046
  0
CIRCLE
  8
型材
  6
CONTINUOUS
 62
    32
 10
59.198977
 20
4.955375
 40
4.14
  0
ARC
  8
型材
  6
CONTINUOUS
 62
    32
 10
-5.603832
 20
6.152565
 40
0.897268
 50
180.000022
 51
270.000066
  0
ARC
  8
型材
  6
CONTINUOUS
 62
    32
 10
-7.998202
 20
6.152566
 40
0.897268
 50
270.000011
 51
360.000046
  0
CIRCLE
  8
型材
  6
CONTINUOUS
 62
    32
 10
-6.801022
 20
4.955375
 40
4.14
  0
ARC
  8
型材
  6
CONTINUOUS
 62
    32
 10
-21.198203
 20
3.758195
 40
0.897268
 50
359.999978
 51
450.00003
  0
ARC
  8
型材
  6
CONTINUOUS
 62
    32
 10
-18.803832
 20
3.758195
 40
0.897268
 50
89.999962
 51
180.000005
  0
ARC
  8
型材
  6
CONTINUOUS
 62
    32
 10
-18.803832
 20
6.152565
 40
0.897268
 50
180.000022
 51
270.000066
  0
ARC
  8
型材
  6
CONTINUOUS
 62
    32
 10
-21.198202
 20
6.152566
 40
0.897268
 50
270.000011
 51
360.000046
  0
CIRCLE
  8
型材
  6
CONTINUOUS
 62
    32
 10
-20.001022
 20
4.955375
 40
4.14
  0
ARC
  8
型材
  6
CONTINUOUS
 62
    32
 10
31.601798
 20
3.758195
 40
0.897268
 50
359.999978
 51
450.00003
  0
ARC
  8
型材
  6
CONTINUOUS
 62
    32
 10
33.996167
 20
3.758195
 40
0.897268
 50
89.999962
 51
180.000005
  0
ARC
  8
型材
  6
CONTINUOUS
 62
    32
 10
33.996167
 20
6.152565
 40
0.897268
 50
180.000022
 51
270.000066
  0
ARC
  8
型材
  6
CONTINUOUS
 62
    32
 10
31.601798
 20
6.152566
 40
0.897268
 50
270.000011
 51
360.000046
  0
CIRCLE
  8
型材
  6
CONTINUOUS
 62
    32
 10
32.798977
 20
4.955375
 40
4.14
  0
ARC
  8
型材
  6
CONTINUOUS
 62
    32
 10
18.401798
 20
3.758195
 40
0.897268
 50
359.999978
 51
450.00003
  0
ARC
  8
型材
  6
CONTINUOUS
 62
    32
 10
20.796167
 20
3.758195
 40
0.897268
 50
89.999962
 51
180.000005
  0
ARC
  8
型材
  6
CONTINUOUS
 62
    32
 10
20.796167
 20
6.152565
 40
0.897268
 50
180.000022
 51
270.000066
  0
ARC
  8
型材
  6
CONTINUOUS
 62
    32
 10
18.401798
 20
6.152566
 40
0.897268
 50
270.000011
 51
360.000046
  0
CIRCLE
  8
型材
  6
CONTINUOUS
 62
    32
 10
19.598978
 20
4.955375
 40
4.14
  0
ARC
  8
型材
  6
CONTINUOUS
 62
    32
 10
5.201798
 20
3.758195
 40
0.897268
 50
359.999978
 51
450.00003
  0
ARC
  8
型材
  6
CONTINUOUS
 62
    32
 10
7.596167
 20
3.758195
 40
0.897268
 50
89.999962
 51
180.000005
  0
ARC
  8
型材
  6
CONTINUOUS
 62
    32
 10
7.596167
 20
6.152565
 40
0.897268
 50
180.000022
 51
270.000066
  0
ARC
  8
型材
  6
CONTINUOUS
 62
    32
 10
5.201798
 20
6.152566
 40
0.897268
 50
270.000011
 51
360.000046
  0
CIRCLE
  8
型材
  6
CONTINUOUS
 62
    32
 10
6.398978
 20
4.955375
 40
4.14
  0
ARC
  8
型材
  6
CONTINUOUS
 62
    32
 10
-7.998202
 20
3.758195
 40
0.897268
 50
359.999978
 51
450.00003
  0
ARC
  8
型材
  6
CONTINUOUS
 62
    32
 10
-5.603833
 20
3.758195
 40
0.897268
 50
89.999962
 51
180.000005
  0
ARC
  8
型材
  6
CONTINUOUS
 62
    32
 10
44.801798
 20
3.758195
 40
0.897268
 50
359.999978
 51
450.00003
  0
ARC
  8
型材
  6
CONTINUOUS
 62
    32
 10
47.196167
 20
3.758195
 40
0.897268
 50
89.999962
 51
180.000005
  0
ARC
  8
型材
  6
CONTINUOUS
 62
    32
 10
47.196167
 20
6.152565
 40
0.897268
 50
180.000022
 51
270.000066
  0
ARC
  8
型材
  6
CONTINUOUS
 62
    32
 10
44.801798
 20
6.152566
 40
0.897268
 50
270.000011
 51
360.000046
  0
CIRCLE
  8
型材
  6
CONTINUOUS
 62
    32
 10
45.998978
 20
4.955375
 40
4.14
  0
LINE
  8
型材
  6
CONTINUOUS
 62
    32
 10
53.798977
 20
-2.844625
 11
53.798977
 21
-34.920135
  0
LINE
  8
型材
  6
CONTINUOUS
 62
    32
 10
53.798977
 20
-34.920135
 11
-14.601022
 21
-34.920135
  0
LINE
  8
型材
  6
CONTINUOUS
 62
    32
 10
-14.601022
 20
-2.844625
 11
-14.601022
 21
-34.920135
  0
POINT
  8
型材
 62
    32
 10
196.20714
 20
-23.520135
  0
POINT
  8
型材
 62
    32
 10
90.60714
 20
-23.520135
  0
LINE
  8
型材
  6
CONTINUOUS
 62
    32
 10
135.60714
 20
-15.720135
 11
135.60714
 21
-34.920135
  0
LINE
  8
型材
  6
CONTINUOUS
 62
    32
 10
82.80714
 20
-15.720135
 11
82.80714
 21
-34.920135
  0
LINE
  8
型材
  6
CONTINUOUS
 62
    32
 10
85.20714
 20
-15.720135
 11
85.20714
 21
-34.920135
  0
LINE
  8
型材
  6
CONTINUOUS
 62
    32
 10
201.60714
 20
-34.920135
 11
72.00714
 21
-34.920135
  0
LINE
  8
型材
  6
CONTINUOUS
 62
    32
 10
188.40714
 20
-15.720135
 11
188.40714
 21
-34.920135
  0
LINE
  8
型材
  6
CONTINUOUS
 62
    32
 10
138.00714
 20
-15.720135
 11
138.00714
 21
-34.920135
  0
LINE
  8
型材
  6
CONTINUOUS
 62
    32
 10
109.20714
 20
-15.720135
 11
109.20714
 21
-34.920135
  0
LINE
  8
型材
  6
CONTINUOUS
 62
    32
 10
111.60714
 20
-15.720135
 11
111.60714
 21
-34.920135
  0
LINE
  8
型材
  6
CONTINUOUS
 62
    32
 10
148.80714
 20
-15.720135
 11
148.80714
 21
-34.920135
  0
LINE
  8
型材
  6
CONTINUOUS
 62
    32
 10
151.20714
 20
-15.720135
 11
151.20714
 21
-34.920135
  0
LINE
  8
型材
  6
CONTINUOUS
 62
    32
 10
190.80714
 20
-15.720135
 11
190.80714
 21
-34.920135
  0
LINE
  8
型材
  6
CONTINUOUS
 62
    32
 10
162.00714
 20
-15.720135
 11
162.00714
 21
-34.920135
  0
LINE
  8
型材
  6
CONTINUOUS
 62
    32
 10
164.40714
 20
-15.720135
 11
164.40714
 21
-34.920135
  0
LINE
  8
型材
  6
CONTINUOUS
 62
    32
 10
177.60714
 20
-15.720135
 11
177.60714
 21
-34.920135
  0
LINE
  8
型材
  6
CONTINUOUS
 62
    32
 10
175.20714
 20
-15.720135
 11
175.20714
 21
-34.920135
  0
LINE
  8
型材
  6
CONTINUOUS
 62
    32
 10
201.60714
 20
-34.920135
 11
201.60714
 21
-15.720135
  0
LINE
  8
型材
  6
DASHDOTX2
 62
    32
 10
196.20714
 20
-29.520135
 11
196.20714
 21
-17.520135
  0
LINE
  8
型材
  6
DASHDOTX2
 62
    32
 10
183.00714
 20
-29.520135
 11
183.00714
 21
-17.520135
  0
LINE
  8
型材
  6
DASHDOTX2
 62
    32
 10
169.80714
 20
-29.520135
 11
169.80714
 21
-17.520135
  0
LINE
  8
型材
  6
DASHDOTX2
 62
    32
 10
156.60714
 20
-29.520135
 11
156.60714
 21
-17.520135
  0
LINE
  8
型材
  6
DASHDOTX2
 62
    32
 10
143.40714
 20
-29.520135
 11
143.40714
 21
-17.520135
  0
LINE
  8
型材
  6
CONTINUOUS
 62
    32
 10
124.80714
 20
-15.720135
 11
124.80714
 21
-34.920135
  0
LINE
  8
型材
  6
CONTINUOUS
 62
    32
 10
122.40714
 20
-15.720135
 11
122.40714
 21
-34.920135
  0
LINE
  8
型材
  6
CONTINUOUS
 62
    32
 10
72.00714
 20
-34.920135
 11
72.00714
 21
-15.720135
  0
LINE
  8
型材
  6
DASHDOTX2
 62
    32
 10
130.20714
 20
-29.520135
 11
130.20714
 21
-17.520135
  0
LINE
  8
型材
  6
DASHDOTX2
 62
    32
 10
117.00714
 20
-29.520135
 11
117.00714
 21
-17.520135
  0
LINE
  8
型材
  6
DASHDOTX2
 62
    32
 10
103.80714
 20
-29.520135
 11
103.80714
 21
-17.520135
  0
LINE
  8
型材
  6
CONTINUOUS
 62
    32
 10
197.404327
 20
-23.220218
 11
198.307133
 21
-23.220218
  0
LINE
  8
型材
  6
CONTINUOUS
 62
    32
 10
196.507057
 20
-21.420147
 11
196.507057
 21
-22.322952
  0
LINE
  8
型材
  6
CONTINUOUS
 62
    32
 10
195.907225
 20
-21.420147
 11
196.507057
 21
-21.420147
  0
LINE
  8
型材
  6
CONTINUOUS
 62
    32
 10
195.907225
 20
-21.420147
 11
195.907225
 21
-22.322952
  0
LINE
  8
型材
  6
CONTINUOUS
 62
    32
 10
195.907225
 20
-25.620125
 11
195.907225
 21
-24.71732
  0
LINE
  8
型材
  6
CONTINUOUS
 62
    32
 10
196.507057
 20
-25.620125
 11
196.507057
 21
-24.71732
  0
LINE
  8
型材
  6
DASHDOTX2
 62
    32
 10
77.40714
 20
-29.520135
 11
77.40714
 21
-17.520135
  0
LINE
  8
型材
  6
CONTINUOUS
 62
    32
 10
78.60433
 20
-23.220218
 11
79.507133
 21
-23.220218
  0
LINE
  8
型材
  6
CONTINUOUS
 62
    32
 10
77.707057
 20
-21.420147
 11
77.707057
 21
-22.322952
  0
LINE
  8
型材
  6
CONTINUOUS
 62
    32
 10
77.107222
 20
-21.420147
 11
77.707057
 21
-21.420147
  0
LINE
  8
型材
  6
CONTINUOUS
 62
    32
 10
77.107222
 20
-21.420147
 11
77.107222
 21
-22.322952
  0
LINE
  8
型材
  6
CONTINUOUS
 62
    32
 10
77.107222
 20
-25.620125
 11
77.107222
 21
-24.71732
  0
LINE
  8
型材
  6
CONTINUOUS
 62
    32
 10
77.707057
 20
-25.620125
 11
77.707057
 21
-24.71732
  0
LINE
  8
型材
  6
CONTINUOUS
 62
    32
 10
76.209952
 20
-23.220218
 11
75.30715
 21
-23.220218
  0
LINE
  8
型材
  6
CONTINUOUS
 62
    32
 10
76.209952
 20
-23.82005
 11
75.30715
 21
-23.82005
  0
LINE
  8
型材
  6
CONTINUOUS
 62
    32
 10
78.60433
 20
-23.82005
 11
79.507133
 21
-23.82005
  0
LINE
  8
型材
  6
CONTINUOUS
 62
    32
 10
77.107222
 20
-25.620125
 11
77.707057
 21
-25.620125
  0
LINE
  8
型材
  6
CONTINUOUS
 62
    32
 10
75.30715
 20
-23.220218
 11
75.30715
 21
-23.820053
  0
LINE
  8
型材
  6
CONTINUOUS
 62
    32
 10
79.507133
 20
-23.220218
 11
79.507133
 21
-23.820053
  0
LINE
  8
型材
  6
CONTINUOUS
 62
    32
 10
195.009955
 20
-23.220218
 11
194.10715
 21
-23.220218
  0
LINE
  8
型材
  6
CONTINUOUS
 62
    32
 10
195.009955
 20
-23.82005
 11
194.10715
 21
-23.82005
  0
LINE
  8
型材
  6
CONTINUOUS
 62
    32
 10
197.404322
 20
-23.82005
 11
198.307133
 21
-23.82005
  0
LINE
  8
型材
  6
CONTINUOUS
 62
    32
 10
195.907225
 20
-25.620125
 11
196.507057
 21
-25.620125
  0
LINE
  8
型材
  6
CONTINUOUS
 62
    32
 10
194.10715
 20
-23.220218
 11
194.10715
 21
-23.820053
  0
LINE
  8
型材
  6
CONTINUOUS
 62
    32
 10
198.307133
 20
-23.220218
 11
198.307133
 21
-23.820053
  0
LINE
  8
型材
  6
CONTINUOUS
 62
    32
 10
144.604322
 20
-23.220218
 11
145.507133
 21
-23.220218
  0
LINE
  8
型材
  6
CONTINUOUS
 62
    32
 10
143.707057
 20
-21.420147
 11
143.707057
 21
-22.322952
  0
LINE
  8
型材
  6
CONTINUOUS
 62
    32
 10
143.107222
 20
-21.420147
 11
143.707057
 21
-21.420147
  0
LINE
  8
型材
  6
CONTINUOUS
 62
    32
 10
143.107222
 20
-21.420147
 11
143.107222
 21
-22.322952
  0
LINE
  8
型材
  6
CONTINUOUS
 62
    32
 10
143.107222
 20
-25.620125
 11
143.107222
 21
-24.71732
  0
LINE
  8
型材
  6
CONTINUOUS
 62
    32
 10
143.707057
 20
-25.620125
 11
143.707057
 21
-24.71732
  0
LINE
  8
型材
  6
CONTINUOUS
 62
    32
 10
105.00433
 20
-23.220218
 11
105.907133
 21
-23.220218
  0
LINE
  8
型材
  6
CONTINUOUS
 62
    32
 10
104.107057
 20
-21.420147
 11
104.107057
 21
-22.322952
  0
LINE
  8
型材
  6
CONTINUOUS
 62
    32
 10
103.507222
 20
-21.420147
 11
104.107057
 21
-21.420147
  0
LINE
  8
型材
  6
CONTINUOUS
 62
    32
 10
103.507222
 20
-21.420147
 11
103.507222
 21
-22.322952
  0
LINE
  8
型材
  6
CONTINUOUS
 62
    32
 10
103.507222
 20
-25.620125
 11
103.507222
 21
-24.71732
  0
LINE
  8
型材
  6
CONTINUOUS
 62
    32
 10
104.107057
 20
-25.620125
 11
104.107057
 21
-24.71732
  0
LINE
  8
型材
  6
CONTINUOUS
 62
    32
 10
102.609952
 20
-23.220218
 11
101.70715
 21
-23.220218
  0
LINE
  8
型材
  6
CONTINUOUS
 62
    32
 10
102.609952
 20
-23.82005
 11
101.70715
 21
-23.82005
  0
LINE
  8
型材
  6
CONTINUOUS
 62
    32
 10
105.00433
 20
-23.82005
 11
105.907133
 21
-23.82005
  0
LINE
  8
型材
  6
CONTINUOUS
 62
    32
 10
103.507222
 20
-25.620125
 11
104.107057
 21
-25.620125
  0
LINE
  8
型材
  6
CONTINUOUS
 62
    32
 10
101.70715
 20
-23.220218
 11
101.70715
 21
-23.820053
  0
LINE
  8
型材
  6
CONTINUOUS
 62
    32
 10
105.907133
 20
-23.220218
 11
105.907133
 21
-23.820053
  0
LINE
  8
型材
  6
CONTINUOUS
 62
    32
 10
118.20433
 20
-23.220218
 11
119.107133
 21
-23.220218
  0
LINE
  8
型材
  6
CONTINUOUS
 62
    32
 10
117.307057
 20
-21.420147
 11
117.307057
 21
-22.322952
  0
LINE
  8
型材
  6
CONTINUOUS
 62
    32
 10
116.707222
 20
-21.420147
 11
117.307057
 21
-21.420147
  0
LINE
  8
型材
  6
CONTINUOUS
 62
    32
 10
116.707222
 20
-21.420147
 11
116.707222
 21
-22.322952
  0
LINE
  8
型材
  6
CONTINUOUS
 62
    32
 10
116.707222
 20
-25.620125
 11
116.707222
 21
-24.71732
  0
LINE
  8
型材
  6
CONTINUOUS
 62
    32
 10
117.307057
 20
-25.620125
 11
117.307057
 21
-24.71732
  0
LINE
  8
型材
  6
CONTINUOUS
 62
    32
 10
115.809952
 20
-23.220218
 11
114.90715
 21
-23.220218
  0
LINE
  8
型材
  6
CONTINUOUS
 62
    32
 10
115.809952
 20
-23.82005
 11
114.90715
 21
-23.82005
  0
LINE
  8
型材
  6
CONTINUOUS
 62
    32
 10
118.20433
 20
-23.82005
 11
119.107133
 21
-23.82005
  0
LINE
  8
型材
  6
CONTINUOUS
 62
    32
 10
116.707222
 20
-25.620125
 11
117.307057
 21
-25.620125
  0
LINE
  8
型材
  6
CONTINUOUS
 62
    32
 10
114.90715
 20
-23.220218
 11
114.90715
 21
-23.820053
  0
LINE
  8
型材
  6
CONTINUOUS
 62
    32
 10
119.107133
 20
-23.220218
 11
119.107133
 21
-23.820053
  0
LINE
  8
型材
  6
CONTINUOUS
 62
    32
 10
142.209955
 20
-23.220218
 11
141.30715
 21
-23.220218
  0
LINE
  8
型材
  6
CONTINUOUS
 62
    32
 10
142.209955
 20
-23.82005
 11
141.30715
 21
-23.82005
  0
LINE
  8
型材
  6
CONTINUOUS
 62
    32
 10
144.604322
 20
-23.82005
 11
145.507133
 21
-23.82005
  0
LINE
  8
型材
  6
CONTINUOUS
 62
    32
 10
143.107222
 20
-25.620125
 11
143.707057
 21
-25.620125
  0
LINE
  8
型材
  6
CONTINUOUS
 62
    32
 10
141.30715
 20
-23.220218
 11
141.30715
 21
-23.820053
  0
LINE
  8
型材
  6
CONTINUOUS
 62
    32
 10
145.507133
 20
-23.220218
 11
145.507133
 21
-23.820053
  0
LINE
  8
型材
  6
CONTINUOUS
 62
    32
 10
157.804322
 20
-23.220218
 11
158.707133
 21
-23.220218
  0
LINE
  8
型材
  6
CONTINUOUS
 62
    32
 10
156.907057
 20
-21.420147
 11
156.907057
 21
-22.322952
  0
LINE
  8
型材
  6
CONTINUOUS
 62
    32
 10
156.307225
 20
-21.420147
 11
156.907057
 21
-21.420147
  0
LINE
  8
型材
  6
CONTINUOUS
 62
    32
 10
156.307222
 20
-21.420147
 11
156.307222
 21
-22.322952
  0
LINE
  8
型材
  6
CONTINUOUS
 62
    32
 10
156.307222
 20
-25.620125
 11
156.307222
 21
-24.71732
  0
LINE
  8
型材
  6
CONTINUOUS
 62
    32
 10
156.907057
 20
-25.620125
 11
156.907057
 21
-24.71732
  0
LINE
  8
型材
  6
CONTINUOUS
 62
    32
 10
155.409955
 20
-23.220218
 11
154.50715
 21
-23.220218
  0
LINE
  8
型材
  6
CONTINUOUS
 62
    32
 10
155.409955
 20
-23.82005
 11
154.50715
 21
-23.82005
  0
LINE
  8
型材
  6
CONTINUOUS
 62
    32
 10
157.804322
 20
-23.82005
 11
158.707133
 21
-23.82005
  0
LINE
  8
型材
  6
CONTINUOUS
 62
    32
 10
156.307222
 20
-25.620125
 11
156.907057
 21
-25.620125
  0
LINE
  8
型材
  6
CONTINUOUS
 62
    32
 10
154.50715
 20
-23.220218
 11
154.50715
 21
-23.820053
  0
LINE
  8
型材
  6
CONTINUOUS
 62
    32
 10
158.707133
 20
-23.220218
 11
158.707133
 21
-23.820053
  0
LINE
  8
型材
  6
CONTINUOUS
 62
    32
 10
171.004322
 20
-23.220218
 11
171.907133
 21
-23.220218
  0
LINE
  8
型材
  6
CONTINUOUS
 62
    32
 10
170.107057
 20
-21.420147
 11
170.107057
 21
-22.322952
  0
LINE
  8
型材
  6
CONTINUOUS
 62
    32
 10
169.507225
 20
-21.420147
 11
170.107057
 21
-21.420147
  0
LINE
  8
型材
  6
CONTINUOUS
 62
    32
 10
169.507222
 20
-21.420147
 11
169.507222
 21
-22.322952
  0
LINE
  8
型材
  6
CONTINUOUS
 62
    32
 10
169.507222
 20
-25.620125
 11
169.507222
 21
-24.71732
  0
LINE
  8
型材
  6
CONTINUOUS
 62
    32
 10
170.107057
 20
-25.620125
 11
170.107057
 21
-24.71732
  0
LINE
  8
型材
  6
CONTINUOUS
 62
    32
 10
168.609955
 20
-23.220218
 11
167.70715
 21
-23.220218
  0
LINE
  8
型材
  6
CONTINUOUS
 62
    32
 10
168.609955
 20
-23.82005
 11
167.70715
 21
-23.82005
  0
LINE
  8
型材
  6
CONTINUOUS
 62
    32
 10
171.004322
 20
-23.82005
 11
171.907133
 21
-23.82005
  0
LINE
  8
型材
  6
CONTINUOUS
 62
    32
 10
169.507222
 20
-25.620125
 11
170.107057
 21
-25.620125
  0
LINE
  8
型材
  6
CONTINUOUS
 62
    32
 10
167.70715
 20
-23.220218
 11
167.70715
 21
-23.820053
  0
LINE
  8
型材
  6
CONTINUOUS
 62
    32
 10
171.907133
 20
-23.220218
 11
171.907133
 21
-23.820053
  0
LINE
  8
型材
  6
CONTINUOUS
 62
    32
 10
184.204322
 20
-23.220218
 11
185.107128
 21
-23.220218
  0
LINE
  8
型材
  6
CONTINUOUS
 62
    32
 10
183.307057
 20
-21.420147
 11
183.307057
 21
-22.322952
  0
LINE
  8
型材
  6
CONTINUOUS
 62
    32
 10
182.707225
 20
-21.420147
 11
183.307057
 21
-21.420147
  0
LINE
  8
型材
  6
CONTINUOUS
 62
    32
 10
182.707225
 20
-21.420147
 11
182.707225
 21
-22.322952
  0
LINE
  8
型材
  6
CONTINUOUS
 62
    32
 10
182.707225
 20
-25.620125
 11
182.707225
 21
-24.71732
  0
LINE
  8
型材
  6
CONTINUOUS
 62
    32
 10
183.307057
 20
-25.620125
 11
183.307057
 21
-24.71732
  0
LINE
  8
型材
  6
CONTINUOUS
 62
    32
 10
181.809955
 20
-23.220218
 11
180.90715
 21
-23.220218
  0
LINE
  8
型材
  6
CONTINUOUS
 62
    32
 10
181.809955
 20
-23.82005
 11
180.90715
 21
-23.82005
  0
LINE
  8
型材
  6
CONTINUOUS
 62
    32
 10
184.204322
 20
-23.82005
 11
185.107128
 21
-23.82005
  0
LINE
  8
型材
  6
CONTINUOUS
 62
    32
 10
182.707225
 20
-25.620125
 11
183.307057
 21
-25.620125
  0
LINE
  8
型材
  6
CONTINUOUS
 62
    32
 10
180.90715
 20
-23.220218
 11
180.90715
 21
-23.820053
  0
LINE
  8
型材
  6
CONTINUOUS
 62
    32
 10
185.107128
 20
-23.220218
 11
185.107128
 21
-23.820053
  0
LINE
  8
型材
  6
DASHDOTX2
 62
    32
 10
72.60714
 20
-23.520135
 11
201.60714
 21
-23.520135
  0
LINE
  8
型材
  6
CONTINUOUS
 62
    32
 10
201.60714
 20
-15.720135
 11
72.00714
 21
-15.720135
  0
LINE
  8
型材
  6
CONTINUOUS
 62
    32
 10
131.40433
 20
-23.220218
 11
132.307133
 21
-23.220218
  0
LINE
  8
型材
  6
CONTINUOUS
 62
    32
 10
130.507057
 20
-21.420147
 11
130.507057
 21
-22.322952
  0
LINE
  8
型材
  6
CONTINUOUS
 62
    32
 10
129.907222
 20
-21.420147
 11
130.507057
 21
-21.420147
  0
LINE
  8
型材
  6
CONTINUOUS
 62
    32
 10
129.907222
 20
-21.420147
 11
129.907222
 21
-22.322952
  0
LINE
  8
型材
  6
CONTINUOUS
 62
    32
 10
129.907222
 20
-25.620125
 11
129.907222
 21
-24.71732
  0
LINE
  8
型材
  6
CONTINUOUS
 62
    32
 10
130.507057
 20
-25.620125
 11
130.507057
 21
-24.71732
  0
LINE
  8
型材
  6
CONTINUOUS
 62
    32
 10
129.009952
 20
-23.220218
 11
128.10715
 21
-23.220218
  0
LINE
  8
型材
  6
CONTINUOUS
 62
    32
 10
129.009952
 20
-23.82005
 11
128.10715
 21
-23.82005
  0
LINE
  8
型材
  6
CONTINUOUS
 62
    32
 10
131.40433
 20
-23.82005
 11
132.307133
 21
-23.82005
  0
LINE
  8
型材
  6
CONTINUOUS
 62
    32
 10
129.907222
 20
-25.620125
 11
130.507057
 21
-25.620125
  0
LINE
  8
型材
  6
CONTINUOUS
 62
    32
 10
128.10715
 20
-23.220218
 11
128.10715
 21
-23.820053
  0
LINE
  8
型材
  6
CONTINUOUS
 62
    32
 10
132.307133
 20
-23.220218
 11
132.307133
 21
-23.820053
  0
LINE
  8
型材
  6
CONTINUOUS
 62
    32
 10
92.707133
 20
-23.220218
 11
92.707133
 21
-23.820053
  0
LINE
  8
型材
  6
CONTINUOUS
 62
    32
 10
88.50715
 20
-23.220218
 11
88.50715
 21
-23.820053
  0
LINE
  8
型材
  6
CONTINUOUS
 62
    32
 10
90.307222
 20
-25.620125
 11
90.907057
 21
-25.620125
  0
LINE
  8
型材
  6
CONTINUOUS
 62
    32
 10
91.80433
 20
-23.82005
 11
92.707133
 21
-23.82005
  0
LINE
  8
型材
  6
CONTINUOUS
 62
    32
 10
89.409952
 20
-23.82005
 11
88.50715
 21
-23.82005
  0
LINE
  8
型材
  6
CONTINUOUS
 62
    32
 10
89.409952
 20
-23.220218
 11
88.50715
 21
-23.220218
  0
LINE
  8
型材
  6
CONTINUOUS
 62
    32
 10
90.907057
 20
-25.620125
 11
90.907057
 21
-24.71732
  0
LINE
  8
型材
  6
CONTINUOUS
 62
    32
 10
90.307222
 20
-25.620125
 11
90.307222
 21
-24.71732
  0
LINE
  8
型材
  6
CONTINUOUS
 62
    32
 10
90.307222
 20
-21.420147
 11
90.307222
 21
-22.322952
  0
LINE
  8
型材
  6
CONTINUOUS
 62
    32
 10
90.307222
 20
-21.420147
 11
90.907057
 21
-21.420147
  0
LINE
  8
型材
  6
CONTINUOUS
 62
    32
 10
90.907057
 20
-21.420147
 11
90.907057
 21
-22.322952
  0
LINE
  8
型材
  6
CONTINUOUS
 62
    32
 10
91.80433
 20
-23.220218
 11
92.707133
 21
-23.220218
  0
LINE
  8
型材
  6
DASHDOTX2
 62
    32
 10
90.60714
 20
-29.520135
 11
90.60714
 21
-17.520135
  0
LINE
  8
型材
  6
CONTINUOUS
 62
    32
 10
98.40714
 20
-15.720135
 11
98.40714
 21
-34.920135
  0
LINE
  8
型材
  6
CONTINUOUS
 62
    32
 10
96.00714
 20
-15.720135
 11
96.00714
 21
-34.920135
  0
ARC
  8
型材
  6
CONTINUOUS
 62
    32
 10
181.809955
 20
-24.71732
 40
0.897268
 50
0.000022
 51
90.000066
  0
ARC
  8
型材
  6
CONTINUOUS
 62
    32
 10
184.204325
 20
-24.71732
 40
0.897268
 50
90.000011
 51
180.000046
  0
CIRCLE
  8
型材
  6
CONTINUOUS
 62
    32
 10
183.00714
 20
-23.520135
 40
4.14
  0
ARC
  8
型材
  6
CONTINUOUS
 62
    32
 10
129.009951
 20
-24.71732
 40
0.897268
 50
0.000022
 51
90.000066
  0
ARC
  8
型材
  6
CONTINUOUS
 62
    32
 10
131.40433
 20
-24.71732
 40
0.897268
 50
90.000011
 51
180.000046
  0
CIRCLE
  8
型材
  6
CONTINUOUS
 62
    32
 10
130.20714
 20
-23.520135
 40
4.14
  0
ARC
  8
型材
  6
CONTINUOUS
 62
    32
 10
197.404326
 20
-22.32295
 40
0.897268
 50
179.999978
 51
270.00003
  0
ARC
  8
型材
  6
CONTINUOUS
 62
    32
 10
195.009955
 20
-22.32295
 40
0.897268
 50
269.999962
 51
360.000005
  0
ARC
  8
型材
  6
CONTINUOUS
 62
    32
 10
195.009955
 20
-24.71732
 40
0.897268
 50
0.000022
 51
90.000066
  0
ARC
  8
型材
  6
CONTINUOUS
 62
    32
 10
197.404325
 20
-24.71732
 40
0.897268
 50
90.000011
 51
180.000046
  0
CIRCLE
  8
型材
  6
CONTINUOUS
 62
    32
 10
196.20714
 20
-23.520135
 40
4.14
  0
ARC
  8
型材
  6
CONTINUOUS
 62
    32
 10
78.60433
 20
-22.32295
 40
0.897268
 50
179.999978
 51
270.00003
  0
ARC
  8
型材
  6
CONTINUOUS
 62
    32
 10
76.209951
 20
-22.32295
 40
0.897268
 50
269.999962
 51
360.000005
  0
ARC
  8
型材
  6
CONTINUOUS
 62
    32
 10
76.209951
 20
-24.71732
 40
0.897268
 50
0.000022
 51
90.000066
  0
ARC
  8
型材
  6
CONTINUOUS
 62
    32
 10
78.60433
 20
-24.71732
 40
0.897268
 50
90.000011
 51
180.000046
  0
CIRCLE
  8
型材
  6
CONTINUOUS
 62
    32
 10
77.40714
 20
-23.520135
 40
4.14
  0
ARC
  8
型材
  6
CONTINUOUS
 62
    32
 10
144.604325
 20
-22.32295
 40
0.897268
 50
179.999978
 51
270.00003
  0
ARC
  8
型材
  6
CONTINUOUS
 62
    32
 10
142.209956
 20
-22.32295
 40
0.897268
 50
269.999962
 51
360.000005
  0
ARC
  8
型材
  6
CONTINUOUS
 62
    32
 10
142.209956
 20
-24.71732
 40
0.897268
 50
0.000022
 51
90.000066
  0
ARC
  8
型材
  6
CONTINUOUS
 62
    32
 10
144.604325
 20
-24.71732
 40
0.897268
 50
90.000011
 51
180.000046
  0
CIRCLE
  8
型材
  6
CONTINUOUS
 62
    32
 10
143.40714
 20
-23.520135
 40
4.14
  0
ARC
  8
型材
  6
CONTINUOUS
 62
    32
 10
105.00433
 20
-22.32295
 40
0.897268
 50
179.999978
 51
270.00003
  0
ARC
  8
型材
  6
CONTINUOUS
 62
    32
 10
102.609951
 20
-22.32295
 40
0.897268
 50
269.999962
 51
360.000005
  0
ARC
  8
型材
  6
CONTINUOUS
 62
    32
 10
102.609951
 20
-24.71732
 40
0.897268
 50
0.000022
 51
90.000066
  0
ARC
  8
型材
  6
CONTINUOUS
 62
    32
 10
105.00433
 20
-24.71732
 40
0.897268
 50
90.000011
 51
180.000046
  0
CIRCLE
  8
型材
  6
CONTINUOUS
 62
    32
 10
103.80714
 20
-23.520135
 40
4.14
  0
ARC
  8
型材
  6
CONTINUOUS
 62
    32
 10
118.20433
 20
-22.32295
 40
0.897268
 50
179.999978
 51
270.00003
  0
ARC
  8
型材
  6
CONTINUOUS
 62
    32
 10
115.809951
 20
-22.32295
 40
0.897268
 50
269.999962
 51
360.000005
  0
ARC
  8
型材
  6
CONTINUOUS
 62
    32
 10
115.809951
 20
-24.71732
 40
0.897268
 50
0.000022
 51
90.000066
  0
ARC
  8
型材
  6
CONTINUOUS
 62
    32
 10
118.20433
 20
-24.71732
 40
0.897268
 50
90.000011
 51
180.000046
  0
CIRCLE
  8
型材
  6
CONTINUOUS
 62
    32
 10
117.00714
 20
-23.520135
 40
4.14
  0
ARC
  8
型材
  6
CONTINUOUS
 62
    32
 10
157.804325
 20
-22.32295
 40
0.897268
 50
179.999978
 51
270.00003
  0
ARC
  8
型材
  6
CONTINUOUS
 62
    32
 10
155.409956
 20
-22.32295
 40
0.897268
 50
269.999962
 51
360.000005
  0
ARC
  8
型材
  6
CONTINUOUS
 62
    32
 10
155.409956
 20
-24.71732
 40
0.897268
 50
0.000022
 51
90.000066
  0
ARC
  8
型材
  6
CONTINUOUS
 62
    32
 10
157.804325
 20
-24.71732
 40
0.897268
 50
90.000011
 51
180.000046
  0
CIRCLE
  8
型材
  6
CONTINUOUS
 62
    32
 10
156.60714
 20
-23.520135
 40
4.14
  0
ARC
  8
型材
  6
CONTINUOUS
 62
    32
 10
171.004325
 20
-22.32295
 40
0.897268
 50
179.999978
 51
270.00003
  0
ARC
  8
型材
  6
CONTINUOUS
 62
    32
 10
168.609956
 20
-22.32295
 40
0.897268
 50
269.999962
 51
360.000005
  0
ARC
  8
型材
  6
CONTINUOUS
 62
    32
 10
168.609956
 20
-24.71732
 40
0.897268
 50
0.000022
 51
90.000066
  0
ARC
  8
型材
  6
CONTINUOUS
 62
    32
 10
171.004325
 20
-24.71732
 40
0.897268
 50
90.000011
 51
180.000046
  0
CIRCLE
  8
型材
  6
CONTINUOUS
 62
    32
 10
169.80714
 20
-23.520135
 40
4.14
  0
ARC
  8
型材
  6
CONTINUOUS
 62
    32
 10
184.204325
 20
-22.32295
 40
0.897268
 50
179.999978
 51
270.00003
  0
ARC
  8
型材
  6
CONTINUOUS
 62
    32
 10
181.809956
 20
-22.32295
 40
0.897268
 50
269.999962
 51
360.000005
  0
ARC
  8
型材
  6
CONTINUOUS
 62
    32
 10
131.40433
 20
-22.32295
 40
0.897268
 50
179.999978
 51
270.00003
  0
ARC
  8
型材
  6
CONTINUOUS
 62
    32
 10
129.009951
 20
-22.32295
 40
0.897268
 50
269.999962
 51
360.000005
  0
CIRCLE
  8
型材
  6
CONTINUOUS
 62
    32
 10
90.60714
 20
-23.520135
 40
4.14
  0
ARC
  8
型材
  6
CONTINUOUS
 62
    32
 10
91.80433
 20
-24.71732
 40
0.897268
 50
90.000011
 51
180.000046
  0
ARC
  8
型材
  6
CONTINUOUS
 62
    32
 10
89.409951
 20
-24.71732
 40
0.897268
 50
0.000022
 51
90.000066
  0
ARC
  8
型材
  6
CONTINUOUS
 62
    32
 10
89.409951
 20
-22.32295
 40
0.897268
 50
269.999962
 51
360.000005
  0
ARC
  8
型材
  6
CONTINUOUS
 62
    32
 10
91.80433
 20
-22.32295
 40
0.897268
 50
179.999978
 51
270.00003
  0
POINT
  8
型材
 62
    32
 10
82.807213
 20
-15.720128
  0
LINE
  8
型材
  6
CONTINUOUS
 62
    32
 10
190.807213
 20
-15.720128
 11
82.807213
 21
-15.720128
  0
LINE
  8
型材
  6
CONTINUOUS
 62
    32
 10
82.807213
 20
-15.720128
 11
82.807213
 21
16.35538
  0
LINE
  8
型材
  6
CONTINUOUS
 62
    32
 10
82.807213
 20
16.35538
 11
190.807213
 21
16.35538
  0
LINE
  8
型材
  6
CONTINUOUS
 62
    32
 10
190.807213
 20
-15.720128
 11
190.807213
 21
16.35538
  0
LINE
  8
型材
  6
DOT
 10
220.541302
 20
25.711242
 11
-36.387267
 21
25.711242
  0
LINE
  8
型材
  6
DOT
 10
-36.387267
 20
25.711242
 11
-36.387267
 21
-48.358145
  0
LINE
  8
型材
  6
DOT
 10
-36.387267
 20
-48.358145
 11
220.541302
 21
-48.358145
  0
LINE
  8
型材
  6
DOT
 10
220.541302
 20
25.711242
 11
220.541302
 21
-48.358145
  0
POINT
  8
型材
 62
    32
 10
-312.066333
 20
-2.844625
  0
LINE
  8
型材
  6
CONTINUOUS
 62
    32
 10
-312.066333
 20
-2.844625
 11
-243.666333
 21
-2.844625
  0
POINT
  8
型材
 62
    32
 10
-317.466333
 20
4.955375
  0
POINT
  8
型材
 62
    32
 10
-312.066333
 20
4.955375
  0
POINT
  8
型材
 62
    32
 10
-243.666333
 20
4.955375
  0
POINT
  8
型材
 62
    32
 10
-322.866333
 20
-2.844625
  0
POINT
  8
型材
 62
    32
 10
-317.466333
 20
4.955375
  0
POINT
  8
型材
 62
    32
 10
-238.266333
 20
4.955375
  0
POINT
  8
型材
 62
    32
 10
-238.266333
 20
4.955375
  0
POINT
  8
型材
 62
    32
 10
-232.866333
 20
-2.844625
  0
LINE
  8
型材
  6
CONTINUOUS
 62
    32
 10
-243.666333
 20
-2.844625
 11
-243.666333
 21
16.355375
  0
LINE
  8
型材
  6
CONTINUOUS
 62
    32
 10
-246.066333
 20
-2.844625
 11
-246.066333
 21
16.355375
  0
LINE
  8
型材
  6
CONTINUOUS
 62
    32
 10
-232.866333
 20
16.355375
 11
-232.866333
 21
-2.844625
  0
LINE
  8
型材
  6
DASHDOTX2
 62
    32
 10
-238.266333
 20
10.955375
 11
-238.266333
 21
-1.044625
  0
LINE
  8
型材
  6
CONTINUOUS
 62
    32
 10
-239.46352
 20
4.655458
 11
-240.366323
 21
4.655458
  0
LINE
  8
型材
  6
CONTINUOUS
 62
    32
 10
-238.566248
 20
2.855387
 11
-238.566248
 21
3.758193
  0
LINE
  8
型材
  6
CONTINUOUS
 62
    32
 10
-237.966413
 20
2.855387
 11
-238.566248
 21
2.855387
  0
LINE
  8
型材
  6
CONTINUOUS
 62
    32
 10
-237.966413
 20
2.855387
 11
-237.966413
 21
3.758193
  0
LINE
  8
型材
  6
CONTINUOUS
 62
    32
 10
-237.966413
 20
7.055365
 11
-237.966413
 21
6.15256
  0
LINE
  8
型材
  6
CONTINUOUS
 62
    32
 10
-238.566248
 20
7.055365
 11
-238.566248
 21
6.15256
  0
LINE
  8
型材
  6
CONTINUOUS
 62
    32
 10
-237.069143
 20
4.655458
 11
-236.16634
 21
4.655458
  0
LINE
  8
型材
  6
CONTINUOUS
 62
    32
 10
-237.069143
 20
5.25529
 11
-236.16634
 21
5.25529
  0
LINE
  8
型材
  6
CONTINUOUS
 62
    32
 10
-239.46352
 20
5.25529
 11
-240.366323
 21
5.25529
  0
LINE
  8
型材
  6
CONTINUOUS
 62
    32
 10
-237.966413
 20
7.055365
 11
-238.566248
 21
7.055365
  0
LINE
  8
型材
  6
CONTINUOUS
 62
    32
 10
-236.16634
 20
4.655458
 11
-236.16634
 21
5.255292
  0
LINE
  8
型材
  6
CONTINUOUS
 62
    32
 10
-240.366323
 20
4.655458
 11
-240.366323
 21
5.255292
  0
LINE
  8
型材
  6
CONTINUOUS
 62
    32
 10
-312.066333
 20
-2.844625
 11
-312.066333
 21
16.355375
  0
LINE
  8
型材
  6
CONTINUOUS
 62
    32
 10
-322.866333
 20
16.355375
 11
-232.866333
 21
16.355375
  0
LINE
  8
型材
  6
CONTINUOUS
 62
    32
 10
-309.666333
 20
-2.844625
 11
-309.666333
 21
16.355375
  0
LINE
  8
型材
  6
CONTINUOUS
 62
    32
 10
-270.066333
 20
-2.844625
 11
-270.066333
 21
16.355375
  0
LINE
  8
型材
  6
CONTINUOUS
 62
    32
 10
-272.466333
 20
-2.844625
 11
-272.466333
 21
16.355375
  0
LINE
  8
型材
  6
CONTINUOUS
 62
    32
 10
-283.266333
 20
-2.844625
 11
-283.266333
 21
16.355375
  0
LINE
  8
型材
  6
CONTINUOUS
 62
    32
 10
-285.666333
 20
-2.844625
 11
-285.666333
 21
16.355375
  0
LINE
  8
型材
  6
CONTINUOUS
 62
    32
 10
-298.866333
 20
-2.844625
 11
-298.866333
 21
16.355375
  0
LINE
  8
型材
  6
CONTINUOUS
 62
    32
 10
-296.466333
 20
-2.844625
 11
-296.466333
 21
16.355375
  0
LINE
  8
型材
  6
CONTINUOUS
 62
    32
 10
-322.866333
 20
16.355375
 11
-322.866333
 21
-2.844625
  0
LINE
  8
型材
  6
DASHDOTX2
 62
    32
 10
-317.466333
 20
10.955375
 11
-317.466333
 21
-1.044625
  0
LINE
  8
型材
  6
DASHDOTX2
 62
    32
 10
-304.266333
 20
10.955375
 11
-304.266333
 21
-1.044625
  0
LINE
  8
型材
  6
DASHDOTX2
 62
    32
 10
-291.066333
 20
10.955375
 11
-291.066333
 21
-1.044625
  0
LINE
  8
型材
  6
DASHDOTX2
 62
    32
 10
-277.866333
 20
10.955375
 11
-277.866333
 21
-1.044625
  0
LINE
  8
型材
  6
DASHDOTX2
 62
    32
 10
-264.666333
 20
10.955375
 11
-264.666333
 21
-1.044625
  0
LINE
  8
型材
  6
CONTINUOUS
 62
    32
 10
-318.663518
 20
4.655458
 11
-319.566323
 21
4.655458
  0
LINE
  8
型材
  6
CONTINUOUS
 62
    32
 10
-317.766248
 20
2.855387
 11
-317.766248
 21
3.758193
  0
LINE
  8
型材
  6
CONTINUOUS
 62
    32
 10
-317.166415
 20
2.855387
 11
-317.766248
 21
2.855387
  0
LINE
  8
型材
  6
CONTINUOUS
 62
    32
 10
-317.166415
 20
2.855387
 11
-317.166415
 21
3.758193
  0
LINE
  8
型材
  6
CONTINUOUS
 62
    32
 10
-317.166415
 20
7.055365
 11
-317.166415
 21
6.15256
  0
LINE
  8
型材
  6
CONTINUOUS
 62
    32
 10
-317.766248
 20
7.055365
 11
-317.766248
 21
6.15256
  0
LINE
  8
型材
  6
CONTINUOUS
 62
    32
 10
-316.269145
 20
4.655458
 11
-315.36634
 21
4.655458
  0
LINE
  8
型材
  6
CONTINUOUS
 62
    32
 10
-316.269145
 20
5.25529
 11
-315.36634
 21
5.25529
  0
LINE
  8
型材
  6
CONTINUOUS
 62
    32
 10
-318.663515
 20
5.25529
 11
-319.566323
 21
5.25529
  0
LINE
  8
型材
  6
CONTINUOUS
 62
    32
 10
-317.166415
 20
7.055365
 11
-317.766248
 21
7.055365
  0
LINE
  8
型材
  6
CONTINUOUS
 62
    32
 10
-315.36634
 20
4.655458
 11
-315.36634
 21
5.255292
  0
LINE
  8
型材
  6
CONTINUOUS
 62
    32
 10
-319.566323
 20
4.655458
 11
-319.566323
 21
5.255292
  0
LINE
  8
型材
  6
CONTINUOUS
 62
    32
 10
-265.863515
 20
4.655458
 11
-266.766323
 21
4.655458
  0
LINE
  8
型材
  6
CONTINUOUS
 62
    32
 10
-264.966248
 20
2.855387
 11
-264.966248
 21
3.758193
  0
LINE
  8
型材
  6
CONTINUOUS
 62
    32
 10
-264.366413
 20
2.855387
 11
-264.966248
 21
2.855387
  0
LINE
  8
型材
  6
CONTINUOUS
 62
    32
 10
-264.366413
 20
2.855387
 11
-264.366413
 21
3.758193
  0
LINE
  8
型材
  6
CONTINUOUS
 62
    32
 10
-264.366413
 20
7.055365
 11
-264.366413
 21
6.15256
  0
LINE
  8
型材
  6
CONTINUOUS
 62
    32
 10
-264.966248
 20
7.055365
 11
-264.966248
 21
6.15256
  0
LINE
  8
型材
  6
CONTINUOUS
 62
    32
 10
-263.469145
 20
4.655458
 11
-262.56634
 21
4.655458
  0
LINE
  8
型材
  6
CONTINUOUS
 62
    32
 10
-263.469145
 20
5.25529
 11
-262.56634
 21
5.25529
  0
LINE
  8
型材
  6
CONTINUOUS
 62
    32
 10
-265.863515
 20
5.25529
 11
-266.766323
 21
5.25529
  0
LINE
  8
型材
  6
CONTINUOUS
 62
    32
 10
-264.366413
 20
7.055365
 11
-264.966248
 21
7.055365
  0
LINE
  8
型材
  6
CONTINUOUS
 62
    32
 10
-262.56634
 20
4.655458
 11
-262.56634
 21
5.255292
  0
LINE
  8
型材
  6
CONTINUOUS
 62
    32
 10
-266.766323
 20
4.655458
 11
-266.766323
 21
5.255292
  0
LINE
  8
型材
  6
CONTINUOUS
 62
    32
 10
-279.063515
 20
4.655458
 11
-279.966323
 21
4.655458
  0
LINE
  8
型材
  6
CONTINUOUS
 62
    32
 10
-278.166248
 20
2.855387
 11
-278.166248
 21
3.758193
  0
LINE
  8
型材
  6
CONTINUOUS
 62
    32
 10
-277.566415
 20
2.855387
 11
-278.166248
 21
2.855387
  0
LINE
  8
型材
  6
CONTINUOUS
 62
    32
 10
-277.566413
 20
2.855387
 11
-277.566413
 21
3.758193
  0
LINE
  8
型材
  6
CONTINUOUS
 62
    32
 10
-277.566413
 20
7.055365
 11
-277.566413
 21
6.15256
  0
LINE
  8
型材
  6
CONTINUOUS
 62
    32
 10
-278.166248
 20
7.055365
 11
-278.166248
 21
6.15256
  0
LINE
  8
型材
  6
CONTINUOUS
 62
    32
 10
-276.669145
 20
4.655458
 11
-275.76634
 21
4.655458
  0
LINE
  8
型材
  6
CONTINUOUS
 62
    32
 10
-276.669145
 20
5.25529
 11
-275.76634
 21
5.25529
  0
LINE
  8
型材
  6
CONTINUOUS
 62
    32
 10
-279.063515
 20
5.25529
 11
-279.966323
 21
5.25529
  0
LINE
  8
型材
  6
CONTINUOUS
 62
    32
 10
-277.566413
 20
7.055365
 11
-278.166248
 21
7.055365
  0
LINE
  8
型材
  6
CONTINUOUS
 62
    32
 10
-275.76634
 20
4.655458
 11
-275.76634
 21
5.255292
  0
LINE
  8
型材
  6
CONTINUOUS
 62
    32
 10
-279.966323
 20
4.655458
 11
-279.966323
 21
5.255292
  0
LINE
  8
型材
  6
CONTINUOUS
 62
    32
 10
-292.263515
 20
4.655458
 11
-293.166323
 21
4.655458
  0
LINE
  8
型材
  6
CONTINUOUS
 62
    32
 10
-291.366247
 20
2.855387
 11
-291.366247
 21
3.758193
  0
LINE
  8
型材
  6
CONTINUOUS
 62
    32
 10
-290.766415
 20
2.855387
 11
-291.366247
 21
2.855387
  0
LINE
  8
型材
  6
CONTINUOUS
 62
    32
 10
-290.766413
 20
2.855387
 11
-290.766413
 21
3.758193
  0
LINE
  8
型材
  6
CONTINUOUS
 62
    32
 10
-290.766413
 20
7.055365
 11
-290.766413
 21
6.15256
  0
LINE
  8
型材
  6
CONTINUOUS
 62
    32
 10
-291.366247
 20
7.055365
 11
-291.366247
 21
6.15256
  0
LINE
  8
型材
  6
CONTINUOUS
 62
    32
 10
-289.869145
 20
4.655458
 11
-288.96634
 21
4.655458
  0
LINE
  8
型材
  6
CONTINUOUS
 62
    32
 10
-289.869145
 20
5.25529
 11
-288.96634
 21
5.25529
  0
LINE
  8
型材
  6
CONTINUOUS
 62
    32
 10
-292.263515
 20
5.25529
 11
-293.166323
 21
5.25529
  0
LINE
  8
型材
  6
CONTINUOUS
 62
    32
 10
-290.766413
 20
7.055365
 11
-291.366247
 21
7.055365
  0
LINE
  8
型材
  6
CONTINUOUS
 62
    32
 10
-288.96634
 20
4.655458
 11
-288.96634
 21
5.255292
  0
LINE
  8
型材
  6
CONTINUOUS
 62
    32
 10
-293.166323
 20
4.655458
 11
-293.166323
 21
5.255292
  0
LINE
  8
型材
  6
CONTINUOUS
 62
    32
 10
-305.463515
 20
4.655458
 11
-306.36632
 21
4.655458
  0
LINE
  8
型材
  6
CONTINUOUS
 62
    32
 10
-304.566248
 20
2.855387
 11
-304.566248
 21
3.758193
  0
LINE
  8
型材
  6
CONTINUOUS
 62
    32
 10
-303.966415
 20
2.855387
 11
-304.566248
 21
2.855387
  0
LINE
  8
型材
  6
CONTINUOUS
 62
    32
 10
-303.966415
 20
2.855387
 11
-303.966415
 21
3.758193
  0
LINE
  8
型材
  6
CONTINUOUS
 62
    32
 10
-303.966415
 20
7.055365
 11
-303.966415
 21
6.15256
  0
LINE
  8
型材
  6
CONTINUOUS
 62
    32
 10
-304.566248
 20
7.055365
 11
-304.566248
 21
6.15256
  0
LINE
  8
型材
  6
CONTINUOUS
 62
    32
 10
-303.069145
 20
4.655458
 11
-302.16634
 21
4.655458
  0
LINE
  8
型材
  6
CONTINUOUS
 62
    32
 10
-303.069145
 20
5.25529
 11
-302.16634
 21
5.25529
  0
LINE
  8
型材
  6
CONTINUOUS
 62
    32
 10
-305.463515
 20
5.25529
 11
-306.36632
 21
5.25529
  0
LINE
  8
型材
  6
CONTINUOUS
 62
    32
 10
-303.966415
 20
7.055365
 11
-304.566248
 21
7.055365
  0
LINE
  8
型材
  6
CONTINUOUS
 62
    32
 10
-302.16634
 20
4.655458
 11
-302.16634
 21
5.255292
  0
LINE
  8
型材
  6
CONTINUOUS
 62
    32
 10
-306.36632
 20
4.655458
 11
-306.36632
 21
5.255292
  0
LINE
  8
型材
  6
DASHDOTX2
 62
    32
 10
-233.466333
 20
4.955375
 11
-322.866333
 21
4.955375
  0
LINE
  8
型材
  6
CONTINUOUS
 62
    32
 10
-322.866333
 20
-2.844625
 11
-232.866333
 21
-2.844625
  0
LINE
  8
型材
  6
CONTINUOUS
 62
    32
 10
-256.866333
 20
-2.844625
 11
-256.866333
 21
16.355375
  0
LINE
  8
型材
  6
CONTINUOUS
 62
    32
 10
-259.266333
 20
-2.844625
 11
-259.266333
 21
16.355375
  0
LINE
  8
型材
  6
DASHDOTX2
 62
    32
 10
-251.466333
 20
10.955375
 11
-251.466333
 21
-1.044625
  0
LINE
  8
型材
  6
CONTINUOUS
 62
    32
 10
-252.663515
 20
4.655458
 11
-253.566323
 21
4.655458
  0
LINE
  8
型材
  6
CONTINUOUS
 62
    32
 10
-251.766248
 20
2.855387
 11
-251.766248
 21
3.758193
  0
LINE
  8
型材
  6
CONTINUOUS
 62
    32
 10
-251.166413
 20
2.855387
 11
-251.766248
 21
2.855387
  0
LINE
  8
型材
  6
CONTINUOUS
 62
    32
 10
-251.166413
 20
2.855387
 11
-251.166413
 21
3.758193
  0
LINE
  8
型材
  6
CONTINUOUS
 62
    32
 10
-251.166413
 20
7.055365
 11
-251.166413
 21
6.15256
  0
LINE
  8
型材
  6
CONTINUOUS
 62
    32
 10
-251.766248
 20
7.055365
 11
-251.766248
 21
6.15256
  0
LINE
  8
型材
  6
CONTINUOUS
 62
    32
 10
-250.269145
 20
4.655458
 11
-249.36634
 21
4.655458
  0
LINE
  8
型材
  6
CONTINUOUS
 62
    32
 10
-250.269145
 20
5.25529
 11
-249.36634
 21
5.25529
  0
LINE
  8
型材
  6
CONTINUOUS
 62
    32
 10
-252.663515
 20
5.25529
 11
-253.566323
 21
5.25529
  0
LINE
  8
型材
  6
CONTINUOUS
 62
    32
 10
-251.166413
 20
7.055365
 11
-251.766248
 21
7.055365
  0
LINE
  8
型材
  6
CONTINUOUS
 62
    32
 10
-249.36634
 20
4.655458
 11
-249.36634
 21
5.255292
  0
LINE
  8
型材
  6
CONTINUOUS
 62
    32
 10
-253.566323
 20
4.655458
 11
-253.566323
 21
5.255292
  0
ARC
  8
型材
  6
CONTINUOUS
 62
    32
 10
-239.463516
 20
3.758195
 40
0.897268
 50
359.999978
 51
450.00003
  0
ARC
  8
型材
  6
CONTINUOUS
 62
    32
 10
-237.069138
 20
3.758195
 40
0.897268
 50
89.999962
 51
180.000005
  0
ARC
  8
型材
  6
CONTINUOUS
 62
    32
 10
-237.069138
 20
6.152565
 40
0.897268
 50
180.000022
 51
270.000066
  0
ARC
  8
型材
  6
CONTINUOUS
 62
    32
 10
-239.463516
 20
6.152566
 40
0.897268
 50
270.000011
 51
360.000046
  0
CIRCLE
  8
型材
  6
CONTINUOUS
 62
    32
 10
-238.266333
 20
4.955375
 40
4.14
  0
ARC
  8
型材
  6
CONTINUOUS
 62
    32
 10
-303.069141
 20
6.152565
 40
0.897268
 50
180.000022
 51
270.000066
  0
ARC
  8
型材
  6
CONTINUOUS
 62
    32
 10
-305.463512
 20
6.152566
 40
0.897268
 50
270.000011
 51
360.000046
  0
CIRCLE
  8
型材
  6
CONTINUOUS
 62
    32
 10
-304.266333
 20
4.955375
 40
4.14
  0
ARC
  8
型材
  6
CONTINUOUS
 62
    32
 10
-318.663512
 20
3.758195
 40
0.897268
 50
359.999978
 51
450.00003
  0
ARC
  8
型材
  6
CONTINUOUS
 62
    32
 10
-316.269142
 20
3.758195
 40
0.897268
 50
89.999962
 51
180.000005
  0
ARC
  8
型材
  6
CONTINUOUS
 62
    32
 10
-316.269141
 20
6.152565
 40
0.897268
 50
180.000022
 51
270.000066
  0
ARC
  8
型材
  6
CONTINUOUS
 62
    32
 10
-318.663512
 20
6.152566
 40
0.897268
 50
270.000011
 51
360.000046
  0
CIRCLE
  8
型材
  6
CONTINUOUS
 62
    32
 10
-317.466333
 20
4.955375
 40
4.14
  0
ARC
  8
型材
  6
CONTINUOUS
 62
    32
 10
-265.863512
 20
3.758195
 40
0.897268
 50
359.999978
 51
450.00003
  0
ARC
  8
型材
  6
CONTINUOUS
 62
    32
 10
-263.469142
 20
3.758195
 40
0.897268
 50
89.999962
 51
180.000005
  0
ARC
  8
型材
  6
CONTINUOUS
 62
    32
 10
-263.469142
 20
6.152565
 40
0.897268
 50
180.000022
 51
270.000066
  0
ARC
  8
型材
  6
CONTINUOUS
 62
    32
 10
-265.863512
 20
6.152566
 40
0.897268
 50
270.000011
 51
360.000046
  0
CIRCLE
  8
型材
  6
CONTINUOUS
 62
    32
 10
-264.666333
 20
4.955375
 40
4.14
  0
ARC
  8
型材
  6
CONTINUOUS
 62
    32
 10
-279.063512
 20
3.758195
 40
0.897268
 50
359.999978
 51
450.00003
  0
ARC
  8
型材
  6
CONTINUOUS
 62
    32
 10
-276.669142
 20
3.758195
 40
0.897268
 50
89.999962
 51
180.000005
  0
ARC
  8
型材
  6
CONTINUOUS
 62
    32
 10
-276.669142
 20
6.152565
 40
0.897268
 50
180.000022
 51
270.000066
  0
ARC
  8
型材
  6
CONTINUOUS
 62
    32
 10
-279.063512
 20
6.152566
 40
0.897268
 50
270.000011
 51
360.000046
  0
CIRCLE
  8
型材
  6
CONTINUOUS
 62
    32
 10
-277.866333
 20
4.955375
 40
4.14
  0
ARC
  8
型材
  6
CONTINUOUS
 62
    32
 10
-292.263512
 20
3.758195
 40
0.897268
 50
359.999978
 51
450.00003
  0
ARC
  8
型材
  6
CONTINUOUS
 62
    32
 10
-289.869142
 20
3.758195
 40
0.897268
 50
89.999962
 51
180.000005
  0
ARC
  8
型材
  6
CONTINUOUS
 62
    32
 10
-289.869142
 20
6.152565
 40
0.897268
 50
180.000022
 51
270.000066
  0
ARC
  8
型材
  6
CONTINUOUS
 62
    32
 10
-292.263512
 20
6.152566
 40
0.897268
 50
270.000011
 51
360.000046
  0
CIRCLE
  8
型材
  6
CONTINUOUS
 62
    32
 10
-291.066333
 20
4.955375
 40
4.14
  0
ARC
  8
型材
  6
CONTINUOUS
 62
    32
 10
-305.463512
 20
3.758195
 40
0.897268
 50
359.999978
 51
450.00003
  0
ARC
  8
型材
  6
CONTINUOUS
 62
    32
 10
-303.069142
 20
3.758195
 40
0.897268
 50
89.999962
 51
180.000005
  0
ARC
  8
型材
  6
CONTINUOUS
 62
    32
 10
-252.663512
 20
3.758195
 40
0.897268
 50
359.999978
 51
450.00003
  0
ARC
  8
型材
  6
CONTINUOUS
 62
    32
 10
-250.269142
 20
3.758195
 40
0.897268
 50
89.999962
 51
180.000005
  0
ARC
  8
型材
  6
CONTINUOUS
 62
    32
 10
-250.269142
 20
6.152565
 40
0.897268
 50
180.000022
 51
270.000066
  0
ARC
  8
型材
  6
CONTINUOUS
 62
    32
 10
-252.663512
 20
6.152566
 40
0.897268
 50
270.000011
 51
360.000046
  0
CIRCLE
  8
型材
  6
CONTINUOUS
 62
    32
 10
-251.466333
 20
4.955375
 40
4.14
  0
LINE
  8
型材
  6
CONTINUOUS
 62
    32
 10
-243.666333
 20
-2.844625
 11
-243.666333
 21
-34.920135
  0
LINE
  8
型材
  6
CONTINUOUS
 62
    32
 10
-243.666333
 20
-34.920135
 11
-312.066333
 21
-34.920135
  0
LINE
  8
型材
  6
CONTINUOUS
 62
    32
 10
-312.066333
 20
-2.844625
 11
-312.066333
 21
-34.920135
  0
POINT
  8
型材
 62
    32
 10
-101.25817
 20
-23.520135
  0
POINT
  8
型材
 62
    32
 10
-206.85817
 20
-23.520135
  0
LINE
  8
型材
  6
CONTINUOUS
 62
    32
 10
-161.85817
 20
-15.720135
 11
-161.85817
 21
-34.920135
  0
LINE
  8
型材
  6
CONTINUOUS
 62
    32
 10
-214.65817
 20
-15.720135
 11
-214.65817
 21
-34.920135
  0
LINE
  8
型材
  6
CONTINUOUS
 62
    32
 10
-212.25817
 20
-15.720135
 11
-212.25817
 21
-34.920135
  0
LINE
  8
型材
  6
CONTINUOUS
 62
    32
 10
-95.85817
 20
-34.920135
 11
-225.45817
 21
-34.920135
  0
LINE
  8
型材
  6
CONTINUOUS
 62
    32
 10
-109.05817
 20
-15.720135
 11
-109.05817
 21
-34.920135
  0
LINE
  8
型材
  6
CONTINUOUS
 62
    32
 10
-159.45817
 20
-15.720135
 11
-159.45817
 21
-34.920135
  0
LINE
  8
型材
  6
CONTINUOUS
 62
    32
 10
-188.25817
 20
-15.720135
 11
-188.25817
 21
-34.920135
  0
LINE
  8
型材
  6
CONTINUOUS
 62
    32
 10
-185.85817
 20
-15.720135
 11
-185.85817
 21
-34.920135
  0
LINE
  8
型材
  6
CONTINUOUS
 62
    32
 10
-148.65817
 20
-15.720135
 11
-148.65817
 21
-34.920135
  0
LINE
  8
型材
  6
CONTINUOUS
 62
    32
 10
-146.25817
 20
-15.720135
 11
-146.25817
 21
-34.920135
  0
LINE
  8
型材
  6
CONTINUOUS
 62
    32
 10
-106.65817
 20
-15.720135
 11
-106.65817
 21
-34.920135
  0
LINE
  8
型材
  6
CONTINUOUS
 62
    32
 10
-135.45817
 20
-15.720135
 11
-135.45817
 21
-34.920135
  0
LINE
  8
型材
  6
CONTINUOUS
 62
    32
 10
-133.05817
 20
-15.720135
 11
-133.05817
 21
-34.920135
  0
LINE
  8
型材
  6
CONTINUOUS
 62
    32
 10
-119.85817
 20
-15.720135
 11
-119.85817
 21
-34.920135
  0
LINE
  8
型材
  6
CONTINUOUS
 62
    32
 10
-122.25817
 20
-15.720135
 11
-122.25817
 21
-34.920135
  0
LINE
  8
型材
  6
CONTINUOUS
 62
    32
 10
-95.85817
 20
-34.920135
 11
-95.85817
 21
-15.720135
  0
LINE
  8
型材
  6
DASHDOTX2
 62
    32
 10
-101.25817
 20
-29.520135
 11
-101.25817
 21
-17.520135
  0
LINE
  8
型材
  6
DASHDOTX2
 62
    32
 10
-114.45817
 20
-29.520135
 11
-114.45817
 21
-17.520135
  0
LINE
  8
型材
  6
DASHDOTX2
 62
    32
 10
-127.65817
 20
-29.520135
 11
-127.65817
 21
-17.520135
  0
LINE
  8
型材
  6
DASHDOTX2
 62
    32
 10
-140.85817
 20
-29.520135
 11
-140.85817
 21
-17.520135
  0
LINE
  8
型材
  6
DASHDOTX2
 62
    32
 10
-154.05817
 20
-29.520135
 11
-154.05817
 21
-17.520135
  0
LINE
  8
型材
  6
CONTINUOUS
 62
    32
 10
-172.65817
 20
-15.720135
 11
-172.65817
 21
-34.920135
  0
LINE
  8
型材
  6
CONTINUOUS
 62
    32
 10
-175.05817
 20
-15.720135
 11
-175.05817
 21
-34.920135
  0
LINE
  8
型材
  6
CONTINUOUS
 62
    32
 10
-225.45817
 20
-34.920135
 11
-225.45817
 21
-15.720135
  0
LINE
  8
型材
  6
DASHDOTX2
 62
    32
 10
-167.25817
 20
-29.520135
 11
-167.25817
 21
-17.520135
  0
LINE
  8
型材
  6
DASHDOTX2
 62
    32
 10
-180.45817
 20
-29.520135
 11
-180.45817
 21
-17.520135
  0
LINE
  8
型材
  6
DASHDOTX2
 62
    32
 10
-193.65817
 20
-29.520135
 11
-193.65817
 21
-17.520135
  0
LINE
  8
型材
  6
CONTINUOUS
 62
    32
 10
-100.060982
 20
-23.220218
 11
-99.158177
 21
-23.220218
  0
LINE
  8
型材
  6
CONTINUOUS
 62
    32
 10
-100.958252
 20
-21.420147
 11
-100.958252
 21
-22.322952
  0
LINE
  8
型材
  6
CONTINUOUS
 62
    32
 10
-101.558085
 20
-21.420147
 11
-100.958252
 21
-21.420147
  0
LINE
  8
型材
  6
CONTINUOUS
 62
    32
 10
-101.558085
 20
-21.420147
 11
-101.558085
 21
-22.322952
  0
LINE
  8
型材
  6
CONTINUOUS
 62
    32
 10
-101.558085
 20
-25.620125
 11
-101.558085
 21
-24.71732
  0
LINE
  8
型材
  6
CONTINUOUS
 62
    32
 10
-100.958252
 20
-25.620125
 11
-100.958252
 21
-24.71732
  0
LINE
  8
型材
  6
DASHDOTX2
 62
    32
 10
-220.05817
 20
-29.520135
 11
-220.05817
 21
-17.520135
  0
LINE
  8
型材
  6
CONTINUOUS
 62
    32
 10
-218.86098
 20
-23.220218
 11
-217.958177
 21
-23.220218
  0
LINE
  8
型材
  6
CONTINUOUS
 62
    32
 10
-219.758252
 20
-21.420147
 11
-219.758252
 21
-22.322952
  0
LINE
  8
型材
  6
CONTINUOUS
 62
    32
 10
-220.358087
 20
-21.420147
 11
-219.758252
 21
-21.420147
  0
LINE
  8
型材
  6
CONTINUOUS
 62
    32
 10
-220.358087
 20
-21.420147
 11
-220.358087
 21
-22.322952
  0
LINE
  8
型材
  6
CONTINUOUS
 62
    32
 10
-220.358087
 20
-25.620125
 11
-220.358087
 21
-24.71732
  0
LINE
  8
型材
  6
CONTINUOUS
 62
    32
 10
-219.758252
 20
-25.620125
 11
-219.758252
 21
-24.71732
  0
LINE
  8
型材
  6
CONTINUOUS
 62
    32
 10
-221.255358
 20
-23.220218
 11
-222.15816
 21
-23.220218
  0
LINE
  8
型材
  6
CONTINUOUS
 62
    32
 10
-221.255358
 20
-23.82005
 11
-222.15816
 21
-23.82005
  0
LINE
  8
型材
  6
CONTINUOUS
 62
    32
 10
-218.86098
 20
-23.82005
 11
-217.958177
 21
-23.82005
  0
LINE
  8
型材
  6
CONTINUOUS
 62
    32
 10
-220.358087
 20
-25.620125
 11
-219.758252
 21
-25.620125
  0
LINE
  8
型材
  6
CONTINUOUS
 62
    32
 10
-222.15816
 20
-23.220218
 11
-222.15816
 21
-23.820053
  0
LINE
  8
型材
  6
CONTINUOUS
 62
    32
 10
-217.958177
 20
-23.220218
 11
-217.958177
 21
-23.820053
  0
LINE
  8
型材
  6
CONTINUOUS
 62
    32
 10
-102.455355
 20
-23.220218
 11
-103.35816
 21
-23.220218
  0
LINE
  8
型材
  6
CONTINUOUS
 62
    32
 10
-102.455355
 20
-23.82005
 11
-103.35816
 21
-23.82005
  0
LINE
  8
型材
  6
CONTINUOUS
 62
    32
 10
-100.060988
 20
-23.82005
 11
-99.158177
 21
-23.82005
  0
LINE
  8
型材
  6
CONTINUOUS
 62
    32
 10
-101.558085
 20
-25.620125
 11
-100.958252
 21
-25.620125
  0
LINE
  8
型材
  6
CONTINUOUS
 62
    32
 10
-103.35816
 20
-23.220218
 11
-103.35816
 21
-23.820053
  0
LINE
  8
型材
  6
CONTINUOUS
 62
    32
 10
-99.158177
 20
-23.220218
 11
-99.158177
 21
-23.820053
  0
LINE
  8
型材
  6
CONTINUOUS
 62
    32
 10
-152.860988
 20
-23.220218
 11
-151.958177
 21
-23.220218
  0
LINE
  8
型材
  6
CONTINUOUS
 62
    32
 10
-153.758252
 20
-21.420147
 11
-153.758252
 21
-22.322952
  0
LINE
  8
型材
  6
CONTINUOUS
 62
    32
 10
-154.358087
 20
-21.420147
 11
-153.758252
 21
-21.420147
  0
LINE
  8
型材
  6
CONTINUOUS
 62
    32
 10
-154.358087
 20
-21.420147
 11
-154.358087
 21
-22.322952
  0
LINE
  8
型材
  6
CONTINUOUS
 62
    32
 10
-154.358087
 20
-25.620125
 11
-154.358087
 21
-24.71732
  0
LINE
  8
型材
  6
CONTINUOUS
 62
    32
 10
-153.758252
 20
-25.620125
 11
-153.758252
 21
-24.71732
  0
LINE
  8
型材
  6
CONTINUOUS
 62
    32
 10
-192.46098
 20
-23.220218
 11
-191.558177
 21
-23.220218
  0
LINE
  8
型材
  6
CONTINUOUS
 62
    32
 10
-193.358252
 20
-21.420147
 11
-193.358252
 21
-22.322952
  0
LINE
  8
型材
  6
CONTINUOUS
 62
    32
 10
-193.958087
 20
-21.420147
 11
-193.358252
 21
-21.420147
  0
LINE
  8
型材
  6
CONTINUOUS
 62
    32
 10
-193.958087
 20
-21.420147
 11
-193.958087
 21
-22.322952
  0
LINE
  8
型材
  6
CONTINUOUS
 62
    32
 10
-193.958087
 20
-25.620125
 11
-193.958087
 21
-24.71732
  0
LINE
  8
型材
  6
CONTINUOUS
 62
    32
 10
-193.358252
 20
-25.620125
 11
-193.358252
 21
-24.71732
  0
LINE
  8
型材
  6
CONTINUOUS
 62
    32
 10
-194.855358
 20
-23.220218
 11
-195.75816
 21
-23.220218
  0
LINE
  8
型材
  6
CONTINUOUS
 62
    32
 10
-194.855358
 20
-23.82005
 11
-195.75816
 21
-23.82005
  0
LINE
  8
型材
  6
CONTINUOUS
 62
    32
 10
-192.46098
 20
-23.82005
 11
-191.558177
 21
-23.82005
  0
LINE
  8
型材
  6
CONTINUOUS
 62
    32
 10
-193.958087
 20
-25.620125
 11
-193.358252
 21
-25.620125
  0
LINE
  8
型材
  6
CONTINUOUS
 62
    32
 10
-195.75816
 20
-23.220218
 11
-195.75816
 21
-23.820053
  0
LINE
  8
型材
  6
CONTINUOUS
 62
    32
 10
-191.558177
 20
-23.220218
 11
-191.558177
 21
-23.820053
  0
LINE
  8
型材
  6
CONTINUOUS
 62
    32
 10
-179.26098
 20
-23.220218
 11
-178.358177
 21
-23.220218
  0
LINE
  8
型材
  6
CONTINUOUS
 62
    32
 10
-180.158252
 20
-21.420147
 11
-180.158252
 21
-22.322952
  0
LINE
  8
型材
  6
CONTINUOUS
 62
    32
 10
-180.758087
 20
-21.420147
 11
-180.158252
 21
-21.420147
  0
LINE
  8
型材
  6
CONTINUOUS
 62
    32
 10
-180.758087
 20
-21.420147
 11
-180.758087
 21
-22.322952
  0
LINE
  8
型材
  6
CONTINUOUS
 62
    32
 10
-180.758087
 20
-25.620125
 11
-180.758087
 21
-24.71732
  0
LINE
  8
型材
  6
CONTINUOUS
 62
    32
 10
-180.158252
 20
-25.620125
 11
-180.158252
 21
-24.71732
  0
LINE
  8
型材
  6
CONTINUOUS
 62
    32
 10
-181.655357
 20
-23.220218
 11
-182.55816
 21
-23.220218
  0
LINE
  8
型材
  6
CONTINUOUS
 62
    32
 10
-181.655357
 20
-23.82005
 11
-182.55816
 21
-23.82005
  0
LINE
  8
型材
  6
CONTINUOUS
 62
    32
 10
-179.26098
 20
-23.82005
 11
-178.358177
 21
-23.82005
  0
LINE
  8
型材
  6
CONTINUOUS
 62
    32
 10
-180.758087
 20
-25.620125
 11
-180.158252
 21
-25.620125
  0
LINE
  8
型材
  6
CONTINUOUS
 62
    32
 10
-182.55816
 20
-23.220218
 11
-182.55816
 21
-23.820053
  0
LINE
  8
型材
  6
CONTINUOUS
 62
    32
 10
-178.358177
 20
-23.220218
 11
-178.358177
 21
-23.820053
  0
LINE
  8
型材
  6
CONTINUOUS
 62
    32
 10
-155.255355
 20
-23.220218
 11
-156.15816
 21
-23.220218
  0
LINE
  8
型材
  6
CONTINUOUS
 62
    32
 10
-155.255355
 20
-23.82005
 11
-156.15816
 21
-23.82005
  0
LINE
  8
型材
  6
CONTINUOUS
 62
    32
 10
-152.860988
 20
-23.82005
 11
-151.958177
 21
-23.82005
  0
LINE
  8
型材
  6
CONTINUOUS
 62
    32
 10
-154.358087
 20
-25.620125
 11
-153.758252
 21
-25.620125
  0
LINE
  8
型材
  6
CONTINUOUS
 62
    32
 10
-156.15816
 20
-23.220218
 11
-156.15816
 21
-23.820053
  0
LINE
  8
型材
  6
CONTINUOUS
 62
    32
 10
-151.958177
 20
-23.220218
 11
-151.958177
 21
-23.820053
  0
LINE
  8
型材
  6
CONTINUOUS
 62
    32
 10
-139.660988
 20
-23.220218
 11
-138.758177
 21
-23.220218
  0
LINE
  8
型材
  6
CONTINUOUS
 62
    32
 10
-140.558252
 20
-21.420147
 11
-140.558252
 21
-22.322952
  0
LINE
  8
型材
  6
CONTINUOUS
 62
    32
 10
-141.158085
 20
-21.420147
 11
-140.558252
 21
-21.420147
  0
LINE
  8
型材
  6
CONTINUOUS
 62
    32
 10
-141.158087
 20
-21.420147
 11
-141.158087
 21
-22.322952
  0
LINE
  8
型材
  6
CONTINUOUS
 62
    32
 10
-141.158087
 20
-25.620125
 11
-141.158087
 21
-24.71732
  0
LINE
  8
型材
  6
CONTINUOUS
 62
    32
 10
-140.558252
 20
-25.620125
 11
-140.558252
 21
-24.71732
  0
LINE
  8
型材
  6
CONTINUOUS
 62
    32
 10
-142.055355
 20
-23.220218
 11
-142.95816
 21
-23.220218
  0
LINE
  8
型材
  6
CONTINUOUS
 62
    32
 10
-142.055355
 20
-23.82005
 11
-142.95816
 21
-23.82005
  0
LINE
  8
型材
  6
CONTINUOUS
 62
    32
 10
-139.660988
 20
-23.82005
 11
-138.758177
 21
-23.82005
  0
LINE
  8
型材
  6
CONTINUOUS
 62
    32
 10
-141.158087
 20
-25.620125
 11
-140.558252
 21
-25.620125
  0
LINE
  8
型材
  6
CONTINUOUS
 62
    32
 10
-142.95816
 20
-23.220218
 11
-142.95816
 21
-23.820053
  0
LINE
  8
型材
  6
CONTINUOUS
 62
    32
 10
-138.758177
 20
-23.220218
 11
-138.758177
 21
-23.820053
  0
LINE
  8
型材
  6
CONTINUOUS
 62
    32
 10
-126.460988
 20
-23.220218
 11
-125.558177
 21
-23.220218
  0
LINE
  8
型材
  6
CONTINUOUS
 62
    32
 10
-127.358252
 20
-21.420147
 11
-127.358252
 21
-22.322952
  0
LINE
  8
型材
  6
CONTINUOUS
 62
    32
 10
-127.958085
 20
-21.420147
 11
-127.358252
 21
-21.420147
  0
LINE
  8
型材
  6
CONTINUOUS
 62
    32
 10
-127.958087
 20
-21.420147
 11
-127.958087
 21
-22.322952
  0
LINE
  8
型材
  6
CONTINUOUS
 62
    32
 10
-127.958087
 20
-25.620125
 11
-127.958087
 21
-24.71732
  0
LINE
  8
型材
  6
CONTINUOUS
 62
    32
 10
-127.358252
 20
-25.620125
 11
-127.358252
 21
-24.71732
  0
LINE
  8
型材
  6
CONTINUOUS
 62
    32
 10
-128.855355
 20
-23.220218
 11
-129.75816
 21
-23.220218
  0
LINE
  8
型材
  6
CONTINUOUS
 62
    32
 10
-128.855355
 20
-23.82005
 11
-129.75816
 21
-23.82005
  0
LINE
  8
型材
  6
CONTINUOUS
 62
    32
 10
-126.460988
 20
-23.82005
 11
-125.558177
 21
-23.82005
  0
LINE
  8
型材
  6
CONTINUOUS
 62
    32
 10
-127.958087
 20
-25.620125
 11
-127.358252
 21
-25.620125
  0
LINE
  8
型材
  6
CONTINUOUS
 62
    32
 10
-129.75816
 20
-23.220218
 11
-129.75816
 21
-23.820053
  0
LINE
  8
型材
  6
CONTINUOUS
 62
    32
 10
-125.558177
 20
-23.220218
 11
-125.558177
 21
-23.820053
  0
LINE
  8
型材
  6
CONTINUOUS
 62
    32
 10
-113.260988
 20
-23.220218
 11
-112.358183
 21
-23.220218
  0
LINE
  8
型材
  6
CONTINUOUS
 62
    32
 10
-114.158252
 20
-21.420147
 11
-114.158252
 21
-22.322952
  0
LINE
  8
型材
  6
CONTINUOUS
 62
    32
 10
-114.758085
 20
-21.420147
 11
-114.158252
 21
-21.420147
  0
LINE
  8
型材
  6
CONTINUOUS
 62
    32
 10
-114.758085
 20
-21.420147
 11
-114.758085
 21
-22.322952
  0
LINE
  8
型材
  6
CONTINUOUS
 62
    32
 10
-114.758085
 20
-25.620125
 11
-114.758085
 21
-24.71732
  0
LINE
  8
型材
  6
CONTINUOUS
 62
    32
 10
-114.158252
 20
-25.620125
 11
-114.158252
 21
-24.71732
  0
LINE
  8
型材
  6
CONTINUOUS
 62
    32
 10
-115.655355
 20
-23.220218
 11
-116.55816
 21
-23.220218
  0
LINE
  8
型材
  6
CONTINUOUS
 62
    32
 10
-115.655355
 20
-23.82005
 11
-116.55816
 21
-23.82005
  0
LINE
  8
型材
  6
CONTINUOUS
 62
    32
 10
-113.260988
 20
-23.82005
 11
-112.358183
 21
-23.82005
  0
LINE
  8
型材
  6
CONTINUOUS
 62
    32
 10
-114.758085
 20
-25.620125
 11
-114.158252
 21
-25.620125
  0
LINE
  8
型材
  6
CONTINUOUS
 62
    32
 10
-116.55816
 20
-23.220218
 11
-116.55816
 21
-23.820053
  0
LINE
  8
型材
  6
CONTINUOUS
 62
    32
 10
-112.358183
 20
-23.220218
 11
-112.358183
 21
-23.820053
  0
LINE
  8
型材
  6
DASHDOTX2
 62
    32
 10
-224.85817
 20
-23.520135
 11
-95.85817
 21
-23.520135
  0
LINE
  8
型材
  6
CONTINUOUS
 62
    32
 10
-95.85817
 20
-15.720135
 11
-225.45817
 21
-15.720135
  0
LINE
  8
型材
  6
CONTINUOUS
 62
    32
 10
-166.06098
 20
-23.220218
 11
-165.158177
 21
-23.220218
  0
LINE
  8
型材
  6
CONTINUOUS
 62
    32
 10
-166.958252
 20
-21.420147
 11
-166.958252
 21
-22.322952
  0
LINE
  8
型材
  6
CONTINUOUS
 62
    32
 10
-167.558087
 20
-21.420147
 11
-166.958252
 21
-21.420147
  0
LINE
  8
型材
  6
CONTINUOUS
 62
    32
 10
-167.558087
 20
-21.420147
 11
-167.558087
 21
-22.322952
  0
LINE
  8
型材
  6
CONTINUOUS
 62
    32
 10
-167.558087
 20
-25.620125
 11
-167.558087
 21
-24.71732
  0
LINE
  8
型材
  6
CONTINUOUS
 62
    32
 10
-166.958252
 20
-25.620125
 11
-166.958252
 21
-24.71732
  0
LINE
  8
型材
  6
CONTINUOUS
 62
    32
 10
-168.455357
 20
-23.220218
 11
-169.35816
 21
-23.220218
  0
LINE
  8
型材
  6
CONTINUOUS
 62
    32
 10
-168.455357
 20
-23.82005
 11
-169.35816
 21
-23.82005
  0
LINE
  8
型材
  6
CONTINUOUS
 62
    32
 10
-166.06098
 20
-23.82005
 11
-165.158177
 21
-23.82005
  0
LINE
  8
型材
  6
CONTINUOUS
 62
    32
 10
-167.558087
 20
-25.620125
 11
-166.958252
 21
-25.620125
  0
LINE
  8
型材
  6
CONTINUOUS
 62
    32
 10
-169.35816
 20
-23.220218
 11
-169.35816
 21
-23.820053
  0
LINE
  8
型材
  6
CONTINUOUS
 62
    32
 10
-165.158177
 20
-23.220218
 11
-165.158177
 21
-23.820053
  0
LINE
  8
型材
  6
CONTINUOUS
 62
    32
 10
-204.758177
 20
-23.220218
 11
-204.758177
 21
-23.820053
  0
LINE
  8
型材
  6
CONTINUOUS
 62
    32
 10
-208.95816
 20
-23.220218
 11
-208.95816
 21
-23.820053
  0
LINE
  8
型材
  6
CONTINUOUS
 62
    32
 10
-207.158087
 20
-25.620125
 11
-206.558252
 21
-25.620125
  0
LINE
  8
型材
  6
CONTINUOUS
 62
    32
 10
-205.66098
 20
-23.82005
 11
-204.758177
 21
-23.82005
  0
LINE
  8
型材
  6
CONTINUOUS
 62
    32
 10
-208.055357
 20
-23.82005
 11
-208.95816
 21
-23.82005
  0
LINE
  8
型材
  6
CONTINUOUS
 62
    32
 10
-208.055357
 20
-23.220218
 11
-208.95816
 21
-23.220218
  0
LINE
  8
型材
  6
CONTINUOUS
 62
    32
 10
-206.558252
 20
-25.620125
 11
-206.558252
 21
-24.71732
  0
LINE
  8
型材
  6
CONTINUOUS
 62
    32
 10
-207.158087
 20
-25.620125
 11
-207.158087
 21
-24.71732
  0
LINE
  8
型材
  6
CONTINUOUS
 62
    32
 10
-207.158087
 20
-21.420147
 11
-207.158087
 21
-22.322952
  0
LINE
  8
型材
  6
CONTINUOUS
 62
    32
 10
-207.158087
 20
-21.420147
 11
-206.558252
 21
-21.420147
  0
LINE
  8
型材
  6
CONTINUOUS
 62
    32
 10
-206.558252
 20
-21.420147
 11
-206.558252
 21
-22.322952
  0
LINE
  8
型材
  6
CONTINUOUS
 62
    32
 10
-205.66098
 20
-23.220218
 11
-204.758177
 21
-23.220218
  0
LINE
  8
型材
  6
DASHDOTX2
 62
    32
 10
-206.85817
 20
-29.520135
 11
-206.85817
 21
-17.520135
  0
LINE
  8
型材
  6
CONTINUOUS
 62
    32
 10
-199.05817
 20
-15.720135
 11
-199.05817
 21
-34.920135
  0
LINE
  8
型材
  6
CONTINUOUS
 62
    32
 10
-201.45817
 20
-15.720135
 11
-201.45817
 21
-34.920135
  0
ARC
  8
型材
  6
CONTINUOUS
 62
    32
 10
-115.655355
 20
-24.71732
 40
0.897268
 50
0.000022
 51
90.000066
  0
ARC
  8
型材
  6
CONTINUOUS
 62
    32
 10
-113.260984
 20
-24.71732
 40
0.897268
 50
90.000011
 51
180.000046
  0
CIRCLE
  8
型材
  6
CONTINUOUS
 62
    32
 10
-114.45817
 20
-23.520135
 40
4.14
  0
ARC
  8
型材
  6
CONTINUOUS
 62
    32
 10
-168.455358
 20
-24.71732
 40
0.897268
 50
0.000022
 51
90.000066
  0
ARC
  8
型材
  6
CONTINUOUS
 62
    32
 10
-166.06098
 20
-24.71732
 40
0.897268
 50
90.000011
 51
180.000046
  0
CIRCLE
  8
型材
  6
CONTINUOUS
 62
    32
 10
-167.25817
 20
-23.520135
 40
4.14
  0
ARC
  8
型材
  6
CONTINUOUS
 62
    32
 10
-100.060984
 20
-22.32295
 40
0.897268
 50
179.999978
 51
270.00003
  0
ARC
  8
型材
  6
CONTINUOUS
 62
    32
 10
-102.455354
 20
-22.32295
 40
0.897268
 50
269.999962
 51
360.000005
  0
ARC
  8
型材
  6
CONTINUOUS
 62
    32
 10
-102.455355
 20
-24.71732
 40
0.897268
 50
0.000022
 51
90.000066
  0
ARC
  8
型材
  6
CONTINUOUS
 62
    32
 10
-100.060984
 20
-24.71732
 40
0.897268
 50
90.000011
 51
180.000046
  0
CIRCLE
  8
型材
  6
CONTINUOUS
 62
    32
 10
-101.25817
 20
-23.520135
 40
4.14
  0
ARC
  8
型材
  6
CONTINUOUS
 62
    32
 10
-218.86098
 20
-22.32295
 40
0.897268
 50
179.999978
 51
270.00003
  0
ARC
  8
型材
  6
CONTINUOUS
 62
    32
 10
-221.255358
 20
-22.32295
 40
0.897268
 50
269.999962
 51
360.000005
  0
ARC
  8
型材
  6
CONTINUOUS
 62
    32
 10
-221.255358
 20
-24.71732
 40
0.897268
 50
0.000022
 51
90.000066
  0
ARC
  8
型材
  6
CONTINUOUS
 62
    32
 10
-218.86098
 20
-24.71732
 40
0.897268
 50
90.000011
 51
180.000046
  0
CIRCLE
  8
型材
  6
CONTINUOUS
 62
    32
 10
-220.05817
 20
-23.520135
 40
4.14
  0
ARC
  8
型材
  6
CONTINUOUS
 62
    32
 10
-152.860984
 20
-22.32295
 40
0.897268
 50
179.999978
 51
270.00003
  0
ARC
  8
型材
  6
CONTINUOUS
 62
    32
 10
-155.255354
 20
-22.32295
 40
0.897268
 50
269.999962
 51
360.000005
  0
ARC
  8
型材
  6
CONTINUOUS
 62
    32
 10
-155.255354
 20
-24.71732
 40
0.897268
 50
0.000022
 51
90.000066
  0
ARC
  8
型材
  6
CONTINUOUS
 62
    32
 10
-152.860984
 20
-24.71732
 40
0.897268
 50
90.000011
 51
180.000046
  0
CIRCLE
  8
型材
  6
CONTINUOUS
 62
    32
 10
-154.05817
 20
-23.520135
 40
4.14
  0
ARC
  8
型材
  6
CONTINUOUS
 62
    32
 10
-192.46098
 20
-22.32295
 40
0.897268
 50
179.999978
 51
270.00003
  0
ARC
  8
型材
  6
CONTINUOUS
 62
    32
 10
-194.855358
 20
-22.32295
 40
0.897268
 50
269.999962
 51
360.000005
  0
ARC
  8
型材
  6
CONTINUOUS
 62
    32
 10
-194.855358
 20
-24.71732
 40
0.897268
 50
0.000022
 51
90.000066
  0
ARC
  8
型材
  6
CONTINUOUS
 62
    32
 10
-192.46098
 20
-24.71732
 40
0.897268
 50
90.000011
 51
180.000046
  0
CIRCLE
  8
型材
  6
CONTINUOUS
 62
    32
 10
-193.65817
 20
-23.520135
 40
4.14
  0
ARC
  8
型材
  6
CONTINUOUS
 62
    32
 10
-179.26098
 20
-22.32295
 40
0.897268
 50
179.999978
 51
270.00003
  0
ARC
  8
型材
  6
CONTINUOUS
 62
    32
 10
-181.655358
 20
-22.32295
 40
0.897268
 50
269.999962
 51
360.000005
  0
ARC
  8
型材
  6
CONTINUOUS
 62
    32
 10
-181.655358
 20
-24.71732
 40
0.897268
 50
0.000022
 51
90.000066
  0
ARC
  8
型材
  6
CONTINUOUS
 62
    32
 10
-179.26098
 20
-24.71732
 40
0.897268
 50
90.000011
 51
180.000046
  0
CIRCLE
  8
型材
  6
CONTINUOUS
 62
    32
 10
-180.45817
 20
-23.520135
 40
4.14
  0
ARC
  8
型材
  6
CONTINUOUS
 62
    32
 10
-139.660984
 20
-22.32295
 40
0.897268
 50
179.999978
 51
270.00003
  0
ARC
  8
型材
  6
CONTINUOUS
 62
    32
 10
-142.055354
 20
-22.32295
 40
0.897268
 50
269.999962
 51
360.000005
  0
ARC
  8
型材
  6
CONTINUOUS
 62
    32
 10
-142.055354
 20
-24.71732
 40
0.897268
 50
0.000022
 51
90.000066
  0
ARC
  8
型材
  6
CONTINUOUS
 62
    32
 10
-139.660984
 20
-24.71732
 40
0.897268
 50
90.000011
 51
180.000046
  0
CIRCLE
  8
型材
  6
CONTINUOUS
 62
    32
 10
-140.85817
 20
-23.520135
 40
4.14
  0
ARC
  8
型材
  6
CONTINUOUS
 62
    32
 10
-126.460984
 20
-22.32295
 40
0.897268
 50
179.999978
 51
270.00003
  0
ARC
  8
型材
  6
CONTINUOUS
 62
    32
 10
-128.855354
 20
-22.32295
 40
0.897268
 50
269.999962
 51
360.000005
  0
ARC
  8
型材
  6
CONTINUOUS
 62
    32
 10
-128.855354
 20
-24.71732
 40
0.897268
 50
0.000022
 51
90.000066
  0
ARC
  8
型材
  6
CONTINUOUS
 62
    32
 10
-126.460984
 20
-24.71732
 40
0.897268
 50
90.000011
 51
180.000046
  0
CIRCLE
  8
型材
  6
CONTINUOUS
 62
    32
 10
-127.65817
 20
-23.520135
 40
4.14
  0
ARC
  8
型材
  6
CONTINUOUS
 62
    32
 10
-113.260984
 20
-22.32295
 40
0.897268
 50
179.999978
 51
270.00003
  0
ARC
  8
型材
  6
CONTINUOUS
 62
    32
 10
-115.655354
 20
-22.32295
 40
0.897268
 50
269.999962
 51
360.000005
  0
ARC
  8
型材
  6
CONTINUOUS
 62
    32
 10
-166.06098
 20
-22.32295
 40
0.897268
 50
179.999978
 51
270.00003
  0
ARC
  8
型材
  6
CONTINUOUS
 62
    32
 10
-168.455358
 20
-22.32295
 40
0.897268
 50
269.999962
 51
360.000005
  0
CIRCLE
  8
型材
  6
CONTINUOUS
 62
    32
 10
-206.85817
 20
-23.520135
 40
4.14
  0
ARC
  8
型材
  6
CONTINUOUS
 62
    32
 10
-205.66098
 20
-24.71732
 40
0.897268
 50
90.000011
 51
180.000046
  0
ARC
  8
型材
  6
CONTINUOUS
 62
    32
 10
-208.055358
 20
-24.71732
 40
0.897268
 50
0.000022
 51
90.000066
  0
ARC
  8
型材
  6
CONTINUOUS
 62
    32
 10
-208.055358
 20
-22.32295
 40
0.897268
 50
269.999962
 51
360.000005
  0
ARC
  8
型材
  6
CONTINUOUS
 62
    32
 10
-205.66098
 20
-22.32295
 40
0.897268
 50
179.999978
 51
270.00003
  0
POINT
  8
型材
 62
    32
 10
-214.658098
 20
-15.720128
  0
LINE
  8
型材
  6
CONTINUOUS
 62
    32
 10
-106.658097
 20
-15.720128
 11
-214.658098
 21
-15.720128
  0
LINE
  8
型材
  6
CONTINUOUS
 62
    32
 10
-214.658098
 20
-15.720128
 11
-214.658098
 21
16.35538
  0
LINE
  8
型材
  6
CONTINUOUS
 62
    32
 10
-214.658098
 20
16.35538
 11
-106.658097
 21
16.35538
  0
LINE
  8
型材
  6
CONTINUOUS
 62
    32
 10
-106.658097
 20
-15.720128
 11
-106.658097
 21
16.35538
  0
LINE
  8
型材
  6
DOT
 10
-76.924007
 20
25.711242
 11
-333.852578
 21
25.711242
  0
LINE
  8
型材
  6
DOT
 10
-333.852578
 20
25.711242
 11
-333.852578
 21
-48.358145
  0
LINE
  8
型材
  6
DOT
 10
-333.852578
 20
-48.358145
 11
-76.924007
 21
-48.358145
  0
LINE
  8
型材
  6
DOT
 10
-76.924007
 20
25.711242
 11
-76.924007
 21
-48.358145
  0
POINT
  8
型材
 62
    32
 10
196.20714
 20
-191.110477
  0
LINE
  8
型材
  6
CONTINUOUS
 62
    32
 10
135.60714
 20
-198.910477
 11
135.60714
 21
-179.710477
  0
LINE
  8
型材
  6
CONTINUOUS
 62
    32
 10
188.40714
 20
-198.910477
 11
188.40714
 21
-179.710477
  0
LINE
  8
型材
  6
CONTINUOUS
 62
    32
 10
138.00714
 20
-198.910477
 11
138.00714
 21
-179.710477
  0
LINE
  8
型材
  6
CONTINUOUS
 62
    32
 10
148.80714
 20
-198.910477
 11
148.80714
 21
-179.710477
  0
LINE
  8
型材
  6
CONTINUOUS
 62
    32
 10
151.20714
 20
-198.910477
 11
151.20714
 21
-179.710477
  0
LINE
  8
型材
  6
CONTINUOUS
 62
    32
 10
190.80714
 20
-198.910477
 11
190.80714
 21
-179.710477
  0
LINE
  8
型材
  6
CONTINUOUS
 62
    32
 10
162.00714
 20
-198.910477
 11
162.00714
 21
-179.710477
  0
LINE
  8
型材
  6
CONTINUOUS
 62
    32
 10
164.40714
 20
-198.910477
 11
164.40714
 21
-179.710477
  0
LINE
  8
型材
  6
CONTINUOUS
 62
    32
 10
177.60714
 20
-198.910477
 11
177.60714
 21
-179.710477
  0
LINE
  8
型材
  6
CONTINUOUS
 62
    32
 10
175.20714
 20
-198.910477
 11
175.20714
 21
-179.710477
  0
LINE
  8
型材
  6
CONTINUOUS
 62
    32
 10
201.60714
 20
-179.710477
 11
201.60714
 21
-198.910477
  0
LINE
  8
型材
  6
DASHDOTX2
 62
    32
 10
196.20714
 20
-185.110477
 11
196.20714
 21
-197.110477
  0
LINE
  8
型材
  6
DASHDOTX2
 62
    32
 10
183.00714
 20
-185.110477
 11
183.00714
 21
-197.110477
  0
LINE
  8
型材
  6
DASHDOTX2
 62
    32
 10
169.80714
 20
-185.110477
 11
169.80714
 21
-197.110477
  0
LINE
  8
型材
  6
DASHDOTX2
 62
    32
 10
156.60714
 20
-185.110477
 11
156.60714
 21
-197.110477
  0
LINE
  8
型材
  6
DASHDOTX2
 62
    32
 10
143.40714
 20
-185.110477
 11
143.40714
 21
-197.110477
  0
LINE
  8
型材
  6
CONTINUOUS
 62
    32
 10
124.80714
 20
-198.910477
 11
124.80714
 21
-179.710477
  0
LINE
  8
型材
  6
CONTINUOUS
 62
    32
 10
122.40714
 20
-198.910477
 11
122.40714
 21
-179.710477
  0
LINE
  8
型材
  6
DASHDOTX2
 62
    32
 10
130.20714
 20
-185.110477
 11
130.20714
 21
-197.110477
  0
LINE
  8
型材
  6
DASHDOTX2
 62
    32
 10
117.00714
 20
-185.110477
 11
117.00714
 21
-197.110477
  0
LINE
  8
型材
  6
CONTINUOUS
 62
    32
 10
197.404327
 20
-191.410395
 11
198.307133
 21
-191.410395
  0
LINE
  8
型材
  6
CONTINUOUS
 62
    32
 10
196.507057
 20
-193.210465
 11
196.507057
 21
-192.30766
  0
LINE
  8
型材
  6
CONTINUOUS
 62
    32
 10
195.907225
 20
-193.210465
 11
196.507057
 21
-193.210465
  0
LINE
  8
型材
  6
CONTINUOUS
 62
    32
 10
195.907225
 20
-193.210465
 11
195.907225
 21
-192.30766
  0
LINE
  8
型材
  6
CONTINUOUS
 62
    32
 10
195.907225
 20
-189.010488
 11
195.907225
 21
-189.913292
  0
LINE
  8
型材
  6
CONTINUOUS
 62
    32
 10
196.507057
 20
-189.010488
 11
196.507057
 21
-189.913292
  0
LINE
  8
型材
  6
CONTINUOUS
 62
    32
 10
195.009955
 20
-191.410395
 11
194.10715
 21
-191.410395
  0
LINE
  8
型材
  6
CONTINUOUS
 62
    32
 10
195.009955
 20
-190.810563
 11
194.10715
 21
-190.810563
  0
LINE
  8
型材
  6
CONTINUOUS
 62
    32
 10
197.404322
 20
-190.810563
 11
198.307133
 21
-190.810563
  0
LINE
  8
型材
  6
CONTINUOUS
 62
    32
 10
195.907225
 20
-189.010488
 11
196.507057
 21
-189.010488
  0
LINE
  8
型材
  6
CONTINUOUS
 62
    32
 10
194.10715
 20
-191.410395
 11
194.10715
 21
-190.81056
  0
LINE
  8
型材
  6
CONTINUOUS
 62
    32
 10
198.307133
 20
-191.410395
 11
198.307133
 21
-190.81056
  0
LINE
  8
型材
  6
CONTINUOUS
 62
    32
 10
144.604322
 20
-191.410395
 11
145.507133
 21
-191.410395
  0
LINE
  8
型材
  6
CONTINUOUS
 62
    32
 10
143.707057
 20
-193.210465
 11
143.707057
 21
-192.30766
  0
LINE
  8
型材
  6
CONTINUOUS
 62
    32
 10
143.107222
 20
-193.210465
 11
143.707057
 21
-193.210465
  0
LINE
  8
型材
  6
CONTINUOUS
 62
    32
 10
143.107222
 20
-193.210465
 11
143.107222
 21
-192.30766
  0
LINE
  8
型材
  6
CONTINUOUS
 62
    32
 10
143.107222
 20
-189.010488
 11
143.107222
 21
-189.913292
  0
LINE
  8
型材
  6
CONTINUOUS
 62
    32
 10
143.707057
 20
-189.010488
 11
143.707057
 21
-189.913292
  0
LINE
  8
型材
  6
CONTINUOUS
 62
    32
 10
118.20433
 20
-191.410395
 11
119.107133
 21
-191.410395
  0
LINE
  8
型材
  6
CONTINUOUS
 62
    32
 10
117.307057
 20
-193.210465
 11
117.307057
 21
-192.30766
  0
LINE
  8
型材
  6
CONTINUOUS
 62
    32
 10
116.707222
 20
-193.210465
 11
117.307057
 21
-193.210465
  0
LINE
  8
型材
  6
CONTINUOUS
 62
    32
 10
116.707222
 20
-193.210465
 11
116.707222
 21
-192.30766
  0
LINE
  8
型材
  6
CONTINUOUS
 62
    32
 10
116.707222
 20
-189.010488
 11
116.707222
 21
-189.913292
  0
LINE
  8
型材
  6
CONTINUOUS
 62
    32
 10
117.307057
 20
-189.010488
 11
117.307057
 21
-189.913292
  0
LINE
  8
型材
  6
CONTINUOUS
 62
    32
 10
115.809952
 20
-191.410395
 11
114.90715
 21
-191.410395
  0
LINE
  8
型材
  6
CONTINUOUS
 62
    32
 10
115.809952
 20
-190.810563
 11
114.90715
 21
-190.810563
  0
LINE
  8
型材
  6
CONTINUOUS
 62
    32
 10
118.20433
 20
-190.810563
 11
119.107133
 21
-190.810563
  0
LINE
  8
型材
  6
CONTINUOUS
 62
    32
 10
116.707222
 20
-189.010488
 11
117.307057
 21
-189.010488
  0
LINE
  8
型材
  6
CONTINUOUS
 62
    32
 10
114.90715
 20
-191.410395
 11
114.90715
 21
-190.81056
  0
LINE
  8
型材
  6
CONTINUOUS
 62
    32
 10
119.107133
 20
-191.410395
 11
119.107133
 21
-190.81056
  0
LINE
  8
型材
  6
CONTINUOUS
 62
    32
 10
142.209955
 20
-191.410395
 11
141.30715
 21
-191.410395
  0
LINE
  8
型材
  6
CONTINUOUS
 62
    32
 10
142.209955
 20
-190.810563
 11
141.30715
 21
-190.810563
  0
LINE
  8
型材
  6
CONTINUOUS
 62
    32
 10
144.604322
 20
-190.810563
 11
145.507133
 21
-190.810563
  0
LINE
  8
型材
  6
CONTINUOUS
 62
    32
 10
143.107222
 20
-189.010488
 11
143.707057
 21
-189.010488
  0
LINE
  8
型材
  6
CONTINUOUS
 62
    32
 10
141.30715
 20
-191.410395
 11
141.30715
 21
-190.81056
  0
LINE
  8
型材
  6
CONTINUOUS
 62
    32
 10
145.507133
 20
-191.410395
 11
145.507133
 21
-190.81056
  0
LINE
  8
型材
  6
CONTINUOUS
 62
    32
 10
157.804322
 20
-191.410395
 11
158.707133
 21
-191.410395
  0
LINE
  8
型材
  6
CONTINUOUS
 62
    32
 10
156.907057
 20
-193.210465
 11
156.907057
 21
-192.30766
  0
LINE
  8
型材
  6
CONTINUOUS
 62
    32
 10
156.307225
 20
-193.210465
 11
156.907057
 21
-193.210465
  0
LINE
  8
型材
  6
CONTINUOUS
 62
    32
 10
156.307222
 20
-193.210465
 11
156.307222
 21
-192.30766
  0
LINE
  8
型材
  6
CONTINUOUS
 62
    32
 10
156.307222
 20
-189.010488
 11
156.307222
 21
-189.913292
  0
LINE
  8
型材
  6
CONTINUOUS
 62
    32
 10
156.907057
 20
-189.010488
 11
156.907057
 21
-189.913292
  0
LINE
  8
型材
  6
CONTINUOUS
 62
    32
 10
155.409955
 20
-191.410395
 11
154.50715
 21
-191.410395
  0
LINE
  8
型材
  6
CONTINUOUS
 62
    32
 10
155.409955
 20
-190.810563
 11
154.50715
 21
-190.810563
  0
LINE
  8
型材
  6
CONTINUOUS
 62
    32
 10
157.804322
 20
-190.810563
 11
158.707133
 21
-190.810563
  0
LINE
  8
型材
  6
CONTINUOUS
 62
    32
 10
156.307222
 20
-189.010488
 11
156.907057
 21
-189.010488
  0
LINE
  8
型材
  6
CONTINUOUS
 62
    32
 10
154.50715
 20
-191.410395
 11
154.50715
 21
-190.81056
  0
LINE
  8
型材
  6
CONTINUOUS
 62
    32
 10
158.707133
 20
-191.410395
 11
158.707133
 21
-190.81056
  0
LINE
  8
型材
  6
CONTINUOUS
 62
    32
 10
171.004322
 20
-191.410395
 11
171.907133
 21
-191.410395
  0
LINE
  8
型材
  6
CONTINUOUS
 62
    32
 10
170.107057
 20
-193.210465
 11
170.107057
 21
-192.30766
  0
LINE
  8
型材
  6
CONTINUOUS
 62
    32
 10
169.507225
 20
-193.210465
 11
170.107057
 21
-193.210465
  0
LINE
  8
型材
  6
CONTINUOUS
 62
    32
 10
169.507222
 20
-193.210465
 11
169.507222
 21
-192.30766
  0
LINE
  8
型材
  6
CONTINUOUS
 62
    32
 10
169.507222
 20
-189.010488
 11
169.507222
 21
-189.913292
  0
LINE
  8
型材
  6
CONTINUOUS
 62
    32
 10
170.107057
 20
-189.010488
 11
170.107057
 21
-189.913292
  0
LINE
  8
型材
  6
CONTINUOUS
 62
    32
 10
168.609955
 20
-191.410395
 11
167.70715
 21
-191.410395
  0
LINE
  8
型材
  6
CONTINUOUS
 62
    32
 10
168.609955
 20
-190.810563
 11
167.70715
 21
-190.810563
  0
LINE
  8
型材
  6
CONTINUOUS
 62
    32
 10
171.004322
 20
-190.810563
 11
171.907133
 21
-190.810563
  0
LINE
  8
型材
  6
CONTINUOUS
 62
    32
 10
169.507222
 20
-189.010488
 11
170.107057
 21
-189.010488
  0
LINE
  8
型材
  6
CONTINUOUS
 62
    32
 10
167.70715
 20
-191.410395
 11
167.70715
 21
-190.81056
  0
LINE
  8
型材
  6
CONTINUOUS
 62
    32
 10
171.907133
 20
-191.410395
 11
171.907133
 21
-190.81056
  0
LINE
  8
型材
  6
CONTINUOUS
 62
    32
 10
184.204322
 20
-191.410395
 11
185.107128
 21
-191.410395
  0
LINE
  8
型材
  6
CONTINUOUS
 62
    32
 10
183.307057
 20
-193.210465
 11
183.307057
 21
-192.30766
  0
LINE
  8
型材
  6
CONTINUOUS
 62
    32
 10
182.707225
 20
-193.210465
 11
183.307057
 21
-193.210465
  0
LINE
  8
型材
  6
CONTINUOUS
 62
    32
 10
182.707225
 20
-193.210465
 11
182.707225
 21
-192.30766
  0
LINE
  8
型材
  6
CONTINUOUS
 62
    32
 10
182.707225
 20
-189.010488
 11
182.707225
 21
-189.913292
  0
LINE
  8
型材
  6
CONTINUOUS
 62
    32
 10
183.307057
 20
-189.010488
 11
183.307057
 21
-189.913292
  0
LINE
  8
型材
  6
CONTINUOUS
 62
    32
 10
181.809955
 20
-191.410395
 11
180.90715
 21
-191.410395
  0
LINE
  8
型材
  6
CONTINUOUS
 62
    32
 10
181.809955
 20
-190.810563
 11
180.90715
 21
-190.810563
  0
LINE
  8
型材
  6
CONTINUOUS
 62
    32
 10
184.204322
 20
-190.810563
 11
185.107128
 21
-190.810563
  0
LINE
  8
型材
  6
CONTINUOUS
 62
    32
 10
182.707225
 20
-189.010488
 11
183.307057
 21
-189.010488
  0
LINE
  8
型材
  6
CONTINUOUS
 62
    32
 10
180.90715
 20
-191.410395
 11
180.90715
 21
-190.81056
  0
LINE
  8
型材
  6
CONTINUOUS
 62
    32
 10
185.107128
 20
-191.410395
 11
185.107128
 21
-190.81056
  0
LINE
  8
型材
  6
DASHDOTX2
 62
    32
 10
72.60714
 20
-191.110477
 11
201.60714
 21
-191.110477
  0
LINE
  8
型材
  6
CONTINUOUS
 62
    32
 10
131.40433
 20
-191.410395
 11
132.307133
 21
-191.410395
  0
LINE
  8
型材
  6
CONTINUOUS
 62
    32
 10
130.507057
 20
-193.210465
 11
130.507057
 21
-192.30766
  0
LINE
  8
型材
  6
CONTINUOUS
 62
    32
 10
129.907222
 20
-193.210465
 11
130.507057
 21
-193.210465
  0
LINE
  8
型材
  6
CONTINUOUS
 62
    32
 10
129.907222
 20
-193.210465
 11
129.907222
 21
-192.30766
  0
LINE
  8
型材
  6
CONTINUOUS
 62
    32
 10
129.907222
 20
-189.010488
 11
129.907222
 21
-189.913292
  0
LINE
  8
型材
  6
CONTINUOUS
 62
    32
 10
130.507057
 20
-189.010488
 11
130.507057
 21
-189.913292
  0
LINE
  8
型材
  6
CONTINUOUS
 62
    32
 10
129.009952
 20
-191.410395
 11
128.10715
 21
-191.410395
  0
LINE
  8
型材
  6
CONTINUOUS
 62
    32
 10
129.009952
 20
-190.810563
 11
128.10715
 21
-190.810563
  0
LINE
  8
型材
  6
CONTINUOUS
 62
    32
 10
131.40433
 20
-190.810563
 11
132.307133
 21
-190.810563
  0
LINE
  8
型材
  6
CONTINUOUS
 62
    32
 10
129.907222
 20
-189.010488
 11
130.507057
 21
-189.010488
  0
LINE
  8
型材
  6
CONTINUOUS
 62
    32
 10
128.10715
 20
-191.410395
 11
128.10715
 21
-190.81056
  0
LINE
  8
型材
  6
CONTINUOUS
 62
    32
 10
132.307133
 20
-191.410395
 11
132.307133
 21
-190.81056
  0
ARC
  8
型材
  6
CONTINUOUS
 62
    32
 10
181.809955
 20
-189.913292
 40
0.897268
 50
269.999934
 51
359.999978
  0
ARC
  8
型材
  6
CONTINUOUS
 62
    32
 10
184.204325
 20
-189.913292
 40
0.897268
 50
179.999954
 51
269.999989
  0
CIRCLE
  8
型材
  6
CONTINUOUS
 62
    32
 10
183.00714
 20
-191.110477
 40
4.14
  0
ARC
  8
型材
  6
CONTINUOUS
 62
    32
 10
129.009951
 20
-189.913292
 40
0.897268
 50
269.999934
 51
359.999978
  0
ARC
  8
型材
  6
CONTINUOUS
 62
    32
 10
131.40433
 20
-189.913292
 40
0.897268
 50
179.999954
 51
269.999989
  0
CIRCLE
  8
型材
  6
CONTINUOUS
 62
    32
 10
130.20714
 20
-191.110477
 40
4.14
  0
ARC
  8
型材
  6
CONTINUOUS
 62
    32
 10
197.404326
 20
-192.307662
 40
0.897268
 50
89.99997
 51
180.000022
  0
ARC
  8
型材
  6
CONTINUOUS
 62
    32
 10
195.009955
 20
-192.307662
 40
0.897268
 50
359.999995
 51
450.000038
  0
ARC
  8
型材
  6
CONTINUOUS
 62
    32
 10
195.009955
 20
-189.913292
 40
0.897268
 50
269.999934
 51
359.999978
  0
ARC
  8
型材
  6
CONTINUOUS
 62
    32
 10
197.404325
 20
-189.913292
 40
0.897268
 50
179.999954
 51
269.999989
  0
CIRCLE
  8
型材
  6
CONTINUOUS
 62
    32
 10
196.20714
 20
-191.110477
 40
4.14
  0
ARC
  8
型材
  6
CONTINUOUS
 62
    32
 10
144.604325
 20
-192.307662
 40
0.897268
 50
89.99997
 51
180.000022
  0
ARC
  8
型材
  6
CONTINUOUS
 62
    32
 10
142.209956
 20
-192.307662
 40
0.897268
 50
359.999995
 51
450.000038
  0
ARC
  8
型材
  6
CONTINUOUS
 62
    32
 10
142.209956
 20
-189.913292
 40
0.897268
 50
269.999934
 51
359.999978
  0
ARC
  8
型材
  6
CONTINUOUS
 62
    32
 10
144.604325
 20
-189.913292
 40
0.897268
 50
179.999954
 51
269.999989
  0
CIRCLE
  8
型材
  6
CONTINUOUS
 62
    32
 10
143.40714
 20
-191.110477
 40
4.14
  0
ARC
  8
型材
  6
CONTINUOUS
 62
    32
 10
118.20433
 20
-192.307662
 40
0.897268
 50
89.99997
 51
180.000022
  0
ARC
  8
型材
  6
CONTINUOUS
 62
    32
 10
115.809951
 20
-192.307662
 40
0.897268
 50
359.999995
 51
450.000038
  0
ARC
  8
型材
  6
CONTINUOUS
 62
    32
 10
115.809951
 20
-189.913292
 40
0.897268
 50
269.999934
 51
359.999978
  0
ARC
  8
型材
  6
CONTINUOUS
 62
    32
 10
118.20433
 20
-189.913292
 40
0.897268
 50
179.999954
 51
269.999989
  0
CIRCLE
  8
型材
  6
CONTINUOUS
 62
    32
 10
117.00714
 20
-191.110477
 40
4.14
  0
ARC
  8
型材
  6
CONTINUOUS
 62
    32
 10
157.804325
 20
-192.307662
 40
0.897268
 50
89.99997
 51
180.000022
  0
ARC
  8
型材
  6
CONTINUOUS
 62
    32
 10
155.409956
 20
-192.307662
 40
0.897268
 50
359.999995
 51
450.000038
  0
ARC
  8
型材
  6
CONTINUOUS
 62
    32
 10
155.409956
 20
-189.913292
 40
0.897268
 50
269.999934
 51
359.999978
  0
ARC
  8
型材
  6
CONTINUOUS
 62
    32
 10
157.804325
 20
-189.913292
 40
0.897268
 50
179.999954
 51
269.999989
  0
CIRCLE
  8
型材
  6
CONTINUOUS
 62
    32
 10
156.60714
 20
-191.110477
 40
4.14
  0
ARC
  8
型材
  6
CONTINUOUS
 62
    32
 10
171.004325
 20
-192.307662
 40
0.897268
 50
89.99997
 51
180.000022
  0
ARC
  8
型材
  6
CONTINUOUS
 62
    32
 10
168.609956
 20
-192.307662
 40
0.897268
 50
359.999995
 51
450.000038
  0
ARC
  8
型材
  6
CONTINUOUS
 62
    32
 10
168.609956
 20
-189.913292
 40
0.897268
 50
269.999934
 51
359.999978
  0
ARC
  8
型材
  6
CONTINUOUS
 62
    32
 10
171.004325
 20
-189.913292
 40
0.897268
 50
179.999954
 51
269.999989
  0
CIRCLE
  8
型材
  6
CONTINUOUS
 62
    32
 10
169.80714
 20
-191.110477
 40
4.14
  0
ARC
  8
型材
  6
CONTINUOUS
 62
    32
 10
184.204325
 20
-192.307662
 40
0.897268
 50
89.99997
 51
180.000022
  0
ARC
  8
型材
  6
CONTINUOUS
 62
    32
 10
181.809956
 20
-192.307662
 40
0.897268
 50
359.999995
 51
450.000038
  0
ARC
  8
型材
  6
CONTINUOUS
 62
    32
 10
131.40433
 20
-192.307662
 40
0.897268
 50
89.99997
 51
180.000022
  0
ARC
  8
型材
  6
CONTINUOUS
 62
    32
 10
129.009951
 20
-192.307662
 40
0.897268
 50
359.999995
 51
450.000038
  0
LINE
  8
型材
  6
CONTINUOUS
 62
    32
 10
190.807213
 20
-198.910485
 11
190.807213
 21
-230.985992
  0
LINE
  8
型材
  6
DOT
 10
220.541302
 20
-170.621943
 11
220.541302
 21
-238.979085
  0
POINT
  8
型材
 62
    32
 10
90.60714
 20
-191.110477
  0
LINE
  8
型材
  6
CONTINUOUS
 62
    32
 10
85.20714
 20
-198.910477
 11
85.20714
 21
-179.710477
  0
LINE
  8
型材
  6
CONTINUOUS
 62
    32
 10
109.20714
 20
-198.910477
 11
109.20714
 21
-179.710477
  0
LINE
  8
型材
  6
CONTINUOUS
 62
    32
 10
111.60714
 20
-198.910477
 11
111.60714
 21
-179.710477
  0
LINE
  8
型材
  6
CONTINUOUS
 62
    32
 10
72.00714
 20
-179.710477
 11
72.00714
 21
-198.910477
  0
LINE
  8
型材
  6
DASHDOTX2
 62
    32
 10
103.80714
 20
-185.110477
 11
103.80714
 21
-197.110477
  0
LINE
  8
型材
  6
DASHDOTX2
 62
    32
 10
77.40714
 20
-185.110477
 11
77.40714
 21
-197.110477
  0
LINE
  8
型材
  6
CONTINUOUS
 62
    32
 10
78.60433
 20
-191.410395
 11
79.507133
 21
-191.410395
  0
LINE
  8
型材
  6
CONTINUOUS
 62
    32
 10
77.707057
 20
-193.210465
 11
77.707057
 21
-192.30766
  0
LINE
  8
型材
  6
CONTINUOUS
 62
    32
 10
77.107222
 20
-193.210465
 11
77.707057
 21
-193.210465
  0
LINE
  8
型材
  6
CONTINUOUS
 62
    32
 10
77.107222
 20
-193.210465
 11
77.107222
 21
-192.30766
  0
LINE
  8
型材
  6
CONTINUOUS
 62
    32
 10
77.107222
 20
-189.010488
 11
77.107222
 21
-189.913292
  0
LINE
  8
型材
  6
CONTINUOUS
 62
    32
 10
77.707057
 20
-189.010488
 11
77.707057
 21
-189.913292
  0
LINE
  8
型材
  6
CONTINUOUS
 62
    32
 10
76.209952
 20
-191.410395
 11
75.30715
 21
-191.410395
  0
LINE
  8
型材
  6
CONTINUOUS
 62
    32
 10
76.209952
 20
-190.810563
 11
75.30715
 21
-190.810563
  0
LINE
  8
型材
  6
CONTINUOUS
 62
    32
 10
78.60433
 20
-190.810563
 11
79.507133
 21
-190.810563
  0
LINE
  8
型材
  6
CONTINUOUS
 62
    32
 10
77.107222
 20
-189.010488
 11
77.707057
 21
-189.010488
  0
LINE
  8
型材
  6
CONTINUOUS
 62
    32
 10
75.30715
 20
-191.410395
 11
75.30715
 21
-190.81056
  0
LINE
  8
型材
  6
CONTINUOUS
 62
    32
 10
79.507133
 20
-191.410395
 11
79.507133
 21
-190.81056
  0
LINE
  8
型材
  6
CONTINUOUS
 62
    32
 10
105.00433
 20
-191.410395
 11
105.907133
 21
-191.410395
  0
LINE
  8
型材
  6
CONTINUOUS
 62
    32
 10
104.107057
 20
-193.210465
 11
104.107057
 21
-192.30766
  0
LINE
  8
型材
  6
CONTINUOUS
 62
    32
 10
103.507222
 20
-193.210465
 11
104.107057
 21
-193.210465
  0
LINE
  8
型材
  6
CONTINUOUS
 62
    32
 10
103.507222
 20
-193.210465
 11
103.507222
 21
-192.30766
  0
LINE
  8
型材
  6
CONTINUOUS
 62
    32
 10
103.507222
 20
-189.010488
 11
103.507222
 21
-189.913292
  0
LINE
  8
型材
  6
CONTINUOUS
 62
    32
 10
104.107057
 20
-189.010488
 11
104.107057
 21
-189.913292
  0
LINE
  8
型材
  6
CONTINUOUS
 62
    32
 10
102.609952
 20
-191.410395
 11
101.70715
 21
-191.410395
  0
LINE
  8
型材
  6
CONTINUOUS
 62
    32
 10
102.609952
 20
-190.810563
 11
101.70715
 21
-190.810563
  0
LINE
  8
型材
  6
CONTINUOUS
 62
    32
 10
105.00433
 20
-190.810563
 11
105.907133
 21
-190.810563
  0
LINE
  8
型材
  6
CONTINUOUS
 62
    32
 10
103.507222
 20
-189.010488
 11
104.107057
 21
-189.010488
  0
LINE
  8
型材
  6
CONTINUOUS
 62
    32
 10
101.70715
 20
-191.410395
 11
101.70715
 21
-190.81056
  0
LINE
  8
型材
  6
CONTINUOUS
 62
    32
 10
105.907133
 20
-191.410395
 11
105.907133
 21
-190.81056
  0
LINE
  8
型材
  6
CONTINUOUS
 62
    32
 10
92.707133
 20
-191.410395
 11
92.707133
 21
-190.81056
  0
LINE
  8
型材
  6
CONTINUOUS
 62
    32
 10
88.50715
 20
-191.410395
 11
88.50715
 21
-190.81056
  0
LINE
  8
型材
  6
CONTINUOUS
 62
    32
 10
90.307222
 20
-189.010488
 11
90.907057
 21
-189.010488
  0
LINE
  8
型材
  6
CONTINUOUS
 62
    32
 10
91.80433
 20
-190.810563
 11
92.707133
 21
-190.810563
  0
LINE
  8
型材
  6
CONTINUOUS
 62
    32
 10
89.409952
 20
-190.810563
 11
88.50715
 21
-190.810563
  0
LINE
  8
型材
  6
CONTINUOUS
 62
    32
 10
89.409952
 20
-191.410395
 11
88.50715
 21
-191.410395
  0
LINE
  8
型材
  6
CONTINUOUS
 62
    32
 10
90.907057
 20
-189.010488
 11
90.907057
 21
-189.913292
  0
LINE
  8
型材
  6
CONTINUOUS
 62
    32
 10
90.307222
 20
-189.010488
 11
90.307222
 21
-189.913292
  0
LINE
  8
型材
  6
CONTINUOUS
 62
    32
 10
90.307222
 20
-193.210465
 11
90.307222
 21
-192.30766
  0
LINE
  8
型材
  6
CONTINUOUS
 62
    32
 10
90.307222
 20
-193.210465
 11
90.907057
 21
-193.210465
  0
LINE
  8
型材
  6
CONTINUOUS
 62
    32
 10
90.907057
 20
-193.210465
 11
90.907057
 21
-192.30766
  0
LINE
  8
型材
  6
CONTINUOUS
 62
    32
 10
91.80433
 20
-191.410395
 11
92.707133
 21
-191.410395
  0
LINE
  8
型材
  6
DASHDOTX2
 62
    32
 10
90.60714
 20
-185.110477
 11
90.60714
 21
-197.110477
  0
LINE
  8
型材
  6
CONTINUOUS
 62
    32
 10
98.40714
 20
-198.910477
 11
98.40714
 21
-179.710477
  0
LINE
  8
型材
  6
CONTINUOUS
 62
    32
 10
96.00714
 20
-198.910477
 11
96.00714
 21
-179.710477
  0
ARC
  8
型材
  6
CONTINUOUS
 62
    32
 10
78.60433
 20
-192.307662
 40
0.897268
 50
89.99997
 51
180.000022
  0
ARC
  8
型材
  6
CONTINUOUS
 62
    32
 10
76.209951
 20
-192.307662
 40
0.897268
 50
359.999995
 51
450.000038
  0
ARC
  8
型材
  6
CONTINUOUS
 62
    32
 10
76.209951
 20
-189.913292
 40
0.897268
 50
269.999934
 51
359.999978
  0
ARC
  8
型材
  6
CONTINUOUS
 62
    32
 10
78.60433
 20
-189.913292
 40
0.897268
 50
179.999954
 51
269.999989
  0
CIRCLE
  8
型材
  6
CONTINUOUS
 62
    32
 10
77.40714
 20
-191.110477
 40
4.14
  0
ARC
  8
型材
  6
CONTINUOUS
 62
    32
 10
105.00433
 20
-192.307662
 40
0.897268
 50
89.99997
 51
180.000022
  0
ARC
  8
型材
  6
CONTINUOUS
 62
    32
 10
102.609951
 20
-192.307662
 40
0.897268
 50
359.999995
 51
450.000038
  0
ARC
  8
型材
  6
CONTINUOUS
 62
    32
 10
102.609951
 20
-189.913292
 40
0.897268
 50
269.999934
 51
359.999978
  0
ARC
  8
型材
  6
CONTINUOUS
 62
    32
 10
105.00433
 20
-189.913292
 40
0.897268
 50
179.999954
 51
269.999989
  0
CIRCLE
  8
型材
  6
CONTINUOUS
 62
    32
 10
103.80714
 20
-191.110477
 40
4.14
  0
CIRCLE
  8
型材
  6
CONTINUOUS
 62
    32
 10
90.60714
 20
-191.110477
 40
4.14
  0
ARC
  8
型材
  6
CONTINUOUS
 62
    32
 10
91.80433
 20
-189.913292
 40
0.897268
 50
179.999954
 51
269.999989
  0
ARC
  8
型材
  6
CONTINUOUS
 62
    32
 10
89.409951
 20
-189.913292
 40
0.897268
 50
269.999934
 51
359.999978
  0
ARC
  8
型材
  6
CONTINUOUS
 62
    32
 10
89.409951
 20
-192.307662
 40
0.897268
 50
359.999995
 51
450.000038
  0
ARC
  8
型材
  6
CONTINUOUS
 62
    32
 10
91.80433
 20
-192.307662
 40
0.897268
 50
89.99997
 51
180.000022
  0
POINT
  8
型材
 62
    32
 10
82.807213
 20
-198.910485
  0
LINE
  8
型材
  6
CONTINUOUS
 62
    32
 10
82.80714
 20
-179.710477
 11
82.80714
 21
-230.985992
  0
LINE
  8
型材
  6
CONTINUOUS
 62
    32
 10
201.60714
 20
-179.710477
 11
72.00714
 21
-179.710477
  0
LINE
  8
型材
  6
CONTINUOUS
 62
    32
 10
201.60714
 20
-198.910477
 11
72.00714
 21
-198.910477
  0
LINE
  8
型材
  6
CONTINUOUS
 62
    32
 10
190.807213
 20
-198.910485
 11
72.00714
 21
-198.910485
  0
LINE
  8
型材
  6
CONTINUOUS
 62
    32
 10
190.807213
 20
-230.985992
 11
82.80714
 21
-230.985992
  0
LINE
  8
型材
  6
DOT
 10
53.036893
 20
-170.621943
 11
53.036893
 21
-238.979085
  0
LINE
  8
型材
  6
DOT
 10
220.541302
 20
-170.621943
 11
53.036893
 21
-170.621943
  0
LINE
  8
型材
  6
DOT
 10
220.541302
 20
-238.979085
 11
53.036893
 21
-238.979085
  0
CIRCLE
  8
型材
 62
    32
 10
259.163042
 20
36.45326
 40
6.183842
  0
ARC
  8
型材
 62
    32
 10
261.095498
 20
36.453256
 40
1.932453
 50
180.0
 51
360.0
  0
ARC
  8
型材
 62
    32
 10
257.230594
 20
36.453256
 40
1.932453
 50
0.0
 51
180.0
  0
CIRCLE
  8
型材
 62
    32
 10
232.763042
 20
149.695812
 40
6.183842
  0
ARC
  8
型材
 62
    32
 10
234.695498
 20
149.695808
 40
1.932453
 50
180.0
 51
360.0
  0
ARC
  8
型材
 62
    32
 10
230.830594
 20
149.695808
 40
1.932453
 50
0.0
 51
180.0
  0
TEXT
  7
TextStyle03
  8
文字
  6
CONTINUOUS
 10
237.8
 20
-272.95
  1
1
 40
4.0
 72
     5
 11
239.8
 21
-272.95
  0
TEXT
  7
TextStyle03
  8
文字
  6
CONTINUOUS
 10
246.15
 20
-272.95
  1
2
 40
4.0
 72
     5
 11
248.15
 21
-272.95
  0
TEXT
  7
TextStyle03
  8
文字
  6
CONTINUOUS
 10
161.675
 20
185.425
  1
灰
 40
6.0
 72
     5
 11
167.675
 21
185.425
  0
TEXT
  7
TextStyle03
  8
文字
  6
CONTINUOUS
 10
148.675
 20
185.425
  1
灰
 40
6.0
 72
     5
 11
154.675
 21
185.425
  0
TEXT
  7
TextStyle03
  8
文字
  6
CONTINUOUS
 10
-35.7
 20
185.425
  1
白
 40
6.0
 72
     5
 11
-29.7
 21
185.425
  0
TEXT
  7
TextStyle03
  8
文字
  6
CONTINUOUS
 10
-22.7
 20
185.425
  1
赤
 40
6.0
 72
     5
 11
-16.7
 21
185.425
  0
TEXT
  7
TextStyle03
  8
文字
  6
CONTINUOUS
 10
-35.7
 20
193.5
  1
－
 40
6.0
 72
     5
 11
-29.7
 21
193.5
  0
TEXT
  7
TextStyle03
  8
文字
  6
CONTINUOUS
 10
-22.7
 20
193.5
  1
＋
 40
6.0
 72
     5
 11
-16.7
 21
193.5
  0
TEXT
  7
TextStyle03
  8
文字
  6
CONTINUOUS
 10
-34.375
 20
201.7
  1
DC24V
 40
6.0
 72
     5
 11
-17.875
 21
201.7
  0
TEXT
  7
TextStyle03
  8
文字
  6
CONTINUOUS
 10
-9.3
 20
185.425
  1
白
 40
6.0
 72
     5
 11
-3.3
 21
185.425
  0
TEXT
  7
TextStyle03
  8
文字
  6
CONTINUOUS
 10
3.7
 20
185.425
  1
赤
 40
6.0
 72
     5
 11
9.7
 21
185.425
  0
TEXT
  7
TextStyle03
  8
文字
  6
CONTINUOUS
 10
-9.3
 20
193.5
  1
－
 40
6.0
 72
     5
 11
-3.3
 21
193.5
  0
TEXT
  7
TextStyle03
  8
文字
  6
CONTINUOUS
 10
3.7
 20
193.5
  1
＋
 40
6.0
 72
     5
 11
9.7
 21
193.5
  0
TEXT
  7
TextStyle03
  8
文字
  6
CONTINUOUS
 10
-7.975
 20
201.7
  1
DC24V
 40
6.0
 72
     5
 11
8.525
 21
201.7
  0
TEXT
  7
TextStyle03
  8
文字
  6
CONTINUOUS
 10
17.1
 20
185.425
  1
白
 40
6.0
 72
     5
 11
23.1
 21
185.425
  0
TEXT
  7
TextStyle03
  8
文字
  6
CONTINUOUS
 10
30.1
 20
185.425
  1
赤
 40
6.0
 72
     5
 11
36.1
 21
185.425
  0
TEXT
  7
TextStyle03
  8
文字
  6
CONTINUOUS
 10
17.1
 20
193.5
  1
－
 40
6.0
 72
     5
 11
23.1
 21
193.5
  0
TEXT
  7
TextStyle03
  8
文字
  6
CONTINUOUS
 10
30.1
 20
193.5
  1
＋
 40
6.0
 72
     5
 11
36.1
 21
193.5
  0
TEXT
  7
TextStyle03
  8
文字
  6
CONTINUOUS
 10
18.425
 20
201.7
  1
DC24V
 40
6.0
 72
     5
 11
34.925
 21
201.7
  0
TEXT
  7
TextStyle03
  8
文字
  6
CONTINUOUS
 10
43.5
 20
185.425
  1
白
 40
6.0
 72
     5
 11
49.5
 21
185.425
  0
TEXT
  7
TextStyle03
  8
文字
  6
CONTINUOUS
 10
56.5
 20
185.425
  1
赤
 40
6.0
 72
     5
 11
62.5
 21
185.425
  0
TEXT
  7
TextStyle03
  8
文字
  6
CONTINUOUS
 10
43.5
 20
193.5
  1
－
 40
6.0
 72
     5
 11
49.5
 21
193.5
  0
TEXT
  7
TextStyle03
  8
文字
  6
CONTINUOUS
 10
56.5
 20
193.5
  1
＋
 40
6.0
 72
     5
 11
62.5
 21
193.5
  0
TEXT
  7
TextStyle03
  8
文字
  6
CONTINUOUS
 10
44.825
 20
201.7
  1
DC24V
 40
6.0
 72
     5
 11
61.325
 21
201.7
  0
TEXT
  7
TextStyle03
  8
文字
  6
CONTINUOUS
 10
69.9
 20
185.425
  1
白
 40
6.0
 72
     5
 11
75.9
 21
185.425
  0
TEXT
  7
TextStyle03
  8
文字
  6
CONTINUOUS
 10
82.9
 20
185.425
  1
赤
 40
6.0
 72
     5
 11
88.9
 21
185.425
  0
TEXT
  7
TextStyle03
  8
文字
  6
CONTINUOUS
 10
69.9
 20
193.5
  1
－
 40
6.0
 72
     5
 11
75.9
 21
193.5
  0
TEXT
  7
TextStyle03
  8
文字
  6
CONTINUOUS
 10
82.9
 20
193.5
  1
＋
 40
6.0
 72
     5
 11
88.9
 21
193.5
  0
TEXT
  7
TextStyle03
  8
文字
  6
CONTINUOUS
 10
71.225
 20
201.7
  1
DC24V
 40
6.0
 72
     5
 11
87.725
 21
201.7
  0
TEXT
  7
TextStyle03
  8
文字
  6
CONTINUOUS
 10
96.3
 20
185.425
  1
白
 40
6.0
 72
     5
 11
102.3
 21
185.425
  0
TEXT
  7
TextStyle03
  8
文字
  6
CONTINUOUS
 10
109.3
 20
185.425
  1
赤
 40
6.0
 72
     5
 11
115.3
 21
185.425
  0
TEXT
  7
TextStyle03
  8
文字
  6
CONTINUOUS
 10
96.3
 20
193.5
  1
－
 40
6.0
 72
     5
 11
102.3
 21
193.5
  0
TEXT
  7
TextStyle03
  8
文字
  6
CONTINUOUS
 10
109.3
 20
193.5
  1
＋
 40
6.0
 72
     5
 11
115.3
 21
193.5
  0
TEXT
  7
TextStyle03
  8
文字
  6
CONTINUOUS
 10
97.625
 20
201.7
  1
DC24V
 40
6.0
 72
     5
 11
114.125
 21
201.7
  0
TEXT
  7
TextStyle03
  8
文字
  6
CONTINUOUS
 10
148.9
 20
201.7
  1
AC100V
 40
6.0
 72
     5
 11
168.775
 21
201.7
  0
TEXT
  7
TextStyle03
  8
文字
  6
CONTINUOUS
 10
54.6
 20
246.625
  1
結　線　図
 40
6.0
 72
     5
 11
87.6
 21
246.625
  0
TEXT
  7
TextStyle03
  8
文字
  6
CONTINUOUS
 10
211.55
 20
197.425
  1
予備電源装置
 40
6.0
 72
     5
 11
251.3
 21
197.425
  0
TEXT
  7
TextStyle03
  8
文字
  6
CONTINUOUS
 10
211.55
 20
190.675
  1

 40
6.0
 41
1.125
  0
TEXT
  7
TextStyle03
  8
文字
  6
CONTINUOUS
 10
211.55
 20
183.925
  1
品番：ＴＫ－ＯＰ－Ｙ００１
 40
6.0
 72
     5
 11
298.55
 21
183.925
  0
TEXT
  7
TextStyle03
  8
文字
  6
CONTINUOUS
 10
277.4
 20
-279.275
  1
結線基本図（スイッチ１：駆動装置複数）
 40
4.0
 72
     5
 11
362.4
 21
-279.275
  0
TEXT
  7
TextStyle03
  8
文字
  6
CONTINUOUS
 10
42.875
 20
-9.675
  1
灰
 40
6.0
 72
     5
 11
48.875
 21
-9.675
  0
TEXT
  7
TextStyle03
  8
文字
  6
CONTINUOUS
 10
29.75
 20
-9.675
  1
灰
 40
6.0
 72
     5
 11
35.75
 21
-9.675
  0
TEXT
  7
TextStyle03
  8
文字
  6
CONTINUOUS
 10
3.5
 20
-9.675
  1
赤
 40
6.0
 72
     5
 11
9.5
 21
-9.675
  0
TEXT
  7
TextStyle03
  8
文字
  6
CONTINUOUS
 10
-9.725
 20
-9.675
  1
白
 40
6.0
 72
     5
 11
-3.725
 21
-9.675
  0
TEXT
  7
TextStyle03
  8
文字
  6
CONTINUOUS
 10
3.5
 20
-17.3
  1
＋
 40
6.0
 72
     5
 11
9.5
 21
-17.3
  0
TEXT
  7
TextStyle03
  8
文字
  6
CONTINUOUS
 10
-10.075
 20
-17.3
  1
－
 40
6.0
 72
     5
 11
-4.075
 21
-17.3
  0
TEXT
  7
TextStyle03
  8
文字
  6
CONTINUOUS
 10
-9.725
 20
-26.225
  1
DC24V
 40
6.0
 72
     5
 11
6.775
 21
-26.225
  0
TEXT
  7
TextStyle03
  8
文字
  6
CONTINUOUS
 10
30.125
 20
-26.225
  1
AC100V
 40
6.0
 72
     5
 11
50.0
 21
-26.225
  0
TEXT
  7
TextStyle03
  8
文字
  6
CONTINUOUS
 10
180.275
 20
-14.875
  1
茶
 40
6.0
 72
     5
 11
186.275
 21
-14.875
  0
TEXT
  7
TextStyle03
  8
文字
  6
CONTINUOUS
 10
166.9
 20
-14.875
  1
赤
 40
6.0
 72
     5
 11
172.9
 21
-14.875
  0
TEXT
  7
TextStyle03
  8
文字
  6
CONTINUOUS
 10
153.775
 20
-14.875
  1
緑
 40
6.0
 72
     5
 11
159.775
 21
-14.875
  0
TEXT
  7
TextStyle03
  8
文字
  6
CONTINUOUS
 10
140.55
 20
-14.875
  1
黄
 40
6.0
 72
     5
 11
146.55
 21
-14.875
  0
TEXT
  7
TextStyle03
  8
文字
  6
CONTINUOUS
 10
127.225
 20
-14.875
  1
白
 40
6.0
 72
     5
 11
133.225
 21
-14.875
  0
TEXT
  7
TextStyle03
  8
文字
  6
CONTINUOUS
 10
113.875
 20
-14.875
  1
青
 40
6.0
 72
     5
 11
119.875
 21
-14.875
  0
TEXT
  7
TextStyle03
  8
文字
  6
CONTINUOUS
 10
177.05
 20
-7.25
  1
１Ｎ
 40
6.0
 72
     5
 11
189.8
 21
-7.25
  0
TEXT
  7
TextStyle03
  8
文字
  6
CONTINUOUS
 10
166.9
 20
-7.25
  1
２
 40
6.0
 72
     5
 11
172.9
 21
-7.25
  0
TEXT
  7
TextStyle03
  8
文字
  6
CONTINUOUS
 10
153.775
 20
-7.25
  1
３
 40
6.0
 72
     5
 11
159.775
 21
-7.25
  0
TEXT
  7
TextStyle03
  8
文字
  6
CONTINUOUS
 10
140.55
 20
-7.25
  1
４
 40
6.0
 72
     5
 11
146.55
 21
-7.25
  0
TEXT
  7
TextStyle03
  8
文字
  6
CONTINUOUS
 10
127.225
 20
-7.25
  1
５
 40
6.0
 72
     5
 11
133.225
 21
-7.25
  0
TEXT
  7
TextStyle03
  8
文字
  6
CONTINUOUS
 10
113.875
 20
-7.25
  1
６
 40
6.0
 72
     5
 11
119.875
 21
-7.25
  0
TEXT
  7
TextStyle03
  8
文字
  6
CONTINUOUS
 10
179.6
 20
0.825
  1
DC-
 40
6.0
 72
     5
 11
189.35
 21
0.825
  0
TEXT
  7
TextStyle03
  8
文字
  6
CONTINUOUS
 10
166.9
 20
0.825
  1
開
 40
6.0
 72
     5
 11
172.9
 21
0.825
  0
TEXT
  7
TextStyle03
  8
文字
  6
CONTINUOUS
 10
165.575
 20
8.55
  1
LED
 40
6.0
 72
     5
 11
175.325
 21
8.55
  0
TEXT
  7
TextStyle03
  8
文字
  6
CONTINUOUS
 10
152.0
 20
8.55
  1
LED
 40
6.0
 72
     5
 11
161.75
 21
8.55
  0
TEXT
  7
TextStyle03
  8
文字
  6
CONTINUOUS
 10
153.65
 20
0.825
  1
閉
 40
6.0
 72
     5
 11
159.65
 21
0.825
  0
TEXT
  7
TextStyle03
  8
文字
  6
CONTINUOUS
 10
140.25
 20
0.825
  1
開
 40
6.0
 72
     5
 11
146.25
 21
0.825
  0
TEXT
  7
TextStyle03
  8
文字
  6
CONTINUOUS
 10
126.9
 20
0.825
  1
停
 40
6.0
 72
     5
 11
132.9
 21
0.825
  0
TEXT
  7
TextStyle03
  8
文字
  6
CONTINUOUS
 10
113.7
 20
0.825
  1
閉
 40
6.0
 72
     5
 11
119.7
 21
0.825
  0
TEXT
  7
TextStyle03
  8
文字
  6
CONTINUOUS
 10
237.95
 20
-4.125
  1
電動駆動装置　耐熱タイプ
 40
6.0
 72
     5
 11
318.2
 21
-4.125
  0
TEXT
  7
TextStyle03
  8
文字
  6
CONTINUOUS
 10
237.95
 20
-10.875
  1

 40
6.0
 41
1.125
  0
TEXT
  7
TextStyle03
  8
文字
  6
CONTINUOUS
 10
237.95
 20
-17.625
  1
品番：ＴＫ－ＯＰ－ＤＥ００１
 40
6.0
 72
     5
 11
331.7
 21
-17.625
  0
TEXT
  7
TextStyle03
  8
文字
  6
CONTINUOUS
 10
97.325
 20
-6.75
  1
７Ｐ
 40
6.0
 72
     5
 11
110.075
 21
-6.75
  0
TEXT
  7
TextStyle03
  8
文字
  6
CONTINUOUS
 10
101.0
 20
-15.0
  1
黒
 40
6.0
 72
     5
 11
107.0
 21
-15.0
  0
TEXT
  7
TextStyle03
  8
文字
  6
CONTINUOUS
 10
99.2
 20
0.8
  1
DC+
 40
6.0
 72
     5
 11
108.95
 21
0.8
  0
TEXT
  7
TextStyle03
  8
文字
  6
CONTINUOUS
 10
-254.575
 20
-9.675
  1
灰
 40
6.0
 72
     5
 11
-248.575
 21
-9.675
  0
TEXT
  7
TextStyle03
  8
文字
  6
CONTINUOUS
 10
-267.7
 20
-9.675
  1
灰
 40
6.0
 72
     5
 11
-261.7
 21
-9.675
  0
TEXT
  7
TextStyle03
  8
文字
  6
CONTINUOUS
 10
-293.95
 20
-9.675
  1
赤
 40
6.0
 72
     5
 11
-287.95
 21
-9.675
  0
TEXT
  7
TextStyle03
  8
文字
  6
CONTINUOUS
 10
-307.175
 20
-9.675
  1
白
 40
6.0
 72
     5
 11
-301.175
 21
-9.675
  0
TEXT
  7
TextStyle03
  8
文字
  6
CONTINUOUS
 10
-293.95
 20
-17.3
  1
＋
 40
6.0
 72
     5
 11
-287.95
 21
-17.3
  0
TEXT
  7
TextStyle03
  8
文字
  6
CONTINUOUS
 10
-307.525
 20
-17.3
  1
－
 40
6.0
 72
     5
 11
-301.525
 21
-17.3
  0
TEXT
  7
TextStyle03
  8
文字
  6
CONTINUOUS
 10
-307.175
 20
-26.225
  1
DC24V
 40
6.0
 72
     5
 11
-290.675
 21
-26.225
  0
TEXT
  7
TextStyle03
  8
文字
  6
CONTINUOUS
 10
-267.325
 20
-26.225
  1
AC100V
 40
6.0
 72
     5
 11
-247.45
 21
-26.225
  0
TEXT
  7
TextStyle03
  8
文字
  6
CONTINUOUS
 10
-117.175
 20
-14.875
  1
茶
 40
6.0
 72
     5
 11
-111.175
 21
-14.875
  0
TEXT
  7
TextStyle03
  8
文字
  6
CONTINUOUS
 10
-130.55
 20
-14.875
  1
赤
 40
6.0
 72
     5
 11
-124.55
 21
-14.875
  0
TEXT
  7
TextStyle03
  8
文字
  6
CONTINUOUS
 10
-143.675
 20
-14.875
  1
緑
 40
6.0
 72
     5
 11
-137.675
 21
-14.875
  0
TEXT
  7
TextStyle03
  8
文字
  6
CONTINUOUS
 10
-156.9
 20
-14.875
  1
黄
 40
6.0
 72
     5
 11
-150.9
 21
-14.875
  0
TEXT
  7
TextStyle03
  8
文字
  6
CONTINUOUS
 10
-170.225
 20
-14.875
  1
白
 40
6.0
 72
     5
 11
-164.225
 21
-14.875
  0
TEXT
  7
TextStyle03
  8
文字
  6
CONTINUOUS
 10
-183.575
 20
-14.875
  1
青
 40
6.0
 72
     5
 11
-177.575
 21
-14.875
  0
TEXT
  7
TextStyle03
  8
文字
  6
CONTINUOUS
 10
-120.4
 20
-7.25
  1
１Ｎ
 40
6.0
 72
     5
 11
-107.65
 21
-7.25
  0
TEXT
  7
TextStyle03
  8
文字
  6
CONTINUOUS
 10
-130.55
 20
-7.25
  1
２
 40
6.0
 72
     5
 11
-124.55
 21
-7.25
  0
TEXT
  7
TextStyle03
  8
文字
  6
CONTINUOUS
 10
-143.675
 20
-7.25
  1
３
 40
6.0
 72
     5
 11
-137.675
 21
-7.25
  0
TEXT
  7
TextStyle03
  8
文字
  6
CONTINUOUS
 10
-156.9
 20
-7.25
  1
４
 40
6.0
 72
     5
 11
-150.9
 21
-7.25
  0
TEXT
  7
TextStyle03
  8
文字
  6
CONTINUOUS
 10
-170.225
 20
-7.25
  1
５
 40
6.0
 72
     5
 11
-164.225
 21
-7.25
  0
TEXT
  7
TextStyle03
  8
文字
  6
CONTINUOUS
 10
-183.575
 20
-7.25
  1
６
 40
6.0
 72
     5
 11
-177.575
 21
-7.25
  0
TEXT
  7
TextStyle03
  8
文字
  6
CONTINUOUS
 10
-117.85
 20
0.825
  1
DC-
 40
6.0
 72
     5
 11
-108.1
 21
0.825
  0
TEXT
  7
TextStyle03
  8
文字
  6
CONTINUOUS
 10
-130.55
 20
0.825
  1
開
 40
6.0
 72
     5
 11
-124.55
 21
0.825
  0
TEXT
  7
TextStyle03
  8
文字
  6
CONTINUOUS
 10
-131.875
 20
8.55
  1
LED
 40
6.0
 72
     5
 11
-122.125
 21
8.55
  0
TEXT
  7
TextStyle03
  8
文字
  6
CONTINUOUS
 10
-145.45
 20
8.55
  1
LED
 40
6.0
 72
     5
 11
-135.7
 21
8.55
  0
TEXT
  7
TextStyle03
  8
文字
  6
CONTINUOUS
 10
-143.8
 20
0.825
  1
閉
 40
6.0
 72
     5
 11
-137.8
 21
0.825
  0
TEXT
  7
TextStyle03
  8
文字
  6
CONTINUOUS
 10
-157.2
 20
0.825
  1
開
 40
6.0
 72
     5
 11
-151.2
 21
0.825
  0
TEXT
  7
TextStyle03
  8
文字
  6
CONTINUOUS
 10
-170.55
 20
0.825
  1
停
 40
6.0
 72
     5
 11
-164.55
 21
0.825
  0
TEXT
  7
TextStyle03
  8
文字
  6
CONTINUOUS
 10
-183.75
 20
0.825
  1
閉
 40
6.0
 72
     5
 11
-177.75
 21
0.825
  0
TEXT
  7
TextStyle03
  8
文字
  6
CONTINUOUS
 10
-200.125
 20
-6.75
  1
７Ｐ
 40
6.0
 72
     5
 11
-187.375
 21
-6.75
  0
TEXT
  7
TextStyle03
  8
文字
  6
CONTINUOUS
 10
-196.45
 20
-15.0
  1
黒
 40
6.0
 72
     5
 11
-190.45
 21
-15.0
  0
TEXT
  7
TextStyle03
  8
文字
  6
CONTINUOUS
 10
-198.25
 20
0.8
  1
DC+
 40
6.0
 72
     5
 11
-188.5
 21
0.8
  0
TEXT
  7
TextStyle03
  8
文字
  6
CONTINUOUS
 10
180.6
 20
-205.725
  1
茶
 40
6.0
 72
     5
 11
186.6
 21
-205.725
  0
TEXT
  7
TextStyle03
  8
文字
  6
CONTINUOUS
 10
177.375
 20
-213.35
  1
１Ｎ
 40
6.0
 72
     5
 11
190.125
 21
-213.35
  0
TEXT
  7
TextStyle03
  8
文字
  6
CONTINUOUS
 10
179.925
 20
-221.425
  1
DC-
 40
6.0
 72
     5
 11
189.675
 21
-221.425
  0
TEXT
  7
TextStyle03
  8
文字
  6
CONTINUOUS
 10
167.075
 20
-205.725
  1
赤
 40
6.0
 72
     5
 11
173.075
 21
-205.725
  0
TEXT
  7
TextStyle03
  8
文字
  6
CONTINUOUS
 10
167.075
 20
-213.35
  1
２
 40
6.0
 72
     5
 11
173.075
 21
-213.35
  0
TEXT
  7
TextStyle03
  8
文字
  6
CONTINUOUS
 10
167.075
 20
-221.425
  1
開
 40
6.0
 72
     5
 11
173.075
 21
-221.425
  0
TEXT
  7
TextStyle03
  8
文字
  6
CONTINUOUS
 10
165.15
 20
-229.15
  1
LED
 40
6.0
 72
     5
 11
174.9
 21
-229.15
  0
TEXT
  7
TextStyle03
  8
文字
  6
CONTINUOUS
 10
154.175
 20
-205.725
  1
緑
 40
6.0
 72
     5
 11
160.175
 21
-205.725
  0
TEXT
  7
TextStyle03
  8
文字
  6
CONTINUOUS
 10
154.175
 20
-213.35
  1
３
 40
6.0
 72
     5
 11
160.175
 21
-213.35
  0
TEXT
  7
TextStyle03
  8
文字
  6
CONTINUOUS
 10
154.05
 20
-221.425
  1
閉
 40
6.0
 72
     5
 11
160.05
 21
-221.425
  0
TEXT
  7
TextStyle03
  8
文字
  6
CONTINUOUS
 10
151.825
 20
-229.15
  1
LED
 40
6.0
 72
     5
 11
161.575
 21
-229.15
  0
TEXT
  7
TextStyle03
  8
文字
  6
CONTINUOUS
 10
141.05
 20
-205.725
  1
黄
 40
6.0
 72
     5
 11
147.05
 21
-205.725
  0
TEXT
  7
TextStyle03
  8
文字
  6
CONTINUOUS
 10
141.05
 20
-213.35
  1
４
 40
6.0
 72
     5
 11
147.05
 21
-213.35
  0
TEXT
  7
TextStyle03
  8
文字
  6
CONTINUOUS
 10
140.75
 20
-221.425
  1
開
 40
6.0
 72
     5
 11
146.75
 21
-221.425
  0
TEXT
  7
TextStyle03
  8
文字
  6
CONTINUOUS
 10
127.575
 20
-205.725
  1
白
 40
6.0
 72
     5
 11
133.575
 21
-205.725
  0
TEXT
  7
TextStyle03
  8
文字
  6
CONTINUOUS
 10
127.575
 20
-213.35
  1
５
 40
6.0
 72
     5
 11
133.575
 21
-213.35
  0
TEXT
  7
TextStyle03
  8
文字
  6
CONTINUOUS
 10
127.25
 20
-221.425
  1
停
 40
6.0
 72
     5
 11
133.25
 21
-221.425
  0
TEXT
  7
TextStyle03
  8
文字
  6
CONTINUOUS
 10
114.375
 20
-205.725
  1
青
 40
6.0
 72
     5
 11
120.375
 21
-205.725
  0
TEXT
  7
TextStyle03
  8
文字
  6
CONTINUOUS
 10
114.375
 20
-213.35
  1
６
 40
6.0
 72
     5
 11
120.375
 21
-213.35
  0
TEXT
  7
TextStyle03
  8
文字
  6
CONTINUOUS
 10
114.2
 20
-221.425
  1
閉
 40
6.0
 72
     5
 11
120.2
 21
-221.425
  0
TEXT
  7
TextStyle03
  8
文字
  6
CONTINUOUS
 10
235.225
 20
-199.025
  1
スイッチボックス
 40
6.0
 72
     5
 11
288.475
 21
-199.025
  0
TEXT
  7
TextStyle03
  8
文字
  6
CONTINUOUS
 10
235.225
 20
-205.775
  1

 40
6.0
 41
1.125
  0
TEXT
  7
TextStyle03
  8
文字
  6
CONTINUOUS
 10
235.225
 20
-212.525
  1
品番：ＴＫ－ＯＰ－ＤＥ００２
 40
6.0
 72
     5
 11
328.975
 21
-212.525
  0
TEXT
  7
TextStyle03
  8
文字
  6
CONTINUOUS
 10
88.025
 20
-205.725
  1
橙
 40
6.0
 72
     5
 11
94.025
 21
-205.725
  0
TEXT
  7
TextStyle03
  8
文字
  6
CONTINUOUS
 10
100.9
 20
-205.725
  1
橙
 40
6.0
 72
     5
 11
106.9
 21
-205.725
  0
TEXT
  7
TextStyle03
  8
文字
  6
CONTINUOUS
 10
89.65
 20
-213.35
  1
DC24V
 40
6.0
 72
     5
 11
106.15
 21
-213.35
  0
TEXT
  7
TextStyle03
  8
文字
  6
CONTINUOUS
 10
87.975
 20
-220.675
  1
有電圧
 40
6.0
 72
     5
 11
107.475
 21
-220.675
  0
TEXT
  7
TextStyle03
  8
文字
  6
CONTINUOUS
 10
90.875
 20
-228.525
  1
煙感
 40
6.0
 72
     5
 11
103.625
 21
-228.525
  0
TEXT
  7
TextStyle03
  8
文字
  6
CONTINUOUS
 10
-69.825
 20
-152.975
  1
ＤＣ２４Ｖ
 40
4.0
 72
     5
 11
-47.825
 21
-152.975
  0
TEXT
  7
TextStyle03
  8
文字
  6
CONTINUOUS
 10
-69.825
 20
-157.475
  1
ａ接点
 40
4.0
 72
     5
 11
-56.825
 21
-157.475
  0
TEXT
  7
TextStyle03
  8
文字
  6
CONTINUOUS
 10
-105.275
 20
-143.1
  1
防災盤より信号
 40
4.0
 72
     5
 11
-74.275
 21
-143.1
  0
TEXT
  7
TextStyle03
  8
文字
  6
CONTINUOUS
 10
269.175
 20
34.5
  1
ＡＣ１００Ｖ　４Ａ(×台数)
 40
4.0
 72
     5
 11
327.425
 21
34.5
  0
TEXT
  7
TextStyle03
  8
文字
  6
CONTINUOUS
 10
242.775
 20
147.95
  1
ＡＣ１００Ｖ　４Ａ
 40
4.0
 72
     5
 11
282.775
 21
147.95
  0
LINE
  8
寸法
  6
CONTINUOUS
 10
236.6
 20
-264.25
 11
249.6
 21
-264.25
  0
LINE
  8
寸法
  6
CONTINUOUS
 10
236.6
 20
-264.97585
 11
249.6
 21
-264.97585
  0
POLYLINE
  8
寸法
  6
CONTINUOUS
 66
     1
 70
     1
  0
VERTEX
  8
寸法
 10
90.16494
 20
256.025642
  0
VERTEX
  8
寸法
 10
50.430245
 20
256.025642
  0
VERTEX
  8
寸法
 10
50.430245
 20
243.903192
  0
VERTEX
  8
寸法
 10
90.16494
 20
243.903192
  0
SEQEND
  0
LINE
  8
寸法
  6
CONTINUOUS
 10
205.317577
 20
179.036242
 11
310.278292
 21
179.036242
  0
POLYLINE
  8
寸法
  6
CONTINUOUS
 66
     1
  0
VERTEX
  8
寸法
 10
310.278292
 20
179.036242
  0
VERTEX
  8
寸法
 10
310.278292
 20
207.455268
  0
VERTEX
  8
寸法
 10
205.317577
 20
207.455268
  0
VERTEX
  8
寸法
 10
205.317577
 20
179.036242
  0
SEQEND
  0
LINE
  8
寸法
  6
CONTINUOUS
 10
231.717577
 20
-22.531433
 11
336.678292
 21
-22.531433
  0
POLYLINE
  8
寸法
  6
CONTINUOUS
 66
     1
  0
VERTEX
  8
寸法
 10
336.678292
 20
-22.531433
  0
VERTEX
  8
寸法
 10
336.678292
 20
5.887593
  0
VERTEX
  8
寸法
 10
231.717577
 20
5.887593
  0
VERTEX
  8
寸法
 10
231.717577
 20
-22.531433
  0
SEQEND
  0
LINE
  8
寸法
  6
CONTINUOUS
 10
231.717577
 20
-218.02344
 11
336.678292
 21
-218.02344
  0
POLYLINE
  8
寸法
  6
CONTINUOUS
 66
     1
  0
VERTEX
  8
寸法
 10
336.678292
 20
-218.02344
  0
VERTEX
  8
寸法
 10
336.678292
 20
-189.604415
  0
VERTEX
  8
寸法
 10
231.717577
 20
-189.604415
  0
VERTEX
  8
寸法
 10
231.717577
 20
-218.02344
  0
SEQEND
  0
POLYLINE
  8
寸法
  6
CONTINUOUS
 66
     1
  0
VERTEX
  8
寸法
 10
-42.242922
 20
-153.955228
  0
VERTEX
  8
寸法
 10
-21.013085
 20
-153.955228
  0
VERTEX
  8
寸法
 10
-27.030992
 20
-151.61493
  0
SEQEND
  0
POINT
  8
寸法
 10
45.998978
 20
36.42448
  0
POINT
  8
寸法
 10
32.798977
 20
40.591928
  0
POINT
  8
寸法
 10
59.198977
 20
32.162637
  0
LINE
  8
別途部材
  6
CONTINUOUS
 10
164.798978
 20
170.7884
 11
164.798978
 21
149.84547
  0
LINE
  8
別途部材
  6
CONTINUOUS
 10
151.598977
 20
170.7884
 11
151.598977
 21
145.678023
  0
LINE
  8
別途部材
  6
CONTINUOUS
 10
164.798978
 20
149.84547
 11
226.5792
 21
149.84547
  0
LINE
  8
別途部材
  6
CONTINUOUS
 10
151.598977
 20
145.678023
 11
226.5792
 21
145.678023
  0
LINE
  8
別途部材
  6
CONTINUOUS
 10
-33.201023
 20
176.7884
 11
-33.201023
 21
105.421602
  0
LINE
  8
別途部材
  6
CONTINUOUS
 10
-20.001022
 20
176.7884
 11
-20.001022
 21
92.884297
  0
LINE
  8
別途部材
  6
CONTINUOUS
 10
-304.266333
 20
105.421602
 11
-33.201023
 21
105.421602
  0
LINE
  8
別途部材
  6
CONTINUOUS
 10
-291.066333
 20
92.884297
 11
-20.001022
 21
92.884297
  0
LINE
  8
別途部材
  6
CONTINUOUS
 10
45.998978
 20
10.955375
 11
45.998978
 21
36.42448
  0
LINE
  8
別途部材
  6
CONTINUOUS
 10
32.798977
 20
10.955375
 11
32.798977
 21
40.591928
  0
LINE
  8
別途部材
  6
CONTINUOUS
 10
-264.666333
 20
40.591928
 11
252.9792
 21
40.591928
  0
LINE
  8
別途部材
  6
CONTINUOUS
 10
-264.666333
 20
10.955375
 11
-264.666333
 21
40.591928
  0
LINE
  8
別途部材
  6
CONTINUOUS
 10
252.9792
 20
36.42448
 11
-251.466333
 21
36.42448
  0
LINE
  8
別途部材
  6
CONTINUOUS
 10
-251.466333
 20
10.955375
 11
-251.466333
 21
36.42448
  0
LINE
  8
別途部材
  6
CONTINUOUS
 10
55.10434
 20
-72.222935
 11
103.80714
 21
-23.520135
  0
LINE
  8
別途部材
  6
CONTINUOUS
 10
61.70434
 20
-78.822935
 11
117.00714
 21
-23.520135
  0
LINE
  8
別途部材
  6
CONTINUOUS
 10
68.30434
 20
-85.422935
 11
130.20714
 21
-23.520135
  0
LINE
  8
別途部材
  6
CONTINUOUS
 10
74.90434
 20
-92.022935
 11
143.40714
 21
-23.520135
  0
LINE
  8
別途部材
  6
CONTINUOUS
 10
81.50434
 20
-98.622935
 11
156.60714
 21
-23.520135
  0
LINE
  8
別途部材
  6
CONTINUOUS
 10
88.10434
 20
-105.222935
 11
169.80714
 21
-23.520135
  0
LINE
  8
別途部材
  6
CONTINUOUS
 10
94.70434
 20
-111.822935
 11
183.00714
 21
-23.520135
  0
LINE
  8
別途部材
  6
CONTINUOUS
 10
-114.45817
 20
-29.520135
 11
-114.45817
 21
-111.822935
  0
LINE
  8
別途部材
  6
CONTINUOUS
 10
-127.65817
 20
-29.520135
 11
-127.65817
 21
-105.222935
  0
LINE
  8
別途部材
  6
CONTINUOUS
 10
-140.85817
 20
-29.520135
 11
-140.85817
 21
-98.622935
  0
LINE
  8
別途部材
  6
CONTINUOUS
 10
-154.05817
 20
-29.520135
 11
-154.05817
 21
-92.022935
  0
LINE
  8
別途部材
  6
CONTINUOUS
 10
-167.25817
 20
-29.520135
 11
-167.25817
 21
-85.422935
  0
LINE
  8
別途部材
  6
CONTINUOUS
 10
-180.45817
 20
-29.520135
 11
-180.45817
 21
-78.822935
  0
LINE
  8
別途部材
  6
CONTINUOUS
 10
-193.65817
 20
-29.520135
 11
-193.65817
 21
-72.222935
  0
LINE
  8
別途部材
  6
CONTINUOUS
 10
94.70434
 20
-111.822935
 11
-114.45817
 21
-111.822935
  0
LINE
  8
別途部材
  6
CONTINUOUS
 10
88.10434
 20
-105.222935
 11
-127.65817
 21
-105.222935
  0
LINE
  8
別途部材
  6
CONTINUOUS
 10
81.50434
 20
-98.622935
 11
-140.85817
 21
-98.622935
  0
LINE
  8
別途部材
  6
CONTINUOUS
 10
74.90434
 20
-92.022935
 11
-154.05817
 21
-92.022935
  0
LINE
  8
別途部材
  6
CONTINUOUS
 10
68.30434
 20
-85.422935
 11
-167.25817
 21
-85.422935
  0
LINE
  8
別途部材
  6
CONTINUOUS
 10
61.70434
 20
-78.822935
 11
-180.45817
 21
-78.822935
  0
LINE
  8
別途部材
  6
CONTINUOUS
 10
55.10434
 20
-72.222935
 11
-193.65817
 21
-72.222935
  0
LINE
  8
別途部材
  6
CONTINUOUS
 10
-6.801022
 20
176.7884
 11
-6.801022
 21
4.955375
  0
LINE
  8
別途部材
  6
CONTINUOUS
 10
6.398978
 20
176.7884
 11
6.398978
 21
4.955375
  0
LINE
  8
別途部材
  6
CONTINUOUS
 10
-304.266333
 20
105.421602
 11
-304.266333
 21
4.955375
  0
LINE
  8
別途部材
  6
CONTINUOUS
 10
-291.066333
 20
92.884297
 11
-291.066333
 21
4.955375
  0
LINE
  8
別途部材
  6
CONTINUOUS
 10
117.00714
 20
-23.520135
 11
117.00714
 21
-191.110477
  0
LINE
  8
別途部材
  6
CONTINUOUS
 10
130.20714
 20
-23.520135
 11
130.20714
 21
-191.110477
  0
LINE
  8
別途部材
  6
CONTINUOUS
 10
143.40714
 20
-23.520135
 11
143.40714
 21
-191.110477
  0
LINE
  8
別途部材
  6
CONTINUOUS
 10
156.60714
 20
-23.520135
 11
156.60714
 21
-191.110477
  0
LINE
  8
別途部材
  6
CONTINUOUS
 10
169.80714
 20
-23.520135
 11
169.80714
 21
-191.110477
  0
LINE
  8
別途部材
  6
CONTINUOUS
 10
183.00714
 20
-23.520135
 11
183.00714
 21
-191.110477
  0
LINE
  8
別途部材
  6
CONTINUOUS
 10
90.60714
 20
-185.110477
 11
90.60714
 21
-145.413453
  0
LINE
  8
別途部材
  6
CONTINUOUS
 10
90.60714
 20
-145.413453
 11
-70.01965
 21
-145.413453
  0
POLYLINE
  8
別途部材
  6
CONTINUOUS
 66
     1
  0
VERTEX
  8
別途部材
 10
103.80714
 20
-185.110477
  0
VERTEX
  8
別途部材
 10
103.80714
 20
-137.2045
  0
VERTEX
  8
別途部材
 10
-70.01965
 20
-137.2045
  0
SEQEND
  0
LINE
  8
別途部材
  6
CONTINUOUS
 10
59.198977
 20
10.955375
 11
59.198977
 21
32.162637
  0
LINE
  8
別途部材
  6
CONTINUOUS
 10
-238.266333
 20
10.955375
 11
-238.266333
 21
32.162637
  0
LINE
  8
別途部材
  6
CONTINUOUS
 10
252.9792
 20
32.162637
 11
-238.266333
 21
32.162637
  0
LINE
  8
別途部材
  6
CONTINUOUS
 10
177.998978
 20
170.7884
 11
177.998978
 21
154.053298
  0
LINE
  8
別途部材
  6
CONTINUOUS
 10
226.5792
 20
154.053298
 11
177.998978
 21
154.053298
  0
INSERT
  2
*GRP_0001
  8
その他部品等
  6
CONTINUOUS
 10
0.0
 20
0.0
  0
ENDSEC
  0
EOF
