  0
SECTION
  2
HEADER
  9
$EXTMIN
 10
-420.5
 20
-297.0
  9
$EXTMAX
 10
420.5
 20
297.0
  9
$PDMODE
 70
    32
  9
$PDSIZE
 40
1.5
  9
$LTSCALE
 40
10.0
  0
ENDSEC
  0
SECTION
  2
TABLES
  0
TABLE
  2
LTYPE
 70
    15
  0
LTYPE
  2
CONTINUOUS
 70
    64
  3
実線
 72
    65
 73
     0
 40
0.0
  0
LTYPE
  2
DASHED
 70
    64
  3
破線A
 72
    65
 73
     2
 40
0.6
 49
0.4
 49
-0.2
  0
LTYPE
  2
DASHEDX2
 70
    64
  3
破線B
 72
    65
 73
     2
 40
1.3
 49
0.9
 49
-0.4
  0
LTYPE
  2
DASHDOT
 70
    64
  3
１点鎖線A
 72
    65
 73
     4
 40
0.5375
 49
0.375
 49
-0.05
 49
0.0625
 49
-0.05
  0
LTYPE
  2
DASHDOTX2
 70
    64
  3
１点鎖線B
 72
    65
 73
     4
 40
1.075
 49
0.75
 49
-0.1
 49
0.125
 49
-0.1
  0
LTYPE
  2
DIVIDE2
 70
    64
  3
２点鎖線A
 72
    65
 73
     6
 40
0.5125
 49
0.3
 49
-0.0375
 49
0.05
 49
-0.0375
 49
0.05
 49
-0.0375
  0
LTYPE
  2
DIVIDE
 70
    64
  3
２点鎖線B
 72
    65
 73
     6
 40
1.05
 49
0.55
 49
-0.1
 49
0.1
 49
-0.1
 49
0.1
 49
-0.1
  0
LTYPE
  2
DOT
 70
    64
  3
点線A
 72
    65
 73
     2
 40
0.1125
 49
0.0625
 49
-0.05
  0
LTYPE
  2
DOTX2
 70
    64
  3
点線B
 72
    65
 73
     2
 40
0.275
 49
0.15
 49
-0.125
  0
LTYPE
  2
CONTINUOUS
 70
    64
  3
実線
 72
    65
 73
     0
 40
0.0
  0
LTYPE
  2
CONTINUOUS
 70
    64
  3
実線
 72
    65
 73
     0
 40
0.0
  0
LTYPE
  2
CONTINUOUS
 70
    64
  3
実線
 72
    65
 73
     0
 40
0.0
  0
LTYPE
  2
CONTINUOUS
 70
    64
  3
実線
 72
    65
 73
     0
 40
0.0
  0
LTYPE
  2
CONTINUOUS
 70
    64
  3
実線
 72
    65
 73
     0
 40
0.0
  0
LTYPE
  2
CONTINUOUS
 70
    64
  3
実線
 72
    65
 73
     0
 40
0.0
  0
ENDTAB
  0
TABLE
  2
LAYER
 70
    34
  0
LAYER
  2
通り芯
 70
     0
 62
    15
  6
CONTINUOUS
  0
LAYER
  2
補助線
 70
     0
 62
    16
  6
CONTINUOUS
  0
LAYER
  2
躯体
 70
     0
 62
    31
  6
CONTINUOUS
  0
LAYER
  2
型材
 70
     0
 62
    32
  6
CONTINUOUS
  0
LAYER
  2
型材断面
 70
     0
 62
    47
  6
CONTINUOUS
  0
LAYER
  2
ガラス
 70
     0
 62
    48
  6
CONTINUOUS
  0
LAYER
  2
ゴム等
 70
     0
 62
    63
  6
CONTINUOUS
  0
LAYER
  2
ボルト／ビス
 70
     0
 62
    64
  6
CONTINUOUS
  0
LAYER
  2
文字
 70
     0
 62
    14
  6
CONTINUOUS
  0
LAYER
  2
寸法
 70
     0
 62
    29
  6
CONTINUOUS
  0
LAYER
  2
ﾊｯﾁﾝｸﾞ
 70
     0
 62
    95
  6
CONTINUOUS
  0
LAYER
  2
別途部材
 70
     0
 62
    96
  6
CONTINUOUS
  0
LAYER
  2
曲げ物
 70
     0
 62
   111
  6
CONTINUOUS
  0
LAYER
  2
鉄骨等
 70
     0
 62
   112
  6
CONTINUOUS
  0
LAYER
  2
St
 70
     0
 62
   127
  6
CONTINUOUS
  0
LAYER
  2
その他部品等
 70
     0
 62
   128
  6
CONTINUOUS
  0
LAYER
  2
ｶﾞｽｹｯﾄ
 70
     0
 62
   143
  6
CONTINUOUS
  0
LAYER
  2
細線01
 70
     0
 62
   144
  6
CONTINUOUS
  0
LAYER
  2
細線02
 70
     0
 62
   159
  6
CONTINUOUS
  0
LAYER
  2
ｽｹｯﾁ
 70
     0
 62
    19
  6
CONTINUOUS
  0
LAYER
  2
4
 70
     0
 62
     6
  6
CONTINUOUS
  0
LAYER
  2
ﾚｲﾔ3
 70
     0
 62
    15
  6
CONTINUOUS
  0
LAYER
  2
外形線
 70
     0
 62
     7
  6
CONTINUOUS
  0
LAYER
  2
部品
 70
     0
 62
    14
  6
CONTINUOUS
  0
LAYER
  2
サッシ芯
 70
     0
 62
    17
  6
DASHDOTX2
  0
LAYER
  2
寸法線
 70
     0
 62
    28
  6
CONTINUOUS
  0
LAYER
  2
姿図外形線
 70
     0
 62
   249
  6
CONTINUOUS
  0
LAYER
  2
姿補助線
 70
     0
 62
    30
  6
CONTINUOUS
  0
LAYER
  2
透視線
 70
     0
 62
     3
  6
DOT
  0
LAYER
  2
用紙
 70
     0
 62
     7
  6
CONTINUOUS
  0
LAYER
  2
実線図枠
 70
     0
 62
     3
  6
CONTINUOUS
  0
LAYER
  2
補助図枠
 70
     0
 62
     4
  6
CONTINUOUS
  0
LAYER
  2
建具記号
 70
     0
 62
     5
  6
CONTINUOUS
  0
LAYER
  2
補助文字
 70
     0
 62
    10
  6
CONTINUOUS
  0
ENDTAB
  0
TABLE
  2
STYLE
 70
    10
  0
STYLE
  2
STANDARD
 70
     0
 40
1.0
 41
1.0
 42
1.0
 50
0.0
 71
     0
  3
TXT
  4
BIGFONT
  0
STYLE
  2
TATE
 70
     4
 40
1.0
 41
1.0
 42
1.0
 50
0.0
 71
     0
  3
TXT
  4
BIGFONT
  0
STYLE
  2
TextStyle03
 70
     0
 40
1.0
 41
1.0
 42
1.0
 50
0.0
 71
     0
  3
MONOTXT
  4
BIGFONT
  0
STYLE
  2
TextStyle04
 70
     0
 40
1.0
 41
1.0
 42
1.0
 50
0.0
 71
     0
  3
MONOTXT
  4
BIGFONT
  0
STYLE
  2
TextStyle05
 70
     0
 40
1.0
 41
1.0
 42
1.0
 50
0.0
 71
     0
  3
MONOTXT
  4
BIGFONT
  0
STYLE
  2
TextStyle06
 70
     0
 40
1.0
 41
1.0
 42
1.0
 50
0.0
 71
     0
  3
MONOTXT
  4
BIGFONT
  0
STYLE
  2
TextStyle07
 70
     0
 40
1.0
 41
1.0
 42
1.0
 50
0.0
 71
     0
  3
MONOTXT
  4
BIGFONT
  0
STYLE
  2
TextStyle08
 70
     0
 40
1.0
 41
1.0
 42
1.0
 50
0.0
 71
     0
  3
MONOTXT
  4
BIGFONT
  0
STYLE
  2
TextStyle09
 70
     0
 40
1.0
 41
1.0
 42
1.0
 50
0.0
 71
     0
  3
MONOTXT
  4
BIGFONT
  0
STYLE
  2
TextStyle10
 70
     0
 40
1.0
 41
1.0
 42
1.0
 50
0.0
 71
     0
  3
MONOTXT
  4
BIGFONT
  0
ENDTAB
  0
ENDSEC
  0
SECTION
  2
BLOCKS
  0
BLOCK
  2
*GRP_0001
 70
    65
 10
0.0
 20
0.0
  0
TEXT
  7
TextStyle03
  8
躯体
  6
CONTINUOUS
 62
    32
 10
231.9
 20
-272.65
  1
　：　
 40
4.0
 72
     5
 11
244.9
 21
-272.65
  0
LINE
  8
躯体
  6
CONTINUOUS
 62
    32
 10
369.764298
 20
-251.999995
 11
369.764298
 21
-281.999988
  0
LINE
  8
躯体
  6
CONTINUOUS
 62
    32
 10
249.764285
 20
-251.999995
 11
249.764285
 21
-281.999988
  0
LINE
  8
躯体
  6
CONTINUOUS
 62
    32
 10
149.764315
 20
-251.999995
 11
149.764315
 21
-281.999988
  0
LINE
  8
躯体
  6
CONTINUOUS
 62
    32
 10
58.764337
 20
-251.999995
 11
58.764337
 21
-281.999988
  0
LINE
  8
躯体
  6
CONTINUOUS
 62
    32
 10
18.764348
 20
-251.999995
 11
18.764348
 21
-281.999988
  0
LINE
  8
躯体
  6
CONTINUOUS
 62
    32
 10
-71.235675
 20
-251.999995
 11
-71.235675
 21
-281.999988
  0
LINE
  8
躯体
  6
CONTINUOUS
 62
    32
 10
229.76429
 20
-251.999995
 11
229.76429
 21
-281.999988
  0
LINE
  8
躯体
  6
CONTINUOUS
 62
    32
 10
209.764295
 20
-251.999995
 11
209.764295
 21
-281.999988
  0
LINE
  8
躯体
  6
CONTINUOUS
 62
    32
 10
189.764302
 20
-251.999995
 11
189.764302
 21
-281.999988
  0
LINE
  8
躯体
  6
CONTINUOUS
 62
    32
 10
169.764308
 20
-251.999995
 11
169.764308
 21
-281.999988
  0
LINE
  8
躯体
  6
CONTINUOUS
 62
    32
 10
149.764315
 20
-259.0
 11
249.764285
 21
-259.0
  0
LINE
  8
躯体
  6
CONTINUOUS
 62
    32
 10
-71.235675
 20
-267.000005
 11
58.764337
 21
-267.000005
  0
LINE
  8
躯体
  6
CONTINUOUS
 62
    32
 10
-380.235713
 20
-251.999995
 11
-380.235713
 21
-282.0
  0
LINE
  8
躯体
  6
CONTINUOUS
 62
    32
 10
-365.235705
 20
-251.999995
 11
-365.235705
 21
-282.0
  0
LINE
  8
躯体
  6
CONTINUOUS
 62
    32
 10
-244.235785
 20
-251.999995
 11
-244.235785
 21
-282.0
  0
LINE
  8
躯体
  6
CONTINUOUS
 62
    32
 10
-387.73571
 20
-257.231555
 11
-382.735713
 21
-257.231555
  0
LINE
  8
躯体
  6
CONTINUOUS
 62
    32
 10
-382.735713
 20
-257.231555
 11
-385.23571
 21
-252.901428
  0
LINE
  8
躯体
  6
CONTINUOUS
 62
    32
 10
-385.23571
 20
-252.901428
 11
-387.73571
 21
-257.231555
  0
LINE
  8
躯体
  6
CONTINUOUS
 62
    32
 10
-387.735722
 20
-263.231555
 11
-382.735725
 21
-263.231555
  0
LINE
  8
躯体
  6
CONTINUOUS
 62
    32
 10
-382.735725
 20
-263.231555
 11
-385.235722
 21
-258.901428
  0
LINE
  8
躯体
  6
CONTINUOUS
 62
    32
 10
-385.235722
 20
-258.901428
 11
-387.735722
 21
-263.231555
  0
LINE
  8
躯体
  6
CONTINUOUS
 62
    32
 10
-387.735735
 20
-269.231555
 11
-382.735737
 21
-269.231555
  0
LINE
  8
躯体
  6
CONTINUOUS
 62
    32
 10
-382.735737
 20
-269.231555
 11
-385.235722
 21
-264.901428
  0
LINE
  8
躯体
  6
CONTINUOUS
 62
    32
 10
-385.235722
 20
-264.901428
 11
-387.735735
 21
-269.231555
  0
LINE
  8
躯体
  6
CONTINUOUS
 62
    32
 10
-387.735735
 20
-275.231555
 11
-382.735737
 21
-275.231555
  0
LINE
  8
躯体
  6
CONTINUOUS
 62
    32
 10
-382.735737
 20
-275.231555
 11
-385.235735
 21
-270.901428
  0
LINE
  8
躯体
  6
CONTINUOUS
 62
    32
 10
-385.235735
 20
-270.901428
 11
-387.735735
 21
-275.231555
  0
LINE
  8
躯体
  6
CONTINUOUS
 62
    32
 10
-387.735748
 20
-281.231555
 11
-382.73575
 21
-281.231555
  0
LINE
  8
躯体
  6
CONTINUOUS
 62
    32
 10
-382.73575
 20
-281.231555
 11
-385.235748
 21
-276.901428
  0
LINE
  8
躯体
  6
CONTINUOUS
 62
    32
 10
-385.235748
 20
-276.901428
 11
-387.735748
 21
-281.231555
  0
LINE
  8
躯体
  6
CONTINUOUS
 62
    32
 10
-390.235722
 20
-251.999995
 11
-390.235722
 21
-282.0
  0
LINE
  8
躯体
  6
CONTINUOUS
 62
    32
 10
-234.235787
 20
-251.999995
 11
-234.235787
 21
-282.0
  0
LINE
  8
躯体
  6
CONTINUOUS
 62
    32
 10
-400.23572
 20
282.000017
 11
-400.23572
 21
-281.99998
  0
LINE
  8
躯体
  6
CONTINUOUS
 62
    32
 10
399.764287
 20
282.000017
 11
399.764287
 21
-282.0
  0
LINE
  8
躯体
  6
CONTINUOUS
 62
    32
 10
399.764287
 20
282.000017
 11
-400.23572
 21
282.000017
  0
LINE
  8
躯体
  6
CONTINUOUS
 62
    32
 10
399.764287
 20
-282.0
 11
-400.23572
 21
-282.0
  0
LINE
  8
躯体
  6
CONTINUOUS
 62
    32
 10
399.764287
 20
-251.999995
 11
-400.23572
 21
-251.999995
  0
LINE
  8
躯体
  6
CONTINUOUS
 62
    32
 10
249.764285
 20
-272.0
 11
369.764298
 21
-272.0
  0
LINE
  8
躯体
  6
CONTINUOUS
 62
    32
 10
58.764337
 20
-262.0
 11
149.764315
 21
-262.0
  0
LINE
  8
躯体
  6
CONTINUOUS
 62
    32
 10
58.764337
 20
-272.0
 11
149.764315
 21
-272.0
  0
LINE
  8
躯体
  6
CONTINUOUS
 62
    32
 10
-390.235722
 20
-258.0
 11
-244.235785
 21
-258.0
  0
LINE
  8
躯体
  6
CONTINUOUS
 62
    32
 10
-390.235722
 20
-264.0
 11
-244.235785
 21
-264.0
  0
LINE
  8
躯体
  6
CONTINUOUS
 62
    32
 10
-390.235722
 20
-270.0
 11
-244.235785
 21
-270.0
  0
LINE
  8
躯体
  6
CONTINUOUS
 62
    32
 10
-390.235722
 20
-276.0
 11
-244.235785
 21
-276.0
  0
LINE
  8
躯体
  6
CONTINUOUS
 62
    32
 10
-234.235787
 20
-276.0
 11
-71.235675
 21
-276.0
  0
LINE
  8
躯体
  6
CONTINUOUS
 62
    32
 10
-234.235787
 20
-270.0
 11
-71.235675
 21
-270.0
  0
LINE
  8
躯体
  6
CONTINUOUS
 62
    32
 10
-234.235787
 20
-264.0
 11
-71.235675
 21
-264.0
  0
LINE
  8
躯体
  6
CONTINUOUS
 62
    32
 10
-234.235787
 20
-258.0
 11
-71.235675
 21
-258.0
  0
LINE
  8
躯体
  6
CONTINUOUS
 62
    32
 10
-400.23572
 20
282.000017
 11
-400.23572
 21
-281.99998
  0
LINE
  8
躯体
  6
CONTINUOUS
 62
    32
 10
-400.23572
 20
-281.99998
 11
399.764287
 21
-281.99998
  0
LINE
  8
躯体
  6
CONTINUOUS
 62
    32
 10
399.764287
 20
-281.99998
 11
399.764287
 21
282.000017
  0
LINE
  8
躯体
  6
CONTINUOUS
 62
    32
 10
399.764287
 20
282.000017
 11
-400.23572
 21
282.000017
  0
LINE
  8
躯体
  6
CONTINUOUS
 62
    32
 10
399.764287
 20
-251.999995
 11
-400.23572
 21
-251.999995
  0
LINE
  8
躯体
  6
CONTINUOUS
 62
    32
 10
-390.235722
 20
-251.999995
 11
-390.235722
 21
-282.0
  0
LINE
  8
躯体
  6
CONTINUOUS
 62
    32
 10
-380.235675
 20
-251.999995
 11
-380.235675
 21
-282.0
  0
LINE
  8
躯体
  6
CONTINUOUS
 62
    32
 10
-365.235705
 20
-251.999995
 11
-365.235705
 21
-282.0
  0
LINE
  8
躯体
  6
CONTINUOUS
 62
    32
 10
-244.235785
 20
-251.999995
 11
-244.235785
 21
-281.99998
  0
LINE
  8
躯体
  6
CONTINUOUS
 62
    32
 10
-234.235787
 20
-251.999995
 11
-234.235787
 21
-282.0
  0
LINE
  8
躯体
  6
CONTINUOUS
 62
    32
 10
-71.235675
 20
-251.999995
 11
-71.235675
 21
-282.0
  0
LINE
  8
躯体
  6
CONTINUOUS
 62
    32
 10
18.764348
 20
-251.999995
 11
18.764348
 21
-282.0
  0
LINE
  8
躯体
  6
CONTINUOUS
 62
    32
 10
58.764337
 20
-251.999995
 11
58.764337
 21
-281.99998
  0
LINE
  8
躯体
  6
CONTINUOUS
 62
    32
 10
149.764315
 20
-251.999995
 11
149.764315
 21
-281.999988
  0
LINE
  8
躯体
  6
CONTINUOUS
 62
    32
 10
169.764308
 20
-251.999995
 11
169.764308
 21
-282.0
  0
LINE
  8
躯体
  6
CONTINUOUS
 62
    32
 10
189.764302
 20
-251.999995
 11
189.764302
 21
-281.99998
  0
LINE
  8
躯体
  6
CONTINUOUS
 62
    32
 10
209.764295
 20
-251.999995
 11
209.764295
 21
-281.99998
  0
LINE
  8
躯体
  6
CONTINUOUS
 62
    32
 10
229.76429
 20
-251.999995
 11
229.76429
 21
-281.99998
  0
LINE
  8
躯体
  6
CONTINUOUS
 62
    32
 10
249.764285
 20
-251.999995
 11
249.764285
 21
-281.999988
  0
LINE
  8
躯体
  6
CONTINUOUS
 62
    32
 10
369.764298
 20
-251.999995
 11
369.764298
 21
-282.0
  0
LINE
  8
躯体
  6
CONTINUOUS
 62
    32
 10
-390.235722
 20
-258.0
 11
-244.235785
 21
-258.0
  0
LINE
  8
躯体
  6
CONTINUOUS
 62
    32
 10
-244.235785
 20
-264.0
 11
-390.235722
 21
-264.0
  0
LINE
  8
躯体
  6
CONTINUOUS
 62
    32
 10
-390.235722
 20
-270.0
 11
-244.235785
 21
-270.0
  0
LINE
  8
躯体
  6
CONTINUOUS
 62
    32
 10
-244.235785
 20
-276.0
 11
-390.235722
 21
-276.0
  0
LINE
  8
躯体
  6
CONTINUOUS
 62
    32
 10
-234.235787
 20
-258.0
 11
-71.235675
 21
-258.0
  0
LINE
  8
躯体
  6
CONTINUOUS
 62
    32
 10
-71.235675
 20
-264.0
 11
-234.235787
 21
-264.0
  0
LINE
  8
躯体
  6
CONTINUOUS
 62
    32
 10
-234.235787
 20
-270.0
 11
-71.235675
 21
-270.0
  0
LINE
  8
躯体
  6
CONTINUOUS
 62
    32
 10
-71.235675
 20
-276.0
 11
-234.235787
 21
-276.0
  0
LINE
  8
躯体
  6
CONTINUOUS
 62
    32
 10
-71.235675
 20
-267.000005
 11
58.764337
 21
-267.000005
  0
LINE
  8
躯体
  6
CONTINUOUS
 62
    32
 10
58.764337
 20
-262.0
 11
149.764315
 21
-262.0
  0
LINE
  8
躯体
  6
CONTINUOUS
 62
    32
 10
149.764315
 20
-272.0
 11
58.764337
 21
-272.0
  0
LINE
  8
躯体
  6
CONTINUOUS
 62
    32
 10
149.764315
 20
-259.0
 11
249.764285
 21
-259.0
  0
LINE
  8
躯体
  6
CONTINUOUS
 62
    32
 10
249.764285
 20
-272.0
 11
369.764298
 21
-272.0
  0
LINE
  8
躯体
  6
CONTINUOUS
 62
    32
 10
385.03519
 20
-177.427528
 11
397.035147
 21
-177.427528
  0
LINE
  8
躯体
  6
CONTINUOUS
 62
    32
 10
385.03519
 20
-192.266918
 11
397.035147
 21
-192.266918
  0
LINE
  8
躯体
  6
CONTINUOUS
 62
    32
 10
385.03519
 20
-207.106308
 11
397.035147
 21
-207.106308
  0
LINE
  8
躯体
  6
CONTINUOUS
 62
    32
 10
385.03519
 20
-221.945695
 11
397.035147
 21
-221.945695
  0
CIRCLE
  8
躯体
  6
CONTINUOUS
 62
    32
 10
391.03517
 20
-177.427528
 40
6.0
  0
CIRCLE
  8
躯体
  6
CONTINUOUS
 62
    32
 10
391.03517
 20
-192.266918
 40
6.0
  0
CIRCLE
  8
躯体
  6
CONTINUOUS
 62
    32
 10
391.03517
 20
-207.106308
 40
6.0
  0
CIRCLE
  8
躯体
  6
CONTINUOUS
 62
    32
 10
391.03517
 20
-221.945695
 40
6.0
  0
TEXT
  7
TextStyle03
  8
躯体
  6
CONTINUOUS
 62
    32
 10
-385.975
 20
-257.125
  1
5
 40
3.0
 72
     5
 11
-384.475
 21
-257.125
  0
TEXT
  7
TextStyle03
  8
躯体
  6
CONTINUOUS
 62
    32
 10
-385.975
 20
-263.125
  1
4
 40
3.0
 72
     5
 11
-384.475
 21
-263.125
  0
TEXT
  7
TextStyle03
  8
躯体
  6
CONTINUOUS
 62
    32
 10
-385.975
 20
-269.125
  1
3
 40
3.0
 72
     5
 11
-384.475
 21
-269.125
  0
TEXT
  7
TextStyle03
  8
躯体
  6
CONTINUOUS
 62
    32
 10
-385.975
 20
-275.125
  1
2
 40
3.0
 72
     5
 11
-384.475
 21
-275.125
  0
TEXT
  7
TextStyle03
  8
躯体
  6
CONTINUOUS
 62
    32
 10
-385.975
 20
-281.125
  1
1
 40
3.0
 72
     5
 11
-384.475
 21
-281.125
  0
TEXT
  7
TextStyle03
  8
躯体
  6
CONTINUOUS
 62
    32
 10
-379.725
 20
-257.5
  1
   ,  ,  
 40
3.0
 72
     5
 11
-366.225
 21
-257.5
  0
TEXT
  7
TextStyle03
  8
躯体
  6
CONTINUOUS
 62
    32
 10
-379.725
 20
-263.5
  1
   ,  ,  
 40
3.0
 72
     5
 11
-366.225
 21
-263.5
  0
TEXT
  7
TextStyle03
  8
躯体
  6
CONTINUOUS
 62
    32
 10
-379.725
 20
-269.5
  1
   ,  ,  
 40
3.0
 72
     5
 11
-366.225
 21
-269.5
  0
TEXT
  7
TextStyle03
  8
躯体
  6
CONTINUOUS
 62
    32
 10
-379.725
 20
-275.5
  1
   ,  ,  
 40
3.0
 72
     5
 11
-366.225
 21
-275.5
  0
TEXT
  7
TextStyle03
  8
躯体
  6
CONTINUOUS
 62
    32
 10
-379.725
 20
-281.5
  1
   ,  ,  
 40
3.0
 72
     5
 11
-366.225
 21
-281.5
  0
TEXT
  7
TextStyle03
  8
躯体
  6
CONTINUOUS
 62
    32
 10
-70.175
 20
-256.45
  1
設計監理
 40
3.5
 72
     5
 11
-56.175
 21
-256.45
  0
TEXT
  7
TextStyle03
  8
躯体
  6
CONTINUOUS
 62
    32
 10
-70.175
 20
-271.625
  1
施　　工
 40
3.5
 72
     5
 11
-56.175
 21
-271.625
  0
TEXT
  7
TextStyle03
  8
躯体
  6
CONTINUOUS
 62
    32
 10
11.575
 20
-264.025
  1
殿
 40
5.0
 72
     5
 11
16.575
 21
-264.025
  0
TEXT
  7
TextStyle03
  8
躯体
  6
CONTINUOUS
 62
    32
 10
11.575
 20
-279.025
  1
殿
 40
5.0
 72
     5
 11
16.575
 21
-279.025
  0
TEXT
  7
TextStyle03
  8
躯体
  6
CONTINUOUS
 62
    32
 10
40.775
 20
-266.525
  1
月　　日
 40
4.0
 72
     5
 11
58.275
 21
-266.525
  0
TEXT
  7
TextStyle03
  8
躯体
  6
CONTINUOUS
 62
    32
 10
40.775
 20
-281.5
  1
月　　日
 40
4.0
 72
     5
 11
58.275
 21
-281.5
  0
TEXT
  7
TextStyle03
  8
躯体
  6
CONTINUOUS
 62
    32
 10
155.2
 20
-281.125
  1
　月　日
 40
3.5
 72
     5
 11
169.2
 21
-281.125
  0
TEXT
  7
TextStyle03
  8
躯体
  6
CONTINUOUS
 62
    32
 10
175.2
 20
-281.125
  1
　月　日
 40
3.5
 72
     5
 11
189.2
 21
-281.125
  0
TEXT
  7
TextStyle03
  8
躯体
  6
CONTINUOUS
 62
    32
 10
195.2
 20
-281.125
  1
　月　日
 40
3.5
 72
     5
 11
209.2
 21
-281.125
  0
TEXT
  7
TextStyle03
  8
躯体
  6
CONTINUOUS
 62
    32
 10
215.2
 20
-281.125
  1
　月　日
 40
3.5
 72
     5
 11
229.2
 21
-281.125
  0
TEXT
  7
TextStyle03
  8
躯体
  6
CONTINUOUS
 62
    32
 10
192.625
 20
-257.4
  1
照　査
 40
4.0
 72
     5
 11
205.625
 21
-257.4
  0
TEXT
  7
TextStyle03
  8
躯体
  6
CONTINUOUS
 62
    32
 10
211.875
 20
-257.2
  1
担　当
 40
4.0
 72
     5
 11
224.875
 21
-257.2
  0
TEXT
  7
TextStyle03
  8
躯体
  6
CONTINUOUS
 62
    32
 10
231.5
 20
-257.0
  1
縮　尺
 40
4.0
 72
     5
 11
244.5
 21
-257.0
  0
TEXT
  7
TextStyle03
  8
躯体
  6
CONTINUOUS
 62
    32
 10
231.9
 20
-266.225
  1
１：１
 40
4.0
 72
     5
 11
244.9
 21
-266.225
  0
TEXT
  7
TextStyle03
  8
躯体
  6
CONTINUOUS
 62
    32
 10
252.15
 20
-258.05
  1
工事名
 40
4.0
 72
     5
 11
265.15
 21
-258.05
  0
TEXT
  7
TextStyle03
  8
躯体
  6
CONTINUOUS
 62
    32
 10
370.95
 20
-257.25
  1
図番
 40
4.0
 72
     5
 11
379.45
 21
-257.25
  0
TEXT
  7
TextStyle03
  8
躯体
  6
CONTINUOUS
 62
    32
 10
388.3
 20
-281.175
  1
枚の内
 40
3.5
 72
     5
 11
398.8
 21
-281.175
  0
TEXT
  7
TextStyle04
  8
躯体
  6
CONTINUOUS
 62
    32
 10
71.425
 20
-259.85
  1
特殊技研金属株式会社
 40
6.0
 72
     5
 11
140.425
 21
-259.85
  0
TEXT
  7
TATE
  8
躯体
  6
CONTINUOUS
 62
    32
 10
-239.425
 20
-254.525
  1
特　記　事　項
 40
3.5
 72
     5
 11
-239.425
 21
-279.025
  0
TEXT
  7
TATE
  8
躯体
  6
CONTINUOUS
 62
    32
 10
-395.125
 20
-259.525
  1
訂　　正
 40
3.5
 72
     5
 11
-395.125
 21
-273.525
  0
TEXT
  7
TextStyle03
  8
躯体
  6
CONTINUOUS
 62
    32
 10
231.9
 20
-279.25
  1
　：　
 40
4.0
 72
     5
 11
244.9
 21
-279.25
  0
TEXT
  7
TextStyle03
  8
躯体
  6
CONTINUOUS
 62
    32
 10
252.15
 20
-278.025
  1
図面名
 40
4.0
 72
     5
 11
265.15
 21
-278.025
  0
ENDBLK
  0
BLOCK
  2
*GRP_0002
 70
    65
 10
0.0
 20
0.0
  0
LINE
  8
外形線
 62
    32
 10
-163.58476
 20
154.791427
 11
-179.78476
 21
154.791427
  0
LINE
  8
外形線
 62
    32
 10
-179.78476
 20
154.791427
 11
-179.78476
 21
142.791427
  0
LINE
  8
外形線
 62
    32
 10
-179.78476
 20
142.791427
 11
-163.58476
 21
142.791427
  0
LINE
  8
外形線
 62
    32
 10
-163.58476
 20
154.791427
 11
-163.58476
 21
142.791427
  0
LINE
  8
外形線
 62
    32
 10
-165.58476
 20
145.291427
 11
-165.58476
 21
152.291427
  0
LINE
  8
外形線
 62
    32
 10
-165.58476
 20
152.291427
 11
-177.78476
 21
152.291427
  0
LINE
  8
外形線
 62
    32
 10
-177.78476
 20
152.291427
 11
-177.78476
 21
145.291427
  0
LINE
  8
外形線
 62
    32
 10
-165.58476
 20
145.291427
 11
-177.78476
 21
145.291427
  0
LINE
  8
外形線
 62
    32
 10
-169.08476
 20
146.291427
 11
-166.58476
 21
146.291427
  0
LINE
  8
外形線
 62
    32
 10
-166.58476
 20
146.291427
 11
-166.58476
 21
151.291427
  0
LINE
  8
外形線
 62
    32
 10
-166.58476
 20
151.291427
 11
-169.08476
 21
151.291427
  0
LINE
  8
外形線
 62
    32
 10
-169.08476
 20
146.291427
 11
-169.08476
 21
151.291427
  0
LINE
  8
外形線
 62
    32
 10
-169.08476
 20
147.951427
 11
-166.58476
 21
147.951427
  0
LINE
  8
外形線
 62
    32
 10
-169.08476
 20
149.611427
 11
-166.58476
 21
149.611427
  0
ENDBLK
  0
BLOCK
  2
*GRP_0003
 70
    65
 10
0.0
 20
0.0
  0
POLYLINE
  8
寸法
  6
CONTINUOUS
 62
    32
 66
     1
  0
VERTEX
  8
寸法
 10
-145.638945
 20
264.486705
  0
VERTEX
  8
寸法
 10
-141.015205
 20
241.480125
  0
VERTEX
  8
寸法
 10
-126.595038
 20
241.480125
  0
SEQEND
  0
ENDBLK
  0
BLOCK
  2
*GRP_0004
 70
    65
 10
0.0
 20
0.0
  0
POLYLINE
  8
寸法
  6
CONTINUOUS
 62
    32
 66
     1
  0
VERTEX
  8
寸法
 10
-133.745813
 20
233.54167
  0
VERTEX
  8
寸法
 10
-130.792728
 20
217.508963
  0
VERTEX
  8
寸法
 10
-127.742307
 20
217.508963
  0
SEQEND
  0
ENDBLK
  0
BLOCK
  2
*GRP_0005
 70
    65
 10
0.0
 20
0.0
  0
POLYLINE
  8
寸法
  6
CONTINUOUS
 62
    32
 66
     1
  0
VERTEX
  8
寸法
 10
-168.614598
 20
183.543607
  0
VERTEX
  8
寸法
 10
-185.888993
 20
200.818002
  0
VERTEX
  8
寸法
 10
-211.550648
 20
200.818002
  0
SEQEND
  0
ENDBLK
  0
BLOCK
  2
*GRP_0006
 70
    65
 10
0.0
 20
0.0
  0
LINE
  8
外形線
 62
    32
 10
-163.58476
 20
-34.014307
 11
-179.78476
 21
-34.014307
  0
LINE
  8
外形線
 62
    32
 10
-179.78476
 20
-34.014307
 11
-179.78476
 21
-46.014307
  0
LINE
  8
外形線
 62
    32
 10
-179.78476
 20
-46.014307
 11
-163.58476
 21
-46.014307
  0
LINE
  8
外形線
 62
    32
 10
-163.58476
 20
-34.014307
 11
-163.58476
 21
-46.014307
  0
LINE
  8
外形線
 62
    32
 10
-165.58476
 20
-43.514307
 11
-165.58476
 21
-36.514307
  0
LINE
  8
外形線
 62
    32
 10
-165.58476
 20
-36.514307
 11
-177.78476
 21
-36.514307
  0
LINE
  8
外形線
 62
    32
 10
-177.78476
 20
-36.514307
 11
-177.78476
 21
-43.514307
  0
LINE
  8
外形線
 62
    32
 10
-165.58476
 20
-43.514307
 11
-177.78476
 21
-43.514307
  0
LINE
  8
外形線
 62
    32
 10
-169.08476
 20
-42.514307
 11
-166.58476
 21
-42.514307
  0
LINE
  8
外形線
 62
    32
 10
-166.58476
 20
-42.514307
 11
-166.58476
 21
-37.514307
  0
LINE
  8
外形線
 62
    32
 10
-166.58476
 20
-37.514307
 11
-169.08476
 21
-37.514307
  0
LINE
  8
外形線
 62
    32
 10
-169.08476
 20
-42.514307
 11
-169.08476
 21
-37.514307
  0
LINE
  8
外形線
 62
    32
 10
-169.08476
 20
-40.854307
 11
-166.58476
 21
-40.854307
  0
LINE
  8
外形線
 62
    32
 10
-169.08476
 20
-39.194308
 11
-166.58476
 21
-39.194308
  0
ENDBLK
  0
BLOCK
  2
*GRP_0007
 70
    65
 10
0.0
 20
0.0
  0
POLYLINE
  8
寸法
  6
CONTINUOUS
 62
    32
 66
     1
  0
VERTEX
  8
寸法
 10
-145.638945
 20
75.68097
  0
VERTEX
  8
寸法
 10
-141.015205
 20
52.67439
  0
VERTEX
  8
寸法
 10
-126.595038
 20
52.67439
  0
SEQEND
  0
ENDBLK
  0
BLOCK
  2
*GRP_0008
 70
    65
 10
0.0
 20
0.0
  0
POLYLINE
  8
寸法
  6
CONTINUOUS
 62
    32
 66
     1
  0
VERTEX
  8
寸法
 10
-133.745813
 20
44.735935
  0
VERTEX
  8
寸法
 10
-130.792728
 20
28.703227
  0
VERTEX
  8
寸法
 10
-127.742307
 20
28.703227
  0
SEQEND
  0
ENDBLK
  0
BLOCK
  2
*GRP_0009
 70
    65
 10
0.0
 20
0.0
  0
POLYLINE
  8
寸法
  6
CONTINUOUS
 62
    32
 66
     1
  0
VERTEX
  8
寸法
 10
-168.614598
 20
-5.262128
  0
VERTEX
  8
寸法
 10
-185.888993
 20
12.012268
  0
VERTEX
  8
寸法
 10
-211.550648
 20
12.012268
  0
SEQEND
  0
ENDBLK
  0
BLOCK
  2
*GRP_0010
 70
    65
 10
0.0
 20
0.0
  0
LINE
  8
外形線
 62
    32
 10
-163.58476
 20
-222.820043
 11
-179.78476
 21
-222.820043
  0
LINE
  8
外形線
 62
    32
 10
-179.78476
 20
-222.820043
 11
-179.78476
 21
-234.820043
  0
LINE
  8
外形線
 62
    32
 10
-179.78476
 20
-234.820043
 11
-163.58476
 21
-234.820043
  0
LINE
  8
外形線
 62
    32
 10
-163.58476
 20
-222.820043
 11
-163.58476
 21
-234.820043
  0
LINE
  8
外形線
 62
    32
 10
-165.58476
 20
-232.320043
 11
-165.58476
 21
-225.320043
  0
LINE
  8
外形線
 62
    32
 10
-165.58476
 20
-225.320043
 11
-177.78476
 21
-225.320043
  0
LINE
  8
外形線
 62
    32
 10
-177.78476
 20
-225.320043
 11
-177.78476
 21
-232.320043
  0
LINE
  8
外形線
 62
    32
 10
-165.58476
 20
-232.320043
 11
-177.78476
 21
-232.320043
  0
LINE
  8
外形線
 62
    32
 10
-169.08476
 20
-231.320043
 11
-166.58476
 21
-231.320043
  0
LINE
  8
外形線
 62
    32
 10
-166.58476
 20
-231.320043
 11
-166.58476
 21
-226.320043
  0
LINE
  8
外形線
 62
    32
 10
-166.58476
 20
-226.320043
 11
-169.08476
 21
-226.320043
  0
LINE
  8
外形線
 62
    32
 10
-169.08476
 20
-231.320043
 11
-169.08476
 21
-226.320043
  0
LINE
  8
外形線
 62
    32
 10
-169.08476
 20
-229.660042
 11
-166.58476
 21
-229.660042
  0
LINE
  8
外形線
 62
    32
 10
-169.08476
 20
-228.000043
 11
-166.58476
 21
-228.000043
  0
ENDBLK
  0
BLOCK
  2
*GRP_0011
 70
    65
 10
0.0
 20
0.0
  0
POLYLINE
  8
寸法
  6
CONTINUOUS
 62
    32
 66
     1
  0
VERTEX
  8
寸法
 10
-145.638945
 20
-113.124765
  0
VERTEX
  8
寸法
 10
-141.015205
 20
-136.131345
  0
VERTEX
  8
寸法
 10
-126.595038
 20
-136.131345
  0
SEQEND
  0
ENDBLK
  0
BLOCK
  2
*GRP_0012
 70
    65
 10
0.0
 20
0.0
  0
POLYLINE
  8
寸法
  6
CONTINUOUS
 62
    32
 66
     1
  0
VERTEX
  8
寸法
 10
-133.745813
 20
-144.0698
  0
VERTEX
  8
寸法
 10
-130.792728
 20
-160.102507
  0
VERTEX
  8
寸法
 10
-127.742307
 20
-160.102507
  0
SEQEND
  0
ENDBLK
  0
BLOCK
  2
*GRP_0013
 70
    65
 10
0.0
 20
0.0
  0
POLYLINE
  8
寸法
  6
CONTINUOUS
 62
    32
 66
     1
  0
VERTEX
  8
寸法
 10
-168.614598
 20
-194.067862
  0
VERTEX
  8
寸法
 10
-185.888993
 20
-176.793468
  0
VERTEX
  8
寸法
 10
-211.550648
 20
-176.793468
  0
SEQEND
  0
ENDBLK
  0
BLOCK
  2
*GRP_0014
 70
    65
 10
0.0
 20
0.0
  0
LINE
  8
外形線
 62
    32
 10
214.47353
 20
-37.088295
 11
209.61353
 21
-37.088295
  0
LINE
  8
外形線
 62
    32
 10
209.61353
 20
-37.088295
 11
209.61353
 21
-40.688295
  0
LINE
  8
外形線
 62
    32
 10
209.61353
 20
-40.688295
 11
214.47353
 21
-40.688295
  0
LINE
  8
外形線
 62
    32
 10
214.47353
 20
-37.088295
 11
214.47353
 21
-40.688295
  0
LINE
  8
外形線
 62
    32
 10
213.87353
 20
-39.938295
 11
213.87353
 21
-37.838295
  0
LINE
  8
外形線
 62
    32
 10
213.87353
 20
-37.838295
 11
210.21353
 21
-37.838295
  0
LINE
  8
外形線
 62
    32
 10
210.21353
 20
-37.838295
 11
210.21353
 21
-39.938295
  0
LINE
  8
外形線
 62
    32
 10
213.87353
 20
-39.938295
 11
210.21353
 21
-39.938295
  0
LINE
  8
外形線
 62
    32
 10
212.82353
 20
-39.638295
 11
213.57353
 21
-39.638295
  0
LINE
  8
外形線
 62
    32
 10
213.57353
 20
-39.638295
 11
213.57353
 21
-38.138295
  0
LINE
  8
外形線
 62
    32
 10
213.57353
 20
-38.138295
 11
212.82353
 21
-38.138295
  0
LINE
  8
外形線
 62
    32
 10
212.82353
 20
-39.638295
 11
212.82353
 21
-38.138295
  0
LINE
  8
外形線
 62
    32
 10
212.82353
 20
-39.140295
 11
213.57353
 21
-39.140295
  0
LINE
  8
外形線
 62
    32
 10
212.82353
 20
-38.642295
 11
213.57353
 21
-38.642295
  0
ENDBLK
  0
ENDSEC
  0
SECTION
  2
ENTITIES
  0
POLYLINE
  8
通り芯
  6
CONTINUOUS
 66
     1
 70
     1
  0
VERTEX
  8
通り芯
 10
-420.5
 20
-297.0
  0
VERTEX
  8
通り芯
 10
420.5
 20
-297.0
  0
VERTEX
  8
通り芯
 10
420.5
 20
297.0
  0
VERTEX
  8
通り芯
 10
-420.5
 20
297.0
  0
SEQEND
  0
LINE
  8
型材
  6
DIVIDE2
 62
    32
 10
-183.614598
 20
248.44134
 11
-153.614598
 21
248.44134
  0
LINE
  8
型材
  6
DIVIDE2
 62
    32
 10
-183.614598
 20
248.44134
 11
-183.614598
 21
218.44134
  0
LINE
  8
型材
  6
DIVIDE2
 62
    32
 10
-183.614598
 20
218.44134
 11
-153.614598
 21
218.44134
  0
LINE
  8
型材
  6
DIVIDE2
 62
    32
 10
-153.614598
 20
248.44134
 11
-153.614598
 21
218.44134
  0
LINE
  8
型材
  6
DIVIDE2
 62
    32
 10
-183.614598
 20
218.44134
 11
-168.614598
 21
248.44134
  0
LINE
  8
型材
  6
DIVIDE2
 62
    32
 10
-168.614598
 20
248.44134
 11
-153.614598
 21
218.44134
  0
ARC
  8
型材
  6
DOT
 62
    32
 10
-53.457012
 20
214.05589
 40
10.0
 50
180.0
 51
270.0
  0
LINE
  8
型材
  6
DOT
 62
    32
 10
-63.457013
 20
223.54167
 11
-63.457013
 21
214.05589
  0
ARC
  8
型材
  6
DOT
 62
    32
 10
-73.457012
 20
223.54167
 40
10.0
 50
0.0
 51
90.0
  0
LINE
  8
型材
  6
DOT
 62
    32
 10
-53.457013
 20
204.05589
 11
35.256643
 21
204.05589
  0
LINE
  8
型材
  6
CONTINUOUS
 62
    32
 10
-48.980123
 20
248.44134
 11
-48.980123
 21
199.43089
  0
LINE
  8
型材
  6
CONTINUOUS
 62
    32
 10
41.019878
 20
248.44134
 11
41.019878
 21
199.43089
  0
LINE
  8
型材
  6
CONTINUOUS
 62
    32
 10
-48.980123
 20
199.43089
 11
41.019878
 21
199.43089
  0
LINE
  8
型材
  6
CONTINUOUS
 62
    32
 10
-48.980123
 20
248.44134
 11
41.019878
 21
248.44134
  0
LINE
  8
型材
  6
CONTINUOUS
 62
    32
 10
44.565885
 20
195.884882
 11
44.565885
 21
251.987348
  0
LINE
  8
型材
  6
CONTINUOUS
 62
    32
 10
44.565885
 20
251.987348
 11
-52.52613
 21
251.987348
  0
LINE
  8
型材
  6
CONTINUOUS
 62
    32
 10
-52.52613
 20
251.987348
 11
-52.52613
 21
195.884882
  0
LINE
  8
型材
  6
CONTINUOUS
 62
    32
 10
44.565885
 20
195.884882
 11
-52.52613
 21
195.884882
  0
LINE
  8
型材
  6
CONTINUOUS
 62
    32
 10
-52.52613
 20
195.884882
 11
-48.980123
 21
199.43089
  0
LINE
  8
型材
  6
CONTINUOUS
 62
    32
 10
41.019878
 20
199.43089
 11
44.565885
 21
195.884882
  0
LINE
  8
型材
  6
CONTINUOUS
 62
    32
 10
41.019878
 20
248.44134
 11
44.565885
 21
251.987348
  0
LINE
  8
型材
  6
CONTINUOUS
 62
    32
 10
-52.52613
 20
251.987348
 11
-48.980123
 21
248.44134
  0
CIRCLE
  8
型材
 62
    32
 10
-126.658193
 20
264.486705
 40
4.756803
  0
ARC
  8
型材
 62
    32
 10
-125.17169
 20
264.486705
 40
1.486502
 50
180.0
 51
360.0
  0
ARC
  8
型材
 62
    32
 10
-128.144693
 20
264.486705
 40
1.486502
 50
0.0
 51
180.0
  0
LINE
  8
型材
  6
CONTINUOUS
 62
    32
 10
-168.614598
 20
264.486705
 11
-131.414995
 21
264.486705
  0
LINE
  8
型材
  6
CONTINUOUS
 62
    32
 10
-148.66408
 20
265.9374
 11
-151.56547
 21
263.03601
  0
LINE
  8
型材
  6
CONTINUOUS
 62
    32
 10
-147.956975
 20
265.9374
 11
-150.858365
 21
263.03601
  0
TEXT
  7
TextStyle03
  8
型材
 62
    32
 10
-119.025
 20
262.025
  1
ＡＣ１００Ｖ　４Ａ
 40
5.0
 72
     5
 11
-83.675
 21
262.025
  0
INSERT
  2
*GRP_0002
  8
型材
 62
    32
 10
0.0
 20
0.0
  0
LINE
  8
型材
  6
CONTINUOUS
 62
    32
 10
-170.065293
 20
172.900123
 11
-167.163903
 21
175.801513
  0
LINE
  8
型材
  6
CONTINUOUS
 62
    32
 10
-170.065293
 20
172.193013
 11
-167.163903
 21
175.094403
  0
LINE
  8
型材
  6
CONTINUOUS
 62
    32
 10
-170.065293
 20
171.485908
 11
-167.163903
 21
174.387298
  0
LINE
  8
型材
  6
CONTINUOUS
 62
    32
 10
-170.065293
 20
170.778802
 11
-167.163903
 21
173.680192
  0
LINE
  8
型材
  6
CONTINUOUS
 62
    32
 10
-170.065293
 20
170.071693
 11
-167.163903
 21
172.973083
  0
LINE
  8
型材
  6
CONTINUOUS
 62
    32
 10
-170.065293
 20
169.364582
 11
-167.163903
 21
172.265972
  0
LINE
  8
型材
  6
DASHDOT
 62
    32
 10
-163.58476
 20
148.791427
 11
-125.759288
 21
148.791427
  0
LINE
  8
型材
  6
CONTINUOUS
 62
    32
 10
-149.371185
 20
265.9374
 11
-152.272575
 21
263.03601
  0
LINE
  8
型材
  6
CONTINUOUS
 62
    32
 10
-170.065293
 20
168.657473
 11
-167.163903
 21
171.558863
  0
LINE
  8
型材
  6
DIVIDE2
 62
    32
 10
-183.614598
 20
59.635605
 11
-153.614598
 21
59.635605
  0
LINE
  8
型材
  6
DIVIDE2
 62
    32
 10
-183.614598
 20
59.635605
 11
-183.614598
 21
29.635605
  0
LINE
  8
型材
  6
DIVIDE2
 62
    32
 10
-183.614598
 20
29.635605
 11
-153.614598
 21
29.635605
  0
LINE
  8
型材
  6
DIVIDE2
 62
    32
 10
-153.614598
 20
59.635605
 11
-153.614598
 21
29.635605
  0
LINE
  8
型材
  6
DIVIDE2
 62
    32
 10
-183.614598
 20
29.635605
 11
-168.614598
 21
59.635605
  0
LINE
  8
型材
  6
DIVIDE2
 62
    32
 10
-168.614598
 20
59.635605
 11
-153.614598
 21
29.635605
  0
ARC
  8
型材
  6
DOT
 62
    32
 10
-53.457012
 20
25.250155
 40
10.0
 50
180.0
 51
270.0
  0
LINE
  8
型材
  6
DOT
 62
    32
 10
-63.457013
 20
34.735935
 11
-63.457013
 21
25.250155
  0
ARC
  8
型材
  6
DOT
 62
    32
 10
-73.457012
 20
34.735935
 40
10.0
 50
0.0
 51
90.0
  0
LINE
  8
型材
  6
DOT
 62
    32
 10
-53.457013
 20
15.250155
 11
35.256643
 21
15.250155
  0
LINE
  8
型材
  6
CONTINUOUS
 62
    32
 10
-48.980123
 20
59.635605
 11
-48.980123
 21
10.625155
  0
LINE
  8
型材
  6
CONTINUOUS
 62
    32
 10
41.019878
 20
59.635605
 11
41.019878
 21
10.625155
  0
LINE
  8
型材
  6
CONTINUOUS
 62
    32
 10
-48.980123
 20
10.625155
 11
41.019878
 21
10.625155
  0
LINE
  8
型材
  6
CONTINUOUS
 62
    32
 10
-48.980123
 20
59.635605
 11
41.019878
 21
59.635605
  0
LINE
  8
型材
  6
CONTINUOUS
 62
    32
 10
44.565885
 20
7.079147
 11
44.565885
 21
63.181612
  0
LINE
  8
型材
  6
CONTINUOUS
 62
    32
 10
44.565885
 20
63.181612
 11
-52.52613
 21
63.181612
  0
LINE
  8
型材
  6
CONTINUOUS
 62
    32
 10
-52.52613
 20
63.181612
 11
-52.52613
 21
7.079147
  0
LINE
  8
型材
  6
CONTINUOUS
 62
    32
 10
44.565885
 20
7.079147
 11
-52.52613
 21
7.079147
  0
LINE
  8
型材
  6
CONTINUOUS
 62
    32
 10
-52.52613
 20
7.079147
 11
-48.980123
 21
10.625155
  0
LINE
  8
型材
  6
CONTINUOUS
 62
    32
 10
41.019878
 20
10.625155
 11
44.565885
 21
7.079147
  0
LINE
  8
型材
  6
CONTINUOUS
 62
    32
 10
41.019878
 20
59.635605
 11
44.565885
 21
63.181612
  0
LINE
  8
型材
  6
CONTINUOUS
 62
    32
 10
-52.52613
 20
63.181612
 11
-48.980123
 21
59.635605
  0
CIRCLE
  8
型材
 62
    32
 10
-126.658193
 20
75.68097
 40
4.756803
  0
ARC
  8
型材
 62
    32
 10
-125.17169
 20
75.68097
 40
1.486502
 50
180.0
 51
360.0
  0
ARC
  8
型材
 62
    32
 10
-128.144693
 20
75.68097
 40
1.486502
 50
0.0
 51
180.0
  0
LINE
  8
型材
  6
CONTINUOUS
 62
    32
 10
-168.614598
 20
75.68097
 11
-131.414995
 21
75.68097
  0
LINE
  8
型材
  6
CONTINUOUS
 62
    32
 10
-148.66408
 20
77.131665
 11
-151.56547
 21
74.230275
  0
LINE
  8
型材
  6
CONTINUOUS
 62
    32
 10
-147.956975
 20
77.131665
 11
-150.858365
 21
74.230275
  0
TEXT
  7
TextStyle03
  8
型材
 62
    32
 10
-119.025
 20
73.225
  1
ＡＣ１００Ｖ　４Ａ
 40
5.0
 72
     5
 11
-83.675
 21
73.225
  0
INSERT
  2
*GRP_0006
  8
型材
 62
    32
 10
0.0
 20
0.0
  0
LINE
  8
型材
  6
CONTINUOUS
 62
    32
 10
-170.065293
 20
-15.905613
 11
-167.163903
 21
-13.004223
  0
LINE
  8
型材
  6
CONTINUOUS
 62
    32
 10
-170.065293
 20
-16.612723
 11
-167.163903
 21
-13.711333
  0
LINE
  8
型材
  6
CONTINUOUS
 62
    32
 10
-170.065293
 20
-17.319827
 11
-167.163903
 21
-14.418437
  0
LINE
  8
型材
  6
CONTINUOUS
 62
    32
 10
-170.065293
 20
-18.026933
 11
-167.163903
 21
-15.125543
  0
LINE
  8
型材
  6
CONTINUOUS
 62
    32
 10
-170.065293
 20
-18.734043
 11
-167.163903
 21
-15.832653
  0
LINE
  8
型材
  6
CONTINUOUS
 62
    32
 10
-170.065293
 20
-19.441153
 11
-167.163903
 21
-16.539762
  0
LINE
  8
型材
  6
DASHDOT
 62
    32
 10
-163.58476
 20
-40.014307
 11
-125.759288
 21
-40.014307
  0
LINE
  8
型材
  6
CONTINUOUS
 62
    32
 10
-149.371185
 20
77.131665
 11
-152.272575
 21
74.230275
  0
LINE
  8
型材
  6
CONTINUOUS
 62
    32
 10
-170.065293
 20
-20.148262
 11
-167.163903
 21
-17.246872
  0
LINE
  8
型材
  6
DIVIDE2
 62
    32
 10
-183.614598
 20
-129.17013
 11
-153.614598
 21
-129.17013
  0
LINE
  8
型材
  6
DIVIDE2
 62
    32
 10
-183.614598
 20
-129.17013
 11
-183.614598
 21
-159.17013
  0
LINE
  8
型材
  6
DIVIDE2
 62
    32
 10
-183.614598
 20
-159.17013
 11
-153.614598
 21
-159.17013
  0
LINE
  8
型材
  6
DIVIDE2
 62
    32
 10
-153.614598
 20
-129.17013
 11
-153.614598
 21
-159.17013
  0
LINE
  8
型材
  6
DIVIDE2
 62
    32
 10
-183.614598
 20
-159.17013
 11
-168.614598
 21
-129.17013
  0
LINE
  8
型材
  6
DIVIDE2
 62
    32
 10
-168.614598
 20
-129.17013
 11
-153.614598
 21
-159.17013
  0
ARC
  8
型材
  6
DOT
 62
    32
 10
-53.457012
 20
-163.55558
 40
10.0
 50
180.0
 51
270.0
  0
LINE
  8
型材
  6
DOT
 62
    32
 10
-63.457013
 20
-154.0698
 11
-63.457013
 21
-163.55558
  0
ARC
  8
型材
  6
DOT
 62
    32
 10
-73.457012
 20
-154.0698
 40
10.0
 50
0.0
 51
90.0
  0
LINE
  8
型材
  6
DOT
 62
    32
 10
-53.457013
 20
-173.55558
 11
35.256643
 21
-173.55558
  0
LINE
  8
型材
  6
CONTINUOUS
 62
    32
 10
-48.980123
 20
-129.17013
 11
-48.980123
 21
-178.18058
  0
LINE
  8
型材
  6
CONTINUOUS
 62
    32
 10
41.019878
 20
-129.17013
 11
41.019878
 21
-178.18058
  0
LINE
  8
型材
  6
CONTINUOUS
 62
    32
 10
-48.980123
 20
-178.18058
 11
41.019878
 21
-178.18058
  0
LINE
  8
型材
  6
CONTINUOUS
 62
    32
 10
-48.980123
 20
-129.17013
 11
41.019878
 21
-129.17013
  0
LINE
  8
型材
  6
CONTINUOUS
 62
    32
 10
44.565885
 20
-181.726587
 11
44.565885
 21
-125.624122
  0
LINE
  8
型材
  6
CONTINUOUS
 62
    32
 10
44.565885
 20
-125.624122
 11
-52.52613
 21
-125.624122
  0
LINE
  8
型材
  6
CONTINUOUS
 62
    32
 10
-52.52613
 20
-125.624122
 11
-52.52613
 21
-181.726587
  0
LINE
  8
型材
  6
CONTINUOUS
 62
    32
 10
44.565885
 20
-181.726587
 11
-52.52613
 21
-181.726587
  0
LINE
  8
型材
  6
CONTINUOUS
 62
    32
 10
-52.52613
 20
-181.726587
 11
-48.980123
 21
-178.18058
  0
LINE
  8
型材
  6
CONTINUOUS
 62
    32
 10
41.019878
 20
-178.18058
 11
44.565885
 21
-181.726587
  0
LINE
  8
型材
  6
CONTINUOUS
 62
    32
 10
41.019878
 20
-129.17013
 11
44.565885
 21
-125.624122
  0
LINE
  8
型材
  6
CONTINUOUS
 62
    32
 10
-52.52613
 20
-125.624122
 11
-48.980123
 21
-129.17013
  0
CIRCLE
  8
型材
 62
    32
 10
-126.658193
 20
-113.124765
 40
4.756803
  0
ARC
  8
型材
 62
    32
 10
-125.17169
 20
-113.124765
 40
1.486502
 50
180.0
 51
360.0
  0
ARC
  8
型材
 62
    32
 10
-128.144693
 20
-113.124765
 40
1.486502
 50
0.0
 51
180.0
  0
LINE
  8
型材
  6
CONTINUOUS
 62
    32
 10
-168.614598
 20
-113.124765
 11
-131.414995
 21
-113.124765
  0
LINE
  8
型材
  6
CONTINUOUS
 62
    32
 10
-148.66408
 20
-111.67407
 11
-151.56547
 21
-114.57546
  0
LINE
  8
型材
  6
CONTINUOUS
 62
    32
 10
-147.956975
 20
-111.67407
 11
-150.858365
 21
-114.57546
  0
TEXT
  7
TextStyle03
  8
型材
 62
    32
 10
-119.025
 20
-115.575
  1
ＡＣ１００Ｖ　４Ａ
 40
5.0
 72
     5
 11
-83.675
 21
-115.575
  0
INSERT
  2
*GRP_0010
  8
型材
 62
    32
 10
0.0
 20
0.0
  0
LINE
  8
型材
  6
CONTINUOUS
 62
    32
 10
-170.065293
 20
-204.711348
 11
-167.163903
 21
-201.809958
  0
LINE
  8
型材
  6
CONTINUOUS
 62
    32
 10
-170.065293
 20
-205.418458
 11
-167.163903
 21
-202.517068
  0
LINE
  8
型材
  6
CONTINUOUS
 62
    32
 10
-170.065293
 20
-206.125562
 11
-167.163903
 21
-203.224172
  0
LINE
  8
型材
  6
CONTINUOUS
 62
    32
 10
-170.065293
 20
-206.832668
 11
-167.163903
 21
-203.931278
  0
LINE
  8
型材
  6
CONTINUOUS
 62
    32
 10
-170.065293
 20
-207.539778
 11
-167.163903
 21
-204.638388
  0
LINE
  8
型材
  6
CONTINUOUS
 62
    32
 10
-170.065293
 20
-208.246887
 11
-167.163903
 21
-205.345497
  0
LINE
  8
型材
  6
DASHDOT
 62
    32
 10
-163.58476
 20
-228.820043
 11
-125.759288
 21
-228.820043
  0
LINE
  8
型材
  6
CONTINUOUS
 62
    32
 10
-149.371185
 20
-111.67407
 11
-152.272575
 21
-114.57546
  0
LINE
  8
型材
  6
CONTINUOUS
 62
    32
 10
-170.065293
 20
-208.953997
 11
-167.163903
 21
-206.052607
  0
ARC
  8
型材
 62
    32
 10
-164.453767
 20
233.525387
 40
5.308415
 50
270.0
 51
450.0
  0
ARC
  8
型材
 62
    32
 10
-172.775423
 20
233.525387
 40
5.308415
 50
90.0
 51
270.0
  0
LINE
  8
型材
  6
CONTINUOUS
 10
-164.45377
 20
238.833805
 11
-172.775425
 21
238.833805
  0
LINE
  8
型材
  6
CONTINUOUS
 10
-164.45377
 20
228.216975
 11
-172.775425
 21
228.216975
  0
LINE
  8
型材
 62
    32
 10
-172.25546
 20
233.54167
 11
-174.826855
 21
233.54167
  0
LINE
  8
型材
 62
    32
 10
-172.25546
 20
231.13312
 11
-172.25546
 21
233.54167
  0
LINE
  8
型材
 62
    32
 10
-168.97016
 20
233.54167
 11
-171.4667
 21
233.54167
  0
LINE
  8
型材
 62
    32
 10
-171.4667
 20
232.151935
 11
-171.4667
 21
233.54167
  0
LINE
  8
型材
 62
    32
 10
-171.4667
 20
234.9314
 11
-171.4667
 21
233.54167
  0
LINE
  8
型材
 62
    32
 10
-172.25546
 20
235.950215
 11
-172.25546
 21
233.54167
  0
TEXT
  7
TextStyle03
  8
型材
 62
    32
 10
-166.55
 20
230.8
  1
Ｍ
 40
5.2
 72
     5
 11
-161.35
 21
230.8
  0
ARC
  8
型材
 62
    32
 10
-164.453767
 20
44.719652
 40
5.308415
 50
270.0
 51
450.0
  0
ARC
  8
型材
 62
    32
 10
-172.775423
 20
44.719652
 40
5.308415
 50
90.0
 51
270.0
  0
LINE
  8
型材
  6
CONTINUOUS
 10
-164.45377
 20
50.02807
 11
-172.775425
 21
50.02807
  0
LINE
  8
型材
  6
CONTINUOUS
 10
-164.45377
 20
39.41124
 11
-172.775425
 21
39.41124
  0
LINE
  8
型材
 62
    32
 10
-172.25546
 20
44.735935
 11
-174.826855
 21
44.735935
  0
LINE
  8
型材
 62
    32
 10
-172.25546
 20
42.327385
 11
-172.25546
 21
44.735935
  0
LINE
  8
型材
 62
    32
 10
-168.97016
 20
44.735935
 11
-171.4667
 21
44.735935
  0
LINE
  8
型材
 62
    32
 10
-171.4667
 20
43.3462
 11
-171.4667
 21
44.735935
  0
LINE
  8
型材
 62
    32
 10
-171.4667
 20
46.125665
 11
-171.4667
 21
44.735935
  0
LINE
  8
型材
 62
    32
 10
-172.25546
 20
47.14448
 11
-172.25546
 21
44.735935
  0
TEXT
  7
TextStyle03
  8
型材
 62
    32
 10
-166.55
 20
42.0
  1
Ｍ
 40
5.2
 72
     5
 11
-161.35
 21
42.0
  0
ARC
  8
型材
 62
    32
 10
-164.453767
 20
-144.086083
 40
5.308415
 50
270.0
 51
450.0
  0
ARC
  8
型材
 62
    32
 10
-172.775423
 20
-144.086083
 40
5.308415
 50
90.0
 51
270.0
  0
LINE
  8
型材
  6
CONTINUOUS
 10
-164.45377
 20
-138.777665
 11
-172.775425
 21
-138.777665
  0
LINE
  8
型材
  6
CONTINUOUS
 10
-164.45377
 20
-149.394495
 11
-172.775425
 21
-149.394495
  0
LINE
  8
型材
 62
    32
 10
-172.25546
 20
-144.0698
 11
-174.826855
 21
-144.0698
  0
LINE
  8
型材
 62
    32
 10
-172.25546
 20
-146.47835
 11
-172.25546
 21
-144.0698
  0
LINE
  8
型材
 62
    32
 10
-168.97016
 20
-144.0698
 11
-171.4667
 21
-144.0698
  0
LINE
  8
型材
 62
    32
 10
-171.4667
 20
-145.459535
 11
-171.4667
 21
-144.0698
  0
LINE
  8
型材
 62
    32
 10
-171.4667
 20
-142.68007
 11
-171.4667
 21
-144.0698
  0
LINE
  8
型材
 62
    32
 10
-172.25546
 20
-141.661255
 11
-172.25546
 21
-144.0698
  0
TEXT
  7
TextStyle03
  8
型材
 62
    32
 10
-166.55
 20
-146.8
  1
Ｍ
 40
5.2
 72
     5
 11
-161.35
 21
-146.8
  0
LINE
  8
型材
  6
CONTINUOUS
 62
    32
 10
-168.614598
 20
-113.124765
 11
-168.614598
 21
-138.777665
  0
LINE
  8
型材
  6
DASHDOT
 62
    32
 10
-168.614598
 20
-222.820043
 11
-168.614598
 21
-149.394495
  0
LINE
  8
型材
  6
DOT
 62
    32
 10
-73.457013
 20
-144.0698
 11
-159.145378
 21
-144.0698
  0
LINE
  8
型材
  6
DOT
 62
    32
 10
-73.457013
 20
44.735935
 11
-159.145378
 21
44.735935
  0
LINE
  8
型材
  6
CONTINUOUS
 62
    32
 10
-168.614598
 20
75.68097
 11
-168.614598
 21
50.02807
  0
LINE
  8
型材
  6
DASHDOT
 62
    32
 10
-168.614598
 20
-34.014307
 11
-168.614598
 21
39.41124
  0
LINE
  8
型材
  6
CONTINUOUS
 62
    32
 10
-168.614598
 20
264.486705
 11
-168.614598
 21
238.833805
  0
LINE
  8
型材
  6
DOT
 62
    32
 10
-73.457013
 20
233.54167
 11
-159.145378
 21
233.54167
  0
LINE
  8
型材
  6
DASHDOT
 62
    32
 10
-168.614598
 20
154.791427
 11
-168.614598
 21
228.216975
  0
POLYLINE
  8
型材
  6
CONTINUOUS
 62
    32
 66
     1
 70
     1
  0
VERTEX
  8
型材
 10
-225.318983
 20
273.658935
  0
VERTEX
  8
型材
 10
-381.571253
 20
273.658935
  0
VERTEX
  8
型材
 10
-381.571253
 20
258.129523
  0
VERTEX
  8
型材
 10
-225.318983
 20
258.129523
  0
SEQEND
  0
LINE
  8
型材
 62
    32
 10
194.126702
 20
262.933553
 11
261.726072
 21
262.933553
  0
TEXT
  7
TextStyle03
  8
型材
 62
    32
 10
193.2
 20
222.475
  1
２．オペレーターシステムの概要
 40
4.0
 72
     5
 11
250.05
 21
222.475
  0
TEXT
  7
TextStyle03
  8
型材
 62
    32
 10
193.2
 20
251.9
  1
１．オペレーターシステムの機種
 40
4.0
 72
     5
 11
250.05
 21
251.9
  0
TEXT
  7
TextStyle03
  8
型材
 62
    32
 10
193.2
 20
119.425
  1
４．需給電源
 40
4.0
 72
     5
 11
216.075
 21
119.425
  0
TEXT
  7
TextStyle03
  8
型材
 62
    32
 10
200.775
 20
235.725
  1
オペレーター機種はワイヤー式　排煙オペレーター（電動駆動装置　耐熱タイプ）とします。
 40
4.0
 72
     5
 11
359.55
 21
235.725
  0
TEXT
  7
TextStyle03
  8
型材
 62
    32
 10
200.125
 20
216.175
  1
１）本オペレーターシステム遠隔操作スイッチにて窓を開閉します。
 40
4.0
 72
     5
 11
317.375
 21
216.175
  0
TEXT
  7
TextStyle03
  8
型材
 62
    32
 10
207.425
 20
201.975
  1
※配線が断線した場合は動かないものとします。
 40
4.0
 72
     5
 11
290.7
 21
201.975
  0
TEXT
  7
TextStyle03
  8
型材
 62
    32
 10
193.225
 20
187.075
  1
３．オペレーター遠隔操作スイッチ仕様
 40
4.0
 72
     5
 11
261.4
 21
187.075
  0
TEXT
  7
TextStyle03
  8
型材
 62
    32
 10
199.225
 20
179.075
  1
・「開」スイッチ・・・・・排煙ﾄｯﾌﾟﾗｲﾄ開放
 40
4.0
 72
     5
 11
276.8375
 21
179.075
  0
TEXT
  7
TextStyle03
  8
型材
 62
    32
 10
199.125
 20
171.075
  1
・「停」スイッチ・・・・・排煙ﾄｯﾌﾟﾗｲﾄ停止
 40
4.0
 72
     5
 11
276.7375
 21
171.075
  0
TEXT
  7
TextStyle03
  8
型材
 62
    32
 10
199.2
 20
163.075
  1
・「閉」スイッチ・・・・・排煙ﾄｯﾌﾟﾗｲﾄ閉鎖
 40
4.0
 72
     5
 11
276.8125
 21
163.075
  0
TEXT
  7
TextStyle03
  8
型材
 62
    32
 10
198.725
 20
155.075
  1
※停止動作については一度「全開」させてから閉動作中のみ可能です。
 40
4.0
 72
     5
 11
319.75
 21
155.075
  0
TEXT
  7
TextStyle03
  8
型材
 62
    32
 10
199.125
 20
147.075
  1
・「開」ランプ・・・・・・赤ランプ点灯（ﾄｯﾌﾟﾗｲﾄ開放及び半開状態）
 40
4.0
 72
     5
 11
322.0375
 21
147.075
  0
TEXT
  7
TextStyle03
  8
型材
 62
    32
 10
199.15
 20
139.075
  1
・「閉」ランプ・・・・・・緑ランプ点灯（ﾄｯﾌﾟﾗｲﾄ閉鎖状態）
 40
4.0
 72
     5
 11
306.9625
 21
139.075
  0
TEXT
  7
TextStyle03
  8
型材
 62
    32
 10
195.25
 20
263.55
  1
排煙オペレーターシステム
 40
6.2
 72
     5
 11
260.4
 21
263.55
  0
TEXT
  7
TextStyle03
  8
型材
 62
    32
 10
200.825
 20
243.975
  1
トップライト仕様：
 40
4.0
 72
     5
 11
235.025
 21
243.975
  0
TEXT
  7
TextStyle03
  8
型材
 62
    32
 10
199.1
 20
113.225
  1
・単相ＡＣ１００Ｖ
 40
4.0
 72
     5
 11
233.3
 21
113.225
  0
TEXT
  7
TextStyle03
  8
型材
 62
    32
 10
235.85
 20
243.975
  1
排煙トップライト
 40
4.0
 72
     5
 11
266.275
 21
243.975
  0
TEXT
  7
TextStyle03
  8
型材
 62
    32
 10
227.3
 20
-15.275
  1
　　　　　　　名　　　　　称
 40
4.125
 72
     5
 11
274.75
 21
-15.275
  0
TEXT
  7
TextStyle03
  8
型材
 62
    32
 10
207.525
 20
-15.275
  1
記　号
 40
4.125
 72
     5
 11
217.85
 21
-15.275
  0
POINT
  8
型材
 62
    32
 10
201.52118
 20
-9.46776
  0
TEXT
  7
TextStyle03
  8
型材
 62
    32
 10
193.1
 20
-6.425
  1
７．記号
 40
4.0
 72
     5
 11
208.425
 21
-6.425
  0
POINT
  8
型材
 62
    32
 10
202.78902
 20
57.56336
  0
TEXT
  7
TextStyle03
  8
型材
 62
    32
 10
212.825
 20
51.575
  1
　　　施　工　内　容
 40
4.125
 72
     5
 11
246.775
 21
51.575
  0
LINE
  8
型材
 62
    32
 10
202.78902
 20
37.468935
 11
202.78902
 21
57.56336
  0
LINE
  8
型材
 62
    32
 10
202.78902
 20
18.667152
 11
202.78902
 21
37.468935
  0
TEXT
  7
TextStyle03
  8
型材
 62
    32
 10
193.175
 20
60.075
  1
６．施工区分
 40
4.0
 72
     5
 11
216.05
 21
60.075
  0
TEXT
  7
TextStyle03
  8
型材
 62
    32
 10
193.2
 20
77.075
  1
５．配線基準
 40
4.0
 72
     5
 11
216.075
 21
77.075
  0
TEXT
  7
TextStyle03
  8
型材
 62
    32
 10
198.7
 20
70.825
  1
・配線の一般基準事項「電気設備技術基準」とする。
 40
4.0
 72
     5
 11
289.525
 21
70.825
  0
TEXT
  7
TextStyle03
  8
型材
 62
    32
 10
204.1
 20
31.675
  1
ジョイントボツクスの供給、取付、結線
 40
4.0
 72
     5
 11
272.275
 21
31.675
  0
TEXT
  7
TextStyle03
  8
型材
 62
    32
 10
204.1
 20
25.4
  1
電動駆動装置の供給、取付
 40
4.0
 72
     5
 11
249.625
 21
25.4
  0
TEXT
  7
TextStyle03
  8
型材
 62
    32
 10
204.1
 20
19.575
  1
オペレーター遠隔操作SWの供給、取付
 40
4.0
 72
     5
 11
268.5
 21
19.575
  0
LINE
  8
型材
 62
    32
 10
341.123827
 20
19.308305
 11
341.123827
 21
58.204513
  0
TEXT
  7
TextStyle03
  8
型材
 62
    32
 10
316.4
 20
51.825
  1
電気設備工事
 40
4.125
 72
     5
 11
336.85
 21
51.825
  0
LINE
  8
型材
 62
    32
 10
308.583182
 20
37.468935
 11
308.583182
 21
58.204513
  0
CIRCLE
  8
型材
 62
    32
 10
290.550692
 20
28.443005
 40
2.106908
  0
CIRCLE
  8
型材
 62
    32
 10
290.550692
 20
22.175745
 40
2.106908
  0
CIRCLE
  8
型材
 62
    32
 10
325.10784
 20
34.11538
 40
2.106908
  0
CIRCLE
  8
型材
 62
    32
 10
325.10784
 20
40.38264
 40
2.106908
  0
CIRCLE
  8
型材
 62
    32
 10
325.10784
 20
46.649902
 40
2.106908
  0
LINE
  8
型材
 62
    32
 10
274.026035
 20
18.667152
 11
274.026035
 21
58.204513
  0
LINE
  8
型材
 62
    32
 10
202.78902
 20
51.289348
 11
341.123827
 21
51.289348
  0
LINE
  8
型材
 62
    32
 10
202.78902
 20
58.204513
 11
341.123827
 21
58.204513
  0
LINE
  8
型材
 62
    32
 10
202.78902
 20
43.736195
 11
341.123827
 21
43.736195
  0
LINE
  8
型材
 62
    32
 10
202.78902
 20
37.468935
 11
341.123827
 21
37.468935
  0
LINE
  8
型材
 62
    32
 10
202.78902
 20
31.201675
 11
341.123827
 21
31.201675
  0
LINE
  8
型材
 62
    32
 10
202.78902
 20
24.934412
 11
341.123827
 21
24.934412
  0
LINE
  8
型材
 62
    32
 10
202.78902
 20
18.667152
 11
341.123827
 21
18.667152
  0
LINE
  8
型材
 62
    32
 10
202.78902
 20
13.041045
 11
341.123827
 21
13.041045
  0
LINE
  8
型材
 62
    32
 10
201.52118
 20
-9.46776
 11
341.123827
 21
-9.46776
  0
TEXT
  7
TextStyle03
  8
型材
 62
    32
 10
277.425
 20
51.575
  1
トップライト工事
 40
4.125
 72
     5
 11
304.625
 21
51.575
  0
TEXT
  7
TextStyle03
  8
型材
 62
    32
 10
237.8
 20
113.225
  1
４Ａ（電動駆動装置（４Ａ／台）４Ａ×４台＝１６Ａ）
 40
4.0
 72
     5
 11
332.4
 21
113.225
  0
TEXT
  7
TextStyle03
  8
型材
 62
    32
 10
199.1
 20
105.475
  1
・防災電源を設ける場合は電動駆動装置４Ａ×４台＝１６Ａ（１００Ｖ）の電力が必要です。
 40
4.0
 72
     5
 11
357.875
 21
105.475
  0
TEXT
  7
TextStyle03
  8
型材
 62
    32
 10
204.1
 20
44.2
  1
一次側電気通線、配管、結線
 40
4.0
 72
     5
 11
253.4
 21
44.2
  0
TEXT
  7
TextStyle03
  8
型材
 62
    32
 10
204.1
 20
37.95
  1
二次側電気通線、配管、結線
 40
4.0
 72
     5
 11
253.4
 21
37.95
  0
TEXT
  7
TextStyle05
  8
型材
 62
   127
 10
92.425
 20
-196.025
  1
※　電気配管、通線、結線工事は一次、二次とも全て電気設備工事となります。
 40
8.0
 72
     5
 11
364.675
 21
-196.025
  0
TEXT
  7
TextStyle03
  8
型材
 62
    32
 10
200.275
 20
-97.5
  1
※　電源線の太さ及び種類は、電圧降下（±５％以下）を考慮の上決定すること。
 40
5.0
 72
     5
 11
375.375
 21
-97.5
  0
TEXT
  7
TextStyle03
  8
型材
 62
    32
 10
200.175
 20
-106.35
  1
※　電線は番号分け又は、色分けされたものにすること。
 40
5.0
 72
     5
 11
323.3
 21
-106.35
  0
TEXT
  7
TextStyle03
  8
型材
 62
    32
 10
200.175
 20
-126.0
  1
※　信号線の太さは、片道50ｍ未満は1.2mm、50～100
 40
5.0
 72
     5
 11
313.7125
 21
-126.0
  0
TEXT
  7
TextStyle03
  8
型材
 62
    32
 10
200.175
 20
-131.0
  1
　　
 40
5.0
 72
     5
 11
209.9
 21
-131.0
  0
TEXT
  7
TextStyle03
  8
型材
 62
    32
 10
200.175
 20
-136.0
  1
　　以下は1.6mmとします。
 40
5.0
 72
     5
 11
259.5125
 21
-136.0
  0
TEXT
  7
TextStyle03
  8
型材
 62
    32
 10
200.175
 20
-115.725
  1
※　信号線の種類は基本的に耐火ケーブルとします。（排煙装置の場合）
 40
5.0
 72
     5
 11
356.375
 21
-115.725
  0
TEXT
  7
TextStyle03
  8
型材
 62
    32
 10
200.275
 20
-87.625
  1
※　スイッチボックス１つに対して操作できる電動駆動装置は最大４つまでとします。
 40
5.0
 72
     5
 11
384.825
 21
-87.625
  0
INSERT
  2
*GRP_0014
  8
型材
 62
    32
 10
0.0
 20
0.0
  0
TEXT
  7
TextStyle03
  8
型材
 62
    32
 10
211.1
 20
-34.15
  1
Ｍ
 40
2.65
 72
     5
 11
213.85
 21
-34.15
  0
CIRCLE
  8
型材
 62
    32
 10
212.138012
 20
-32.843512
 40
2.654208
  0
TEXT
  7
TextStyle03
  8
型材
 62
    32
 10
225.375
 20
-41.55
  1
オペレーター遠隔操作スイッチ
 40
4.0
 72
     5
 11
278.45
 21
-41.55
  0
TEXT
  7
TextStyle03
  8
型材
 62
    32
 10
225.375
 20
-35.3
  1
電動駆動装置耐熱
 40
4.0
 72
     5
 11
255.8
 21
-35.3
  0
LINE
  8
型材
 62
    32
 10
201.52118
 20
-22.650187
 11
341.123827
 21
-22.650187
  0
LINE
  8
型材
 62
    32
 10
201.52118
 20
-42.096707
 11
341.123827
 21
-42.096707
  0
LINE
  8
型材
 62
    32
 10
201.52118
 20
-35.829447
 11
341.123827
 21
-35.829447
  0
LINE
  8
型材
 62
    32
 10
201.52118
 20
-29.562185
 11
341.123827
 21
-29.562185
  0
LINE
  8
型材
 62
    32
 10
201.52118
 20
-15.73819
 11
341.123827
 21
-15.73819
  0
ARC
  8
型材
 62
    32
 10
213.133341
 20
-19.332429
 40
0.995328
 50
180.0
 51
360.0
  0
ARC
  8
型材
 62
    32
 10
211.142685
 20
-19.332429
 40
0.995328
 50
0.0
 51
180.0
  0
CIRCLE
  8
型材
 62
    32
 10
212.138012
 20
-19.332427
 40
2.654208
  0
TEXT
  7
TextStyle03
  8
型材
 62
    32
 10
225.375
 20
-22.125
  1
電源（単相ＡＣ１００Ｖ）
 40
4.0
 72
     5
 11
270.9
 21
-22.125
  0
TEXT
  7
TextStyle03
  8
型材
 62
    32
 10
213.075
 20
-27.625
  1
Ｍ
 40
2.65
 72
     5
 11
215.825
 21
-27.625
  0
ARC
  8
型材
 62
    32
 10
214.131289
 20
-26.28216
 40
2.654208
 50
270.0
 51
450.0
  0
ARC
  8
型材
 62
    32
 10
209.970461
 20
-26.28216
 40
2.654208
 50
90.0
 51
270.0
  0
LINE
  8
型材
  6
CONTINUOUS
 10
214.131287
 20
-23.627952
 11
209.97046
 21
-23.627952
  0
LINE
  8
型材
  6
CONTINUOUS
 10
214.131287
 20
-28.936367
 11
209.97046
 21
-28.936367
  0
LINE
  8
型材
 62
    32
 10
210.230443
 20
-26.27402
 11
208.944745
 21
-26.27402
  0
LINE
  8
型材
 62
    32
 10
210.230443
 20
-27.478295
 11
210.230443
 21
-26.27402
  0
LINE
  8
型材
 62
    32
 10
211.873092
 20
-26.27402
 11
210.624822
 21
-26.27402
  0
LINE
  8
型材
 62
    32
 10
210.624822
 20
-26.968887
 11
210.624822
 21
-26.27402
  0
LINE
  8
型材
 62
    32
 10
210.624822
 20
-25.579155
 11
210.624822
 21
-26.27402
  0
LINE
  8
型材
 62
    32
 10
210.230443
 20
-25.069747
 11
210.230443
 21
-26.27402
  0
TEXT
  7
TextStyle03
  8
型材
 62
    32
 10
225.375
 20
-29.05
  1
予備電源内蔵電動駆動装置耐熱
 40
4.0
 72
     5
 11
278.45
 21
-29.05
  0
LINE
  8
型材
 62
    32
 10
202.6271
 20
-51.86643
 11
220.362192
 21
-51.86643
  0
LINE
  8
型材
 62
    32
 10
210.2995
 20
-46.907972
 11
210.2995
 21
-43.56367
  0
LINE
  8
型材
 62
    32
 10
213.643802
 20
-46.907972
 11
213.643802
 21
-43.56367
  0
LINE
  8
型材
 62
    32
 10
213.643802
 20
-46.907972
 11
210.2995
 21
-46.907972
  0
LINE
  8
型材
 62
    32
 10
210.2995
 20
-43.56367
 11
213.643802
 21
-43.56367
  0
CIRCLE
  8
型材
 62
    32
 10
211.97165
 20
-45.274122
 40
0.906992
  0
TEXT
  7
TextStyle03
  8
型材
 62
    32
 10
225.35
 20
-47.35
  1
ジョイントボックス
 40
4.0
 72
     5
 11
259.55
 21
-47.35
  0
LINE
  8
型材
 62
    32
 10
201.52118
 20
-48.36397
 11
341.123827
 21
-48.36397
  0
LINE
  8
型材
 62
    32
 10
201.52118
 20
-54.63123
 11
341.123827
 21
-54.63123
  0
LINE
  8
型材
 62
    32
 10
201.52118
 20
-60.898492
 11
341.123827
 21
-60.898492
  0
LINE
  8
型材
  6
DASHDOT
 62
    32
 10
202.6271
 20
-58.133692
 11
220.362192
 21
-58.133692
  0
TEXT
  7
TextStyle03
  8
型材
 62
    32
 10
225.375
 20
-53.625
  1
電源線
 40
4.0
 72
     5
 11
236.925
 21
-53.625
  0
TEXT
  7
TextStyle03
  8
型材
 62
    32
 10
225.375
 20
-59.8
  1
信号線
 40
4.0
 72
     5
 11
236.925
 21
-59.8
  0
LINE
  8
型材
 62
    32
 10
201.52118
 20
-42.096707
 11
201.52118
 21
-60.898492
  0
LINE
  8
型材
 62
    32
 10
222.25653
 20
-9.46776
 11
222.25653
 21
-60.898492
  0
LINE
  8
型材
 62
    32
 10
201.52118
 20
-9.46776
 11
201.52118
 21
-60.898492
  0
LINE
  8
型材
  6
CONTINUOUS
 62
    32
 10
341.123827
 20
-9.46776
 11
341.123827
 21
-60.898492
  0
TEXT
  7
TextStyle03
  8
型材
 62
    32
 10
200.075
 20
208.7
  1
２）予備電源内蔵電動駆動装置を設置した場合は排煙ﾄｯﾌﾟﾗｲﾄの開動作が１回可能です。
 40
4.0
 72
     5
 11
349.4125
 21
208.7
  0
TEXT
  7
TextStyle03
  8
型材
 62
    32
 10
204.1
 20
13.325
  1
排煙ﾄｯﾌﾟﾗｲﾄの調整
 40
4.0
 72
     5
 11
236.4125
 21
13.325
  0
CIRCLE
  8
型材
 62
    32
 10
290.550692
 20
15.899545
 40
2.106908
  0
LINE
  8
型材
 62
    32
 10
308.583182
 20
37.468935
 11
308.583182
 21
13.041045
  0
LINE
  8
型材
 62
    32
 10
274.026035
 20
18.667152
 11
274.026035
 21
13.041045
  0
LINE
  8
型材
 62
    32
 10
308.583182
 20
18.667152
 11
308.583182
 21
13.041045
  0
LINE
  8
型材
 62
    32
 10
341.123827
 20
19.308305
 11
341.123827
 21
13.041045
  0
LINE
  8
型材
 62
    32
 10
274.026035
 20
18.667152
 11
274.026035
 21
13.041045
  0
LINE
  8
型材
 62
    32
 10
202.78902
 20
18.667152
 11
202.78902
 21
13.041045
  0
LINE
  8
文字
  6
CONTINUOUS
 62
    32
 10
231.9
 20
-263.525
 11
244.9
 21
-263.525
  0
LINE
  8
文字
  6
CONTINUOUS
 62
    32
 10
231.9
 20
-265.525
 11
244.9
 21
-265.525
  0
TEXT
  7
TextStyle03
  8
文字
  6
CONTINUOUS
 62
    32
 10
-126.2
 20
215.65
  1
ワイヤー配管
 40
4.0
 72
     5
 11
-99.7
 21
215.65
  0
TEXT
  7
TextStyle03
  8
文字
  6
CONTINUOUS
 62
    32
 10
-18.1
 20
220.95
  1
トップライト
 40
4.0
 72
     5
 11
8.4
 21
220.95
  0
TEXT
  7
TextStyle03
  8
文字
  6
CONTINUOUS
 62
    32
 10
-235.675
 20
222.55
  1
電動駆動装置耐熱タイプ
 40
4.0
 72
     5
 11
-186.675
 21
222.55
  0
TEXT
  7
TextStyle03
  8
文字
  6
CONTINUOUS
 62
    32
 10
-235.675
 20
218.05
  1
(別途天井点検口必要)
 40
4.0
 72
     5
 11
-190.925
 21
218.05
  0
TEXT
  7
TextStyle03
  8
文字
  6
CONTINUOUS
 62
    32
 10
-188.0
 20
136.4
  1
スイッチボックス
 40
4.0
 72
     5
 11
-152.5
 21
136.4
  0
TEXT
  7
TextStyle03
  8
文字
  6
CONTINUOUS
 62
    32
 10
-159.25
 20
149.925
  1
▽FL+800～1500
 40
4.0
 72
     5
 11
-128.0
 21
149.925
  0
TEXT
  7
TextStyle03
  8
文字
  6
CONTINUOUS
 62
    32
 10
-125.575
 20
243.925
  1
電源線（３Ｃ）耐火ケーブル
 40
3.5
 72
     5
 11
-74.675
 21
243.925
  0
TEXT
  7
TextStyle03
  8
文字
  6
CONTINUOUS
 62
    32
 10
-125.575
 20
239.975
  1
(配管・通線・結線・電気設備工事)
 40
3.5
 72
     5
 11
-62.6
 21
239.975
  0
TEXT
  7
TextStyle03
  8
文字
  6
CONTINUOUS
 62
    32
 10
-263.875
 20
201.05
  1
信号線（６Ｃ）耐火ケーブル
 40
3.5
 72
     5
 11
-212.975
 21
201.05
  0
TEXT
  7
TextStyle03
  8
文字
  6
CONTINUOUS
 62
    32
 10
-275.95
 20
197.1
  1
(配管・通線・結線・電気設備工事)
 40
3.5
 72
     5
 11
-212.975
 21
197.1
  0
TEXT
  7
TextStyle03
  8
文字
  6
CONTINUOUS
 62
    32
 10
-126.2
 20
26.85
  1
ワイヤー配管
 40
4.0
 72
     5
 11
-99.7
 21
26.85
  0
TEXT
  7
TextStyle03
  8
文字
  6
CONTINUOUS
 62
    32
 10
-18.1
 20
32.15
  1
トップライト
 40
4.0
 72
     5
 11
8.4
 21
32.15
  0
TEXT
  7
TextStyle03
  8
文字
  6
CONTINUOUS
 62
    32
 10
-235.675
 20
33.75
  1
電動駆動装置耐熱タイプ
 40
4.0
 72
     5
 11
-186.675
 21
33.75
  0
TEXT
  7
TextStyle03
  8
文字
  6
CONTINUOUS
 62
    32
 10
-235.675
 20
29.25
  1
(別途天井点検口必要)
 40
4.0
 72
     5
 11
-190.925
 21
29.25
  0
TEXT
  7
TextStyle03
  8
文字
  6
CONTINUOUS
 62
    32
 10
-188.0
 20
-52.4
  1
スイッチボックス
 40
4.0
 72
     5
 11
-152.5
 21
-52.4
  0
TEXT
  7
TextStyle03
  8
文字
  6
CONTINUOUS
 62
    32
 10
-159.25
 20
-38.875
  1
▽FL+800～1500
 40
4.0
 72
     5
 11
-128.0
 21
-38.875
  0
TEXT
  7
TextStyle03
  8
文字
  6
CONTINUOUS
 62
    32
 10
-125.575
 20
55.125
  1
電源線（３Ｃ）耐火ケーブル
 40
3.5
 72
     5
 11
-74.675
 21
55.125
  0
TEXT
  7
TextStyle03
  8
文字
  6
CONTINUOUS
 62
    32
 10
-125.575
 20
51.175
  1
(配管・通線・結線・電気設備工事)
 40
3.5
 72
     5
 11
-62.6
 21
51.175
  0
TEXT
  7
TextStyle03
  8
文字
  6
CONTINUOUS
 62
    32
 10
-263.875
 20
12.25
  1
信号線（６Ｃ）耐火ケーブル
 40
3.5
 72
     5
 11
-212.975
 21
12.25
  0
TEXT
  7
TextStyle03
  8
文字
  6
CONTINUOUS
 62
    32
 10
-275.95
 20
8.3
  1
(配管・通線・結線・電気設備工事)
 40
3.5
 72
     5
 11
-212.975
 21
8.3
  0
TEXT
  7
TextStyle03
  8
文字
  6
CONTINUOUS
 62
    32
 10
-126.2
 20
-161.95
  1
ワイヤー配管
 40
4.0
 72
     5
 11
-99.7
 21
-161.95
  0
TEXT
  7
TextStyle03
  8
文字
  6
CONTINUOUS
 62
    32
 10
-18.1
 20
-156.65
  1
トップライト
 40
4.0
 72
     5
 11
8.4
 21
-156.65
  0
TEXT
  7
TextStyle03
  8
文字
  6
CONTINUOUS
 62
    32
 10
-235.675
 20
-155.05
  1
電動駆動装置耐熱タイプ
 40
4.0
 72
     5
 11
-186.675
 21
-155.05
  0
TEXT
  7
TextStyle03
  8
文字
  6
CONTINUOUS
 62
    32
 10
-235.675
 20
-159.55
  1
(別途天井点検口必要)
 40
4.0
 72
     5
 11
-190.925
 21
-159.55
  0
TEXT
  7
TextStyle03
  8
文字
  6
CONTINUOUS
 62
    32
 10
-188.0
 20
-241.2
  1
スイッチボックス
 40
4.0
 72
     5
 11
-152.5
 21
-241.2
  0
TEXT
  7
TextStyle03
  8
文字
  6
CONTINUOUS
 62
    32
 10
-159.25
 20
-227.675
  1
▽FL+800～1500
 40
4.0
 72
     5
 11
-128.0
 21
-227.675
  0
TEXT
  7
TextStyle03
  8
文字
  6
CONTINUOUS
 62
    32
 10
-125.575
 20
-133.675
  1
電源線（３Ｃ）耐火ケーブル
 40
3.5
 72
     5
 11
-74.675
 21
-133.675
  0
TEXT
  7
TextStyle03
  8
文字
  6
CONTINUOUS
 62
    32
 10
-125.575
 20
-137.625
  1
(配管・通線・結線・電気設備工事)
 40
3.5
 72
     5
 11
-62.6
 21
-137.625
  0
TEXT
  7
TextStyle03
  8
文字
  6
CONTINUOUS
 62
    32
 10
-263.875
 20
-176.55
  1
信号線（６Ｃ）耐火ケーブル
 40
3.5
 72
     5
 11
-212.975
 21
-176.55
  0
TEXT
  7
TextStyle03
  8
文字
  6
CONTINUOUS
 62
    32
 10
-275.95
 20
-180.5
  1
(配管・通線・結線・電気設備工事)
 40
3.5
 72
     5
 11
-212.975
 21
-180.5
  0
TEXT
  7
TextStyle03
  8
文字
  6
CONTINUOUS
 62
    32
 10
-374.5
 20
265.35
  1
排煙トップライトには防災電源（非常電源）を設けて下さい。
 40
3.0
 72
     5
 11
-280.375
 21
265.35
  0
TEXT
  7
TextStyle03
  8
文字
  6
CONTINUOUS
 62
    32
 10
-374.5
 20
261.975
  1
防災電源が設けられない場合は予備電源内蔵電動駆動装置をオプションとしてご用意できます。
 40
3.0
 72
     5
 11
-229.75
 21
261.975
  0
TEXT
  7
TextStyle03
  8
文字
  6
CONTINUOUS
 62
    32
 10
-347.0
 20
250.275
  1
※予備電源内蔵電動駆動装置を含め4台まで接続可能。
 40
3.0
 72
     5
 11
-264.6875
 21
250.275
  0
TEXT
  7
TextStyle03
  8
文字
  6
CONTINUOUS
 62
    32
 10
-347.0
 20
244.75
  1
※個別操作の場合は操作区画ごとに予備電源内蔵駆動装置が必要になります。
 40
3.0
 72
     5
 11
-229.25
 21
244.75
  0
TEXT
  7
TextStyle03
  8
文字
  6
CONTINUOUS
 62
    32
 10
289.025
 20
-276.55
  1
基本システム図（個別操作）
 40
4.0
 72
     5
 11
347.025
 21
-276.55
  0
TEXT
  7
TextStyle03
  8
文字
  6
CONTINUOUS
 62
    32
 10
289.025
 20
-281.05
  1
予備電源内蔵型
 40
4.0
 72
     5
 11
320.025
 21
-281.05
  0
INSERT
  2
*GRP_0003
  8
寸法
  6
CONTINUOUS
 62
    32
 10
0.0
 20
0.0
  0
INSERT
  2
*GRP_0004
  8
寸法
  6
CONTINUOUS
 62
    32
 10
0.0
 20
0.0
  0
INSERT
  2
*GRP_0005
  8
寸法
  6
CONTINUOUS
 62
    32
 10
0.0
 20
0.0
  0
INSERT
  2
*GRP_0007
  8
寸法
  6
CONTINUOUS
 62
    32
 10
0.0
 20
0.0
  0
INSERT
  2
*GRP_0008
  8
寸法
  6
CONTINUOUS
 62
    32
 10
0.0
 20
0.0
  0
INSERT
  2
*GRP_0009
  8
寸法
  6
CONTINUOUS
 62
    32
 10
0.0
 20
0.0
  0
INSERT
  2
*GRP_0011
  8
寸法
  6
CONTINUOUS
 62
    32
 10
0.0
 20
0.0
  0
INSERT
  2
*GRP_0012
  8
寸法
  6
CONTINUOUS
 62
    32
 10
0.0
 20
0.0
  0
INSERT
  2
*GRP_0013
  8
寸法
  6
CONTINUOUS
 62
    32
 10
0.0
 20
0.0
  0
POLYLINE
  8
St
  6
CONTINUOUS
 62
   127
 66
     1
 70
     1
  0
VERTEX
  8
St
 10
367.44596
 20
-180.118148
  0
VERTEX
  8
St
 10
81.59055
 20
-180.118148
  0
VERTEX
  8
St
 10
81.59055
 20
-204.527613
  0
VERTEX
  8
St
 10
367.44596
 20
-204.527613
  0
SEQEND
  0
INSERT
  2
*GRP_0001
  8
その他部品等
  6
CONTINUOUS
 62
    32
 10
0.0
 20
0.0
  0
ENDSEC
  0
EOF
