  0
SECTION
  2
HEADER
  9
$EXTMIN
 10
-420.5
 20
-297.0
  9
$EXTMAX
 10
420.5
 20
297.0
  9
$PDMODE
 70
    32
  9
$PDSIZE
 40
1.5
  9
$LTSCALE
 40
10.0
  0
ENDSEC
  0
SECTION
  2
TABLES
  0
TABLE
  2
LTYPE
 70
    15
  0
LTYPE
  2
CONTINUOUS
 70
    64
  3
実線
 72
    65
 73
     0
 40
0.0
  0
LTYPE
  2
DASHED
 70
    64
  3
破線A
 72
    65
 73
     2
 40
0.6
 49
0.4
 49
-0.2
  0
LTYPE
  2
DASHEDX2
 70
    64
  3
破線B
 72
    65
 73
     2
 40
1.3
 49
0.9
 49
-0.4
  0
LTYPE
  2
DASHDOT
 70
    64
  3
１点鎖線A
 72
    65
 73
     4
 40
0.5375
 49
0.375
 49
-0.05
 49
0.0625
 49
-0.05
  0
LTYPE
  2
DASHDOTX2
 70
    64
  3
１点鎖線B
 72
    65
 73
     4
 40
1.075
 49
0.75
 49
-0.1
 49
0.125
 49
-0.1
  0
LTYPE
  2
DIVIDE2
 70
    64
  3
２点鎖線A
 72
    65
 73
     6
 40
0.5125
 49
0.3
 49
-0.0375
 49
0.05
 49
-0.0375
 49
0.05
 49
-0.0375
  0
LTYPE
  2
DIVIDE
 70
    64
  3
２点鎖線B
 72
    65
 73
     6
 40
1.05
 49
0.55
 49
-0.1
 49
0.1
 49
-0.1
 49
0.1
 49
-0.1
  0
LTYPE
  2
DOT
 70
    64
  3
点線A
 72
    65
 73
     2
 40
0.1125
 49
0.0625
 49
-0.05
  0
LTYPE
  2
DOTX2
 70
    64
  3
点線B
 72
    65
 73
     2
 40
0.275
 49
0.15
 49
-0.125
  0
LTYPE
  2
CONTINUOUS
 70
    64
  3
実線
 72
    65
 73
     0
 40
0.0
  0
LTYPE
  2
CONTINUOUS
 70
    64
  3
実線
 72
    65
 73
     0
 40
0.0
  0
LTYPE
  2
CONTINUOUS
 70
    64
  3
実線
 72
    65
 73
     0
 40
0.0
  0
LTYPE
  2
CONTINUOUS
 70
    64
  3
実線
 72
    65
 73
     0
 40
0.0
  0
LTYPE
  2
CONTINUOUS
 70
    64
  3
実線
 72
    65
 73
     0
 40
0.0
  0
LTYPE
  2
CONTINUOUS
 70
    64
  3
実線
 72
    65
 73
     0
 40
0.0
  0
ENDTAB
  0
TABLE
  2
LAYER
 70
    34
  0
LAYER
  2
通り芯
 70
     0
 62
    15
  6
CONTINUOUS
  0
LAYER
  2
補助線
 70
     0
 62
    16
  6
CONTINUOUS
  0
LAYER
  2
躯体
 70
     0
 62
    31
  6
CONTINUOUS
  0
LAYER
  2
型材
 70
     0
 62
    32
  6
CONTINUOUS
  0
LAYER
  2
型材断面
 70
     0
 62
    47
  6
CONTINUOUS
  0
LAYER
  2
ガラス
 70
     0
 62
    48
  6
CONTINUOUS
  0
LAYER
  2
ゴム等
 70
     0
 62
    63
  6
CONTINUOUS
  0
LAYER
  2
ボルト／ビス
 70
     0
 62
    64
  6
CONTINUOUS
  0
LAYER
  2
文字
 70
     0
 62
    14
  6
CONTINUOUS
  0
LAYER
  2
寸法
 70
     0
 62
    29
  6
CONTINUOUS
  0
LAYER
  2
ﾊｯﾁﾝｸﾞ
 70
     0
 62
    95
  6
CONTINUOUS
  0
LAYER
  2
別途部材
 70
     0
 62
    96
  6
CONTINUOUS
  0
LAYER
  2
曲げ物
 70
     0
 62
   111
  6
CONTINUOUS
  0
LAYER
  2
鉄骨等
 70
     0
 62
   112
  6
CONTINUOUS
  0
LAYER
  2
St
 70
     0
 62
   127
  6
CONTINUOUS
  0
LAYER
  2
その他部品等
 70
     0
 62
   128
  6
CONTINUOUS
  0
LAYER
  2
ｶﾞｽｹｯﾄ
 70
     0
 62
   143
  6
CONTINUOUS
  0
LAYER
  2
細線01
 70
     0
 62
   144
  6
CONTINUOUS
  0
LAYER
  2
細線02
 70
     0
 62
   159
  6
CONTINUOUS
  0
LAYER
  2
ｽｹｯﾁ
 70
     0
 62
    19
  6
CONTINUOUS
  0
LAYER
  2
4
 70
     0
 62
     6
  6
CONTINUOUS
  0
LAYER
  2
ﾚｲﾔ3
 70
     0
 62
    15
  6
CONTINUOUS
  0
LAYER
  2
外形線
 70
     0
 62
     7
  6
CONTINUOUS
  0
LAYER
  2
部品
 70
     0
 62
    14
  6
CONTINUOUS
  0
LAYER
  2
サッシ芯
 70
     0
 62
    17
  6
DASHDOTX2
  0
LAYER
  2
寸法線
 70
     0
 62
    28
  6
CONTINUOUS
  0
LAYER
  2
姿図外形線
 70
     0
 62
   249
  6
CONTINUOUS
  0
LAYER
  2
姿補助線
 70
     0
 62
    30
  6
CONTINUOUS
  0
LAYER
  2
透視線
 70
     0
 62
     3
  6
DOT
  0
LAYER
  2
用紙
 70
     0
 62
     7
  6
CONTINUOUS
  0
LAYER
  2
実線図枠
 70
     0
 62
     3
  6
CONTINUOUS
  0
LAYER
  2
補助図枠
 70
     0
 62
     4
  6
CONTINUOUS
  0
LAYER
  2
建具記号
 70
     0
 62
     5
  6
CONTINUOUS
  0
LAYER
  2
補助文字
 70
     0
 62
    10
  6
CONTINUOUS
  0
ENDTAB
  0
TABLE
  2
STYLE
 70
    10
  0
STYLE
  2
STANDARD
 70
     0
 40
1.0
 41
1.0
 42
1.0
 50
0.0
 71
     0
  3
TXT
  4
BIGFONT
  0
STYLE
  2
TATE
 70
     4
 40
1.0
 41
1.0
 42
1.0
 50
0.0
 71
     0
  3
TXT
  4
BIGFONT
  0
STYLE
  2
TextStyle03
 70
     0
 40
1.0
 41
1.0
 42
1.0
 50
0.0
 71
     0
  3
MONOTXT
  4
BIGFONT
  0
STYLE
  2
TextStyle04
 70
     0
 40
1.0
 41
1.0
 42
1.0
 50
0.0
 71
     0
  3
MONOTXT
  4
BIGFONT
  0
STYLE
  2
TextStyle05
 70
     0
 40
1.0
 41
1.0
 42
1.0
 50
0.0
 71
     0
  3
MONOTXT
  4
BIGFONT
  0
STYLE
  2
TextStyle06
 70
     0
 40
1.0
 41
1.0
 42
1.0
 50
0.0
 71
     0
  3
MONOTXT
  4
BIGFONT
  0
STYLE
  2
TextStyle07
 70
     0
 40
1.0
 41
1.0
 42
1.0
 50
0.0
 71
     0
  3
MONOTXT
  4
BIGFONT
  0
STYLE
  2
TextStyle08
 70
     0
 40
1.0
 41
1.0
 42
1.0
 50
0.0
 71
     0
  3
MONOTXT
  4
BIGFONT
  0
STYLE
  2
TextStyle09
 70
     0
 40
1.0
 41
1.0
 42
1.0
 50
0.0
 71
     0
  3
MONOTXT
  4
BIGFONT
  0
STYLE
  2
TextStyle10
 70
     0
 40
1.0
 41
1.0
 42
1.0
 50
0.0
 71
     0
  3
MONOTXT
  4
BIGFONT
  0
ENDTAB
  0
ENDSEC
  0
SECTION
  2
BLOCKS
  0
BLOCK
  2
*HAT_0001
 70
    65
 10
0.0
 20
0.0
  0
LINE
  8
型材
  6
DOT
 10
-119.6
 20
-133.95
 11
-118.075
 21
-132.425
  0
LINE
  8
型材
  6
DOT
 10
-119.675
 20
-131.2
 11
-118.075
 21
-129.6
  0
LINE
  8
型材
  6
DOT
 10
-119.675
 20
-128.375
 11
-118.075
 21
-126.775
  0
LINE
  8
型材
  6
DOT
 10
-119.675
 20
-125.55
 11
-118.075
 21
-123.95
  0
LINE
  8
型材
  6
DOT
 10
-119.675
 20
-122.725
 11
-118.075
 21
-121.125
  0
LINE
  8
型材
  6
DOT
 10
-119.675
 20
-119.9
 11
-118.075
 21
-118.3
  0
LINE
  8
型材
  6
DOT
 10
-119.675
 20
-117.075
 11
-118.075
 21
-115.475
  0
LINE
  8
型材
  6
DOT
 10
-119.675
 20
-114.25
 11
-118.075
 21
-112.65
  0
ENDBLK
  0
BLOCK
  2
*HAT_0002
 70
    65
 10
0.0
 20
0.0
  0
LINE
  8
型材
  6
DOT
 10
61.75
 20
-133.95
 11
60.225
 21
-132.425
  0
LINE
  8
型材
  6
DOT
 10
61.825
 20
-131.2
 11
60.225
 21
-129.6
  0
LINE
  8
型材
  6
DOT
 10
61.825
 20
-128.375
 11
60.225
 21
-126.775
  0
LINE
  8
型材
  6
DOT
 10
61.825
 20
-125.55
 11
60.225
 21
-123.95
  0
LINE
  8
型材
  6
DOT
 10
61.825
 20
-122.725
 11
60.225
 21
-121.125
  0
LINE
  8
型材
  6
DOT
 10
61.825
 20
-119.9
 11
60.225
 21
-118.3
  0
LINE
  8
型材
  6
DOT
 10
61.825
 20
-117.075
 11
60.225
 21
-115.475
  0
LINE
  8
型材
  6
DOT
 10
61.825
 20
-114.25
 11
60.225
 21
-112.65
  0
ENDBLK
  0
BLOCK
  2
*GRP_0001
 70
    65
 10
0.0
 20
0.0
  0
LINE
  8
躯体
  6
CONTINUOUS
 62
    31
 10
374.500033
 20
-251.999995
 11
374.500033
 21
-281.999988
  0
LINE
  8
躯体
  6
CONTINUOUS
 62
    31
 10
254.50002
 20
-251.999995
 11
254.50002
 21
-281.999988
  0
LINE
  8
躯体
  6
CONTINUOUS
 62
    31
 10
154.50005
 20
-251.999995
 11
154.50005
 21
-281.999988
  0
LINE
  8
躯体
  6
CONTINUOUS
 62
    31
 10
63.500072
 20
-251.999995
 11
63.500072
 21
-281.999988
  0
LINE
  8
躯体
  6
CONTINUOUS
 62
    31
 10
23.500082
 20
-251.999995
 11
23.500082
 21
-281.999988
  0
LINE
  8
躯体
  6
CONTINUOUS
 62
    31
 10
-66.49994
 20
-251.999995
 11
-66.49994
 21
-281.999988
  0
LINE
  8
躯体
  6
CONTINUOUS
 62
    31
 10
234.500025
 20
-251.999995
 11
234.500025
 21
-281.999988
  0
LINE
  8
躯体
  6
CONTINUOUS
 62
    31
 10
214.50003
 20
-251.999995
 11
214.50003
 21
-281.999988
  0
LINE
  8
躯体
  6
CONTINUOUS
 62
    31
 10
194.500037
 20
-251.999995
 11
194.500037
 21
-281.999988
  0
LINE
  8
躯体
  6
CONTINUOUS
 62
    31
 10
174.500043
 20
-251.999995
 11
174.500043
 21
-281.999988
  0
LINE
  8
躯体
  6
CONTINUOUS
 62
    31
 10
154.50005
 20
-259.0
 11
254.50002
 21
-259.0
  0
LINE
  8
躯体
  6
CONTINUOUS
 62
    31
 10
-66.49994
 20
-267.000005
 11
63.500072
 21
-267.000005
  0
LINE
  8
躯体
  6
CONTINUOUS
 62
    31
 10
-375.499978
 20
-251.999995
 11
-375.499978
 21
-282.0
  0
LINE
  8
躯体
  6
CONTINUOUS
 62
    31
 10
-360.49997
 20
-251.999995
 11
-360.49997
 21
-282.0
  0
LINE
  8
躯体
  6
CONTINUOUS
 62
    31
 10
-239.50005
 20
-251.999995
 11
-239.50005
 21
-282.0
  0
LINE
  8
躯体
  6
CONTINUOUS
 62
    31
 10
-382.999975
 20
-257.231555
 11
-377.999978
 21
-257.231555
  0
LINE
  8
躯体
  6
CONTINUOUS
 62
    31
 10
-377.999978
 20
-257.231555
 11
-380.499975
 21
-252.901428
  0
LINE
  8
躯体
  6
CONTINUOUS
 62
    31
 10
-380.499975
 20
-252.901428
 11
-382.999975
 21
-257.231555
  0
LINE
  8
躯体
  6
CONTINUOUS
 62
    31
 10
-382.999988
 20
-263.231555
 11
-377.99999
 21
-263.231555
  0
LINE
  8
躯体
  6
CONTINUOUS
 62
    31
 10
-377.99999
 20
-263.231555
 11
-380.499988
 21
-258.901428
  0
LINE
  8
躯体
  6
CONTINUOUS
 62
    31
 10
-380.499988
 20
-258.901428
 11
-382.999988
 21
-263.231555
  0
LINE
  8
躯体
  6
CONTINUOUS
 62
    31
 10
-383.0
 20
-269.231555
 11
-378.000003
 21
-269.231555
  0
LINE
  8
躯体
  6
CONTINUOUS
 62
    31
 10
-378.000003
 20
-269.231555
 11
-380.499988
 21
-264.901428
  0
LINE
  8
躯体
  6
CONTINUOUS
 62
    31
 10
-380.499988
 20
-264.901428
 11
-383.0
 21
-269.231555
  0
LINE
  8
躯体
  6
CONTINUOUS
 62
    31
 10
-383.0
 20
-275.231555
 11
-378.000003
 21
-275.231555
  0
LINE
  8
躯体
  6
CONTINUOUS
 62
    31
 10
-378.000003
 20
-275.231555
 11
-380.5
 21
-270.901428
  0
LINE
  8
躯体
  6
CONTINUOUS
 62
    31
 10
-380.5
 20
-270.901428
 11
-383.0
 21
-275.231555
  0
LINE
  8
躯体
  6
CONTINUOUS
 62
    31
 10
-383.000012
 20
-281.231555
 11
-378.000015
 21
-281.231555
  0
LINE
  8
躯体
  6
CONTINUOUS
 62
    31
 10
-378.000015
 20
-281.231555
 11
-380.500012
 21
-276.901428
  0
LINE
  8
躯体
  6
CONTINUOUS
 62
    31
 10
-380.500012
 20
-276.901428
 11
-383.000012
 21
-281.231555
  0
LINE
  8
躯体
  6
CONTINUOUS
 62
    31
 10
-385.499988
 20
-251.999995
 11
-385.499988
 21
-282.0
  0
LINE
  8
躯体
  6
CONTINUOUS
 62
    31
 10
-229.500053
 20
-251.999995
 11
-229.500053
 21
-282.0
  0
LINE
  8
躯体
  6
CONTINUOUS
 62
    31
 10
-395.499985
 20
282.000017
 11
-395.499985
 21
-281.99998
  0
LINE
  8
躯体
  6
CONTINUOUS
 62
    31
 10
404.500023
 20
282.000017
 11
404.500023
 21
-282.0
  0
LINE
  8
躯体
  6
CONTINUOUS
 62
    31
 10
404.500023
 20
282.000017
 11
-395.499985
 21
282.000017
  0
LINE
  8
躯体
  6
CONTINUOUS
 62
    31
 10
404.500023
 20
-282.0
 11
-395.499985
 21
-282.0
  0
LINE
  8
躯体
  6
CONTINUOUS
 62
    31
 10
404.500023
 20
-251.999995
 11
-395.499985
 21
-251.999995
  0
LINE
  8
躯体
  6
CONTINUOUS
 62
    31
 10
254.50002
 20
-272.0
 11
374.500033
 21
-272.0
  0
LINE
  8
躯体
  6
CONTINUOUS
 62
    31
 10
63.500072
 20
-262.0
 11
154.50005
 21
-262.0
  0
LINE
  8
躯体
  6
CONTINUOUS
 62
    31
 10
63.500072
 20
-272.0
 11
154.50005
 21
-272.0
  0
LINE
  8
躯体
  6
CONTINUOUS
 62
    31
 10
-385.499988
 20
-258.0
 11
-239.50005
 21
-258.0
  0
LINE
  8
躯体
  6
CONTINUOUS
 62
    31
 10
-385.499988
 20
-264.0
 11
-239.50005
 21
-264.0
  0
LINE
  8
躯体
  6
CONTINUOUS
 62
    31
 10
-385.499988
 20
-270.0
 11
-239.50005
 21
-270.0
  0
LINE
  8
躯体
  6
CONTINUOUS
 62
    31
 10
-385.499988
 20
-276.0
 11
-239.50005
 21
-276.0
  0
LINE
  8
躯体
  6
CONTINUOUS
 62
    31
 10
-229.500053
 20
-276.0
 11
-66.49994
 21
-276.0
  0
LINE
  8
躯体
  6
CONTINUOUS
 62
    31
 10
-229.500053
 20
-270.0
 11
-66.49994
 21
-270.0
  0
LINE
  8
躯体
  6
CONTINUOUS
 62
    31
 10
-229.500053
 20
-264.0
 11
-66.49994
 21
-264.0
  0
LINE
  8
躯体
  6
CONTINUOUS
 62
    31
 10
-229.500053
 20
-258.0
 11
-66.49994
 21
-258.0
  0
LINE
  8
躯体
  6
CONTINUOUS
 62
    31
 10
-395.499985
 20
282.000017
 11
-395.499985
 21
-281.99998
  0
LINE
  8
躯体
  6
CONTINUOUS
 62
    31
 10
-395.499985
 20
-281.99998
 11
404.500023
 21
-281.99998
  0
LINE
  8
躯体
  6
CONTINUOUS
 62
    31
 10
404.500023
 20
-281.99998
 11
404.500023
 21
282.000017
  0
LINE
  8
躯体
  6
CONTINUOUS
 62
    31
 10
404.500023
 20
282.000017
 11
-395.499985
 21
282.000017
  0
LINE
  8
躯体
  6
CONTINUOUS
 62
    31
 10
404.500023
 20
-251.999995
 11
-395.499985
 21
-251.999995
  0
LINE
  8
躯体
  6
CONTINUOUS
 62
    31
 10
-385.499988
 20
-251.999995
 11
-385.499988
 21
-282.0
  0
LINE
  8
躯体
  6
CONTINUOUS
 62
    31
 10
-375.49994
 20
-251.999995
 11
-375.49994
 21
-282.0
  0
LINE
  8
躯体
  6
CONTINUOUS
 62
    31
 10
-360.49997
 20
-251.999995
 11
-360.49997
 21
-282.0
  0
LINE
  8
躯体
  6
CONTINUOUS
 62
    31
 10
-239.50005
 20
-251.999995
 11
-239.50005
 21
-281.99998
  0
LINE
  8
躯体
  6
CONTINUOUS
 62
    31
 10
-229.500053
 20
-251.999995
 11
-229.500053
 21
-282.0
  0
LINE
  8
躯体
  6
CONTINUOUS
 62
    31
 10
-66.49994
 20
-251.999995
 11
-66.49994
 21
-282.0
  0
LINE
  8
躯体
  6
CONTINUOUS
 62
    31
 10
23.500082
 20
-251.999995
 11
23.500082
 21
-282.0
  0
LINE
  8
躯体
  6
CONTINUOUS
 62
    31
 10
63.500072
 20
-251.999995
 11
63.500072
 21
-281.99998
  0
LINE
  8
躯体
  6
CONTINUOUS
 62
    31
 10
154.50005
 20
-251.999995
 11
154.50005
 21
-281.999988
  0
LINE
  8
躯体
  6
CONTINUOUS
 62
    31
 10
174.500043
 20
-251.999995
 11
174.500043
 21
-282.0
  0
LINE
  8
躯体
  6
CONTINUOUS
 62
    31
 10
194.500037
 20
-251.999995
 11
194.500037
 21
-281.99998
  0
LINE
  8
躯体
  6
CONTINUOUS
 62
    31
 10
214.50003
 20
-251.999995
 11
214.50003
 21
-281.99998
  0
LINE
  8
躯体
  6
CONTINUOUS
 62
    31
 10
234.500025
 20
-251.999995
 11
234.500025
 21
-281.99998
  0
LINE
  8
躯体
  6
CONTINUOUS
 62
    31
 10
254.50002
 20
-251.999995
 11
254.50002
 21
-281.999988
  0
LINE
  8
躯体
  6
CONTINUOUS
 62
    31
 10
374.500033
 20
-251.999995
 11
374.500033
 21
-282.0
  0
LINE
  8
躯体
  6
CONTINUOUS
 62
    31
 10
-385.499988
 20
-258.0
 11
-239.50005
 21
-258.0
  0
LINE
  8
躯体
  6
CONTINUOUS
 62
    31
 10
-239.50005
 20
-264.0
 11
-385.499988
 21
-264.0
  0
LINE
  8
躯体
  6
CONTINUOUS
 62
    31
 10
-385.499988
 20
-270.0
 11
-239.50005
 21
-270.0
  0
LINE
  8
躯体
  6
CONTINUOUS
 62
    31
 10
-239.50005
 20
-276.0
 11
-385.499988
 21
-276.0
  0
LINE
  8
躯体
  6
CONTINUOUS
 62
    31
 10
-229.500053
 20
-258.0
 11
-66.49994
 21
-258.0
  0
LINE
  8
躯体
  6
CONTINUOUS
 62
    31
 10
-66.49994
 20
-264.0
 11
-229.500053
 21
-264.0
  0
LINE
  8
躯体
  6
CONTINUOUS
 62
    31
 10
-229.500053
 20
-270.0
 11
-66.49994
 21
-270.0
  0
LINE
  8
躯体
  6
CONTINUOUS
 62
    31
 10
-66.49994
 20
-276.0
 11
-229.500053
 21
-276.0
  0
LINE
  8
躯体
  6
CONTINUOUS
 62
    31
 10
-66.49994
 20
-267.000005
 11
63.500072
 21
-267.000005
  0
LINE
  8
躯体
  6
CONTINUOUS
 62
    31
 10
63.500072
 20
-262.0
 11
154.50005
 21
-262.0
  0
LINE
  8
躯体
  6
CONTINUOUS
 62
    31
 10
154.50005
 20
-272.0
 11
63.500072
 21
-272.0
  0
LINE
  8
躯体
  6
CONTINUOUS
 62
    31
 10
154.50005
 20
-259.0
 11
254.50002
 21
-259.0
  0
LINE
  8
躯体
  6
CONTINUOUS
 62
    31
 10
254.50002
 20
-272.0
 11
374.500033
 21
-272.0
  0
LINE
  8
躯体
  6
CONTINUOUS
 62
    31
 10
389.770925
 20
-177.427528
 11
401.770882
 21
-177.427528
  0
LINE
  8
躯体
  6
CONTINUOUS
 62
    31
 10
389.770925
 20
-192.266918
 11
401.770882
 21
-192.266918
  0
LINE
  8
躯体
  6
CONTINUOUS
 62
    31
 10
389.770925
 20
-207.106308
 11
401.770882
 21
-207.106308
  0
LINE
  8
躯体
  6
CONTINUOUS
 62
    31
 10
389.770925
 20
-221.945695
 11
401.770882
 21
-221.945695
  0
CIRCLE
  8
躯体
  6
CONTINUOUS
 62
    31
 10
395.770905
 20
-177.427528
 40
6.0
  0
CIRCLE
  8
躯体
  6
CONTINUOUS
 62
    31
 10
395.770905
 20
-192.266918
 40
6.0
  0
CIRCLE
  8
躯体
  6
CONTINUOUS
 62
    31
 10
395.770905
 20
-207.106308
 40
6.0
  0
CIRCLE
  8
躯体
  6
CONTINUOUS
 62
    31
 10
395.770905
 20
-221.945695
 40
6.0
  0
TEXT
  7
TextStyle03
  8
躯体
  6
CONTINUOUS
 62
    31
 10
-381.25
 20
-257.125
  1
5
 40
3.0
 72
     5
 11
-379.75
 21
-257.125
  0
TEXT
  7
TextStyle03
  8
躯体
  6
CONTINUOUS
 62
    31
 10
-381.25
 20
-263.125
  1
4
 40
3.0
 72
     5
 11
-379.75
 21
-263.125
  0
TEXT
  7
TextStyle03
  8
躯体
  6
CONTINUOUS
 62
    31
 10
-381.25
 20
-269.125
  1
3
 40
3.0
 72
     5
 11
-379.75
 21
-269.125
  0
TEXT
  7
TextStyle03
  8
躯体
  6
CONTINUOUS
 62
    31
 10
-381.25
 20
-275.125
  1
2
 40
3.0
 72
     5
 11
-379.75
 21
-275.125
  0
TEXT
  7
TextStyle03
  8
躯体
  6
CONTINUOUS
 62
    31
 10
-381.25
 20
-281.125
  1
1
 40
3.0
 72
     5
 11
-379.75
 21
-281.125
  0
TEXT
  7
TextStyle03
  8
躯体
  6
CONTINUOUS
 62
    31
 10
-375.0
 20
-257.5
  1
   ,  ,  
 40
3.0
 72
     5
 11
-361.5
 21
-257.5
  0
TEXT
  7
TextStyle03
  8
躯体
  6
CONTINUOUS
 62
    31
 10
-375.0
 20
-263.5
  1
   ,  ,  
 40
3.0
 72
     5
 11
-361.5
 21
-263.5
  0
TEXT
  7
TextStyle03
  8
躯体
  6
CONTINUOUS
 62
    31
 10
-375.0
 20
-269.5
  1
   ,  ,  
 40
3.0
 72
     5
 11
-361.5
 21
-269.5
  0
TEXT
  7
TextStyle03
  8
躯体
  6
CONTINUOUS
 62
    31
 10
-375.0
 20
-275.5
  1
   ,  ,  
 40
3.0
 72
     5
 11
-361.5
 21
-275.5
  0
TEXT
  7
TextStyle03
  8
躯体
  6
CONTINUOUS
 62
    31
 10
-375.0
 20
-281.5
  1
   ,  ,  
 40
3.0
 72
     5
 11
-361.5
 21
-281.5
  0
TEXT
  7
TextStyle03
  8
躯体
  6
CONTINUOUS
 62
    31
 10
-65.45
 20
-256.45
  1
設計監理
 40
3.5
 72
     5
 11
-51.45
 21
-256.45
  0
TEXT
  7
TextStyle03
  8
躯体
  6
CONTINUOUS
 62
    31
 10
-65.45
 20
-271.625
  1
施　　工
 40
3.5
 72
     5
 11
-51.45
 21
-271.625
  0
TEXT
  7
TextStyle03
  8
躯体
  6
CONTINUOUS
 62
    31
 10
16.3
 20
-264.025
  1
殿
 40
5.0
 72
     5
 11
21.3
 21
-264.025
  0
TEXT
  7
TextStyle03
  8
躯体
  6
CONTINUOUS
 62
    31
 10
16.3
 20
-279.025
  1
殿
 40
5.0
 72
     5
 11
21.3
 21
-279.025
  0
TEXT
  7
TextStyle03
  8
躯体
  6
CONTINUOUS
 62
    31
 10
45.5
 20
-266.525
  1
月　　日
 40
4.0
 72
     5
 11
63.0
 21
-266.525
  0
TEXT
  7
TextStyle03
  8
躯体
  6
CONTINUOUS
 62
    31
 10
45.5
 20
-281.5
  1
月　　日
 40
4.0
 72
     5
 11
63.0
 21
-281.5
  0
TEXT
  7
TextStyle03
  8
躯体
  6
CONTINUOUS
 62
    31
 10
159.925
 20
-281.125
  1
　月　日
 40
3.5
 72
     5
 11
173.925
 21
-281.125
  0
TEXT
  7
TextStyle03
  8
躯体
  6
CONTINUOUS
 62
    31
 10
179.925
 20
-281.125
  1
　月　日
 40
3.5
 72
     5
 11
193.925
 21
-281.125
  0
TEXT
  7
TextStyle03
  8
躯体
  6
CONTINUOUS
 62
    31
 10
199.925
 20
-281.125
  1
　月　日
 40
3.5
 72
     5
 11
213.925
 21
-281.125
  0
TEXT
  7
TextStyle03
  8
躯体
  6
CONTINUOUS
 62
    31
 10
219.925
 20
-281.125
  1
　月　日
 40
3.5
 72
     5
 11
233.925
 21
-281.125
  0
TEXT
  7
TextStyle03
  8
躯体
  6
CONTINUOUS
 62
    31
 10
197.35
 20
-257.4
  1
照　査
 40
4.0
 72
     5
 11
210.35
 21
-257.4
  0
TEXT
  7
TextStyle03
  8
躯体
  6
CONTINUOUS
 62
    31
 10
216.6
 20
-257.2
  1
担　当
 40
4.0
 72
     5
 11
229.6
 21
-257.2
  0
TEXT
  7
TextStyle03
  8
躯体
  6
CONTINUOUS
 62
    31
 10
236.225
 20
-257.0
  1
縮　尺
 40
4.0
 72
     5
 11
249.225
 21
-257.0
  0
TEXT
  7
TextStyle03
  8
躯体
  6
CONTINUOUS
 62
    31
 10
236.625
 20
-266.225
  1
１：１
 40
4.0
 72
     5
 11
249.625
 21
-266.225
  0
TEXT
  7
TextStyle03
  8
躯体
  6
CONTINUOUS
 62
    31
 10
236.425
 20
-272.65
  1
　：　
 40
4.0
 72
     5
 11
249.425
 21
-272.65
  0
TEXT
  7
TextStyle03
  8
躯体
  6
CONTINUOUS
 62
    31
 10
236.425
 20
-279.25
  1
　：　
 40
4.0
 72
     5
 11
249.425
 21
-279.25
  0
TEXT
  7
TextStyle03
  8
躯体
  6
CONTINUOUS
 62
    31
 10
256.875
 20
-258.05
  1
工事名
 40
4.0
 72
     5
 11
269.875
 21
-258.05
  0
TEXT
  7
TextStyle03
  8
躯体
  6
CONTINUOUS
 62
    31
 10
256.6
 20
-278.025
  1
図面名
 40
4.0
 72
     5
 11
269.6
 21
-278.025
  0
TEXT
  7
TextStyle03
  8
躯体
  6
CONTINUOUS
 62
    31
 10
375.675
 20
-257.25
  1
図番
 40
4.0
 72
     5
 11
384.175
 21
-257.25
  0
TEXT
  7
TextStyle03
  8
躯体
  6
CONTINUOUS
 62
    31
 10
393.025
 20
-281.175
  1
枚の内
 40
3.5
 72
     5
 11
403.525
 21
-281.175
  0
TEXT
  7
TextStyle04
  8
躯体
  6
CONTINUOUS
 62
    31
 10
76.15
 20
-259.85
  1
特殊技研金属株式会社
 40
6.0
 72
     5
 11
145.15
 21
-259.85
  0
TEXT
  7
TATE
  8
躯体
  6
CONTINUOUS
 62
    31
 10
-234.7
 20
-254.525
  1
特　記　事　項
 40
3.5
 72
     5
 11
-234.7
 21
-279.025
  0
TEXT
  7
TATE
  8
躯体
  6
CONTINUOUS
 62
    31
 10
-390.4
 20
-259.525
  1
訂　　正
 40
3.5
 72
     5
 11
-390.4
 21
-273.525
  0
ENDBLK
  0
BLOCK
  2
*DIM_0002
 70
    65
 10
0.0
 20
0.0
  0
LINE
  8
寸法
  6
CONTINUOUS
 10
-253.064163
 20
44.84259
 11
-242.064163
 21
63.89515
  0
POINT
  8
寸法
 10
-253.064163
 20
44.84259
  0
POINT
  8
寸法
 10
-242.064163
 20
63.89515
  0
TEXT
  7
TextStyle03
  8
寸法
  6
CONTINUOUS
 10
-248.980449
 20
52.684696
  1
22
 40
4.0
 50
60.0
 72
     5
 11
-246.855449
 21
56.365304
  0
ENDBLK
  0
BLOCK
  2
*GRP_0003
 70
    65
 10
0.0
 20
0.0
  0
POLYLINE
  8
寸法
  6
CONTINUOUS
 66
     1
  0
VERTEX
  8
寸法
 10
-269.564155
 20
24.36887
  0
VERTEX
  8
寸法
 10
-301.970407
 20
-23.456632
  0
VERTEX
  8
寸法
 10
-295.909183
 20
-23.456632
  0
SEQEND
  0
ENDBLK
  0
BLOCK
  2
*GRP_0004
 70
    65
 10
0.0
 20
0.0
  0
POLYLINE
  8
寸法
  6
CONTINUOUS
 66
     1
  0
VERTEX
  8
寸法
 10
20.006463
 20
73.293537
  0
VERTEX
  8
寸法
 10
36.395493
 20
89.682568
  0
VERTEX
  8
寸法
 10
75.714285
 20
89.682568
  0
SEQEND
  0
ENDBLK
  0
BLOCK
  2
*GRP_0005
 70
    65
 10
0.0
 20
0.0
  0
POLYLINE
  8
寸法
  6
CONTINUOUS
 66
     1
  0
VERTEX
  8
寸法
 10
20.006463
 20
55.446597
  0
VERTEX
  8
寸法
 10
36.395493
 20
71.835628
  0
VERTEX
  8
寸法
 10
75.714285
 20
71.835628
  0
SEQEND
  0
ENDBLK
  0
BLOCK
  2
*GRP_0006
 70
    65
 10
0.0
 20
0.0
  0
POLYLINE
  8
寸法
  6
CONTINUOUS
 66
     1
  0
VERTEX
  8
寸法
 10
20.006463
 20
34.89039
  0
VERTEX
  8
寸法
 10
36.395493
 20
51.27942
  0
VERTEX
  8
寸法
 10
75.714285
 20
51.27942
  0
SEQEND
  0
ENDBLK
  0
BLOCK
  2
*GRP_0007
 70
    65
 10
0.0
 20
0.0
  0
POLYLINE
  8
寸法
  6
CONTINUOUS
 66
     1
  0
VERTEX
  8
寸法
 10
7.144388
 20
79.215305
  0
VERTEX
  8
寸法
 10
-2.844387
 20
130.282653
  0
VERTEX
  8
寸法
 10
-7.558673
 20
130.282653
  0
SEQEND
  0
ENDBLK
  0
BLOCK
  2
*GRP_0008
 70
    65
 10
0.0
 20
0.0
  0
POLYLINE
  8
寸法
  6
CONTINUOUS
 66
     1
  0
VERTEX
  8
寸法
 10
6.887755
 20
40.69745
  0
VERTEX
  8
寸法
 10
-13.082143
 20
-21.364795
  0
VERTEX
  8
寸法
 10
-23.857653
 20
-21.364795
  0
SEQEND
  0
ENDBLK
  0
BLOCK
  2
*GRP_0009
 70
    65
 10
0.0
 20
0.0
  0
POLYLINE
  8
寸法
  6
CONTINUOUS
 66
     1
  0
VERTEX
  8
寸法
 10
26.079443
 20
-144.934772
  0
VERTEX
  8
寸法
 10
37.774485
 20
-156.629815
  0
VERTEX
  8
寸法
 10
75.966542
 20
-156.629815
  0
SEQEND
  0
ENDBLK
  0
BLOCK
  2
*DIM_0010
 70
    65
 10
0.0
 20
0.0
  0
LINE
  8
寸法
  6
CONTINUOUS
 10
-204.564163
 20
93.21886
 11
-204.564163
 21
149.001093
  0
LINE
  8
寸法
  6
CONTINUOUS
 10
-269.564155
 20
107.61887
 11
-269.564155
 21
149.001093
  0
LINE
  8
寸法
  6
CONTINUOUS
 10
-204.564163
 20
149.001093
 11
-269.564155
 21
149.001093
  0
POINT
  8
寸法
 10
-204.564163
 20
149.001093
  0
POINT
  8
寸法
 10
-269.564155
 20
149.001093
  0
TEXT
  7
TextStyle03
  8
寸法
  6
CONTINUOUS
 10
-240.25625
 20
149.375
  1
65
 40
6.0
 72
     5
 11
-233.89375
 21
149.375
  0
ENDBLK
  0
BLOCK
  2
*DIM_0011
 70
    65
 10
0.0
 20
0.0
  0
LINE
  8
寸法
  6
CONTINUOUS
 10
-269.564155
 20
112.61887
 11
-269.564155
 21
142.060655
  0
LINE
  8
寸法
  6
CONTINUOUS
 10
-224.564163
 20
118.86887
 11
-224.564163
 21
142.060655
  0
LINE
  8
寸法
  6
CONTINUOUS
 10
-269.564155
 20
142.060655
 11
-224.564163
 21
142.060655
  0
POINT
  8
寸法
 10
-269.564155
 20
142.060655
  0
POINT
  8
寸法
 10
-224.564163
 20
142.060655
  0
TEXT
  7
TextStyle03
  8
寸法
  6
CONTINUOUS
 10
-250.25625
 20
142.425
  1
45
 40
6.0
 72
     5
 11
-243.89375
 21
142.425
  0
ENDBLK
  0
BLOCK
  2
*DIM_0012
 70
    65
 10
0.0
 20
0.0
  0
LINE
  8
寸法
  6
CONTINUOUS
 10
-212.064163
 20
119.36887
 11
-212.064163
 21
142.060655
  0
LINE
  8
寸法
  6
CONTINUOUS
 10
-224.564163
 20
142.060655
 11
-212.064163
 21
142.060655
  0
POINT
  8
寸法
 10
-212.064163
 20
142.060655
  0
TEXT
  7
TextStyle03
  8
寸法
  6
CONTINUOUS
 10
-224.86875
 20
142.425
  1
12.5
 40
6.0
 72
     5
 11
-211.78125
 21
142.425
  0
ENDBLK
  0
BLOCK
  2
*DIM_0013
 70
    65
 10
0.0
 20
0.0
  0
LINE
  8
寸法
  6
CONTINUOUS
 10
-269.564155
 20
112.61887
 11
-269.564155
 21
134.65204
  0
LINE
  8
寸法
  6
CONTINUOUS
 10
-247.564163
 20
70.36887
 11
-247.564163
 21
134.65204
  0
LINE
  8
寸法
  6
CONTINUOUS
 10
-269.564155
 20
134.65204
 11
-247.564163
 21
134.65204
  0
POINT
  8
寸法
 10
-269.564155
 20
134.65204
  0
POINT
  8
寸法
 10
-247.564163
 20
134.65204
  0
TEXT
  7
TextStyle03
  8
寸法
  6
CONTINUOUS
 10
-261.75625
 20
135.025
  1
22
 40
6.0
 72
     5
 11
-255.39375
 21
135.025
  0
ENDBLK
  0
BLOCK
  2
*DIM_0014
 70
    65
 10
0.0
 20
0.0
  0
LINE
  8
寸法
  6
CONTINUOUS
 10
-204.564163
 20
98.21886
 11
-204.564163
 21
142.060655
  0
LINE
  8
寸法
  6
CONTINUOUS
 10
-212.064163
 20
142.060655
 11
-204.564163
 21
142.060655
  0
POINT
  8
寸法
 10
-204.564163
 20
142.060655
  0
TEXT
  7
TextStyle03
  8
寸法
  6
CONTINUOUS
 10
-201.3875
 20
136.05
  1
7.5
 40
6.0
 72
     5
 11
-191.6625
 21
136.05
  0
ENDBLK
  0
BLOCK
  2
*DIM_0015
 70
    65
 10
0.0
 20
0.0
  0
LINE
  8
寸法
  6
CONTINUOUS
 10
-264.564155
 20
112.61887
 11
-307.76805
 21
112.61887
  0
LINE
  8
寸法
  6
CONTINUOUS
 10
-264.564155
 20
-3.88113
 11
-307.76805
 21
-3.88113
  0
LINE
  8
寸法
  6
CONTINUOUS
 10
-307.76805
 20
112.61887
 11
-307.76805
 21
-3.88113
  0
POINT
  8
寸法
 10
-307.76805
 20
112.61887
  0
POINT
  8
寸法
 10
-307.76805
 20
-3.88113
  0
TEXT
  7
TextStyle03
  8
寸法
  6
CONTINUOUS
 10
-308.15
 20
46.125
  1
116.5
 40
6.0
 50
90.0
 72
     5
 11
-308.15
 21
62.575
  0
ENDBLK
  0
BLOCK
  2
*DIM_0016
 70
    65
 10
0.0
 20
0.0
  0
LINE
  8
寸法
  6
CONTINUOUS
 10
-204.564163
 20
114.36887
 11
-167.212872
 21
114.36887
  0
LINE
  8
寸法
  6
CONTINUOUS
 10
-204.564163
 20
-5.63113
 11
-167.212872
 21
-5.63113
  0
LINE
  8
寸法
  6
CONTINUOUS
 10
-167.212872
 20
114.36887
 11
-167.212872
 21
-5.63113
  0
POINT
  8
寸法
 10
-167.212872
 20
114.36887
  0
POINT
  8
寸法
 10
-167.212872
 20
-5.63113
  0
TEXT
  7
TextStyle03
  8
寸法
  6
CONTINUOUS
 10
-167.6
 20
49.4875
  1
120
 40
6.0
 50
90.0
 72
     5
 11
-167.6
 21
59.2125
  0
ENDBLK
  0
BLOCK
  2
*DIM_0017
 70
    65
 10
0.0
 20
0.0
  0
LINE
  8
寸法
  6
CONTINUOUS
 10
-200.064163
 20
85.36887
 11
-176.45153
 21
85.36887
  0
LINE
  8
寸法
  6
CONTINUOUS
 10
-200.064163
 20
23.36887
 11
-176.45153
 21
23.36887
  0
LINE
  8
寸法
  6
CONTINUOUS
 10
-176.45153
 20
85.36887
 11
-176.45153
 21
23.36887
  0
POINT
  8
寸法
 10
-176.45153
 20
85.36887
  0
POINT
  8
寸法
 10
-176.45153
 20
23.36887
  0
TEXT
  7
TextStyle03
  8
寸法
  6
CONTINUOUS
 10
-176.85
 20
51.16875
  1
62
 40
6.0
 50
90.0
 72
     5
 11
-176.85
 21
57.53125
  0
ENDBLK
  0
BLOCK
  2
*DIM_0018
 70
    65
 10
0.0
 20
0.0
  0
LINE
  8
寸法
  6
CONTINUOUS
 10
-119.670553
 20
-139.934772
 11
-119.670553
 21
-186.712245
  0
LINE
  8
寸法
  6
CONTINUOUS
 10
61.829443
 20
-139.934772
 11
61.829443
 21
-186.712245
  0
LINE
  8
寸法
  6
CONTINUOUS
 10
-119.670553
 20
-186.712245
 11
61.829443
 21
-186.712245
  0
POINT
  8
寸法
 10
-119.670553
 20
-186.712245
  0
POINT
  8
寸法
 10
61.829443
 20
-186.712245
  0
TEXT
  7
TextStyle03
  8
寸法
  6
CONTINUOUS
 10
-37.15
 20
-186.35
  1
181.5
 40
6.0
 72
     5
 11
-20.7
 21
-186.35
  0
ENDBLK
  0
BLOCK
  2
*DIM_0019
 70
    65
 10
0.0
 20
0.0
  0
LINE
  8
寸法
  6
CONTINUOUS
 10
-119.670553
 20
-144.934772
 11
-119.670553
 21
-178.294898
  0
LINE
  8
寸法
  6
CONTINUOUS
 10
-83.920553
 20
-156.29764
 11
-83.920553
 21
-178.294898
  0
LINE
  8
寸法
  6
CONTINUOUS
 10
-119.670553
 20
-178.294898
 11
-83.920553
 21
-178.294898
  0
POINT
  8
寸法
 10
-119.670553
 20
-178.294898
  0
POINT
  8
寸法
 10
-83.920553
 20
-178.294898
  0
TEXT
  7
TextStyle03
  8
寸法
  6
CONTINUOUS
 10
-110.025
 20
-177.925
  1
35.75
 40
6.0
 72
     5
 11
-93.575
 21
-177.925
  0
ENDBLK
  0
BLOCK
  2
*DIM_0020
 70
    65
 10
0.0
 20
0.0
  0
LINE
  8
寸法
  6
CONTINUOUS
 10
61.829443
 20
-144.934772
 11
61.829443
 21
-178.294898
  0
LINE
  8
寸法
  6
CONTINUOUS
 10
26.079443
 20
-178.294898
 11
61.829443
 21
-178.294898
  0
POINT
  8
寸法
 10
61.829443
 20
-178.294898
  0
TEXT
  7
TextStyle03
  8
寸法
  6
CONTINUOUS
 10
35.725
 20
-177.925
  1
35.75
 40
6.0
 72
     5
 11
52.175
 21
-177.925
  0
ENDBLK
  0
BLOCK
  2
*DIM_0021
 70
    65
 10
0.0
 20
0.0
  0
LINE
  8
寸法
  6
CONTINUOUS
 10
-280.927023
 20
84.36887
 11
-299.547915
 21
84.36887
  0
LINE
  8
寸法
  6
CONTINUOUS
 10
-299.547915
 20
112.61887
 11
-299.547915
 21
84.36887
  0
POINT
  8
寸法
 10
-299.547915
 20
112.61887
  0
POINT
  8
寸法
 10
-299.547915
 20
84.36887
  0
TEXT
  7
TextStyle03
  8
寸法
  6
CONTINUOUS
 10
-299.925
 20
90.25
  1
28.25
 40
6.0
 50
90.0
 72
     5
 11
-299.925
 21
106.7
  0
ENDBLK
  0
BLOCK
  2
*DIM_0022
 70
    65
 10
0.0
 20
0.0
  0
LINE
  8
寸法
  6
CONTINUOUS
 10
-269.564155
 20
-3.88113
 11
-299.547915
 21
-3.88113
  0
LINE
  8
寸法
  6
CONTINUOUS
 10
-299.547915
 20
24.36887
 11
-299.547915
 21
-3.88113
  0
POINT
  8
寸法
 10
-299.547915
 20
-3.88113
  0
TEXT
  7
TextStyle03
  8
寸法
  6
CONTINUOUS
 10
-299.925
 20
2.0
  1
28.25
 40
6.0
 50
90.0
 72
     5
 11
-299.925
 21
18.45
  0
ENDBLK
  0
BLOCK
  2
*DIM_0023
 70
    65
 10
0.0
 20
0.0
  0
LINE
  8
寸法
  6
CONTINUOUS
 10
56.82944
 20
-144.934772
 11
110.193525
 21
-144.934772
  0
LINE
  8
寸法
  6
CONTINUOUS
 10
32.579443
 20
-79.934778
 11
110.193525
 21
-79.934778
  0
LINE
  8
寸法
  6
CONTINUOUS
 10
110.193525
 20
-144.934772
 11
110.193525
 21
-79.934778
  0
POINT
  8
寸法
 10
110.193525
 20
-144.934772
  0
POINT
  8
寸法
 10
110.193525
 20
-79.934778
  0
TEXT
  7
TextStyle03
  8
寸法
  6
CONTINUOUS
 10
109.8
 20
-115.63125
  1
65
 40
6.0
 50
90.0
 72
     5
 11
109.8
 21
-109.26875
  0
ENDBLK
  0
BLOCK
  2
*DIM_0024
 70
    65
 10
0.0
 20
0.0
  0
LINE
  8
寸法
  6
CONTINUOUS
 10
61.82944
 20
-144.934772
 11
102.354425
 21
-144.934772
  0
LINE
  8
寸法
  6
CONTINUOUS
 10
68.079442
 20
-99.93478
 11
102.354425
 21
-99.93478
  0
LINE
  8
寸法
  6
CONTINUOUS
 10
102.354425
 20
-144.934772
 11
102.354425
 21
-99.93478
  0
POINT
  8
寸法
 10
102.354425
 20
-144.934772
  0
POINT
  8
寸法
 10
102.354425
 20
-99.93478
  0
TEXT
  7
TextStyle03
  8
寸法
  6
CONTINUOUS
 10
101.975
 20
-125.63125
  1
45
 40
6.0
 50
90.0
 72
     5
 11
101.975
 21
-119.26875
  0
ENDBLK
  0
BLOCK
  2
*DIM_0025
 70
    65
 10
0.0
 20
0.0
  0
LINE
  8
寸法
  6
CONTINUOUS
 10
57.079443
 20
-87.43478
 11
102.354425
 21
-87.43478
  0
LINE
  8
寸法
  6
CONTINUOUS
 10
102.354425
 20
-99.93478
 11
102.354425
 21
-87.43478
  0
POINT
  8
寸法
 10
102.354425
 20
-87.43478
  0
TEXT
  7
TextStyle03
  8
寸法
  6
CONTINUOUS
 10
101.975
 20
-100.24375
  1
12.5
 40
6.0
 50
90.0
 72
     5
 11
101.975
 21
-87.15625
  0
ENDBLK
  0
BLOCK
  2
*DIM_0026
 70
    65
 10
0.0
 20
0.0
  0
LINE
  8
寸法
  6
CONTINUOUS
 10
-109.920553
 20
-77.820125
 11
-109.920553
 21
-42.350755
  0
LINE
  8
寸法
  6
CONTINUOUS
 10
52.079443
 20
-77.820125
 11
52.079443
 21
-42.350755
  0
LINE
  8
寸法
  6
CONTINUOUS
 10
-109.920553
 20
-42.350755
 11
52.079443
 21
-42.350755
  0
POINT
  8
寸法
 10
-109.920553
 20
-42.350755
  0
POINT
  8
寸法
 10
52.079443
 20
-42.350755
  0
TEXT
  7
TextStyle03
  8
寸法
  6
CONTINUOUS
 10
-33.7875
 20
-42.0
  1
162
 40
6.0
 72
     5
 11
-24.0625
 21
-42.0
  0
ENDBLK
  0
BLOCK
  2
*DIM_0027
 70
    65
 10
0.0
 20
0.0
  0
LINE
  8
寸法
  6
CONTINUOUS
 10
-85.920553
 20
-75.43478
 11
-85.920553
 21
-52.956973
  0
LINE
  8
寸法
  6
CONTINUOUS
 10
28.079443
 20
-75.43478
 11
28.079443
 21
-52.956973
  0
LINE
  8
寸法
  6
CONTINUOUS
 10
-85.920553
 20
-52.956973
 11
28.079443
 21
-52.956973
  0
POINT
  8
寸法
 10
-85.920553
 20
-52.956973
  0
POINT
  8
寸法
 10
28.079443
 20
-52.956973
  0
TEXT
  7
TextStyle03
  8
寸法
  6
CONTINUOUS
 10
-33.7875
 20
-52.6
  1
114
 40
6.0
 72
     5
 11
-24.0625
 21
-52.6
  0
ENDBLK
  0
BLOCK
  2
*DIM_0028
 70
    65
 10
0.0
 20
0.0
  0
LINE
  8
寸法
  6
CONTINUOUS
 10
61.82944
 20
-144.934772
 11
94.33345
 21
-144.934772
  0
LINE
  8
寸法
  6
CONTINUOUS
 10
71.564127
 20
-122.934772
 11
94.33345
 21
-122.934772
  0
LINE
  8
寸法
  6
CONTINUOUS
 10
94.33345
 20
-144.934772
 11
94.33345
 21
-122.934772
  0
POINT
  8
寸法
 10
94.33345
 20
-144.934772
  0
POINT
  8
寸法
 10
94.33345
 20
-122.934772
  0
TEXT
  7
TextStyle03
  8
寸法
  6
CONTINUOUS
 10
93.95
 20
-137.13125
  1
22
 40
6.0
 50
90.0
 72
     5
 11
93.95
 21
-130.76875
  0
ENDBLK
  0
BLOCK
  2
*DIM_0029
 70
    65
 10
0.0
 20
0.0
  0
LINE
  8
寸法
  6
CONTINUOUS
 10
161.082287
 20
72.644925
 11
161.082287
 21
83.167347
  0
LINE
  8
寸法
  6
CONTINUOUS
 10
225.082287
 20
72.644925
 11
225.082287
 21
83.167347
  0
LINE
  8
寸法
  6
CONTINUOUS
 10
161.082287
 20
83.167347
 11
225.082287
 21
83.167347
  0
POINT
  8
寸法
 10
161.082287
 20
83.167347
  0
POINT
  8
寸法
 10
225.082287
 20
83.167347
  0
TEXT
  7
TextStyle03
  8
寸法
  6
CONTINUOUS
 10
189.89375
 20
83.525
  1
64
 40
6.0
 72
     5
 11
196.25625
 21
83.525
  0
ENDBLK
  0
BLOCK
  2
*DIM_0030
 70
    65
 10
0.0
 20
0.0
  0
LINE
  8
寸法
  6
CONTINUOUS
 10
230.082287
 20
67.644925
 11
243.434185
 21
67.644925
  0
LINE
  8
寸法
  6
CONTINUOUS
 10
230.082287
 20
45.644925
 11
243.434185
 21
45.644925
  0
LINE
  8
寸法
  6
CONTINUOUS
 10
243.434185
 20
67.644925
 11
243.434185
 21
45.644925
  0
POINT
  8
寸法
 10
243.434185
 20
67.644925
  0
POINT
  8
寸法
 10
243.434185
 20
45.644925
  0
TEXT
  7
TextStyle03
  8
寸法
  6
CONTINUOUS
 10
243.05
 20
53.44375
  1
22
 40
6.0
 50
90.0
 72
     5
 11
243.05
 21
59.80625
  0
ENDBLK
  0
BLOCK
  2
*DIM_0031
 70
    65
 10
0.0
 20
0.0
  0
LINE
  8
寸法
  6
CONTINUOUS
 10
-280.927023
 20
24.36887
 11
-299.547915
 21
24.36887
  0
LINE
  8
寸法
  6
CONTINUOUS
 10
-299.547915
 20
84.36887
 11
-299.547915
 21
24.36887
  0
POINT
  8
寸法
 10
-299.547915
 20
24.36887
  0
TEXT
  7
TextStyle03
  8
寸法
  6
CONTINUOUS
 10
-299.925
 20
51.16875
  1
60
 40
6.0
 50
90.0
 72
     5
 11
-299.925
 21
57.53125
  0
ENDBLK
  0
BLOCK
  2
*DIM_0032
 70
    65
 10
0.0
 20
0.0
  0
LINE
  8
寸法
  6
CONTINUOUS
 10
66.829442
 20
-111.934772
 11
86.377415
 21
-111.934772
  0
LINE
  8
寸法
  6
CONTINUOUS
 10
66.829442
 20
-133.934772
 11
86.377415
 21
-133.934772
  0
LINE
  8
寸法
  6
CONTINUOUS
 10
86.377415
 20
-111.934772
 11
86.377415
 21
-133.934772
  0
POINT
  8
寸法
 10
86.377415
 20
-111.934772
  0
POINT
  8
寸法
 10
86.377415
 20
-133.934772
  0
TEXT
  7
TextStyle03
  8
寸法
  6
CONTINUOUS
 10
86.0
 20
-129.49375
  1
φ22
 40
6.0
 50
90.0
 72
     5
 11
86.0
 21
-116.40625
  0
ENDBLK
  0
BLOCK
  2
*DIM_0033
 70
    65
 10
0.0
 20
0.0
  0
LINE
  8
寸法
  6
CONTINUOUS
 10
37.579443
 20
-79.934778
 11
102.354425
 21
-79.934778
  0
LINE
  8
寸法
  6
CONTINUOUS
 10
102.354425
 20
-87.43478
 11
102.354425
 21
-79.934778
  0
POINT
  8
寸法
 10
102.354425
 20
-79.934778
  0
TEXT
  7
TextStyle03
  8
寸法
  6
CONTINUOUS
 10
102.5
 20
-77.9375
  1
7.5
 40
6.0
 50
90.0
 72
     5
 11
102.5
 21
-68.2125
  0
ENDBLK
  0
BLOCK
  2
*DIM_0034
 70
    65
 10
0.0
 20
0.0
  0
LINE
  8
寸法
  6
CONTINUOUS
 10
26.079443
 20
-156.29764
 11
26.079443
 21
-178.294898
  0
LINE
  8
寸法
  6
CONTINUOUS
 10
-83.920553
 20
-178.294898
 11
26.079443
 21
-178.294898
  0
POINT
  8
寸法
 10
26.079443
 20
-178.294898
  0
TEXT
  7
TextStyle03
  8
寸法
  6
CONTINUOUS
 10
-77.5
 20
-177.925
  1
ボックス取付け用穴ピッチ＝110
 40
6.0
 72
     5
 11
19.65
 21
-177.925
  0
ENDBLK
  0
ENDSEC
  0
SECTION
  2
ENTITIES
  0
POLYLINE
  8
通り芯
  6
CONTINUOUS
 66
     1
 70
     1
  0
VERTEX
  8
通り芯
 10
-420.5
 20
-297.0
  0
VERTEX
  8
通り芯
 10
420.5
 20
-297.0
  0
VERTEX
  8
通り芯
 10
420.5
 20
297.0
  0
VERTEX
  8
通り芯
 10
-420.5
 20
297.0
  0
SEQEND
  0
LINE
  8
型材
  6
CONTINUOUS
 62
    32
 10
-85.420553
 20
84.86887
 11
27.579448
 21
84.86887
  0
LINE
  8
型材
  6
CONTINUOUS
 62
    32
 10
-85.420553
 20
84.86887
 11
-85.420553
 21
23.86887
  0
LINE
  8
型材
  6
CONTINUOUS
 62
    32
 10
-85.420553
 20
23.86887
 11
27.579448
 21
23.86887
  0
LINE
  8
型材
  6
CONTINUOUS
 62
    32
 10
27.579448
 20
84.86887
 11
27.579448
 21
23.86887
  0
LINE
  8
型材
  6
CONTINUOUS
 62
    32
 10
7.179437
 20
81.3689
 11
12.679437
 21
81.3689
  0
LINE
  8
型材
  6
CONTINUOUS
 62
    32
 10
4.679437
 20
78.8689
 11
4.679437
 21
73.36887
  0
LINE
  8
型材
  6
CONTINUOUS
 62
    32
 10
4.179437
 20
78.8689
 11
4.179437
 21
73.36887
  0
LINE
  8
型材
  6
CONTINUOUS
 62
    32
 10
7.179437
 20
81.8689
 11
12.679437
 21
81.8689
  0
LINE
  8
型材
  6
CONTINUOUS
 62
    32
 10
-85.920553
 20
85.36887
 11
28.079448
 21
85.36887
  0
LINE
  8
型材
  6
CONTINUOUS
 62
    32
 10
-85.920553
 20
85.36887
 11
-85.920553
 21
23.36887
  0
LINE
  8
型材
  6
CONTINUOUS
 62
    32
 10
-85.920553
 20
23.36887
 11
28.079448
 21
23.36887
  0
LINE
  8
型材
  6
CONTINUOUS
 62
    32
 10
28.079448
 20
85.36887
 11
28.079448
 21
23.36887
  0
LINE
  8
型材
  6
DASHDOTX2
 62
    32
 10
-28.920555
 20
117.10593
 11
-28.920555
 21
-8.712062
  0
LINE
  8
型材
  6
DASHDOTX2
 62
    32
 10
-124.79633
 20
54.36887
 11
66.762552
 21
54.36887
  0
LINE
  8
型材
  6
CONTINUOUS
 62
    32
 10
52.079448
 20
106.36887
 11
52.079448
 21
2.36887
  0
LINE
  8
型材
  6
CONTINUOUS
 62
    32
 10
-109.920553
 20
106.36887
 11
-109.920553
 21
2.36887
  0
LINE
  8
型材
  6
CONTINUOUS
 62
    32
 10
-101.920553
 20
-5.63113
 11
44.079448
 21
-5.63113
  0
LINE
  8
型材
  6
CONTINUOUS
 62
    32
 10
-101.920553
 20
114.36887
 11
44.079448
 21
114.36887
  0
LINE
  8
型材
  6
CONTINUOUS
 62
    32
 10
46.863322
 20
113.86887
 11
60.079448
 21
113.86887
  0
LINE
  8
型材
  6
CONTINUOUS
 62
    32
 10
46.863322
 20
-5.13113
 11
60.079448
 21
-5.13113
  0
LINE
  8
型材
  6
CONTINUOUS
 62
    32
 10
-120.920553
 20
110.86887
 11
-120.920553
 21
-2.13113
  0
LINE
  8
型材
  6
CONTINUOUS
 62
    32
 10
-117.920553
 20
113.86887
 11
-104.704435
 21
113.86887
  0
LINE
  8
型材
  6
CONTINUOUS
 62
    32
 10
-117.920553
 20
-5.13113
 11
-104.704435
 21
-5.13113
  0
LINE
  8
型材
  6
CONTINUOUS
 62
    32
 10
63.079448
 20
110.86887
 11
63.079448
 21
-2.13113
  0
LINE
  8
型材
  6
CONTINUOUS
 62
    32
 10
7.179437
 20
43.3689
 11
12.679437
 21
43.3689
  0
LINE
  8
型材
  6
CONTINUOUS
 62
    32
 10
4.679437
 20
40.8689
 11
4.679437
 21
35.36887
  0
LINE
  8
型材
  6
CONTINUOUS
 62
    32
 10
4.179437
 20
40.8689
 11
4.179437
 21
35.36887
  0
LINE
  8
型材
  6
CONTINUOUS
 62
    32
 10
7.179437
 20
43.8689
 11
12.679437
 21
43.8689
  0
ARC
  8
型材
  6
CONTINUOUS
 62
    32
 10
12.679438
 20
73.368869
 40
8.0
 50
179.999991
 51
449.999992
  0
ARC
  8
型材
  6
CONTINUOUS
 62
    32
 10
12.679438
 20
73.368869
 40
8.5
 50
179.999991
 51
449.999992
  0
CIRCLE
  8
型材
  6
CONTINUOUS
 62
    32
 10
12.679437
 20
54.36887
 40
8.0
  0
CIRCLE
  8
型材
  6
CONTINUOUS
 62
    32
 10
12.679437
 20
54.36887
 40
8.5
  0
CIRCLE
  8
型材
  6
CONTINUOUS
 62
    32
 10
7.179437
 20
78.8689
 40
2.5
  0
ARC
  8
型材
  6
CONTINUOUS
 62
    32
 10
12.679438
 20
35.368869
 40
8.0
 50
179.999991
 51
449.999992
  0
ARC
  8
型材
  6
CONTINUOUS
 62
    32
 10
7.179438
 20
78.8689
 40
3.0
 50
90.000003
 51
180.000005
  0
ARC
  8
型材
  6
CONTINUOUS
 62
    32
 10
12.679438
 20
35.368869
 40
8.5
 50
179.999991
 51
449.999992
  0
ARC
  8
型材
  6
CONTINUOUS
 62
    32
 10
-101.920553
 20
106.368869
 40
8.0
 50
90.000003
 51
180.000005
  0
ARC
  8
型材
  6
CONTINUOUS
 62
    32
 10
44.079447
 20
106.368869
 40
8.0
 50
0.0
 51
90.000003
  0
ARC
  8
型材
  6
CONTINUOUS
 62
    32
 10
44.079447
 20
2.368869
 40
8.0
 50
269.999997
 51
360.0
  0
ARC
  8
型材
  6
CONTINUOUS
 62
    32
 10
-101.920553
 20
2.368869
 40
8.0
 50
179.999991
 51
270.000001
  0
ARC
  8
型材
  6
CONTINUOUS
 62
    32
 10
60.079447
 20
110.868869
 40
3.0
 50
0.0
 51
90.000003
  0
ARC
  8
型材
  6
CONTINUOUS
 62
    32
 10
-117.920553
 20
110.868869
 40
3.0
 50
90.000003
 51
180.000005
  0
ARC
  8
型材
  6
CONTINUOUS
 62
    32
 10
-117.920553
 20
-2.131131
 40
3.0
 50
179.999991
 51
270.000001
  0
ARC
  8
型材
  6
CONTINUOUS
 62
    32
 10
60.079447
 20
-2.131131
 40
3.0
 50
269.999997
 51
360.0
  0
CIRCLE
  8
型材
  6
CONTINUOUS
 62
    32
 10
7.179437
 20
40.8689
 40
2.5
  0
ARC
  8
型材
  6
CONTINUOUS
 62
    32
 10
7.179438
 20
40.8689
 40
3.0
 50
90.000003
 51
180.000005
  0
TEXT
  7
TextStyle03
  8
型材
  6
CONTINUOUS
 62
    32
 10
10.05
 20
50.35
  1
停
 40
8.0
 72
     5
 11
18.225
 21
50.35
  0
TEXT
  7
TextStyle03
  8
型材
  6
CONTINUOUS
 62
    32
 10
10.05
 20
31.35
  1
閉
 40
8.0
 72
     5
 11
18.225
 21
31.35
  0
TEXT
  7
TextStyle03
  8
型材
  6
CONTINUOUS
 62
    32
 10
-75.375
 20
57.35
  1
排　煙　装　置
 40
9.0
 72
     5
 11
-12.85
 21
57.35
  0
TEXT
  7
TextStyle03
  8
型材
  6
CONTINUOUS
 62
    32
 10
-73.75
 20
46.85
  1
火災発生時には開を押して下さい
 40
4.0
 72
     5
 11
-14.625
 21
46.85
  0
LINE
  8
型材
  6
DOT
 62
    32
 10
31.619448
 20
84.368865
 11
20.539447
 21
84.368865
  0
LINE
  8
型材
  6
DOT
 62
    32
 10
26.079448
 20
89.908865
 11
26.079448
 21
78.828862
  0
LINE
  8
型材
  6
DOT
 62
    32
 10
-78.380552
 20
84.368865
 11
-89.460552
 21
84.368865
  0
LINE
  8
型材
  6
DOT
 62
    32
 10
-83.920553
 20
89.908865
 11
-83.920553
 21
78.828862
  0
LINE
  8
型材
  6
DOT
 62
    32
 10
-78.380552
 20
24.368865
 11
-89.460552
 21
24.368865
  0
LINE
  8
型材
  6
DOT
 62
    32
 10
-83.920553
 20
29.908865
 11
-83.920553
 21
18.828865
  0
LINE
  8
型材
  6
DOT
 62
    32
 10
31.619448
 20
24.368865
 11
20.539447
 21
24.368865
  0
LINE
  8
型材
  6
DOT
 62
    32
 10
26.079448
 20
29.908865
 11
26.079448
 21
18.828865
  0
CIRCLE
  8
型材
  6
DOT
 62
    32
 10
-83.920553
 20
84.368865
 40
3.0
  0
CIRCLE
  8
型材
  6
DOT
 62
    32
 10
26.079448
 20
84.368865
 40
3.0
  0
CIRCLE
  8
型材
  6
DOT
 62
    32
 10
26.079448
 20
24.368865
 40
3.0
  0
CIRCLE
  8
型材
  6
DOT
 62
    32
 10
-83.920553
 20
24.368865
 40
3.0
  0
LINE
  8
型材
  6
DOT
 10
-104.704435
 20
113.86887
 11
46.863322
 21
113.86887
  0
LINE
  8
型材
  6
DOT
 10
46.863322
 20
-5.13113
 11
-104.704435
 21
-5.13113
  0
LINE
  8
型材
  6
CONTINUOUS
 62
    32
 10
-119.670553
 20
-99.93478
 11
-119.670553
 21
-134.934772
  0
LINE
  8
型材
  6
CONTINUOUS
 62
    32
 10
-120.920553
 20
-98.43478
 11
-120.920553
 21
-99.93478
  0
LINE
  8
型材
  6
DASHDOTX2
 62
    32
 10
-113.920553
 20
-92.824032
 11
-113.920553
 21
-99.93478
  0
ARC
  8
型材
  6
CONTINUOUS
 62
    32
 10
-109.670556
 20
-134.934772
 40
10.0
 50
179.999996
 51
270.000005
  0
POINT
  8
型材
 62
    32
 10
-113.920553
 20
-98.43478
 50
-90.0
  0
LINE
  8
型材
  6
CONTINUOUS
 62
    32
 10
-117.420553
 20
-98.43478
 11
-110.420553
 21
-98.43478
  0
LINE
  8
型材
  6
CONTINUOUS
 62
    32
 10
-114.420553
 20
-95.84868
 11
-114.420553
 21
-97.23478
  0
LINE
  8
型材
  6
CONTINUOUS
 62
    32
 10
-113.420553
 20
-95.84868
 11
-113.420553
 21
-97.23478
  0
LINE
  8
型材
  6
CONTINUOUS
 62
    32
 10
-114.420553
 20
-97.23478
 11
-113.420553
 21
-97.23478
  0
LINE
  8
型材
  6
CONTINUOUS
 62
    32
 10
-117.420553
 20
-98.43478
 11
-117.372362
 21
-97.515253
  0
LINE
  8
型材
  6
CONTINUOUS
 62
    32
 10
-110.420553
 20
-98.43478
 11
-110.468743
 21
-97.515253
  0
ARC
  8
型材
  6
CONTINUOUS
 62
    32
 10
-113.920555
 20
-104.834782
 40
9.0
 50
93.184721
 51
105.100628
  0
ARC
  8
型材
  6
CONTINUOUS
 62
    32
 10
-115.87442
 20
-97.593759
 40
1.5
 50
105.100628
 51
176.999946
  0
ARC
  8
型材
  6
CONTINUOUS
 62
    32
 10
-111.96669
 20
-97.593759
 40
1.5
 50
3.000061
 51
74.899372
  0
ARC
  8
型材
  6
CONTINUOUS
 62
    32
 10
-113.920555
 20
-104.834782
 40
9.0
 50
74.899372
 51
86.815279
  0
LINE
  8
型材
  6
CONTINUOUS
 62
    32
 10
-109.670553
 20
-144.934772
 11
-28.920555
 21
-144.934772
  0
LINE
  8
型材
  6
CONTINUOUS
 62
    32
 10
-120.920553
 20
-99.93478
 11
-28.920555
 21
-99.93478
  0
LINE
  8
型材
  6
CONTINUOUS
 62
    32
 10
-120.920553
 20
-98.43478
 11
-28.920555
 21
-98.43478
  0
LINE
  8
型材
  6
CONTINUOUS
 62
    32
 10
-102.420555
 20
-90.173312
 11
-102.983612
 21
-96.609087
  0
ARC
  8
型材
  6
CONTINUOUS
 62
    32
 10
-104.976011
 20
-96.43478
 40
2.0
 50
269.999995
 51
354.999998
  0
ARC
  8
型材
  6
CONTINUOUS
 62
    32
 10
-99.431974
 20
-90.43478
 40
3.0
 50
89.999995
 51
174.999997
  0
LINE
  8
型材
  6
CONTINUOUS
 62
    32
 10
-109.920553
 20
-82.820125
 11
-109.920553
 21
-87.43478
  0
LINE
  8
型材
  6
CONTINUOUS
 62
    32
 10
-107.990377
 20
-80.821338
 11
-96.920558
 21
-80.43477
  0
ARC
  8
型材
  6
CONTINUOUS
 62
    32
 10
-107.920556
 20
-82.820125
 40
2.0
 50
91.999997
 51
179.999996
  0
LINE
  8
型材
  6
CONTINUOUS
 62
    32
 10
-28.920555
 20
-85.43478
 11
-109.920553
 21
-85.43478
  0
LINE
  8
型材
  6
CONTINUOUS
 62
    32
 10
-28.920555
 20
-84.93478
 11
-109.920553
 21
-84.93478
  0
LINE
  8
型材
  6
CONTINUOUS
 62
    32
 10
-28.920555
 20
-87.43478
 11
-109.920553
 21
-87.43478
  0
LINE
  8
型材
  6
CONTINUOUS
 62
    32
 10
-28.920555
 20
-80.43478
 11
-96.920845
 21
-80.43478
  0
LINE
  8
型材
  6
CONTINUOUS
 62
    32
 10
61.829443
 20
-99.93478
 11
61.829443
 21
-134.934772
  0
LINE
  8
型材
  6
CONTINUOUS
 62
    32
 10
63.079443
 20
-98.43478
 11
63.079443
 21
-99.93478
  0
LINE
  8
型材
  6
DASHDOTX2
 62
    32
 10
56.079443
 20
-92.824032
 11
56.079443
 21
-99.93478
  0
ARC
  8
型材
  6
CONTINUOUS
 62
    32
 10
51.829442
 20
-134.934772
 40
10.0
 50
269.999995
 51
360.000004
  0
POINT
  8
型材
 62
    32
 10
56.079443
 20
-98.43478
 50
-90.0
  0
LINE
  8
型材
  6
CONTINUOUS
 62
    32
 10
59.579443
 20
-98.43478
 11
52.579443
 21
-98.43478
  0
LINE
  8
型材
  6
CONTINUOUS
 62
    32
 10
56.579443
 20
-95.84868
 11
56.579443
 21
-97.23478
  0
LINE
  8
型材
  6
CONTINUOUS
 62
    32
 10
55.579443
 20
-95.84868
 11
55.579443
 21
-97.23478
  0
LINE
  8
型材
  6
CONTINUOUS
 62
    32
 10
56.579443
 20
-97.23478
 11
55.579443
 21
-97.23478
  0
LINE
  8
型材
  6
CONTINUOUS
 62
    32
 10
59.579443
 20
-98.43478
 11
59.531252
 21
-97.515253
  0
LINE
  8
型材
  6
CONTINUOUS
 62
    32
 10
52.579443
 20
-98.43478
 11
52.627633
 21
-97.515253
  0
ARC
  8
型材
  6
CONTINUOUS
 62
    32
 10
56.079441
 20
-104.834782
 40
9.0
 50
74.899372
 51
86.815279
  0
ARC
  8
型材
  6
CONTINUOUS
 62
    32
 10
58.033306
 20
-97.593759
 40
1.5
 50
3.000054
 51
74.899372
  0
ARC
  8
型材
  6
CONTINUOUS
 62
    32
 10
54.125576
 20
-97.593759
 40
1.5
 50
105.100628
 51
176.999939
  0
ARC
  8
型材
  6
CONTINUOUS
 62
    32
 10
56.079441
 20
-104.834782
 40
9.0
 50
93.184721
 51
105.100628
  0
LINE
  8
型材
  6
CONTINUOUS
 62
    32
 10
51.829443
 20
-144.934772
 11
-28.920555
 21
-144.934772
  0
LINE
  8
型材
  6
CONTINUOUS
 62
    32
 10
63.079443
 20
-99.93478
 11
-28.920555
 21
-99.93478
  0
LINE
  8
型材
  6
CONTINUOUS
 62
    32
 10
63.079443
 20
-98.43478
 11
-28.920555
 21
-98.43478
  0
LINE
  8
型材
  6
CONTINUOUS
 62
    32
 10
44.579445
 20
-90.173312
 11
45.142503
 21
-96.609087
  0
ARC
  8
型材
  6
CONTINUOUS
 62
    32
 10
47.134896
 20
-96.43478
 40
2.0
 50
185.000002
 51
270.000005
  0
ARC
  8
型材
  6
CONTINUOUS
 62
    32
 10
41.590859
 20
-90.43478
 40
3.0
 50
5.000003
 51
90.000005
  0
LINE
  8
型材
  6
CONTINUOUS
 62
    32
 10
52.079443
 20
-82.820125
 11
52.079443
 21
-87.43478
  0
LINE
  8
型材
  6
CONTINUOUS
 62
    32
 10
50.149267
 20
-80.821338
 11
39.079448
 21
-80.43477
  0
ARC
  8
型材
  6
CONTINUOUS
 62
    32
 10
50.079442
 20
-82.820125
 40
2.0
 50
0.000004
 51
88.000003
  0
LINE
  8
型材
  6
CONTINUOUS
 62
    32
 10
-28.920555
 20
-85.43478
 11
52.079443
 21
-85.43478
  0
LINE
  8
型材
  6
CONTINUOUS
 62
    32
 10
-28.920555
 20
-84.93478
 11
52.079443
 21
-84.93478
  0
LINE
  8
型材
  6
CONTINUOUS
 62
    32
 10
-28.920555
 20
-87.43478
 11
52.079443
 21
-87.43478
  0
LINE
  8
型材
  6
CONTINUOUS
 62
    32
 10
-28.920555
 20
-80.43478
 11
39.079735
 21
-80.43478
  0
LINE
  8
型材
  6
DASHDOT
 10
-83.920553
 20
-138.03758
 11
-83.920553
 21
-151.29764
  0
LINE
  8
型材
  6
DASHDOT
 10
26.079443
 20
-138.03758
 11
26.079443
 21
-151.29764
  0
LINE
  8
型材
  6
CONTINUOUS
 62
    32
 10
-269.564155
 20
102.61887
 11
-269.564155
 21
6.11887
  0
LINE
  8
型材
  6
CONTINUOUS
 62
    32
 10
-205.064163
 20
101.36887
 11
-205.064163
 21
7.36887
  0
LINE
  8
型材
  6
CONTINUOUS
 62
    32
 10
-224.564163
 20
113.86887
 11
-224.564163
 21
-5.13113
  0
LINE
  8
型材
  6
DASHDOTX2
 62
    32
 10
-202.222625
 20
54.36887
 11
-277.244635
 21
54.36887
  0
LINE
  8
型材
  6
CONTINUOUS
 62
    32
 10
-224.564163
 20
112.61887
 11
-259.564155
 21
112.61887
  0
LINE
  8
型材
  6
CONTINUOUS
 62
    32
 10
-224.564163
 20
-3.88113
 11
-259.564155
 21
-3.88113
  0
LINE
  8
型材
  6
CONTINUOUS
 62
    32
 10
-223.064163
 20
113.86887
 11
-223.064163
 21
-5.13113
  0
LINE
  8
型材
  6
CONTINUOUS
 62
    32
 10
-223.064163
 20
-5.13113
 11
-224.564163
 21
-5.13113
  0
LINE
  8
型材
  6
CONTINUOUS
 62
    32
 10
-223.064163
 20
113.86887
 11
-224.564163
 21
113.86887
  0
LINE
  8
型材
  6
CONTINUOUS
 62
    32
 10
-212.064163
 20
114.36887
 11
-212.064163
 21
-5.63113
  0
LINE
  8
型材
  6
CONTINUOUS
 62
    32
 10
-214.802695
 20
100.14609
 11
-221.23847
 21
100.709147
  0
LINE
  8
型材
  6
CONTINUOUS
 62
    32
 10
-214.8027
 20
8.591662
 11
-221.238483
 21
8.028605
  0
LINE
  8
型材
  6
CONTINUOUS
 62
    32
 10
-207.449507
 20
114.36887
 11
-212.064163
 21
114.36887
  0
LINE
  8
型材
  6
CONTINUOUS
 62
    32
 10
-210.064163
 20
114.36887
 11
-210.064163
 21
-5.63113
  0
LINE
  8
型材
  6
CONTINUOUS
 62
    32
 10
-209.564163
 20
114.36887
 11
-209.564163
 21
-5.63113
  0
LINE
  8
型材
  6
CONTINUOUS
 62
    32
 10
-205.45072
 20
112.438695
 11
-205.064153
 21
101.368875
  0
LINE
  8
型材
  6
CONTINUOUS
 62
    32
 10
-205.450723
 20
-3.700918
 11
-205.064157
 21
7.368875
  0
LINE
  8
型材
  6
CONTINUOUS
 62
    32
 10
-207.449507
 20
-5.63113
 11
-212.064163
 21
-5.63113
  0
LINE
  8
型材
  6
DASHDOTX2
 62
    32
 10
-217.453415
 20
1.86887
 11
-224.564163
 21
1.86887
  0
LINE
  8
型材
  6
DASHDOTX2
 62
    32
 10
-217.453415
 20
106.86887
 11
-224.564163
 21
106.86887
  0
ARC
  8
型材
  6
CONTINUOUS
 62
    32
 10
-259.564153
 20
102.618869
 40
10.0
 50
89.999996
 51
180.000005
  0
ARC
  8
型材
  6
CONTINUOUS
 62
    32
 10
-259.564153
 20
6.118869
 40
10.0
 50
179.999995
 51
270.000004
  0
ARC
  8
型材
  6
CONTINUOUS
 62
    32
 10
-221.064161
 20
102.701541
 40
2.0
 50
179.999995
 51
264.999998
  0
ARC
  8
型材
  6
CONTINUOUS
 62
    32
 10
-221.064161
 20
6.036212
 40
2.0
 50
95.000002
 51
180.000005
  0
ARC
  8
型材
  6
CONTINUOUS
 62
    32
 10
-207.449507
 20
112.368869
 40
2.0
 50
1.999997
 51
89.999996
  0
ARC
  8
型材
  6
CONTINUOUS
 62
    32
 10
-207.449507
 20
-3.631131
 40
2.0
 50
270.000004
 51
358.000003
  0
ARC
  8
型材
  6
CONTINUOUS
 62
    32
 10
-215.064161
 20
11.580249
 40
3.0
 50
275.000003
 51
360.000005
  0
ARC
  8
型材
  6
CONTINUOUS
 62
    32
 10
-215.064161
 20
97.157504
 40
3.0
 50
359.999995
 51
444.999997
  0
POINT
  8
型材
 62
    32
 10
-223.064163
 20
1.86887
  0
LINE
  8
型材
  6
CONTINUOUS
 62
    32
 10
-223.064163
 20
-1.63113
 11
-223.064163
 21
5.36887
  0
LINE
  8
型材
  6
CONTINUOUS
 62
    32
 10
-220.478063
 20
1.36887
 11
-221.864163
 21
1.36887
  0
LINE
  8
型材
  6
CONTINUOUS
 62
    32
 10
-220.478063
 20
2.36887
 11
-221.864163
 21
2.36887
  0
LINE
  8
型材
  6
CONTINUOUS
 62
    32
 10
-221.864163
 20
1.36887
 11
-221.864163
 21
2.36887
  0
LINE
  8
型材
  6
CONTINUOUS
 62
    32
 10
-223.064163
 20
-1.63113
 11
-222.144635
 21
-1.58294
  0
LINE
  8
型材
  6
CONTINUOUS
 62
    32
 10
-223.064163
 20
5.36887
 11
-222.144635
 21
5.32068
  0
ARC
  8
型材
  6
CONTINUOUS
 62
    32
 10
-229.464163
 20
1.868868
 40
9.0
 50
344.899372
 51
356.815279
  0
ARC
  8
型材
  6
CONTINUOUS
 62
    32
 10
-222.22314
 20
-0.084996
 40
1.5
 50
273.000054
 51
344.899372
  0
ARC
  8
型材
  6
CONTINUOUS
 62
    32
 10
-222.22314
 20
3.822733
 40
1.5
 50
15.100628
 51
86.999939
  0
ARC
  8
型材
  6
CONTINUOUS
 62
    32
 10
-229.464163
 20
1.868868
 40
9.0
 50
3.184721
 51
15.100628
  0
POINT
  8
型材
 62
    32
 10
-223.064163
 20
106.86887
  0
LINE
  8
型材
  6
CONTINUOUS
 62
    32
 10
-223.064163
 20
110.36887
 11
-223.064163
 21
103.36887
  0
LINE
  8
型材
  6
CONTINUOUS
 62
    32
 10
-220.478063
 20
107.36887
 11
-221.864163
 21
107.36887
  0
LINE
  8
型材
  6
CONTINUOUS
 62
    32
 10
-220.478063
 20
106.36887
 11
-221.864163
 21
106.36887
  0
LINE
  8
型材
  6
CONTINUOUS
 62
    32
 10
-221.864163
 20
107.36887
 11
-221.864163
 21
106.36887
  0
LINE
  8
型材
  6
CONTINUOUS
 62
    32
 10
-223.064163
 20
110.36887
 11
-222.144635
 21
110.32068
  0
LINE
  8
型材
  6
CONTINUOUS
 62
    32
 10
-223.064163
 20
103.36887
 11
-222.144635
 21
103.41706
  0
ARC
  8
型材
  6
CONTINUOUS
 62
    32
 10
-229.464163
 20
106.868869
 40
9.0
 50
3.184721
 51
15.100628
  0
ARC
  8
型材
  6
CONTINUOUS
 62
    32
 10
-222.22314
 20
108.822733
 40
1.5
 50
15.100628
 51
86.999946
  0
ARC
  8
型材
  6
CONTINUOUS
 62
    32
 10
-222.22314
 20
104.915004
 40
1.5
 50
273.000061
 51
344.899372
  0
ARC
  8
型材
  6
CONTINUOUS
 62
    32
 10
-229.464163
 20
106.868869
 40
9.0
 50
344.899372
 51
356.815279
  0
CIRCLE
  8
型材
  6
CONTINUOUS
 62
    32
 10
-247.564163
 20
54.36887
 40
11.0
  0
POLYLINE
  8
型材
  6
CONTINUOUS
 62
    32
 66
     1
 70
     4
  0
VERTEX
  8
型材
 10
-70.225
 20
28.375
 70
     8
  0
VERTEX
  8
型材
 10
-70.2
 20
28.375
 70
     8
  0
VERTEX
  8
型材
 10
-70.175
 20
28.4
 70
     8
  0
VERTEX
  8
型材
 10
-70.15
 20
28.4
 70
     8
  0
VERTEX
  8
型材
 10
-70.125
 20
28.425
 70
     8
  0
VERTEX
  8
型材
 10
-70.1
 20
28.425
 70
     8
  0
VERTEX
  8
型材
 10
-70.075
 20
28.45
 70
     8
  0
VERTEX
  8
型材
 10
-70.05
 20
28.45
 70
     8
  0
VERTEX
  8
型材
 10
-70.025
 20
28.475
 70
     8
  0
VERTEX
  8
型材
 10
-70.0
 20
28.475
 70
     8
  0
VERTEX
  8
型材
 10
-69.975
 20
28.5
 70
     8
  0
VERTEX
  8
型材
 10
-69.95
 20
28.5
 70
     8
  0
VERTEX
  8
型材
 10
-69.925
 20
28.525
 70
     8
  0
VERTEX
  8
型材
 10
-69.9
 20
28.525
 70
     8
  0
VERTEX
  8
型材
 10
-69.875
 20
28.55
 70
     8
  0
VERTEX
  8
型材
 10
-69.85
 20
28.55
 70
     8
  0
VERTEX
  8
型材
 10
-69.825
 20
28.55
 70
     8
  0
VERTEX
  8
型材
 10
-69.8
 20
28.575
 70
     8
  0
VERTEX
  8
型材
 10
-69.775
 20
28.575
 70
     8
  0
VERTEX
  8
型材
 10
-69.75
 20
28.6
 70
     8
  0
VERTEX
  8
型材
 10
-69.725
 20
28.6
 70
     8
  0
VERTEX
  8
型材
 10
-69.7
 20
28.625
 70
     8
  0
VERTEX
  8
型材
 10
-69.675
 20
28.625
 70
     8
  0
VERTEX
  8
型材
 10
-69.65
 20
28.65
 70
     8
  0
VERTEX
  8
型材
 10
-69.625
 20
28.65
 70
     8
  0
VERTEX
  8
型材
 10
-69.6
 20
28.675
 70
     8
  0
VERTEX
  8
型材
 10
-69.6
 20
28.675
 70
     8
  0
VERTEX
  8
型材
 10
-69.575
 20
28.7
 70
     8
  0
VERTEX
  8
型材
 10
-69.55
 20
28.7
 70
     8
  0
VERTEX
  8
型材
 10
-69.525
 20
28.725
 70
     8
  0
VERTEX
  8
型材
 10
-69.5
 20
28.725
 70
     8
  0
VERTEX
  8
型材
 10
-69.475
 20
28.75
 70
     8
  0
VERTEX
  8
型材
 10
-69.45
 20
28.75
 70
     8
  0
VERTEX
  8
型材
 10
-69.425
 20
28.775
 70
     8
  0
VERTEX
  8
型材
 10
-69.4
 20
28.8
 70
     8
  0
VERTEX
  8
型材
 10
-69.375
 20
28.8
 70
     8
  0
VERTEX
  8
型材
 10
-69.35
 20
28.825
 70
     8
  0
VERTEX
  8
型材
 10
-69.325
 20
28.825
 70
     8
  0
VERTEX
  8
型材
 10
-69.3
 20
28.85
 70
     8
  0
VERTEX
  8
型材
 10
-69.275
 20
28.85
 70
     8
  0
VERTEX
  8
型材
 10
-69.275
 20
28.875
 70
     8
  0
VERTEX
  8
型材
 10
-69.25
 20
28.875
 70
     8
  0
VERTEX
  8
型材
 10
-69.225
 20
28.9
 70
     8
  0
VERTEX
  8
型材
 10
-69.2
 20
28.925
 70
     8
  0
VERTEX
  8
型材
 10
-69.175
 20
28.925
 70
     8
  0
VERTEX
  8
型材
 10
-69.15
 20
28.95
 70
     8
  0
VERTEX
  8
型材
 10
-69.125
 20
28.95
 70
     8
  0
VERTEX
  8
型材
 10
-69.125
 20
28.975
 70
     8
  0
VERTEX
  8
型材
 10
-69.1
 20
29.0
 70
     8
  0
VERTEX
  8
型材
 10
-69.075
 20
29.0
 70
     8
  0
VERTEX
  8
型材
 10
-69.05
 20
29.025
 70
     8
  0
VERTEX
  8
型材
 10
-69.025
 20
29.025
 70
     8
  0
VERTEX
  8
型材
 10
-69.0
 20
29.05
 70
     8
  0
VERTEX
  8
型材
 10
-69.0
 20
29.075
 70
     8
  0
VERTEX
  8
型材
 10
-68.975
 20
29.075
 70
     8
  0
VERTEX
  8
型材
 10
-68.95
 20
29.1
 70
     8
  0
VERTEX
  8
型材
 10
-68.925
 20
29.125
 70
     8
  0
VERTEX
  8
型材
 10
-68.925
 20
29.125
 70
     8
  0
VERTEX
  8
型材
 10
-68.9
 20
29.15
 70
     8
  0
VERTEX
  8
型材
 10
-68.875
 20
29.175
 70
     8
  0
VERTEX
  8
型材
 10
-68.85
 20
29.175
 70
     8
  0
VERTEX
  8
型材
 10
-68.85
 20
29.2
 70
     8
  0
VERTEX
  8
型材
 10
-68.825
 20
29.225
 70
     8
  0
VERTEX
  8
型材
 10
-68.8
 20
29.25
 70
     8
  0
VERTEX
  8
型材
 10
-68.775
 20
29.25
 70
     8
  0
VERTEX
  8
型材
 10
-68.775
 20
29.275
 70
     8
  0
VERTEX
  8
型材
 10
-68.75
 20
29.3
 70
     8
  0
VERTEX
  8
型材
 10
-68.725
 20
29.325
 70
     8
  0
VERTEX
  8
型材
 10
-68.725
 20
29.325
 70
     8
  0
VERTEX
  8
型材
 10
-68.7
 20
29.35
 70
     8
  0
VERTEX
  8
型材
 10
-68.675
 20
29.375
 70
     8
  0
VERTEX
  8
型材
 10
-68.675
 20
29.4
 70
     8
  0
VERTEX
  8
型材
 10
-68.65
 20
29.425
 70
     8
  0
VERTEX
  8
型材
 10
-68.65
 20
29.425
 70
     8
  0
VERTEX
  8
型材
 10
-68.625
 20
29.45
 70
     8
  0
VERTEX
  8
型材
 10
-68.6
 20
29.475
 70
     8
  0
VERTEX
  8
型材
 10
-68.6
 20
29.5
 70
     8
  0
VERTEX
  8
型材
 10
-68.575
 20
29.525
 70
     8
  0
VERTEX
  8
型材
 10
-68.575
 20
29.55
 70
     8
  0
VERTEX
  8
型材
 10
-68.55
 20
29.55
 70
     8
  0
VERTEX
  8
型材
 10
-68.55
 20
29.575
 70
     8
  0
VERTEX
  8
型材
 10
-68.525
 20
29.6
 70
     8
  0
VERTEX
  8
型材
 10
-68.525
 20
29.625
 70
     8
  0
VERTEX
  8
型材
 10
-68.5
 20
29.65
 70
     8
  0
VERTEX
  8
型材
 10
-68.5
 20
29.675
 70
     8
  0
VERTEX
  8
型材
 10
-68.475
 20
29.7
 70
     8
  0
VERTEX
  8
型材
 10
-68.475
 20
29.725
 70
     8
  0
VERTEX
  8
型材
 10
-68.45
 20
29.75
 70
     8
  0
VERTEX
  8
型材
 10
-68.45
 20
29.775
 70
     8
  0
VERTEX
  8
型材
 10
-68.45
 20
29.8
 70
     8
  0
VERTEX
  8
型材
 10
-68.425
 20
29.825
 70
     8
  0
VERTEX
  8
型材
 10
-68.425
 20
29.85
 70
     8
  0
VERTEX
  8
型材
 10
-68.4
 20
29.875
 70
     8
  0
VERTEX
  8
型材
 10
-68.4
 20
29.9
 70
     8
  0
VERTEX
  8
型材
 10
-68.4
 20
29.925
 70
     8
  0
VERTEX
  8
型材
 10
-68.375
 20
29.95
 70
     8
  0
VERTEX
  8
型材
 10
-68.375
 20
29.975
 70
     8
  0
VERTEX
  8
型材
 10
-68.375
 20
30.0
 70
     8
  0
VERTEX
  8
型材
 10
-68.35
 20
30.025
 70
     8
  0
VERTEX
  8
型材
 10
-68.35
 20
30.05
 70
     8
  0
VERTEX
  8
型材
 10
-68.35
 20
30.1
 70
     8
  0
VERTEX
  8
型材
 10
-68.35
 20
30.125
 70
     8
  0
VERTEX
  8
型材
 10
-68.325
 20
30.15
 70
     8
  0
VERTEX
  8
型材
 10
-68.325
 20
30.175
 70
     8
  0
VERTEX
  8
型材
 10
-68.325
 20
30.2
 70
     8
  0
VERTEX
  8
型材
 10
-68.325
 20
30.225
 70
     8
  0
VERTEX
  8
型材
 10
-68.325
 20
30.25
 70
     8
  0
VERTEX
  8
型材
 10
-68.3
 20
30.3
 70
     8
  0
VERTEX
  8
型材
 10
-68.3
 20
30.325
 70
     8
  0
VERTEX
  8
型材
 10
-68.3
 20
30.35
 70
     8
  0
VERTEX
  8
型材
 10
-68.3
 20
30.375
 70
     8
  0
VERTEX
  8
型材
 10
-68.3
 20
30.4
 70
     8
  0
VERTEX
  8
型材
 10
-68.3
 20
30.45
 70
     8
  0
VERTEX
  8
型材
 10
-68.3
 20
30.475
 70
     8
  0
VERTEX
  8
型材
 10
-68.275
 20
30.5
 70
     8
  0
VERTEX
  8
型材
 10
-68.275
 20
30.525
 70
     8
  0
VERTEX
  8
型材
 10
-68.275
 20
30.575
 70
     8
  0
VERTEX
  8
型材
 10
-68.275
 20
30.6
 70
     8
  0
VERTEX
  8
型材
 10
-68.275
 20
30.625
 70
     8
  0
VERTEX
  8
型材
 10
-68.275
 20
30.65
 70
     8
  0
VERTEX
  8
型材
 10
-68.275
 20
30.7
 70
     8
  0
VERTEX
  8
型材
 10
-68.275
 20
30.725
 70
     8
  0
VERTEX
  8
型材
 10
-68.275
 20
30.75
 70
     8
  0
VERTEX
  8
型材
 10
-68.275
 20
30.775
 70
     8
  0
VERTEX
  8
型材
 10
-68.275
 20
30.825
 70
     8
  0
VERTEX
  8
型材
 10
-68.275
 20
30.85
 70
     8
  0
VERTEX
  8
型材
 10
-68.275
 20
30.875
 70
     8
  0
VERTEX
  8
型材
 10
-68.275
 20
30.925
 70
     8
  0
VERTEX
  8
型材
 10
-68.275
 20
30.95
 70
     8
  0
VERTEX
  8
型材
 10
-68.275
 20
30.975
 70
     8
  0
VERTEX
  8
型材
 10
-68.275
 20
31.0
 70
     8
  0
VERTEX
  8
型材
 10
-68.275
 20
31.05
 70
     8
  0
VERTEX
  8
型材
 10
-68.275
 20
31.075
 70
     8
  0
VERTEX
  8
型材
 10
-68.275
 20
31.1
 70
     8
  0
VERTEX
  8
型材
 10
-68.275
 20
31.15
 70
     8
  0
VERTEX
  8
型材
 10
-68.275
 20
31.175
 70
     8
  0
VERTEX
  8
型材
 10
-68.275
 20
31.2
 70
     8
  0
VERTEX
  8
型材
 10
-68.275
 20
31.25
 70
     8
  0
VERTEX
  8
型材
 10
-68.275
 20
31.275
 70
     8
  0
VERTEX
  8
型材
 10
-68.275
 20
31.3
 70
     8
  0
VERTEX
  8
型材
 10
-68.275
 20
31.35
 70
     8
  0
VERTEX
  8
型材
 10
-68.3
 20
31.375
 70
     8
  0
VERTEX
  8
型材
 10
-68.3
 20
31.4
 70
     8
  0
VERTEX
  8
型材
 10
-68.3
 20
31.45
 70
     8
  0
VERTEX
  8
型材
 10
-68.3
 20
31.475
 70
     8
  0
VERTEX
  8
型材
 10
-68.3
 20
31.5
 70
     8
  0
VERTEX
  8
型材
 10
-68.3
 20
31.55
 70
     8
  0
VERTEX
  8
型材
 10
-68.3
 20
31.575
 70
     8
  0
VERTEX
  8
型材
 10
-68.3
 20
31.6
 70
     8
  0
VERTEX
  8
型材
 10
-68.325
 20
31.65
 70
     8
  0
VERTEX
  8
型材
 10
-68.325
 20
31.675
 70
     8
  0
VERTEX
  8
型材
 10
-68.325
 20
31.7
 70
     8
  0
VERTEX
  8
型材
 10
-68.325
 20
31.75
 70
     8
  0
VERTEX
  8
型材
 10
-68.325
 20
31.775
 70
     8
  0
VERTEX
  8
型材
 10
-68.325
 20
31.8
 70
     8
  0
VERTEX
  8
型材
 10
-68.325
 20
31.85
 70
     8
  0
VERTEX
  8
型材
 10
-68.35
 20
31.875
 70
     8
  0
VERTEX
  8
型材
 10
-68.35
 20
31.9
 70
     8
  0
VERTEX
  8
型材
 10
-68.35
 20
31.95
 70
     8
  0
VERTEX
  8
型材
 10
-68.35
 20
31.975
 70
     8
  0
VERTEX
  8
型材
 10
-68.35
 20
32.0
 70
     8
  0
VERTEX
  8
型材
 10
-68.35
 20
32.05
 70
     8
  0
VERTEX
  8
型材
 10
-68.375
 20
32.075
 70
     8
  0
VERTEX
  8
型材
 10
-68.375
 20
32.1
 70
     8
  0
VERTEX
  8
型材
 10
-68.375
 20
32.125
 70
     8
  0
VERTEX
  8
型材
 10
-68.375
 20
32.175
 70
     8
  0
VERTEX
  8
型材
 10
-68.375
 20
32.2
 70
     8
  0
VERTEX
  8
型材
 10
-68.375
 20
32.225
 70
     8
  0
VERTEX
  8
型材
 10
-68.4
 20
32.275
 70
     8
  0
VERTEX
  8
型材
 10
-68.4
 20
32.3
 70
     8
  0
VERTEX
  8
型材
 10
-68.4
 20
32.325
 70
     8
  0
VERTEX
  8
型材
 10
-68.4
 20
32.35
 70
     8
  0
VERTEX
  8
型材
 10
-68.4
 20
32.4
 70
     8
  0
VERTEX
  8
型材
 10
-68.425
 20
32.425
 70
     8
  0
VERTEX
  8
型材
 10
-68.425
 20
32.45
 70
     8
  0
VERTEX
  8
型材
 10
-68.425
 20
32.475
 70
     8
  0
VERTEX
  8
型材
 10
-68.425
 20
32.5
 70
     8
  0
VERTEX
  8
型材
 10
-68.425
 20
32.55
 70
     8
  0
VERTEX
  8
型材
 10
-68.45
 20
32.575
 70
     8
  0
VERTEX
  8
型材
 10
-68.45
 20
32.6
 70
     8
  0
VERTEX
  8
型材
 10
-68.45
 20
32.625
 70
     8
  0
VERTEX
  8
型材
 10
-68.45
 20
32.65
 70
     8
  0
VERTEX
  8
型材
 10
-68.45
 20
32.7
 70
     8
  0
VERTEX
  8
型材
 10
-68.45
 20
32.725
 70
     8
  0
VERTEX
  8
型材
 10
-68.475
 20
32.75
 70
     8
  0
VERTEX
  8
型材
 10
-68.475
 20
32.775
 70
     8
  0
VERTEX
  8
型材
 10
-68.475
 20
32.8
 70
     8
  0
VERTEX
  8
型材
 10
-68.475
 20
32.825
 70
     8
  0
VERTEX
  8
型材
 10
-68.475
 20
32.85
 70
     8
  0
VERTEX
  8
型材
 10
-68.475
 20
32.9
 70
     8
  0
VERTEX
  8
型材
 10
-68.5
 20
32.925
 70
     8
  0
VERTEX
  8
型材
 10
-68.5
 20
32.95
 70
     8
  0
VERTEX
  8
型材
 10
-68.5
 20
32.975
 70
     8
  0
VERTEX
  8
型材
 10
-68.5
 20
33.0
 70
     8
  0
VERTEX
  8
型材
 10
-68.5
 20
33.025
 70
     8
  0
VERTEX
  8
型材
 10
-68.5
 20
33.05
 70
     8
  0
VERTEX
  8
型材
 10
-68.525
 20
33.075
 70
     8
  0
VERTEX
  8
型材
 10
-68.525
 20
33.1
 70
     8
  0
VERTEX
  8
型材
 10
-68.525
 20
33.125
 70
     8
  0
VERTEX
  8
型材
 10
-68.525
 20
33.15
 70
     8
  0
VERTEX
  8
型材
 10
-68.525
 20
33.175
 70
     8
  0
VERTEX
  8
型材
 10
-68.525
 20
33.2
 70
     8
  0
VERTEX
  8
型材
 10
-68.525
 20
33.225
 70
     8
  0
VERTEX
  8
型材
 10
-68.55
 20
33.25
 70
     8
  0
VERTEX
  8
型材
 10
-68.55
 20
33.275
 70
     8
  0
VERTEX
  8
型材
 10
-68.55
 20
33.3
 70
     8
  0
VERTEX
  8
型材
 10
-68.55
 20
33.325
 70
     8
  0
VERTEX
  8
型材
 10
-68.55
 20
33.325
 70
     8
  0
VERTEX
  8
型材
 10
-68.55
 20
33.35
 70
     8
  0
VERTEX
  8
型材
 10
-68.55
 20
33.375
 70
     8
  0
VERTEX
  8
型材
 10
-68.55
 20
33.4
 70
     8
  0
VERTEX
  8
型材
 10
-68.55
 20
33.425
 70
     8
  0
VERTEX
  8
型材
 10
-68.55
 20
33.45
 70
     8
  0
VERTEX
  8
型材
 10
-68.55
 20
33.45
 70
     8
  0
VERTEX
  8
型材
 10
-68.55
 20
33.475
 70
     8
  0
VERTEX
  8
型材
 10
-68.55
 20
33.5
 70
     8
  0
VERTEX
  8
型材
 10
-68.575
 20
33.525
 70
     8
  0
VERTEX
  8
型材
 10
-68.575
 20
33.525
 70
     8
  0
VERTEX
  8
型材
 10
-68.575
 20
33.55
 70
     8
  0
VERTEX
  8
型材
 10
-68.575
 20
33.575
 70
     8
  0
VERTEX
  8
型材
 10
-68.575
 20
33.575
 70
     8
  0
VERTEX
  8
型材
 10
-68.575
 20
33.6
 70
     8
  0
VERTEX
  8
型材
 10
-68.575
 20
33.625
 70
     8
  0
VERTEX
  8
型材
 10
-68.575
 20
33.625
 70
     8
  0
VERTEX
  8
型材
 10
-68.575
 20
33.65
 70
     8
  0
VERTEX
  8
型材
 10
-68.575
 20
33.675
 70
     8
  0
VERTEX
  8
型材
 10
-68.575
 20
33.675
 70
     8
  0
VERTEX
  8
型材
 10
-68.575
 20
33.7
 70
     8
  0
VERTEX
  8
型材
 10
-68.55
 20
33.7
 70
     8
  0
VERTEX
  8
型材
 10
-68.55
 20
33.725
 70
     8
  0
VERTEX
  8
型材
 10
-68.55
 20
33.725
 70
     8
  0
VERTEX
  8
型材
 10
-68.55
 20
33.75
 70
     8
  0
VERTEX
  8
型材
 10
-68.55
 20
33.75
 70
     8
  0
VERTEX
  8
型材
 10
-68.55
 20
33.775
 70
     8
  0
VERTEX
  8
型材
 10
-68.55
 20
33.775
 70
     8
  0
VERTEX
  8
型材
 10
-68.55
 20
33.775
 70
     8
  0
VERTEX
  8
型材
 10
-68.55
 20
33.8
 70
     8
  0
VERTEX
  8
型材
 10
-68.55
 20
33.8
 70
     8
  0
VERTEX
  8
型材
 10
-68.525
 20
33.8
 70
     8
  0
VERTEX
  8
型材
 10
-68.525
 20
33.825
 70
     8
  0
VERTEX
  8
型材
 10
-68.525
 20
33.825
 70
     8
  0
VERTEX
  8
型材
 10
-68.525
 20
33.825
 70
     8
  0
VERTEX
  8
型材
 10
-68.525
 20
33.85
 70
     8
  0
VERTEX
  8
型材
 10
-68.525
 20
33.85
 70
     8
  0
VERTEX
  8
型材
 10
-68.5
 20
33.85
 70
     8
  0
VERTEX
  8
型材
 10
-68.5
 20
33.85
 70
     8
  0
VERTEX
  8
型材
 10
-68.5
 20
33.85
 70
     8
  0
VERTEX
  8
型材
 10
-68.5
 20
33.85
 70
     8
  0
VERTEX
  8
型材
 10
-68.475
 20
33.875
 70
     8
  0
VERTEX
  8
型材
 10
-68.475
 20
33.875
 70
     8
  0
VERTEX
  8
型材
 10
-68.475
 20
33.875
 70
     8
  0
VERTEX
  8
型材
 10
-68.475
 20
33.875
 70
     8
  0
VERTEX
  8
型材
 10
-68.45
 20
33.875
 70
     8
  0
VERTEX
  8
型材
 10
-68.45
 20
33.875
 70
     8
  0
VERTEX
  8
型材
 10
-68.45
 20
33.875
 70
     8
  0
VERTEX
  8
型材
 10
-68.425
 20
33.875
 70
     8
  0
VERTEX
  8
型材
 10
-68.425
 20
33.875
 70
     8
  0
VERTEX
  8
型材
 10
-68.4
 20
33.85
 70
     8
  0
VERTEX
  8
型材
 10
-68.4
 20
33.85
 70
     8
  0
VERTEX
  8
型材
 10
-68.4
 20
33.85
 70
     8
  0
VERTEX
  8
型材
 10
-68.375
 20
33.85
 70
     8
  0
VERTEX
  8
型材
 10
-68.375
 20
33.85
 70
     8
  0
VERTEX
  8
型材
 10
-68.375
 20
33.85
 70
     8
  0
VERTEX
  8
型材
 10
-68.35
 20
33.825
 70
     8
  0
VERTEX
  8
型材
 10
-68.35
 20
33.825
 70
     8
  0
VERTEX
  8
型材
 10
-68.325
 20
33.825
 70
     8
  0
VERTEX
  8
型材
 10
-68.325
 20
33.825
 70
     8
  0
VERTEX
  8
型材
 10
-68.3
 20
33.8
 70
     8
  0
VERTEX
  8
型材
 10
-68.3
 20
33.8
 70
     8
  0
VERTEX
  8
型材
 10
-68.275
 20
33.8
 70
     8
  0
VERTEX
  8
型材
 10
-68.275
 20
33.775
 70
     8
  0
VERTEX
  8
型材
 10
-68.25
 20
33.775
 70
     8
  0
VERTEX
  8
型材
 10
-68.25
 20
33.775
 70
     8
  0
VERTEX
  8
型材
 10
-68.225
 20
33.75
 70
     8
  0
VERTEX
  8
型材
 10
-68.225
 20
33.75
 70
     8
  0
VERTEX
  8
型材
 10
-68.2
 20
33.725
 70
     8
  0
VERTEX
  8
型材
 10
-68.2
 20
33.725
 70
     8
  0
VERTEX
  8
型材
 10
-68.175
 20
33.7
 70
     8
  0
VERTEX
  8
型材
 10
-68.175
 20
33.7
 70
     8
  0
VERTEX
  8
型材
 10
-68.15
 20
33.675
 70
     8
  0
VERTEX
  8
型材
 10
-68.125
 20
33.675
 70
     8
  0
VERTEX
  8
型材
 10
-68.125
 20
33.65
 70
     8
  0
VERTEX
  8
型材
 10
-68.1
 20
33.65
 70
     8
  0
VERTEX
  8
型材
 10
-68.1
 20
33.625
 70
     8
  0
VERTEX
  8
型材
 10
-68.075
 20
33.6
 70
     8
  0
VERTEX
  8
型材
 10
-68.05
 20
33.6
 70
     8
  0
VERTEX
  8
型材
 10
-68.05
 20
33.575
 70
     8
  0
VERTEX
  8
型材
 10
-68.025
 20
33.575
 70
     8
  0
VERTEX
  8
型材
 10
-68.025
 20
33.55
 70
     8
  0
VERTEX
  8
型材
 10
-68.0
 20
33.525
 70
     8
  0
VERTEX
  8
型材
 10
-67.975
 20
33.525
 70
     8
  0
VERTEX
  8
型材
 10
-67.975
 20
33.5
 70
     8
  0
VERTEX
  8
型材
 10
-67.95
 20
33.475
 70
     8
  0
VERTEX
  8
型材
 10
-67.925
 20
33.45
 70
     8
  0
VERTEX
  8
型材
 10
-67.925
 20
33.45
 70
     8
  0
VERTEX
  8
型材
 10
-67.9
 20
33.425
 70
     8
  0
VERTEX
  8
型材
 10
-67.875
 20
33.4
 70
     8
  0
VERTEX
  8
型材
 10
-67.875
 20
33.375
 70
     8
  0
VERTEX
  8
型材
 10
-67.85
 20
33.375
 70
     8
  0
VERTEX
  8
型材
 10
-67.825
 20
33.35
 70
     8
  0
VERTEX
  8
型材
 10
-67.8
 20
33.325
 70
     8
  0
VERTEX
  8
型材
 10
-67.8
 20
33.3
 70
     8
  0
VERTEX
  8
型材
 10
-67.775
 20
33.275
 70
     8
  0
VERTEX
  8
型材
 10
-67.75
 20
33.275
 70
     8
  0
VERTEX
  8
型材
 10
-67.75
 20
33.25
 70
     8
  0
VERTEX
  8
型材
 10
-67.725
 20
33.225
 70
     8
  0
VERTEX
  8
型材
 10
-67.7
 20
33.2
 70
     8
  0
VERTEX
  8
型材
 10
-67.675
 20
33.175
 70
     8
  0
VERTEX
  8
型材
 10
-67.675
 20
33.15
 70
     8
  0
VERTEX
  8
型材
 10
-67.65
 20
33.125
 70
     8
  0
VERTEX
  8
型材
 10
-67.625
 20
33.1
 70
     8
  0
VERTEX
  8
型材
 10
-67.6
 20
33.075
 70
     8
  0
VERTEX
  8
型材
 10
-67.6
 20
33.05
 70
     8
  0
VERTEX
  8
型材
 10
-67.575
 20
33.05
 70
     8
  0
VERTEX
  8
型材
 10
-67.55
 20
33.025
 70
     8
  0
VERTEX
  8
型材
 10
-67.525
 20
33.0
 70
     8
  0
VERTEX
  8
型材
 10
-67.5
 20
32.975
 70
     8
  0
VERTEX
  8
型材
 10
-67.5
 20
32.95
 70
     8
  0
VERTEX
  8
型材
 10
-67.475
 20
32.925
 70
     8
  0
VERTEX
  8
型材
 10
-67.45
 20
32.9
 70
     8
  0
VERTEX
  8
型材
 10
-67.425
 20
32.875
 70
     8
  0
VERTEX
  8
型材
 10
-67.425
 20
32.85
 70
     8
  0
VERTEX
  8
型材
 10
-67.4
 20
32.825
 70
     8
  0
VERTEX
  8
型材
 10
-67.375
 20
32.8
 70
     8
  0
VERTEX
  8
型材
 10
-67.35
 20
32.775
 70
     8
  0
VERTEX
  8
型材
 10
-67.325
 20
32.75
 70
     8
  0
VERTEX
  8
型材
 10
-67.325
 20
32.725
 70
     8
  0
VERTEX
  8
型材
 10
-67.3
 20
32.7
 70
     8
  0
VERTEX
  8
型材
 10
-67.275
 20
32.65
 70
     8
  0
VERTEX
  8
型材
 10
-67.25
 20
32.625
 70
     8
  0
VERTEX
  8
型材
 10
-67.225
 20
32.6
 70
     8
  0
VERTEX
  8
型材
 10
-67.225
 20
32.575
 70
     8
  0
VERTEX
  8
型材
 10
-67.2
 20
32.55
 70
     8
  0
VERTEX
  8
型材
 10
-67.175
 20
32.525
 70
     8
  0
VERTEX
  8
型材
 10
-67.15
 20
32.5
 70
     8
  0
VERTEX
  8
型材
 10
-67.125
 20
32.475
 70
     8
  0
VERTEX
  8
型材
 10
-67.125
 20
32.45
 70
     8
  0
VERTEX
  8
型材
 10
-67.1
 20
32.425
 70
     8
  0
VERTEX
  8
型材
 10
-67.075
 20
32.4
 70
     8
  0
VERTEX
  8
型材
 10
-67.05
 20
32.375
 70
     8
  0
VERTEX
  8
型材
 10
-67.025
 20
32.35
 70
     8
  0
VERTEX
  8
型材
 10
-67.025
 20
32.3
 70
     8
  0
VERTEX
  8
型材
 10
-67.0
 20
32.275
 70
     8
  0
VERTEX
  8
型材
 10
-66.975
 20
32.25
 70
     8
  0
VERTEX
  8
型材
 10
-66.95
 20
32.225
 70
     8
  0
VERTEX
  8
型材
 10
-66.925
 20
32.2
 70
     8
  0
VERTEX
  8
型材
 10
-66.925
 20
32.175
 70
     8
  0
VERTEX
  8
型材
 10
-66.9
 20
32.15
 70
     8
  0
VERTEX
  8
型材
 10
-66.875
 20
32.125
 70
     8
  0
VERTEX
  8
型材
 10
-66.85
 20
32.1
 70
     8
  0
VERTEX
  8
型材
 10
-66.825
 20
32.075
 70
     8
  0
VERTEX
  8
型材
 10
-66.825
 20
32.025
 70
     8
  0
VERTEX
  8
型材
 10
-66.8
 20
32.0
 70
     8
  0
VERTEX
  8
型材
 10
-66.775
 20
31.975
 70
     8
  0
VERTEX
  8
型材
 10
-66.75
 20
31.95
 70
     8
  0
VERTEX
  8
型材
 10
-66.725
 20
31.925
 70
     8
  0
VERTEX
  8
型材
 10
-66.725
 20
31.9
 70
     8
  0
VERTEX
  8
型材
 10
-66.7
 20
31.875
 70
     8
  0
VERTEX
  8
型材
 10
-66.675
 20
31.85
 70
     8
  0
VERTEX
  8
型材
 10
-66.65
 20
31.825
 70
     8
  0
VERTEX
  8
型材
 10
-66.625
 20
31.8
 70
     8
  0
VERTEX
  8
型材
 10
-66.625
 20
31.75
 70
     8
  0
VERTEX
  8
型材
 10
-66.6
 20
31.725
 70
     8
  0
VERTEX
  8
型材
 10
-66.575
 20
31.7
 70
     8
  0
VERTEX
  8
型材
 10
-66.55
 20
31.675
 70
     8
  0
VERTEX
  8
型材
 10
-66.55
 20
31.65
 70
     8
  0
VERTEX
  8
型材
 10
-66.525
 20
31.625
 70
     8
  0
VERTEX
  8
型材
 10
-66.5
 20
31.6
 70
     8
  0
VERTEX
  8
型材
 10
-66.475
 20
31.575
 70
     8
  0
VERTEX
  8
型材
 10
-66.475
 20
31.55
 70
     8
  0
VERTEX
  8
型材
 10
-66.45
 20
31.525
 70
     8
  0
VERTEX
  8
型材
 10
-66.425
 20
31.5
 70
     8
  0
VERTEX
  8
型材
 10
-66.4
 20
31.475
 70
     8
  0
VERTEX
  8
型材
 10
-66.4
 20
31.45
 70
     8
  0
VERTEX
  8
型材
 10
-66.375
 20
31.425
 70
     8
  0
VERTEX
  8
型材
 10
-66.35
 20
31.375
 70
     8
  0
VERTEX
  8
型材
 10
-66.35
 20
31.35
 70
     8
  0
VERTEX
  8
型材
 10
-66.325
 20
31.325
 70
     8
  0
VERTEX
  8
型材
 10
-66.3
 20
31.3
 70
     8
  0
VERTEX
  8
型材
 10
-66.275
 20
31.275
 70
     8
  0
VERTEX
  8
型材
 10
-66.275
 20
31.25
 70
     8
  0
VERTEX
  8
型材
 10
-66.25
 20
31.225
 70
     8
  0
VERTEX
  8
型材
 10
-66.225
 20
31.2
 70
     8
  0
VERTEX
  8
型材
 10
-66.225
 20
31.175
 70
     8
  0
VERTEX
  8
型材
 10
-66.2
 20
31.15
 70
     8
  0
VERTEX
  8
型材
 10
-66.175
 20
31.125
 70
     8
  0
VERTEX
  8
型材
 10
-66.175
 20
31.1
 70
     8
  0
VERTEX
  8
型材
 10
-66.15
 20
31.075
 70
     8
  0
VERTEX
  8
型材
 10
-66.125
 20
31.075
 70
     8
  0
VERTEX
  8
型材
 10
-66.125
 20
31.05
 70
     8
  0
VERTEX
  8
型材
 10
-66.1
 20
31.025
 70
     8
  0
VERTEX
  8
型材
 10
-66.1
 20
31.0
 70
     8
  0
VERTEX
  8
型材
 10
-66.075
 20
30.975
 70
     8
  0
VERTEX
  8
型材
 10
-66.05
 20
30.95
 70
     8
  0
VERTEX
  8
型材
 10
-66.05
 20
30.925
 70
     8
  0
VERTEX
  8
型材
 10
-66.025
 20
30.9
 70
     8
  0
VERTEX
  8
型材
 10
-66.025
 20
30.875
 70
     8
  0
VERTEX
  8
型材
 10
-66.0
 20
30.85
 70
     8
  0
VERTEX
  8
型材
 10
-65.975
 20
30.825
 70
     8
  0
VERTEX
  8
型材
 10
-65.975
 20
30.8
 70
     8
  0
VERTEX
  8
型材
 10
-65.95
 20
30.775
 70
     8
  0
VERTEX
  8
型材
 10
-65.95
 20
30.75
 70
     8
  0
VERTEX
  8
型材
 10
-65.925
 20
30.725
 70
     8
  0
VERTEX
  8
型材
 10
-65.925
 20
30.7
 70
     8
  0
VERTEX
  8
型材
 10
-65.9
 20
30.7
 70
     8
  0
VERTEX
  8
型材
 10
-65.9
 20
30.675
 70
     8
  0
VERTEX
  8
型材
 10
-65.875
 20
30.65
 70
     8
  0
VERTEX
  8
型材
 10
-65.875
 20
30.625
 70
     8
  0
VERTEX
  8
型材
 10
-65.85
 20
30.6
 70
     8
  0
VERTEX
  8
型材
 10
-65.85
 20
30.575
 70
     8
  0
VERTEX
  8
型材
 10
-65.825
 20
30.55
 70
     8
  0
VERTEX
  8
型材
 10
-65.825
 20
30.525
 70
     8
  0
VERTEX
  8
型材
 10
-65.8
 20
30.5
 70
     8
  0
VERTEX
  8
型材
 10
-65.8
 20
30.475
 70
     8
  0
VERTEX
  8
型材
 10
-65.8
 20
30.45
 70
     8
  0
VERTEX
  8
型材
 10
-65.775
 20
30.45
 70
     8
  0
VERTEX
  8
型材
 10
-65.775
 20
30.425
 70
     8
  0
VERTEX
  8
型材
 10
-65.75
 20
30.4
 70
     8
  0
VERTEX
  8
型材
 10
-65.75
 20
30.375
 70
     8
  0
VERTEX
  8
型材
 10
-65.75
 20
30.35
 70
     8
  0
VERTEX
  8
型材
 10
-65.725
 20
30.325
 70
     8
  0
VERTEX
  8
型材
 10
-65.725
 20
30.3
 70
     8
  0
VERTEX
  8
型材
 10
-65.725
 20
30.275
 70
     8
  0
VERTEX
  8
型材
 10
-65.7
 20
30.25
 70
     8
  0
VERTEX
  8
型材
 10
-65.7
 20
30.25
 70
     8
  0
VERTEX
  8
型材
 10
-65.7
 20
30.225
 70
     8
  0
VERTEX
  8
型材
 10
-65.7
 20
30.2
 70
     8
  0
VERTEX
  8
型材
 10
-65.675
 20
30.175
 70
     8
  0
VERTEX
  8
型材
 10
-65.675
 20
30.15
 70
     8
  0
VERTEX
  8
型材
 10
-65.675
 20
30.125
 70
     8
  0
VERTEX
  8
型材
 10
-65.675
 20
30.1
 70
     8
  0
VERTEX
  8
型材
 10
-65.65
 20
30.075
 70
     8
  0
VERTEX
  8
型材
 10
-65.65
 20
30.05
 70
     8
  0
VERTEX
  8
型材
 10
-65.65
 20
30.025
 70
     8
  0
VERTEX
  8
型材
 10
-65.65
 20
30.0
 70
     8
  0
VERTEX
  8
型材
 10
-65.65
 20
30.0
 70
     8
  0
VERTEX
  8
型材
 10
-65.65
 20
29.975
 70
     8
  0
VERTEX
  8
型材
 10
-65.625
 20
29.95
 70
     8
  0
VERTEX
  8
型材
 10
-65.625
 20
29.925
 70
     8
  0
VERTEX
  8
型材
 10
-65.625
 20
29.9
 70
     8
  0
VERTEX
  8
型材
 10
-65.625
 20
29.875
 70
     8
  0
VERTEX
  8
型材
 10
-65.625
 20
29.85
 70
     8
  0
VERTEX
  8
型材
 10
-65.625
 20
29.825
 70
     8
  0
VERTEX
  8
型材
 10
-65.625
 20
29.8
 70
     8
  0
VERTEX
  8
型材
 10
-65.625
 20
29.775
 70
     8
  0
VERTEX
  8
型材
 10
-65.625
 20
29.75
 70
     8
  0
VERTEX
  8
型材
 10
-65.625
 20
29.725
 70
     8
  0
VERTEX
  8
型材
 10
-65.625
 20
29.7
 70
     8
  0
VERTEX
  8
型材
 10
-65.625
 20
29.675
 70
     8
  0
VERTEX
  8
型材
 10
-65.625
 20
29.65
 70
     8
  0
VERTEX
  8
型材
 10
-65.625
 20
29.625
 70
     8
  0
VERTEX
  8
型材
 10
-65.625
 20
29.6
 70
     8
  0
VERTEX
  8
型材
 10
-65.625
 20
29.6
 70
     8
  0
VERTEX
  8
型材
 10
-65.625
 20
29.575
 70
     8
  0
VERTEX
  8
型材
 10
-65.625
 20
29.55
 70
     8
  0
VERTEX
  8
型材
 10
-65.625
 20
29.525
 70
     8
  0
VERTEX
  8
型材
 10
-65.65
 20
29.5
 70
     8
  0
VERTEX
  8
型材
 10
-65.65
 20
29.475
 70
     8
  0
VERTEX
  8
型材
 10
-65.65
 20
29.45
 70
     8
  0
VERTEX
  8
型材
 10
-65.65
 20
29.425
 70
     8
  0
VERTEX
  8
型材
 10
-65.65
 20
29.4
 70
     8
  0
VERTEX
  8
型材
 10
-65.65
 20
29.375
 70
     8
  0
VERTEX
  8
型材
 10
-65.675
 20
29.35
 70
     8
  0
VERTEX
  8
型材
 10
-65.675
 20
29.325
 70
     8
  0
VERTEX
  8
型材
 10
-65.675
 20
29.3
 70
     8
  0
VERTEX
  8
型材
 10
-65.675
 20
29.275
 70
     8
  0
VERTEX
  8
型材
 10
-65.675
 20
29.25
 70
     8
  0
VERTEX
  8
型材
 10
-65.7
 20
29.225
 70
     8
  0
VERTEX
  8
型材
 10
-65.7
 20
29.2
 70
     8
  0
VERTEX
  8
型材
 10
-65.7
 20
29.175
 70
     8
  0
VERTEX
  8
型材
 10
-65.7
 20
29.15
 70
     8
  0
VERTEX
  8
型材
 10
-65.725
 20
29.125
 70
     8
  0
VERTEX
  8
型材
 10
-65.725
 20
29.1
 70
     8
  0
VERTEX
  8
型材
 10
-65.725
 20
29.075
 70
     8
  0
VERTEX
  8
型材
 10
-65.75
 20
29.05
 70
     8
  0
VERTEX
  8
型材
 10
-65.75
 20
29.025
 70
     8
  0
VERTEX
  8
型材
 10
-65.75
 20
29.0
 70
     8
  0
VERTEX
  8
型材
 10
-65.75
 20
28.975
 70
     8
  0
VERTEX
  8
型材
 10
-65.775
 20
28.95
 70
     8
  0
VERTEX
  8
型材
 10
-65.775
 20
28.925
 70
     8
  0
VERTEX
  8
型材
 10
-65.775
 20
28.9
 70
     8
  0
VERTEX
  8
型材
 10
-65.8
 20
28.875
 70
     8
  0
VERTEX
  8
型材
 10
-65.8
 20
28.85
 70
     8
  0
VERTEX
  8
型材
 10
-65.8
 20
28.825
 70
     8
  0
VERTEX
  8
型材
 10
-65.825
 20
28.8
 70
     8
  0
VERTEX
  8
型材
 10
-65.825
 20
28.75
 70
     8
  0
VERTEX
  8
型材
 10
-65.825
 20
28.725
 70
     8
  0
VERTEX
  8
型材
 10
-65.85
 20
28.7
 70
     8
  0
VERTEX
  8
型材
 10
-65.85
 20
28.675
 70
     8
  0
VERTEX
  8
型材
 10
-65.875
 20
28.65
 70
     8
  0
VERTEX
  8
型材
 10
-65.875
 20
28.625
 70
     8
  0
VERTEX
  8
型材
 10
-65.875
 20
28.6
 70
     8
  0
VERTEX
  8
型材
 10
-65.9
 20
28.575
 70
     8
  0
VERTEX
  8
型材
 10
-65.9
 20
28.55
 70
     8
  0
VERTEX
  8
型材
 10
-65.9
 20
28.525
 70
     8
  0
VERTEX
  8
型材
 10
-65.925
 20
28.5
 70
     8
  0
VERTEX
  8
型材
 10
-65.925
 20
28.475
 70
     8
  0
VERTEX
  8
型材
 10
-65.95
 20
28.45
 70
     8
  0
VERTEX
  8
型材
 10
-65.95
 20
28.425
 70
     8
  0
VERTEX
  8
型材
 10
-65.95
 20
28.4
 70
     8
  0
VERTEX
  8
型材
 10
-65.975
 20
28.375
 70
     8
  0
SEQEND
  0
POLYLINE
  8
型材
  6
CONTINUOUS
 62
    32
 66
     1
 70
     1
  0
VERTEX
  8
型材
 10
-62.1
 20
29.8
  0
VERTEX
  8
型材
 10
-62.1
 20
29.825
  0
VERTEX
  8
型材
 10
-62.1
 20
29.875
  0
VERTEX
  8
型材
 10
-62.1
 20
29.925
  0
VERTEX
  8
型材
 10
-62.1
 20
29.95
  0
VERTEX
  8
型材
 10
-62.125
 20
30.0
  0
VERTEX
  8
型材
 10
-62.125
 20
30.05
  0
VERTEX
  8
型材
 10
-62.125
 20
30.075
  0
VERTEX
  8
型材
 10
-62.15
 20
30.125
  0
VERTEX
  8
型材
 10
-62.175
 20
30.15
  0
VERTEX
  8
型材
 10
-62.175
 20
30.2
  0
VERTEX
  8
型材
 10
-62.2
 20
30.225
  0
VERTEX
  8
型材
 10
-62.225
 20
30.275
  0
VERTEX
  8
型材
 10
-62.225
 20
30.325
  0
VERTEX
  8
型材
 10
-62.25
 20
30.35
  0
VERTEX
  8
型材
 10
-62.275
 20
30.4
  0
VERTEX
  8
型材
 10
-62.3
 20
30.425
  0
VERTEX
  8
型材
 10
-62.325
 20
30.45
  0
VERTEX
  8
型材
 10
-62.35
 20
30.5
  0
VERTEX
  8
型材
 10
-62.4
 20
30.525
  0
VERTEX
  8
型材
 10
-62.425
 20
30.575
  0
VERTEX
  8
型材
 10
-62.45
 20
30.6
  0
VERTEX
  8
型材
 10
-62.475
 20
30.625
  0
VERTEX
  8
型材
 10
-62.525
 20
30.65
  0
VERTEX
  8
型材
 10
-62.55
 20
30.7
  0
VERTEX
  8
型材
 10
-62.6
 20
30.725
  0
VERTEX
  8
型材
 10
-62.625
 20
30.75
  0
VERTEX
  8
型材
 10
-62.675
 20
30.775
  0
VERTEX
  8
型材
 10
-62.725
 20
30.8
  0
VERTEX
  8
型材
 10
-62.75
 20
30.825
  0
VERTEX
  8
型材
 10
-62.8
 20
30.85
  0
VERTEX
  8
型材
 10
-62.85
 20
30.875
  0
VERTEX
  8
型材
 10
-62.875
 20
30.9
  0
VERTEX
  8
型材
 10
-62.925
 20
30.925
  0
VERTEX
  8
型材
 10
-62.975
 20
30.95
  0
VERTEX
  8
型材
 10
-63.025
 20
30.95
  0
VERTEX
  8
型材
 10
-63.075
 20
30.975
  0
VERTEX
  8
型材
 10
-63.125
 20
31.0
  0
VERTEX
  8
型材
 10
-63.175
 20
31.0
  0
VERTEX
  8
型材
 10
-63.225
 20
31.025
  0
VERTEX
  8
型材
 10
-63.275
 20
31.05
  0
VERTEX
  8
型材
 10
-63.325
 20
31.05
  0
VERTEX
  8
型材
 10
-63.375
 20
31.05
  0
VERTEX
  8
型材
 10
-63.425
 20
31.075
  0
VERTEX
  8
型材
 10
-63.475
 20
31.075
  0
VERTEX
  8
型材
 10
-63.525
 20
31.075
  0
VERTEX
  8
型材
 10
-63.575
 20
31.1
  0
VERTEX
  8
型材
 10
-63.65
 20
31.1
  0
VERTEX
  8
型材
 10
-63.7
 20
31.1
  0
VERTEX
  8
型材
 10
-63.75
 20
31.1
  0
VERTEX
  8
型材
 10
-63.8
 20
31.1
  0
VERTEX
  8
型材
 10
-63.85
 20
31.1
  0
VERTEX
  8
型材
 10
-63.9
 20
31.1
  0
VERTEX
  8
型材
 10
-63.95
 20
31.1
  0
VERTEX
  8
型材
 10
-64.0
 20
31.1
  0
VERTEX
  8
型材
 10
-64.075
 20
31.075
  0
VERTEX
  8
型材
 10
-64.125
 20
31.075
  0
VERTEX
  8
型材
 10
-64.175
 20
31.075
  0
VERTEX
  8
型材
 10
-64.225
 20
31.05
  0
VERTEX
  8
型材
 10
-64.275
 20
31.05
  0
VERTEX
  8
型材
 10
-64.325
 20
31.05
  0
VERTEX
  8
型材
 10
-64.375
 20
31.025
  0
VERTEX
  8
型材
 10
-64.425
 20
31.0
  0
VERTEX
  8
型材
 10
-64.475
 20
31.0
  0
VERTEX
  8
型材
 10
-64.525
 20
30.975
  0
VERTEX
  8
型材
 10
-64.575
 20
30.95
  0
VERTEX
  8
型材
 10
-64.625
 20
30.95
  0
VERTEX
  8
型材
 10
-64.675
 20
30.925
  0
VERTEX
  8
型材
 10
-64.7
 20
30.9
  0
VERTEX
  8
型材
 10
-64.75
 20
30.875
  0
VERTEX
  8
型材
 10
-64.8
 20
30.85
  0
VERTEX
  8
型材
 10
-64.85
 20
30.825
  0
VERTEX
  8
型材
 10
-64.875
 20
30.8
  0
VERTEX
  8
型材
 10
-64.925
 20
30.775
  0
VERTEX
  8
型材
 10
-64.975
 20
30.75
  0
VERTEX
  8
型材
 10
-65.0
 20
30.725
  0
VERTEX
  8
型材
 10
-65.05
 20
30.7
  0
VERTEX
  8
型材
 10
-65.075
 20
30.65
  0
VERTEX
  8
型材
 10
-65.1
 20
30.625
  0
VERTEX
  8
型材
 10
-65.15
 20
30.6
  0
VERTEX
  8
型材
 10
-65.175
 20
30.575
  0
VERTEX
  8
型材
 10
-65.2
 20
30.525
  0
VERTEX
  8
型材
 10
-65.225
 20
30.5
  0
VERTEX
  8
型材
 10
-65.275
 20
30.45
  0
VERTEX
  8
型材
 10
-65.3
 20
30.425
  0
VERTEX
  8
型材
 10
-65.325
 20
30.4
  0
VERTEX
  8
型材
 10
-65.35
 20
30.35
  0
VERTEX
  8
型材
 10
-65.35
 20
30.325
  0
VERTEX
  8
型材
 10
-65.375
 20
30.275
  0
VERTEX
  8
型材
 10
-65.4
 20
30.225
  0
VERTEX
  8
型材
 10
-65.425
 20
30.2
  0
VERTEX
  8
型材
 10
-65.425
 20
30.15
  0
VERTEX
  8
型材
 10
-65.45
 20
30.125
  0
VERTEX
  8
型材
 10
-65.45
 20
30.075
  0
VERTEX
  8
型材
 10
-65.475
 20
30.05
  0
VERTEX
  8
型材
 10
-65.475
 20
30.0
  0
VERTEX
  8
型材
 10
-65.5
 20
29.95
  0
VERTEX
  8
型材
 10
-65.5
 20
29.925
  0
VERTEX
  8
型材
 10
-65.5
 20
29.875
  0
VERTEX
  8
型材
 10
-65.5
 20
29.825
  0
VERTEX
  8
型材
 10
-65.5
 20
29.8
  0
VERTEX
  8
型材
 10
-65.5
 20
29.75
  0
VERTEX
  8
型材
 10
-65.5
 20
29.7
  0
VERTEX
  8
型材
 10
-65.5
 20
29.675
  0
VERTEX
  8
型材
 10
-65.5
 20
29.625
  0
VERTEX
  8
型材
 10
-65.475
 20
29.6
  0
VERTEX
  8
型材
 10
-65.475
 20
29.55
  0
VERTEX
  8
型材
 10
-65.45
 20
29.5
  0
VERTEX
  8
型材
 10
-65.45
 20
29.475
  0
VERTEX
  8
型材
 10
-65.425
 20
29.425
  0
VERTEX
  8
型材
 10
-65.425
 20
29.4
  0
VERTEX
  8
型材
 10
-65.4
 20
29.35
  0
VERTEX
  8
型材
 10
-65.375
 20
29.3
  0
VERTEX
  8
型材
 10
-65.35
 20
29.275
  0
VERTEX
  8
型材
 10
-65.35
 20
29.225
  0
VERTEX
  8
型材
 10
-65.325
 20
29.2
  0
VERTEX
  8
型材
 10
-65.3
 20
29.15
  0
VERTEX
  8
型材
 10
-65.275
 20
29.125
  0
VERTEX
  8
型材
 10
-65.225
 20
29.1
  0
VERTEX
  8
型材
 10
-65.2
 20
29.05
  0
VERTEX
  8
型材
 10
-65.175
 20
29.025
  0
VERTEX
  8
型材
 10
-65.15
 20
29.0
  0
VERTEX
  8
型材
 10
-65.1
 20
28.95
  0
VERTEX
  8
型材
 10
-65.075
 20
28.925
  0
VERTEX
  8
型材
 10
-65.05
 20
28.9
  0
VERTEX
  8
型材
 10
-65.0
 20
28.875
  0
VERTEX
  8
型材
 10
-64.975
 20
28.85
  0
VERTEX
  8
型材
 10
-64.925
 20
28.8
  0
VERTEX
  8
型材
 10
-64.875
 20
28.775
  0
VERTEX
  8
型材
 10
-64.85
 20
28.75
  0
VERTEX
  8
型材
 10
-64.8
 20
28.725
  0
VERTEX
  8
型材
 10
-64.75
 20
28.7
  0
VERTEX
  8
型材
 10
-64.7
 20
28.7
  0
VERTEX
  8
型材
 10
-64.675
 20
28.675
  0
VERTEX
  8
型材
 10
-64.625
 20
28.65
  0
VERTEX
  8
型材
 10
-64.575
 20
28.625
  0
VERTEX
  8
型材
 10
-64.525
 20
28.6
  0
VERTEX
  8
型材
 10
-64.475
 20
28.6
  0
VERTEX
  8
型材
 10
-64.425
 20
28.575
  0
VERTEX
  8
型材
 10
-64.375
 20
28.55
  0
VERTEX
  8
型材
 10
-64.325
 20
28.55
  0
VERTEX
  8
型材
 10
-64.275
 20
28.525
  0
VERTEX
  8
型材
 10
-64.225
 20
28.525
  0
VERTEX
  8
型材
 10
-64.175
 20
28.525
  0
VERTEX
  8
型材
 10
-64.125
 20
28.5
  0
VERTEX
  8
型材
 10
-64.075
 20
28.5
  0
VERTEX
  8
型材
 10
-64.0
 20
28.5
  0
VERTEX
  8
型材
 10
-63.95
 20
28.5
  0
VERTEX
  8
型材
 10
-63.9
 20
28.475
  0
VERTEX
  8
型材
 10
-63.85
 20
28.475
  0
VERTEX
  8
型材
 10
-63.8
 20
28.475
  0
VERTEX
  8
型材
 10
-63.75
 20
28.475
  0
VERTEX
  8
型材
 10
-63.7
 20
28.475
  0
VERTEX
  8
型材
 10
-63.65
 20
28.5
  0
VERTEX
  8
型材
 10
-63.575
 20
28.5
  0
VERTEX
  8
型材
 10
-63.525
 20
28.5
  0
VERTEX
  8
型材
 10
-63.475
 20
28.5
  0
VERTEX
  8
型材
 10
-63.425
 20
28.525
  0
VERTEX
  8
型材
 10
-63.375
 20
28.525
  0
VERTEX
  8
型材
 10
-63.325
 20
28.525
  0
VERTEX
  8
型材
 10
-63.275
 20
28.55
  0
VERTEX
  8
型材
 10
-63.225
 20
28.55
  0
VERTEX
  8
型材
 10
-63.175
 20
28.575
  0
VERTEX
  8
型材
 10
-63.125
 20
28.6
  0
VERTEX
  8
型材
 10
-63.075
 20
28.6
  0
VERTEX
  8
型材
 10
-63.025
 20
28.625
  0
VERTEX
  8
型材
 10
-62.975
 20
28.65
  0
VERTEX
  8
型材
 10
-62.925
 20
28.675
  0
VERTEX
  8
型材
 10
-62.875
 20
28.7
  0
VERTEX
  8
型材
 10
-62.85
 20
28.7
  0
VERTEX
  8
型材
 10
-62.8
 20
28.725
  0
VERTEX
  8
型材
 10
-62.75
 20
28.75
  0
VERTEX
  8
型材
 10
-62.725
 20
28.775
  0
VERTEX
  8
型材
 10
-62.675
 20
28.8
  0
VERTEX
  8
型材
 10
-62.625
 20
28.85
  0
VERTEX
  8
型材
 10
-62.6
 20
28.875
  0
VERTEX
  8
型材
 10
-62.55
 20
28.9
  0
VERTEX
  8
型材
 10
-62.525
 20
28.925
  0
VERTEX
  8
型材
 10
-62.475
 20
28.95
  0
VERTEX
  8
型材
 10
-62.45
 20
29.0
  0
VERTEX
  8
型材
 10
-62.425
 20
29.025
  0
VERTEX
  8
型材
 10
-62.4
 20
29.05
  0
VERTEX
  8
型材
 10
-62.35
 20
29.1
  0
VERTEX
  8
型材
 10
-62.325
 20
29.125
  0
VERTEX
  8
型材
 10
-62.3
 20
29.15
  0
VERTEX
  8
型材
 10
-62.275
 20
29.2
  0
VERTEX
  8
型材
 10
-62.25
 20
29.225
  0
VERTEX
  8
型材
 10
-62.225
 20
29.275
  0
VERTEX
  8
型材
 10
-62.225
 20
29.3
  0
VERTEX
  8
型材
 10
-62.2
 20
29.35
  0
VERTEX
  8
型材
 10
-62.175
 20
29.4
  0
VERTEX
  8
型材
 10
-62.175
 20
29.425
  0
VERTEX
  8
型材
 10
-62.15
 20
29.475
  0
VERTEX
  8
型材
 10
-62.125
 20
29.5
  0
VERTEX
  8
型材
 10
-62.125
 20
29.55
  0
VERTEX
  8
型材
 10
-62.125
 20
29.6
  0
VERTEX
  8
型材
 10
-62.1
 20
29.625
  0
VERTEX
  8
型材
 10
-62.1
 20
29.675
  0
VERTEX
  8
型材
 10
-62.1
 20
29.7
  0
VERTEX
  8
型材
 10
-62.1
 20
29.75
  0
SEQEND
  0
POLYLINE
  8
型材
  6
CONTINUOUS
 62
    32
 66
     1
 70
     1
  0
VERTEX
  8
型材
 10
-62.475
 20
29.925
  0
VERTEX
  8
型材
 10
-62.475
 20
29.95
  0
VERTEX
  8
型材
 10
-62.475
 20
29.975
  0
VERTEX
  8
型材
 10
-62.475
 20
30.0
  0
VERTEX
  8
型材
 10
-62.475
 20
30.025
  0
VERTEX
  8
型材
 10
-62.5
 20
30.05
  0
VERTEX
  8
型材
 10
-62.5
 20
30.075
  0
VERTEX
  8
型材
 10
-62.5
 20
30.1
  0
VERTEX
  8
型材
 10
-62.5
 20
30.125
  0
VERTEX
  8
型材
 10
-62.525
 20
30.175
  0
VERTEX
  8
型材
 10
-62.525
 20
30.2
  0
VERTEX
  8
型材
 10
-62.55
 20
30.225
  0
VERTEX
  8
型材
 10
-62.55
 20
30.25
  0
VERTEX
  8
型材
 10
-62.575
 20
30.275
  0
VERTEX
  8
型材
 10
-62.575
 20
30.3
  0
VERTEX
  8
型材
 10
-62.6
 20
30.325
  0
VERTEX
  8
型材
 10
-62.625
 20
30.35
  0
VERTEX
  8
型材
 10
-62.625
 20
30.375
  0
VERTEX
  8
型材
 10
-62.65
 20
30.4
  0
VERTEX
  8
型材
 10
-62.675
 20
30.425
  0
VERTEX
  8
型材
 10
-62.7
 20
30.45
  0
VERTEX
  8
型材
 10
-62.725
 20
30.45
  0
VERTEX
  8
型材
 10
-62.75
 20
30.475
  0
VERTEX
  8
型材
 10
-62.775
 20
30.5
  0
VERTEX
  8
型材
 10
-62.8
 20
30.525
  0
VERTEX
  8
型材
 10
-62.825
 20
30.55
  0
VERTEX
  8
型材
 10
-62.85
 20
30.575
  0
VERTEX
  8
型材
 10
-62.875
 20
30.575
  0
VERTEX
  8
型材
 10
-62.9
 20
30.6
  0
VERTEX
  8
型材
 10
-62.925
 20
30.625
  0
VERTEX
  8
型材
 10
-62.95
 20
30.625
  0
VERTEX
  8
型材
 10
-62.975
 20
30.65
  0
VERTEX
  8
型材
 10
-63.0
 20
30.675
  0
VERTEX
  8
型材
 10
-63.05
 20
30.675
  0
VERTEX
  8
型材
 10
-63.075
 20
30.7
  0
VERTEX
  8
型材
 10
-63.1
 20
30.7
  0
VERTEX
  8
型材
 10
-63.15
 20
30.725
  0
VERTEX
  8
型材
 10
-63.175
 20
30.725
  0
VERTEX
  8
型材
 10
-63.2
 20
30.75
  0
VERTEX
  8
型材
 10
-63.25
 20
30.75
  0
VERTEX
  8
型材
 10
-63.275
 20
30.75
  0
VERTEX
  8
型材
 10
-63.3
 20
30.775
  0
VERTEX
  8
型材
 10
-63.35
 20
30.775
  0
VERTEX
  8
型材
 10
-63.375
 20
30.775
  0
VERTEX
  8
型材
 10
-63.425
 20
30.8
  0
VERTEX
  8
型材
 10
-63.45
 20
30.8
  0
VERTEX
  8
型材
 10
-63.475
 20
30.8
  0
VERTEX
  8
型材
 10
-63.525
 20
30.8
  0
VERTEX
  8
型材
 10
-63.55
 20
30.8
  0
VERTEX
  8
型材
 10
-63.6
 20
30.8
  0
VERTEX
  8
型材
 10
-63.625
 20
30.8
  0
VERTEX
  8
型材
 10
-63.675
 20
30.8
  0
VERTEX
  8
型材
 10
-63.7
 20
30.8
  0
VERTEX
  8
型材
 10
-63.75
 20
30.8
  0
VERTEX
  8
型材
 10
-63.775
 20
30.8
  0
VERTEX
  8
型材
 10
-63.825
 20
30.8
  0
VERTEX
  8
型材
 10
-63.85
 20
30.8
  0
VERTEX
  8
型材
 10
-63.875
 20
30.775
  0
VERTEX
  8
型材
 10
-63.925
 20
30.775
  0
VERTEX
  8
型材
 10
-63.95
 20
30.775
  0
VERTEX
  8
型材
 10
-64.0
 20
30.75
  0
VERTEX
  8
型材
 10
-64.025
 20
30.75
  0
VERTEX
  8
型材
 10
-64.05
 20
30.75
  0
VERTEX
  8
型材
 10
-64.1
 20
30.725
  0
VERTEX
  8
型材
 10
-64.125
 20
30.725
  0
VERTEX
  8
型材
 10
-64.15
 20
30.7
  0
VERTEX
  8
型材
 10
-64.2
 20
30.7
  0
VERTEX
  8
型材
 10
-64.225
 20
30.675
  0
VERTEX
  8
型材
 10
-64.25
 20
30.675
  0
VERTEX
  8
型材
 10
-64.275
 20
30.65
  0
VERTEX
  8
型材
 10
-64.325
 20
30.625
  0
VERTEX
  8
型材
 10
-64.35
 20
30.625
  0
VERTEX
  8
型材
 10
-64.375
 20
30.6
  0
VERTEX
  8
型材
 10
-64.4
 20
30.575
  0
VERTEX
  8
型材
 10
-64.425
 20
30.575
  0
VERTEX
  8
型材
 10
-64.45
 20
30.55
  0
VERTEX
  8
型材
 10
-64.475
 20
30.525
  0
VERTEX
  8
型材
 10
-64.5
 20
30.5
  0
VERTEX
  8
型材
 10
-64.525
 20
30.475
  0
VERTEX
  8
型材
 10
-64.55
 20
30.45
  0
VERTEX
  8
型材
 10
-64.575
 20
30.45
  0
VERTEX
  8
型材
 10
-64.6
 20
30.425
  0
VERTEX
  8
型材
 10
-64.6
 20
30.4
  0
VERTEX
  8
型材
 10
-64.625
 20
30.375
  0
VERTEX
  8
型材
 10
-64.65
 20
30.35
  0
VERTEX
  8
型材
 10
-64.675
 20
30.325
  0
VERTEX
  8
型材
 10
-64.675
 20
30.3
  0
VERTEX
  8
型材
 10
-64.7
 20
30.275
  0
VERTEX
  8
型材
 10
-64.7
 20
30.25
  0
VERTEX
  8
型材
 10
-64.725
 20
30.225
  0
VERTEX
  8
型材
 10
-64.725
 20
30.2
  0
VERTEX
  8
型材
 10
-64.75
 20
30.175
  0
VERTEX
  8
型材
 10
-64.75
 20
30.125
  0
VERTEX
  8
型材
 10
-64.775
 20
30.1
  0
VERTEX
  8
型材
 10
-64.775
 20
30.075
  0
VERTEX
  8
型材
 10
-64.775
 20
30.05
  0
VERTEX
  8
型材
 10
-64.775
 20
30.025
  0
VERTEX
  8
型材
 10
-64.775
 20
30.0
  0
VERTEX
  8
型材
 10
-64.8
 20
29.975
  0
VERTEX
  8
型材
 10
-64.8
 20
29.95
  0
VERTEX
  8
型材
 10
-64.8
 20
29.925
  0
VERTEX
  8
型材
 10
-64.8
 20
29.875
  0
VERTEX
  8
型材
 10
-64.8
 20
29.85
  0
VERTEX
  8
型材
 10
-64.775
 20
29.825
  0
VERTEX
  8
型材
 10
-64.775
 20
29.8
  0
VERTEX
  8
型材
 10
-64.775
 20
29.775
  0
VERTEX
  8
型材
 10
-64.775
 20
29.75
  0
VERTEX
  8
型材
 10
-64.775
 20
29.725
  0
VERTEX
  8
型材
 10
-64.75
 20
29.7
  0
VERTEX
  8
型材
 10
-64.75
 20
29.675
  0
VERTEX
  8
型材
 10
-64.725
 20
29.65
  0
VERTEX
  8
型材
 10
-64.725
 20
29.6
  0
VERTEX
  8
型材
 10
-64.7
 20
29.575
  0
VERTEX
  8
型材
 10
-64.7
 20
29.55
  0
VERTEX
  8
型材
 10
-64.675
 20
29.525
  0
VERTEX
  8
型材
 10
-64.675
 20
29.5
  0
VERTEX
  8
型材
 10
-64.65
 20
29.475
  0
VERTEX
  8
型材
 10
-64.625
 20
29.45
  0
VERTEX
  8
型材
 10
-64.6
 20
29.425
  0
VERTEX
  8
型材
 10
-64.6
 20
29.425
  0
VERTEX
  8
型材
 10
-64.575
 20
29.4
  0
VERTEX
  8
型材
 10
-64.55
 20
29.375
  0
VERTEX
  8
型材
 10
-64.525
 20
29.35
  0
VERTEX
  8
型材
 10
-64.5
 20
29.325
  0
VERTEX
  8
型材
 10
-64.475
 20
29.3
  0
VERTEX
  8
型材
 10
-64.45
 20
29.275
  0
VERTEX
  8
型材
 10
-64.425
 20
29.275
  0
VERTEX
  8
型材
 10
-64.4
 20
29.25
  0
VERTEX
  8
型材
 10
-64.375
 20
29.225
  0
VERTEX
  8
型材
 10
-64.35
 20
29.2
  0
VERTEX
  8
型材
 10
-64.325
 20
29.2
  0
VERTEX
  8
型材
 10
-64.275
 20
29.175
  0
VERTEX
  8
型材
 10
-64.25
 20
29.15
  0
VERTEX
  8
型材
 10
-64.225
 20
29.15
  0
VERTEX
  8
型材
 10
-64.2
 20
29.125
  0
VERTEX
  8
型材
 10
-64.15
 20
29.125
  0
VERTEX
  8
型材
 10
-64.125
 20
29.1
  0
VERTEX
  8
型材
 10
-64.1
 20
29.1
  0
VERTEX
  8
型材
 10
-64.05
 20
29.075
  0
VERTEX
  8
型材
 10
-64.025
 20
29.075
  0
VERTEX
  8
型材
 10
-64.0
 20
29.075
  0
VERTEX
  8
型材
 10
-63.95
 20
29.05
  0
VERTEX
  8
型材
 10
-63.925
 20
29.05
  0
VERTEX
  8
型材
 10
-63.875
 20
29.05
  0
VERTEX
  8
型材
 10
-63.85
 20
29.05
  0
VERTEX
  8
型材
 10
-63.825
 20
29.025
  0
VERTEX
  8
型材
 10
-63.775
 20
29.025
  0
VERTEX
  8
型材
 10
-63.75
 20
29.025
  0
VERTEX
  8
型材
 10
-63.7
 20
29.025
  0
VERTEX
  8
型材
 10
-63.675
 20
29.025
  0
VERTEX
  8
型材
 10
-63.625
 20
29.025
  0
VERTEX
  8
型材
 10
-63.6
 20
29.025
  0
VERTEX
  8
型材
 10
-63.55
 20
29.025
  0
VERTEX
  8
型材
 10
-63.525
 20
29.025
  0
VERTEX
  8
型材
 10
-63.475
 20
29.025
  0
VERTEX
  8
型材
 10
-63.45
 20
29.025
  0
VERTEX
  8
型材
 10
-63.425
 20
29.05
  0
VERTEX
  8
型材
 10
-63.375
 20
29.05
  0
VERTEX
  8
型材
 10
-63.35
 20
29.05
  0
VERTEX
  8
型材
 10
-63.3
 20
29.05
  0
VERTEX
  8
型材
 10
-63.275
 20
29.075
  0
VERTEX
  8
型材
 10
-63.25
 20
29.075
  0
VERTEX
  8
型材
 10
-63.2
 20
29.075
  0
VERTEX
  8
型材
 10
-63.175
 20
29.1
  0
VERTEX
  8
型材
 10
-63.15
 20
29.1
  0
VERTEX
  8
型材
 10
-63.1
 20
29.125
  0
VERTEX
  8
型材
 10
-63.075
 20
29.125
  0
VERTEX
  8
型材
 10
-63.05
 20
29.15
  0
VERTEX
  8
型材
 10
-63.0
 20
29.15
  0
VERTEX
  8
型材
 10
-62.975
 20
29.175
  0
VERTEX
  8
型材
 10
-62.95
 20
29.2
  0
VERTEX
  8
型材
 10
-62.925
 20
29.2
  0
VERTEX
  8
型材
 10
-62.9
 20
29.225
  0
VERTEX
  8
型材
 10
-62.875
 20
29.25
  0
VERTEX
  8
型材
 10
-62.85
 20
29.275
  0
VERTEX
  8
型材
 10
-62.825
 20
29.275
  0
VERTEX
  8
型材
 10
-62.8
 20
29.3
  0
VERTEX
  8
型材
 10
-62.775
 20
29.325
  0
VERTEX
  8
型材
 10
-62.75
 20
29.35
  0
VERTEX
  8
型材
 10
-62.725
 20
29.375
  0
VERTEX
  8
型材
 10
-62.7
 20
29.4
  0
VERTEX
  8
型材
 10
-62.675
 20
29.425
  0
VERTEX
  8
型材
 10
-62.65
 20
29.425
  0
VERTEX
  8
型材
 10
-62.625
 20
29.45
  0
VERTEX
  8
型材
 10
-62.625
 20
29.475
  0
VERTEX
  8
型材
 10
-62.6
 20
29.5
  0
VERTEX
  8
型材
 10
-62.575
 20
29.525
  0
VERTEX
  8
型材
 10
-62.575
 20
29.55
  0
VERTEX
  8
型材
 10
-62.55
 20
29.575
  0
VERTEX
  8
型材
 10
-62.55
 20
29.6
  0
VERTEX
  8
型材
 10
-62.525
 20
29.65
  0
VERTEX
  8
型材
 10
-62.525
 20
29.675
  0
VERTEX
  8
型材
 10
-62.5
 20
29.7
  0
VERTEX
  8
型材
 10
-62.5
 20
29.725
  0
VERTEX
  8
型材
 10
-62.5
 20
29.75
  0
VERTEX
  8
型材
 10
-62.5
 20
29.775
  0
VERTEX
  8
型材
 10
-62.475
 20
29.8
  0
VERTEX
  8
型材
 10
-62.475
 20
29.825
  0
VERTEX
  8
型材
 10
-62.475
 20
29.85
  0
VERTEX
  8
型材
 10
-62.475
 20
29.875
  0
SEQEND
  0
LINE
  8
型材
  6
CONTINUOUS
 62
    32
 10
-61.632042
 20
31.893925
 11
-61.005075
 21
31.893925
  0
LINE
  8
型材
  6
CONTINUOUS
 62
    32
 10
-61.632042
 20
31.893925
 11
-61.632042
 21
28.49622
  0
POLYLINE
  8
型材
  6
CONTINUOUS
 62
    32
 66
     1
  0
VERTEX
  8
型材
 10
-59.842725
 20
30.588935
  0
VERTEX
  8
型材
 10
-61.005075
 20
29.72372
  0
VERTEX
  8
型材
 10
-59.842725
 20
28.49622
  0
SEQEND
  0
LINE
  8
型材
  6
CONTINUOUS
 62
    32
 10
-59.842725
 20
30.588935
 11
-61.005075
 21
30.588935
  0
LINE
  8
型材
  6
CONTINUOUS
 62
    32
 10
-61.632042
 20
28.49622
 11
-59.842725
 21
28.49622
  0
LINE
  8
型材
  6
CONTINUOUS
 62
    32
 10
-61.005075
 20
31.893925
 11
-61.005075
 21
30.588935
  0
LINE
  8
型材
  6
CONTINUOUS
 62
    32
 10
-56.603905
 20
31.087997
 11
-56.603905
 21
30.783065
  0
LINE
  8
型材
  6
CONTINUOUS
 62
    32
 10
-59.226728
 20
30.783065
 11
-59.226728
 21
31.087997
  0
LINE
  8
型材
  6
CONTINUOUS
 62
    32
 10
-56.603905
 20
31.087997
 11
-59.226728
 21
31.087997
  0
LINE
  8
型材
  6
CONTINUOUS
 62
    32
 10
-56.603905
 20
30.783065
 11
-57.625242
 21
30.783065
  0
LINE
  8
型材
  6
CONTINUOUS
 62
    32
 10
-58.20539
 20
30.783065
 11
-59.226728
 21
30.783065
  0
LINE
  8
型材
  6
CONTINUOUS
 62
    32
 10
-58.20539
 20
30.783065
 11
-58.20539
 21
28.49622
  0
LINE
  8
型材
  6
CONTINUOUS
 62
    32
 10
-57.625242
 20
30.783065
 11
-57.625242
 21
28.49622
  0
LINE
  8
型材
  6
CONTINUOUS
 62
    32
 10
-58.20539
 20
28.49622
 11
-57.625242
 21
28.49622
  0
LINE
  8
型材
  6
CONTINUOUS
 62
    32
 10
-52.855137
 20
30.05537
 11
-55.495792
 21
30.05537
  0
LINE
  8
型材
  6
CONTINUOUS
 62
    32
 10
-55.460037
 20
30.188055
 11
-53.001965
 21
30.188055
  0
POLYLINE
  8
型材
  6
CONTINUOUS
 62
    32
 66
     1
  0
VERTEX
  8
型材
 10
-53.025
 20
30.175
  0
VERTEX
  8
型材
 10
-53.025
 20
30.2
  0
VERTEX
  8
型材
 10
-53.025
 20
30.2
  0
VERTEX
  8
型材
 10
-53.025
 20
30.225
  0
VERTEX
  8
型材
 10
-53.025
 20
30.225
  0
VERTEX
  8
型材
 10
-53.05
 20
30.25
  0
VERTEX
  8
型材
 10
-53.05
 20
30.25
  0
VERTEX
  8
型材
 10
-53.05
 20
30.275
  0
VERTEX
  8
型材
 10
-53.05
 20
30.275
  0
VERTEX
  8
型材
 10
-53.075
 20
30.3
  0
VERTEX
  8
型材
 10
-53.075
 20
30.3
  0
VERTEX
  8
型材
 10
-53.075
 20
30.325
  0
VERTEX
  8
型材
 10
-53.1
 20
30.325
  0
VERTEX
  8
型材
 10
-53.1
 20
30.35
  0
VERTEX
  8
型材
 10
-53.1
 20
30.35
  0
VERTEX
  8
型材
 10
-53.125
 20
30.375
  0
VERTEX
  8
型材
 10
-53.125
 20
30.375
  0
VERTEX
  8
型材
 10
-53.125
 20
30.4
  0
VERTEX
  8
型材
 10
-53.15
 20
30.4
  0
VERTEX
  8
型材
 10
-53.15
 20
30.425
  0
VERTEX
  8
型材
 10
-53.15
 20
30.425
  0
VERTEX
  8
型材
 10
-53.175
 20
30.425
  0
VERTEX
  8
型材
 10
-53.175
 20
30.45
  0
VERTEX
  8
型材
 10
-53.175
 20
30.45
  0
VERTEX
  8
型材
 10
-53.2
 20
30.475
  0
VERTEX
  8
型材
 10
-53.2
 20
30.475
  0
VERTEX
  8
型材
 10
-53.225
 20
30.5
  0
VERTEX
  8
型材
 10
-53.225
 20
30.5
  0
VERTEX
  8
型材
 10
-53.25
 20
30.525
  0
VERTEX
  8
型材
 10
-53.25
 20
30.525
  0
VERTEX
  8
型材
 10
-53.25
 20
30.525
  0
VERTEX
  8
型材
 10
-53.275
 20
30.55
  0
VERTEX
  8
型材
 10
-53.275
 20
30.55
  0
VERTEX
  8
型材
 10
-53.3
 20
30.575
  0
VERTEX
  8
型材
 10
-53.3
 20
30.575
  0
VERTEX
  8
型材
 10
-53.325
 20
30.6
  0
VERTEX
  8
型材
 10
-53.325
 20
30.6
  0
VERTEX
  8
型材
 10
-53.35
 20
30.6
  0
VERTEX
  8
型材
 10
-53.35
 20
30.625
  0
VERTEX
  8
型材
 10
-53.375
 20
30.625
  0
VERTEX
  8
型材
 10
-53.375
 20
30.625
  0
VERTEX
  8
型材
 10
-53.4
 20
30.65
  0
VERTEX
  8
型材
 10
-53.4
 20
30.65
  0
VERTEX
  8
型材
 10
-53.425
 20
30.675
  0
VERTEX
  8
型材
 10
-53.425
 20
30.675
  0
VERTEX
  8
型材
 10
-53.45
 20
30.675
  0
VERTEX
  8
型材
 10
-53.475
 20
30.7
  0
VERTEX
  8
型材
 10
-53.475
 20
30.7
  0
VERTEX
  8
型材
 10
-53.5
 20
30.7
  0
VERTEX
  8
型材
 10
-53.5
 20
30.725
  0
VERTEX
  8
型材
 10
-53.525
 20
30.725
  0
VERTEX
  8
型材
 10
-53.55
 20
30.725
  0
VERTEX
  8
型材
 10
-53.55
 20
30.725
  0
VERTEX
  8
型材
 10
-53.575
 20
30.75
  0
VERTEX
  8
型材
 10
-53.575
 20
30.75
  0
VERTEX
  8
型材
 10
-53.6
 20
30.75
  0
VERTEX
  8
型材
 10
-53.625
 20
30.775
  0
VERTEX
  8
型材
 10
-53.625
 20
30.775
  0
VERTEX
  8
型材
 10
-53.65
 20
30.775
  0
VERTEX
  8
型材
 10
-53.65
 20
30.775
  0
VERTEX
  8
型材
 10
-53.675
 20
30.8
  0
VERTEX
  8
型材
 10
-53.7
 20
30.8
  0
VERTEX
  8
型材
 10
-53.7
 20
30.8
  0
VERTEX
  8
型材
 10
-53.725
 20
30.8
  0
VERTEX
  8
型材
 10
-53.75
 20
30.825
  0
VERTEX
  8
型材
 10
-53.75
 20
30.825
  0
VERTEX
  8
型材
 10
-53.775
 20
30.825
  0
VERTEX
  8
型材
 10
-53.8
 20
30.825
  0
VERTEX
  8
型材
 10
-53.8
 20
30.825
  0
VERTEX
  8
型材
 10
-53.825
 20
30.85
  0
VERTEX
  8
型材
 10
-53.85
 20
30.85
  0
VERTEX
  8
型材
 10
-53.85
 20
30.85
  0
VERTEX
  8
型材
 10
-53.875
 20
30.85
  0
VERTEX
  8
型材
 10
-53.9
 20
30.85
  0
VERTEX
  8
型材
 10
-53.9
 20
30.85
  0
VERTEX
  8
型材
 10
-53.925
 20
30.85
  0
VERTEX
  8
型材
 10
-53.95
 20
30.875
  0
VERTEX
  8
型材
 10
-53.95
 20
30.875
  0
VERTEX
  8
型材
 10
-53.975
 20
30.875
  0
VERTEX
  8
型材
 10
-54.0
 20
30.875
  0
VERTEX
  8
型材
 10
-54.025
 20
30.875
  0
VERTEX
  8
型材
 10
-54.025
 20
30.875
  0
VERTEX
  8
型材
 10
-54.05
 20
30.875
  0
VERTEX
  8
型材
 10
-54.075
 20
30.875
  0
VERTEX
  8
型材
 10
-54.075
 20
30.875
  0
VERTEX
  8
型材
 10
-54.1
 20
30.875
  0
VERTEX
  8
型材
 10
-54.125
 20
30.9
  0
VERTEX
  8
型材
 10
-54.125
 20
30.9
  0
VERTEX
  8
型材
 10
-54.15
 20
30.9
  0
VERTEX
  8
型材
 10
-54.175
 20
30.9
  0
VERTEX
  8
型材
 10
-54.2
 20
30.9
  0
VERTEX
  8
型材
 10
-54.2
 20
30.9
  0
VERTEX
  8
型材
 10
-54.225
 20
30.9
  0
VERTEX
  8
型材
 10
-54.25
 20
30.9
  0
VERTEX
  8
型材
 10
-54.25
 20
30.9
  0
VERTEX
  8
型材
 10
-54.275
 20
30.9
  0
VERTEX
  8
型材
 10
-54.3
 20
30.9
  0
VERTEX
  8
型材
 10
-54.325
 20
30.9
  0
VERTEX
  8
型材
 10
-54.325
 20
30.9
  0
VERTEX
  8
型材
 10
-54.35
 20
30.9
  0
VERTEX
  8
型材
 10
-54.375
 20
30.9
  0
VERTEX
  8
型材
 10
-54.375
 20
30.875
  0
VERTEX
  8
型材
 10
-54.4
 20
30.875
  0
VERTEX
  8
型材
 10
-54.425
 20
30.875
  0
VERTEX
  8
型材
 10
-54.45
 20
30.875
  0
VERTEX
  8
型材
 10
-54.45
 20
30.875
  0
VERTEX
  8
型材
 10
-54.475
 20
30.875
  0
VERTEX
  8
型材
 10
-54.5
 20
30.875
  0
VERTEX
  8
型材
 10
-54.5
 20
30.875
  0
VERTEX
  8
型材
 10
-54.525
 20
30.875
  0
VERTEX
  8
型材
 10
-54.55
 20
30.875
  0
VERTEX
  8
型材
 10
-54.55
 20
30.85
  0
VERTEX
  8
型材
 10
-54.575
 20
30.85
  0
VERTEX
  8
型材
 10
-54.6
 20
30.85
  0
VERTEX
  8
型材
 10
-54.6
 20
30.85
  0
VERTEX
  8
型材
 10
-54.625
 20
30.85
  0
VERTEX
  8
型材
 10
-54.65
 20
30.85
  0
VERTEX
  8
型材
 10
-54.675
 20
30.85
  0
VERTEX
  8
型材
 10
-54.675
 20
30.825
  0
VERTEX
  8
型材
 10
-54.7
 20
30.825
  0
VERTEX
  8
型材
 10
-54.725
 20
30.825
  0
VERTEX
  8
型材
 10
-54.725
 20
30.825
  0
VERTEX
  8
型材
 10
-54.75
 20
30.825
  0
VERTEX
  8
型材
 10
-54.75
 20
30.8
  0
VERTEX
  8
型材
 10
-54.775
 20
30.8
  0
VERTEX
  8
型材
 10
-54.8
 20
30.8
  0
VERTEX
  8
型材
 10
-54.8
 20
30.8
  0
VERTEX
  8
型材
 10
-54.825
 20
30.775
  0
VERTEX
  8
型材
 10
-54.85
 20
30.775
  0
VERTEX
  8
型材
 10
-54.85
 20
30.775
  0
VERTEX
  8
型材
 10
-54.875
 20
30.775
  0
VERTEX
  8
型材
 10
-54.9
 20
30.75
  0
VERTEX
  8
型材
 10
-54.9
 20
30.75
  0
VERTEX
  8
型材
 10
-54.925
 20
30.75
  0
VERTEX
  8
型材
 10
-54.925
 20
30.725
  0
VERTEX
  8
型材
 10
-54.95
 20
30.725
  0
VERTEX
  8
型材
 10
-54.975
 20
30.725
  0
VERTEX
  8
型材
 10
-54.975
 20
30.725
  0
VERTEX
  8
型材
 10
-55.0
 20
30.7
  0
VERTEX
  8
型材
 10
-55.0
 20
30.7
  0
VERTEX
  8
型材
 10
-55.025
 20
30.7
  0
VERTEX
  8
型材
 10
-55.025
 20
30.675
  0
VERTEX
  8
型材
 10
-55.05
 20
30.675
  0
VERTEX
  8
型材
 10
-55.075
 20
30.675
  0
VERTEX
  8
型材
 10
-55.075
 20
30.65
  0
VERTEX
  8
型材
 10
-55.1
 20
30.65
  0
VERTEX
  8
型材
 10
-55.1
 20
30.625
  0
VERTEX
  8
型材
 10
-55.125
 20
30.625
  0
VERTEX
  8
型材
 10
-55.125
 20
30.625
  0
VERTEX
  8
型材
 10
-55.15
 20
30.6
  0
VERTEX
  8
型材
 10
-55.15
 20
30.6
  0
VERTEX
  8
型材
 10
-55.175
 20
30.6
  0
VERTEX
  8
型材
 10
-55.175
 20
30.575
  0
VERTEX
  8
型材
 10
-55.2
 20
30.575
  0
VERTEX
  8
型材
 10
-55.2
 20
30.55
  0
VERTEX
  8
型材
 10
-55.225
 20
30.55
  0
VERTEX
  8
型材
 10
-55.225
 20
30.525
  0
VERTEX
  8
型材
 10
-55.25
 20
30.525
  0
VERTEX
  8
型材
 10
-55.25
 20
30.525
  0
VERTEX
  8
型材
 10
-55.25
 20
30.5
  0
VERTEX
  8
型材
 10
-55.275
 20
30.5
  0
VERTEX
  8
型材
 10
-55.275
 20
30.475
  0
VERTEX
  8
型材
 10
-55.3
 20
30.475
  0
VERTEX
  8
型材
 10
-55.3
 20
30.45
  0
VERTEX
  8
型材
 10
-55.3
 20
30.45
  0
VERTEX
  8
型材
 10
-55.325
 20
30.425
  0
VERTEX
  8
型材
 10
-55.325
 20
30.425
  0
VERTEX
  8
型材
 10
-55.35
 20
30.425
  0
VERTEX
  8
型材
 10
-55.35
 20
30.4
  0
VERTEX
  8
型材
 10
-55.35
 20
30.4
  0
VERTEX
  8
型材
 10
-55.375
 20
30.375
  0
VERTEX
  8
型材
 10
-55.375
 20
30.375
  0
VERTEX
  8
型材
 10
-55.375
 20
30.35
  0
VERTEX
  8
型材
 10
-55.4
 20
30.35
  0
VERTEX
  8
型材
 10
-55.4
 20
30.325
  0
VERTEX
  8
型材
 10
-55.4
 20
30.325
  0
VERTEX
  8
型材
 10
-55.425
 20
30.3
  0
VERTEX
  8
型材
 10
-55.425
 20
30.3
  0
VERTEX
  8
型材
 10
-55.425
 20
30.275
  0
VERTEX
  8
型材
 10
-55.425
 20
30.275
  0
VERTEX
  8
型材
 10
-55.45
 20
30.25
  0
VERTEX
  8
型材
 10
-55.45
 20
30.25
  0
VERTEX
  8
型材
 10
-55.45
 20
30.225
  0
VERTEX
  8
型材
 10
-55.45
 20
30.225
  0
VERTEX
  8
型材
 10
-55.45
 20
30.2
  0
VERTEX
  8
型材
 10
-55.475
 20
30.2
  0
VERTEX
  8
型材
 10
-55.475
 20
30.175
  0
SEQEND
  0
POLYLINE
  8
型材
  6
CONTINUOUS
 62
    32
 66
     1
  0
VERTEX
  8
型材
 10
-55.5
 20
30.05
  0
VERTEX
  8
型材
 10
-55.525
 20
30.0
  0
VERTEX
  8
型材
 10
-55.525
 20
29.975
  0
VERTEX
  8
型材
 10
-55.525
 20
29.95
  0
VERTEX
  8
型材
 10
-55.525
 20
29.925
  0
VERTEX
  8
型材
 10
-55.525
 20
29.875
  0
VERTEX
  8
型材
 10
-55.525
 20
29.85
  0
VERTEX
  8
型材
 10
-55.525
 20
29.825
  0
VERTEX
  8
型材
 10
-55.5
 20
29.8
  0
VERTEX
  8
型材
 10
-55.5
 20
29.75
  0
VERTEX
  8
型材
 10
-55.5
 20
29.725
  0
VERTEX
  8
型材
 10
-55.5
 20
29.7
  0
VERTEX
  8
型材
 10
-55.475
 20
29.675
  0
VERTEX
  8
型材
 10
-55.475
 20
29.65
  0
VERTEX
  8
型材
 10
-55.45
 20
29.6
  0
VERTEX
  8
型材
 10
-55.45
 20
29.575
  0
VERTEX
  8
型材
 10
-55.425
 20
29.55
  0
VERTEX
  8
型材
 10
-55.425
 20
29.525
  0
VERTEX
  8
型材
 10
-55.4
 20
29.5
  0
VERTEX
  8
型材
 10
-55.375
 20
29.475
  0
VERTEX
  8
型材
 10
-55.35
 20
29.425
  0
VERTEX
  8
型材
 10
-55.35
 20
29.4
  0
VERTEX
  8
型材
 10
-55.325
 20
29.375
  0
VERTEX
  8
型材
 10
-55.3
 20
29.35
  0
VERTEX
  8
型材
 10
-55.275
 20
29.325
  0
VERTEX
  8
型材
 10
-55.25
 20
29.3
  0
VERTEX
  8
型材
 10
-55.225
 20
29.275
  0
VERTEX
  8
型材
 10
-55.2
 20
29.25
  0
VERTEX
  8
型材
 10
-55.175
 20
29.225
  0
VERTEX
  8
型材
 10
-55.15
 20
29.2
  0
VERTEX
  8
型材
 10
-55.1
 20
29.2
  0
VERTEX
  8
型材
 10
-55.075
 20
29.175
  0
VERTEX
  8
型材
 10
-55.05
 20
29.15
  0
VERTEX
  8
型材
 10
-55.025
 20
29.125
  0
VERTEX
  8
型材
 10
-54.975
 20
29.1
  0
VERTEX
  8
型材
 10
-54.95
 20
29.1
  0
VERTEX
  8
型材
 10
-54.925
 20
29.075
  0
VERTEX
  8
型材
 10
-54.875
 20
29.05
  0
VERTEX
  8
型材
 10
-54.85
 20
29.05
  0
VERTEX
  8
型材
 10
-54.8
 20
29.025
  0
VERTEX
  8
型材
 10
-54.775
 20
29.025
  0
VERTEX
  8
型材
 10
-54.725
 20
29.0
  0
VERTEX
  8
型材
 10
-54.7
 20
29.0
  0
VERTEX
  8
型材
 10
-54.65
 20
28.975
  0
VERTEX
  8
型材
 10
-54.625
 20
28.975
  0
VERTEX
  8
型材
 10
-54.575
 20
28.975
  0
VERTEX
  8
型材
 10
-54.55
 20
28.95
  0
VERTEX
  8
型材
 10
-54.5
 20
28.95
  0
VERTEX
  8
型材
 10
-54.45
 20
28.95
  0
VERTEX
  8
型材
 10
-54.425
 20
28.95
  0
VERTEX
  8
型材
 10
-54.375
 20
28.925
  0
VERTEX
  8
型材
 10
-54.325
 20
28.925
  0
VERTEX
  8
型材
 10
-54.3
 20
28.925
  0
VERTEX
  8
型材
 10
-54.25
 20
28.925
  0
VERTEX
  8
型材
 10
-54.225
 20
28.925
  0
VERTEX
  8
型材
 10
-54.175
 20
28.925
  0
VERTEX
  8
型材
 10
-54.125
 20
28.925
  0
VERTEX
  8
型材
 10
-54.1
 20
28.925
  0
VERTEX
  8
型材
 10
-54.05
 20
28.95
  0
VERTEX
  8
型材
 10
-54.0
 20
28.95
  0
VERTEX
  8
型材
 10
-53.975
 20
28.95
  0
VERTEX
  8
型材
 10
-53.925
 20
28.95
  0
VERTEX
  8
型材
 10
-53.9
 20
28.975
  0
VERTEX
  8
型材
 10
-53.85
 20
28.975
  0
VERTEX
  8
型材
 10
-53.825
 20
28.975
  0
VERTEX
  8
型材
 10
-53.775
 20
29.0
  0
VERTEX
  8
型材
 10
-53.75
 20
29.0
  0
VERTEX
  8
型材
 10
-53.7
 20
29.025
  0
VERTEX
  8
型材
 10
-53.675
 20
29.025
  0
VERTEX
  8
型材
 10
-53.625
 20
29.05
  0
VERTEX
  8
型材
 10
-53.6
 20
29.075
  0
VERTEX
  8
型材
 10
-53.55
 20
29.075
  0
VERTEX
  8
型材
 10
-53.525
 20
29.1
  0
VERTEX
  8
型材
 10
-53.5
 20
29.125
  0
VERTEX
  8
型材
 10
-53.45
 20
29.125
  0
VERTEX
  8
型材
 10
-53.425
 20
29.15
  0
VERTEX
  8
型材
 10
-53.4
 20
29.175
  0
VERTEX
  8
型材
 10
-53.375
 20
29.2
  0
VERTEX
  8
型材
 10
-53.325
 20
29.225
  0
VERTEX
  8
型材
 10
-53.3
 20
29.25
  0
VERTEX
  8
型材
 10
-53.275
 20
29.275
  0
VERTEX
  8
型材
 10
-53.25
 20
29.3
  0
VERTEX
  8
型材
 10
-53.225
 20
29.325
  0
VERTEX
  8
型材
 10
-53.2
 20
29.35
  0
VERTEX
  8
型材
 10
-53.175
 20
29.375
  0
VERTEX
  8
型材
 10
-53.15
 20
29.4
  0
VERTEX
  8
型材
 10
-53.15
 20
29.425
  0
VERTEX
  8
型材
 10
-53.125
 20
29.45
  0
VERTEX
  8
型材
 10
-53.1
 20
29.475
  0
VERTEX
  8
型材
 10
-53.075
 20
29.5
  0
VERTEX
  8
型材
 10
-53.075
 20
29.525
  0
VERTEX
  8
型材
 10
-53.05
 20
29.55
  0
VERTEX
  8
型材
 10
-53.025
 20
29.6
  0
VERTEX
  8
型材
 10
-53.025
 20
29.625
  0
VERTEX
  8
型材
 10
-53.025
 20
29.65
  0
SEQEND
  0
POLYLINE
  8
型材
  6
CONTINUOUS
 62
    32
 66
     1
  0
VERTEX
  8
型材
 10
-53.025
 20
29.65
  0
VERTEX
  8
型材
 10
-53.0
 20
29.65
  0
VERTEX
  8
型材
 10
-53.0
 20
29.65
  0
VERTEX
  8
型材
 10
-53.0
 20
29.65
  0
VERTEX
  8
型材
 10
-53.0
 20
29.65
  0
VERTEX
  8
型材
 10
-53.0
 20
29.65
  0
VERTEX
  8
型材
 10
-53.0
 20
29.675
  0
VERTEX
  8
型材
 10
-53.0
 20
29.675
  0
VERTEX
  8
型材
 10
-53.0
 20
29.675
  0
VERTEX
  8
型材
 10
-53.0
 20
29.675
  0
VERTEX
  8
型材
 10
-53.0
 20
29.675
  0
VERTEX
  8
型材
 10
-53.0
 20
29.675
  0
VERTEX
  8
型材
 10
-53.0
 20
29.675
  0
VERTEX
  8
型材
 10
-53.0
 20
29.675
  0
VERTEX
  8
型材
 10
-53.0
 20
29.675
  0
VERTEX
  8
型材
 10
-53.0
 20
29.675
  0
VERTEX
  8
型材
 10
-53.0
 20
29.675
  0
VERTEX
  8
型材
 10
-52.975
 20
29.675
  0
VERTEX
  8
型材
 10
-52.975
 20
29.675
  0
VERTEX
  8
型材
 10
-52.975
 20
29.675
  0
VERTEX
  8
型材
 10
-52.975
 20
29.7
  0
VERTEX
  8
型材
 10
-52.975
 20
29.7
  0
VERTEX
  8
型材
 10
-52.975
 20
29.7
  0
VERTEX
  8
型材
 10
-52.975
 20
29.7
  0
VERTEX
  8
型材
 10
-52.975
 20
29.7
  0
VERTEX
  8
型材
 10
-52.975
 20
29.7
  0
VERTEX
  8
型材
 10
-52.975
 20
29.7
  0
VERTEX
  8
型材
 10
-52.95
 20
29.7
  0
VERTEX
  8
型材
 10
-52.95
 20
29.7
  0
VERTEX
  8
型材
 10
-52.95
 20
29.7
  0
VERTEX
  8
型材
 10
-52.95
 20
29.7
  0
VERTEX
  8
型材
 10
-52.95
 20
29.7
  0
VERTEX
  8
型材
 10
-52.95
 20
29.7
  0
VERTEX
  8
型材
 10
-52.95
 20
29.7
  0
VERTEX
  8
型材
 10
-52.95
 20
29.7
  0
VERTEX
  8
型材
 10
-52.95
 20
29.7
  0
VERTEX
  8
型材
 10
-52.925
 20
29.7
  0
VERTEX
  8
型材
 10
-52.925
 20
29.7
  0
VERTEX
  8
型材
 10
-52.925
 20
29.7
  0
VERTEX
  8
型材
 10
-52.925
 20
29.7
  0
VERTEX
  8
型材
 10
-52.925
 20
29.7
  0
SEQEND
  0
LINE
  8
型材
  6
CONTINUOUS
 62
    32
 10
-52.929915
 20
29.714853
 11
-52.911312
 21
29.714853
  0
POLYLINE
  8
型材
  6
CONTINUOUS
 62
    32
 66
     1
  0
VERTEX
  8
型材
 10
-52.875
 20
30.05
  0
VERTEX
  8
型材
 10
-52.875
 20
30.075
  0
VERTEX
  8
型材
 10
-52.9
 20
30.125
  0
VERTEX
  8
型材
 10
-52.9
 20
30.175
  0
VERTEX
  8
型材
 10
-52.925
 20
30.2
  0
VERTEX
  8
型材
 10
-52.95
 20
30.25
  0
VERTEX
  8
型材
 10
-52.95
 20
30.275
  0
VERTEX
  8
型材
 10
-52.975
 20
30.325
  0
VERTEX
  8
型材
 10
-53.0
 20
30.35
  0
VERTEX
  8
型材
 10
-53.025
 20
30.4
  0
VERTEX
  8
型材
 10
-53.05
 20
30.425
  0
VERTEX
  8
型材
 10
-53.075
 20
30.475
  0
VERTEX
  8
型材
 10
-53.1
 20
30.5
  0
VERTEX
  8
型材
 10
-53.15
 20
30.525
  0
VERTEX
  8
型材
 10
-53.175
 20
30.575
  0
VERTEX
  8
型材
 10
-53.2
 20
30.6
  0
VERTEX
  8
型材
 10
-53.225
 20
30.625
  0
VERTEX
  8
型材
 10
-53.275
 20
30.675
  0
VERTEX
  8
型材
 10
-53.3
 20
30.7
  0
VERTEX
  8
型材
 10
-53.35
 20
30.725
  0
VERTEX
  8
型材
 10
-53.375
 20
30.75
  0
VERTEX
  8
型材
 10
-53.425
 20
30.775
  0
VERTEX
  8
型材
 10
-53.475
 20
30.8
  0
VERTEX
  8
型材
 10
-53.5
 20
30.825
  0
VERTEX
  8
型材
 10
-53.55
 20
30.85
  0
VERTEX
  8
型材
 10
-53.6
 20
30.875
  0
VERTEX
  8
型材
 10
-53.65
 20
30.9
  0
VERTEX
  8
型材
 10
-53.7
 20
30.925
  0
VERTEX
  8
型材
 10
-53.725
 20
30.95
  0
VERTEX
  8
型材
 10
-53.775
 20
30.975
  0
VERTEX
  8
型材
 10
-53.825
 20
30.975
  0
VERTEX
  8
型材
 10
-53.875
 20
31.0
  0
VERTEX
  8
型材
 10
-53.925
 20
31.025
  0
VERTEX
  8
型材
 10
-53.975
 20
31.025
  0
VERTEX
  8
型材
 10
-54.025
 20
31.05
  0
VERTEX
  8
型材
 10
-54.075
 20
31.05
  0
VERTEX
  8
型材
 10
-54.15
 20
31.075
  0
VERTEX
  8
型材
 10
-54.2
 20
31.075
  0
VERTEX
  8
型材
 10
-54.25
 20
31.075
  0
VERTEX
  8
型材
 10
-54.3
 20
31.1
  0
VERTEX
  8
型材
 10
-54.35
 20
31.1
  0
VERTEX
  8
型材
 10
-54.4
 20
31.1
  0
VERTEX
  8
型材
 10
-54.45
 20
31.1
  0
VERTEX
  8
型材
 10
-54.5
 20
31.1
  0
VERTEX
  8
型材
 10
-54.575
 20
31.1
  0
VERTEX
  8
型材
 10
-54.625
 20
31.1
  0
VERTEX
  8
型材
 10
-54.675
 20
31.1
  0
VERTEX
  8
型材
 10
-54.725
 20
31.1
  0
VERTEX
  8
型材
 10
-54.775
 20
31.1
  0
VERTEX
  8
型材
 10
-54.825
 20
31.075
  0
VERTEX
  8
型材
 10
-54.875
 20
31.075
  0
VERTEX
  8
型材
 10
-54.95
 20
31.075
  0
VERTEX
  8
型材
 10
-55.0
 20
31.05
  0
VERTEX
  8
型材
 10
-55.05
 20
31.05
  0
VERTEX
  8
型材
 10
-55.1
 20
31.025
  0
VERTEX
  8
型材
 10
-55.15
 20
31.025
  0
VERTEX
  8
型材
 10
-55.2
 20
31.0
  0
VERTEX
  8
型材
 10
-55.25
 20
30.975
  0
VERTEX
  8
型材
 10
-55.3
 20
30.975
  0
VERTEX
  8
型材
 10
-55.35
 20
30.95
  0
VERTEX
  8
型材
 10
-55.4
 20
30.925
  0
VERTEX
  8
型材
 10
-55.425
 20
30.9
  0
VERTEX
  8
型材
 10
-55.475
 20
30.875
  0
VERTEX
  8
型材
 10
-55.525
 20
30.85
  0
VERTEX
  8
型材
 10
-55.575
 20
30.825
  0
VERTEX
  8
型材
 10
-55.6
 20
30.8
  0
VERTEX
  8
型材
 10
-55.65
 20
30.775
  0
VERTEX
  8
型材
 10
-55.7
 20
30.75
  0
VERTEX
  8
型材
 10
-55.725
 20
30.725
  0
VERTEX
  8
型材
 10
-55.775
 20
30.7
  0
VERTEX
  8
型材
 10
-55.8
 20
30.675
  0
VERTEX
  8
型材
 10
-55.85
 20
30.625
  0
VERTEX
  8
型材
 10
-55.875
 20
30.6
  0
VERTEX
  8
型材
 10
-55.9
 20
30.575
  0
VERTEX
  8
型材
 10
-55.95
 20
30.525
  0
VERTEX
  8
型材
 10
-55.975
 20
30.5
  0
VERTEX
  8
型材
 10
-56.0
 20
30.475
  0
VERTEX
  8
型材
 10
-56.025
 20
30.425
  0
VERTEX
  8
型材
 10
-56.05
 20
30.4
  0
VERTEX
  8
型材
 10
-56.075
 20
30.35
  0
VERTEX
  8
型材
 10
-56.1
 20
30.325
  0
VERTEX
  8
型材
 10
-56.125
 20
30.275
  0
VERTEX
  8
型材
 10
-56.15
 20
30.25
  0
VERTEX
  8
型材
 10
-56.15
 20
30.2
  0
VERTEX
  8
型材
 10
-56.175
 20
30.175
  0
VERTEX
  8
型材
 10
-56.175
 20
30.125
  0
VERTEX
  8
型材
 10
-56.2
 20
30.075
  0
VERTEX
  8
型材
 10
-56.2
 20
30.05
  0
VERTEX
  8
型材
 10
-56.225
 20
30.0
  0
VERTEX
  8
型材
 10
-56.225
 20
29.95
  0
VERTEX
  8
型材
 10
-56.225
 20
29.925
  0
VERTEX
  8
型材
 10
-56.25
 20
29.875
  0
VERTEX
  8
型材
 10
-56.25
 20
29.825
  0
VERTEX
  8
型材
 10
-56.25
 20
29.8
  0
VERTEX
  8
型材
 10
-56.25
 20
29.75
  0
VERTEX
  8
型材
 10
-56.25
 20
29.7
  0
VERTEX
  8
型材
 10
-56.225
 20
29.675
  0
VERTEX
  8
型材
 10
-56.225
 20
29.625
  0
VERTEX
  8
型材
 10
-56.225
 20
29.6
  0
VERTEX
  8
型材
 10
-56.2
 20
29.55
  0
VERTEX
  8
型材
 10
-56.2
 20
29.5
  0
VERTEX
  8
型材
 10
-56.2
 20
29.475
  0
VERTEX
  8
型材
 10
-56.175
 20
29.425
  0
VERTEX
  8
型材
 10
-56.15
 20
29.375
  0
VERTEX
  8
型材
 10
-56.15
 20
29.35
  0
VERTEX
  8
型材
 10
-56.125
 20
29.3
  0
VERTEX
  8
型材
 10
-56.1
 20
29.275
  0
VERTEX
  8
型材
 10
-56.075
 20
29.225
  0
VERTEX
  8
型材
 10
-56.05
 20
29.2
  0
VERTEX
  8
型材
 10
-56.025
 20
29.15
  0
VERTEX
  8
型材
 10
-56.0
 20
29.125
  0
VERTEX
  8
型材
 10
-55.975
 20
29.075
  0
VERTEX
  8
型材
 10
-55.95
 20
29.05
  0
VERTEX
  8
型材
 10
-55.9
 20
29.025
  0
VERTEX
  8
型材
 10
-55.875
 20
28.975
  0
VERTEX
  8
型材
 10
-55.85
 20
28.95
  0
VERTEX
  8
型材
 10
-55.8
 20
28.925
  0
VERTEX
  8
型材
 10
-55.775
 20
28.9
  0
VERTEX
  8
型材
 10
-55.725
 20
28.85
  0
VERTEX
  8
型材
 10
-55.7
 20
28.825
  0
VERTEX
  8
型材
 10
-55.65
 20
28.8
  0
VERTEX
  8
型材
 10
-55.625
 20
28.775
  0
VERTEX
  8
型材
 10
-55.575
 20
28.75
  0
VERTEX
  8
型材
 10
-55.525
 20
28.725
  0
VERTEX
  8
型材
 10
-55.475
 20
28.7
  0
VERTEX
  8
型材
 10
-55.45
 20
28.675
  0
VERTEX
  8
型材
 10
-55.4
 20
28.65
  0
VERTEX
  8
型材
 10
-55.35
 20
28.65
  0
VERTEX
  8
型材
 10
-55.3
 20
28.625
  0
VERTEX
  8
型材
 10
-55.25
 20
28.6
  0
VERTEX
  8
型材
 10
-55.2
 20
28.575
  0
VERTEX
  8
型材
 10
-55.15
 20
28.575
  0
VERTEX
  8
型材
 10
-55.1
 20
28.55
  0
VERTEX
  8
型材
 10
-55.05
 20
28.55
  0
VERTEX
  8
型材
 10
-55.0
 20
28.525
  0
VERTEX
  8
型材
 10
-54.95
 20
28.525
  0
VERTEX
  8
型材
 10
-54.9
 20
28.5
  0
VERTEX
  8
型材
 10
-54.85
 20
28.5
  0
VERTEX
  8
型材
 10
-54.775
 20
28.5
  0
VERTEX
  8
型材
 10
-54.725
 20
28.5
  0
VERTEX
  8
型材
 10
-54.675
 20
28.5
  0
VERTEX
  8
型材
 10
-54.625
 20
28.475
  0
VERTEX
  8
型材
 10
-54.575
 20
28.475
  0
VERTEX
  8
型材
 10
-54.525
 20
28.475
  0
VERTEX
  8
型材
 10
-54.475
 20
28.475
  0
VERTEX
  8
型材
 10
-54.4
 20
28.5
  0
VERTEX
  8
型材
 10
-54.35
 20
28.5
  0
VERTEX
  8
型材
 10
-54.3
 20
28.5
  0
VERTEX
  8
型材
 10
-54.25
 20
28.5
  0
VERTEX
  8
型材
 10
-54.2
 20
28.5
  0
VERTEX
  8
型材
 10
-54.15
 20
28.525
  0
VERTEX
  8
型材
 10
-54.1
 20
28.525
  0
VERTEX
  8
型材
 10
-54.05
 20
28.55
  0
VERTEX
  8
型材
 10
-53.975
 20
28.55
  0
VERTEX
  8
型材
 10
-53.925
 20
28.575
  0
VERTEX
  8
型材
 10
-53.875
 20
28.575
  0
VERTEX
  8
型材
 10
-53.825
 20
28.6
  0
VERTEX
  8
型材
 10
-53.8
 20
28.625
  0
VERTEX
  8
型材
 10
-53.75
 20
28.625
  0
VERTEX
  8
型材
 10
-53.7
 20
28.65
  0
VERTEX
  8
型材
 10
-53.65
 20
28.675
  0
VERTEX
  8
型材
 10
-53.6
 20
28.7
  0
VERTEX
  8
型材
 10
-53.55
 20
28.725
  0
VERTEX
  8
型材
 10
-53.525
 20
28.75
  0
VERTEX
  8
型材
 10
-53.475
 20
28.775
  0
VERTEX
  8
型材
 10
-53.425
 20
28.8
  0
VERTEX
  8
型材
 10
-53.4
 20
28.825
  0
VERTEX
  8
型材
 10
-53.35
 20
28.85
  0
VERTEX
  8
型材
 10
-53.3
 20
28.875
  0
VERTEX
  8
型材
 10
-53.275
 20
28.925
  0
VERTEX
  8
型材
 10
-53.25
 20
28.95
  0
VERTEX
  8
型材
 10
-53.2
 20
28.975
  0
VERTEX
  8
型材
 10
-53.175
 20
29.025
  0
VERTEX
  8
型材
 10
-53.15
 20
29.05
  0
VERTEX
  8
型材
 10
-53.1
 20
29.075
  0
VERTEX
  8
型材
 10
-53.075
 20
29.125
  0
VERTEX
  8
型材
 10
-53.05
 20
29.15
  0
VERTEX
  8
型材
 10
-53.025
 20
29.2
  0
VERTEX
  8
型材
 10
-53.0
 20
29.225
  0
VERTEX
  8
型材
 10
-52.975
 20
29.275
  0
VERTEX
  8
型材
 10
-52.95
 20
29.3
  0
VERTEX
  8
型材
 10
-52.95
 20
29.35
  0
VERTEX
  8
型材
 10
-52.925
 20
29.375
  0
VERTEX
  8
型材
 10
-52.9
 20
29.425
  0
VERTEX
  8
型材
 10
-52.9
 20
29.45
  0
VERTEX
  8
型材
 10
-52.875
 20
29.5
  0
VERTEX
  8
型材
 10
-52.875
 20
29.55
  0
VERTEX
  8
型材
 10
-52.85
 20
29.575
  0
VERTEX
  8
型材
 10
-52.85
 20
29.625
  0
SEQEND
  0
POLYLINE
  8
型材
  6
CONTINUOUS
 62
    32
 66
     1
  0
VERTEX
  8
型材
 10
-52.85
 20
29.625
  0
VERTEX
  8
型材
 10
-52.85
 20
29.625
  0
VERTEX
  8
型材
 10
-52.85
 20
29.625
  0
VERTEX
  8
型材
 10
-52.85
 20
29.625
  0
VERTEX
  8
型材
 10
-52.85
 20
29.625
  0
VERTEX
  8
型材
 10
-52.85
 20
29.625
  0
VERTEX
  8
型材
 10
-52.85
 20
29.625
  0
VERTEX
  8
型材
 10
-52.85
 20
29.65
  0
VERTEX
  8
型材
 10
-52.85
 20
29.65
  0
VERTEX
  8
型材
 10
-52.85
 20
29.65
  0
VERTEX
  8
型材
 10
-52.85
 20
29.65
  0
VERTEX
  8
型材
 10
-52.85
 20
29.65
  0
VERTEX
  8
型材
 10
-52.85
 20
29.65
  0
VERTEX
  8
型材
 10
-52.85
 20
29.65
  0
VERTEX
  8
型材
 10
-52.85
 20
29.65
  0
VERTEX
  8
型材
 10
-52.85
 20
29.65
  0
VERTEX
  8
型材
 10
-52.85
 20
29.65
  0
VERTEX
  8
型材
 10
-52.85
 20
29.65
  0
VERTEX
  8
型材
 10
-52.85
 20
29.65
  0
VERTEX
  8
型材
 10
-52.85
 20
29.675
  0
VERTEX
  8
型材
 10
-52.85
 20
29.675
  0
VERTEX
  8
型材
 10
-52.875
 20
29.675
  0
VERTEX
  8
型材
 10
-52.875
 20
29.675
  0
VERTEX
  8
型材
 10
-52.875
 20
29.675
  0
VERTEX
  8
型材
 10
-52.875
 20
29.675
  0
VERTEX
  8
型材
 10
-52.875
 20
29.675
  0
VERTEX
  8
型材
 10
-52.875
 20
29.675
  0
VERTEX
  8
型材
 10
-52.875
 20
29.675
  0
VERTEX
  8
型材
 10
-52.875
 20
29.675
  0
VERTEX
  8
型材
 10
-52.875
 20
29.675
  0
VERTEX
  8
型材
 10
-52.875
 20
29.675
  0
VERTEX
  8
型材
 10
-52.875
 20
29.675
  0
VERTEX
  8
型材
 10
-52.875
 20
29.675
  0
VERTEX
  8
型材
 10
-52.875
 20
29.7
  0
VERTEX
  8
型材
 10
-52.9
 20
29.7
  0
VERTEX
  8
型材
 10
-52.9
 20
29.7
  0
VERTEX
  8
型材
 10
-52.9
 20
29.7
  0
VERTEX
  8
型材
 10
-52.9
 20
29.7
  0
VERTEX
  8
型材
 10
-52.9
 20
29.7
  0
VERTEX
  8
型材
 10
-52.9
 20
29.7
  0
VERTEX
  8
型材
 10
-52.9
 20
29.7
  0
VERTEX
  8
型材
 10
-52.9
 20
29.7
  0
VERTEX
  8
型材
 10
-52.9
 20
29.7
  0
VERTEX
  8
型材
 10
-52.925
 20
29.7
  0
VERTEX
  8
型材
 10
-52.925
 20
29.7
  0
VERTEX
  8
型材
 10
-52.925
 20
29.7
  0
VERTEX
  8
型材
 10
-52.925
 20
29.7
  0
VERTEX
  8
型材
 10
-52.925
 20
29.7
  0
VERTEX
  8
型材
 10
-52.925
 20
29.7
  0
VERTEX
  8
型材
 10
-52.925
 20
29.7
  0
VERTEX
  8
型材
 10
-52.925
 20
29.7
  0
VERTEX
  8
型材
 10
-52.925
 20
29.7
  0
VERTEX
  8
型材
 10
-52.95
 20
29.7
  0
VERTEX
  8
型材
 10
-52.95
 20
29.7
  0
SEQEND
  0
POLYLINE
  8
型材
  6
CONTINUOUS
 62
    32
 66
     1
  0
VERTEX
  8
型材
 10
-49.15
 20
29.65
  0
VERTEX
  8
型材
 10
-49.15
 20
29.65
  0
VERTEX
  8
型材
 10
-49.15
 20
29.65
  0
VERTEX
  8
型材
 10
-49.15
 20
29.65
  0
VERTEX
  8
型材
 10
-49.15
 20
29.65
  0
VERTEX
  8
型材
 10
-49.15
 20
29.65
  0
VERTEX
  8
型材
 10
-49.15
 20
29.675
  0
VERTEX
  8
型材
 10
-49.15
 20
29.675
  0
VERTEX
  8
型材
 10
-49.125
 20
29.675
  0
VERTEX
  8
型材
 10
-49.125
 20
29.675
  0
VERTEX
  8
型材
 10
-49.125
 20
29.675
  0
VERTEX
  8
型材
 10
-49.125
 20
29.675
  0
VERTEX
  8
型材
 10
-49.125
 20
29.675
  0
VERTEX
  8
型材
 10
-49.125
 20
29.675
  0
VERTEX
  8
型材
 10
-49.125
 20
29.675
  0
VERTEX
  8
型材
 10
-49.125
 20
29.675
  0
VERTEX
  8
型材
 10
-49.125
 20
29.675
  0
VERTEX
  8
型材
 10
-49.125
 20
29.675
  0
VERTEX
  8
型材
 10
-49.125
 20
29.675
  0
VERTEX
  8
型材
 10
-49.125
 20
29.675
  0
VERTEX
  8
型材
 10
-49.125
 20
29.7
  0
VERTEX
  8
型材
 10
-49.1
 20
29.7
  0
VERTEX
  8
型材
 10
-49.1
 20
29.7
  0
VERTEX
  8
型材
 10
-49.1
 20
29.7
  0
VERTEX
  8
型材
 10
-49.1
 20
29.7
  0
VERTEX
  8
型材
 10
-49.1
 20
29.7
  0
VERTEX
  8
型材
 10
-49.1
 20
29.7
  0
VERTEX
  8
型材
 10
-49.1
 20
29.7
  0
VERTEX
  8
型材
 10
-49.1
 20
29.7
  0
VERTEX
  8
型材
 10
-49.1
 20
29.7
  0
VERTEX
  8
型材
 10
-49.075
 20
29.7
  0
VERTEX
  8
型材
 10
-49.075
 20
29.7
  0
VERTEX
  8
型材
 10
-49.075
 20
29.7
  0
VERTEX
  8
型材
 10
-49.075
 20
29.7
  0
VERTEX
  8
型材
 10
-49.075
 20
29.7
  0
VERTEX
  8
型材
 10
-49.075
 20
29.7
  0
VERTEX
  8
型材
 10
-49.075
 20
29.7
  0
VERTEX
  8
型材
 10
-49.075
 20
29.7
  0
VERTEX
  8
型材
 10
-49.075
 20
29.7
  0
VERTEX
  8
型材
 10
-49.05
 20
29.7
  0
VERTEX
  8
型材
 10
-49.05
 20
29.7
  0
SEQEND
  0
LINE
  8
型材
  6
CONTINUOUS
 62
    32
 10
-49.063142
 20
29.714853
 11
-49.044542
 21
29.714853
  0
POLYLINE
  8
型材
  6
CONTINUOUS
 62
    32
 66
     1
  0
VERTEX
  8
型材
 10
-48.975
 20
29.625
  0
VERTEX
  8
型材
 10
-48.975
 20
29.625
  0
VERTEX
  8
型材
 10
-48.975
 20
29.625
  0
VERTEX
  8
型材
 10
-48.975
 20
29.625
  0
VERTEX
  8
型材
 10
-48.975
 20
29.625
  0
VERTEX
  8
型材
 10
-48.975
 20
29.625
  0
VERTEX
  8
型材
 10
-48.975
 20
29.625
  0
VERTEX
  8
型材
 10
-48.975
 20
29.65
  0
VERTEX
  8
型材
 10
-48.975
 20
29.65
  0
VERTEX
  8
型材
 10
-48.975
 20
29.65
  0
VERTEX
  8
型材
 10
-48.975
 20
29.65
  0
VERTEX
  8
型材
 10
-48.975
 20
29.65
  0
VERTEX
  8
型材
 10
-48.975
 20
29.65
  0
VERTEX
  8
型材
 10
-48.975
 20
29.65
  0
VERTEX
  8
型材
 10
-49.0
 20
29.65
  0
VERTEX
  8
型材
 10
-49.0
 20
29.65
  0
VERTEX
  8
型材
 10
-49.0
 20
29.65
  0
VERTEX
  8
型材
 10
-49.0
 20
29.65
  0
VERTEX
  8
型材
 10
-49.0
 20
29.65
  0
VERTEX
  8
型材
 10
-49.0
 20
29.675
  0
VERTEX
  8
型材
 10
-49.0
 20
29.675
  0
VERTEX
  8
型材
 10
-49.0
 20
29.675
  0
VERTEX
  8
型材
 10
-49.0
 20
29.675
  0
VERTEX
  8
型材
 10
-49.0
 20
29.675
  0
VERTEX
  8
型材
 10
-49.0
 20
29.675
  0
VERTEX
  8
型材
 10
-49.0
 20
29.675
  0
VERTEX
  8
型材
 10
-49.0
 20
29.675
  0
VERTEX
  8
型材
 10
-49.0
 20
29.675
  0
VERTEX
  8
型材
 10
-49.0
 20
29.675
  0
VERTEX
  8
型材
 10
-49.0
 20
29.675
  0
VERTEX
  8
型材
 10
-49.025
 20
29.675
  0
VERTEX
  8
型材
 10
-49.025
 20
29.675
  0
VERTEX
  8
型材
 10
-49.025
 20
29.675
  0
VERTEX
  8
型材
 10
-49.025
 20
29.7
  0
VERTEX
  8
型材
 10
-49.025
 20
29.7
  0
VERTEX
  8
型材
 10
-49.025
 20
29.7
  0
VERTEX
  8
型材
 10
-49.025
 20
29.7
  0
VERTEX
  8
型材
 10
-49.025
 20
29.7
  0
VERTEX
  8
型材
 10
-49.025
 20
29.7
  0
VERTEX
  8
型材
 10
-49.025
 20
29.7
  0
VERTEX
  8
型材
 10
-49.05
 20
29.7
  0
VERTEX
  8
型材
 10
-49.05
 20
29.7
  0
VERTEX
  8
型材
 10
-49.05
 20
29.7
  0
VERTEX
  8
型材
 10
-49.05
 20
29.7
  0
VERTEX
  8
型材
 10
-49.05
 20
29.7
  0
VERTEX
  8
型材
 10
-49.05
 20
29.7
  0
VERTEX
  8
型材
 10
-49.05
 20
29.7
  0
VERTEX
  8
型材
 10
-49.05
 20
29.7
  0
VERTEX
  8
型材
 10
-49.05
 20
29.7
  0
VERTEX
  8
型材
 10
-49.075
 20
29.7
  0
VERTEX
  8
型材
 10
-49.075
 20
29.7
  0
VERTEX
  8
型材
 10
-49.075
 20
29.7
  0
VERTEX
  8
型材
 10
-49.075
 20
29.7
  0
VERTEX
  8
型材
 10
-49.075
 20
29.7
  0
SEQEND
  0
POLYLINE
  8
型材
  6
CONTINUOUS
 62
    32
 66
     1
  0
VERTEX
  8
型材
 10
-49.175
 20
30.425
  0
VERTEX
  8
型材
 10
-49.2
 20
30.45
  0
VERTEX
  8
型材
 10
-49.225
 20
30.5
  0
VERTEX
  8
型材
 10
-49.275
 20
30.525
  0
VERTEX
  8
型材
 10
-49.3
 20
30.575
  0
VERTEX
  8
型材
 10
-49.325
 20
30.6
  0
VERTEX
  8
型材
 10
-49.375
 20
30.625
  0
VERTEX
  8
型材
 10
-49.4
 20
30.675
  0
VERTEX
  8
型材
 10
-49.425
 20
30.7
  0
VERTEX
  8
型材
 10
-49.475
 20
30.725
  0
VERTEX
  8
型材
 10
-49.5
 20
30.75
  0
VERTEX
  8
型材
 10
-49.55
 20
30.775
  0
VERTEX
  8
型材
 10
-49.6
 20
30.8
  0
VERTEX
  8
型材
 10
-49.625
 20
30.825
  0
VERTEX
  8
型材
 10
-49.675
 20
30.85
  0
VERTEX
  8
型材
 10
-49.725
 20
30.875
  0
VERTEX
  8
型材
 10
-49.775
 20
30.9
  0
VERTEX
  8
型材
 10
-49.825
 20
30.925
  0
VERTEX
  8
型材
 10
-49.875
 20
30.95
  0
VERTEX
  8
型材
 10
-49.9
 20
30.975
  0
VERTEX
  8
型材
 10
-49.95
 20
30.975
  0
VERTEX
  8
型材
 10
-50.0
 20
31.0
  0
VERTEX
  8
型材
 10
-50.05
 20
31.025
  0
VERTEX
  8
型材
 10
-50.1
 20
31.025
  0
VERTEX
  8
型材
 10
-50.15
 20
31.05
  0
VERTEX
  8
型材
 10
-50.225
 20
31.05
  0
VERTEX
  8
型材
 10
-50.275
 20
31.075
  0
VERTEX
  8
型材
 10
-50.325
 20
31.075
  0
VERTEX
  8
型材
 10
-50.375
 20
31.075
  0
VERTEX
  8
型材
 10
-50.425
 20
31.1
  0
VERTEX
  8
型材
 10
-50.475
 20
31.1
  0
VERTEX
  8
型材
 10
-50.525
 20
31.1
  0
VERTEX
  8
型材
 10
-50.575
 20
31.1
  0
VERTEX
  8
型材
 10
-50.65
 20
31.1
  0
VERTEX
  8
型材
 10
-50.7
 20
31.1
  0
VERTEX
  8
型材
 10
-50.75
 20
31.1
  0
VERTEX
  8
型材
 10
-50.8
 20
31.1
  0
VERTEX
  8
型材
 10
-50.85
 20
31.1
  0
VERTEX
  8
型材
 10
-50.9
 20
31.1
  0
VERTEX
  8
型材
 10
-50.95
 20
31.075
  0
VERTEX
  8
型材
 10
-51.025
 20
31.075
  0
VERTEX
  8
型材
 10
-51.075
 20
31.075
  0
VERTEX
  8
型材
 10
-51.125
 20
31.05
  0
VERTEX
  8
型材
 10
-51.175
 20
31.05
  0
VERTEX
  8
型材
 10
-51.225
 20
31.025
  0
VERTEX
  8
型材
 10
-51.275
 20
31.025
  0
VERTEX
  8
型材
 10
-51.325
 20
31.0
  0
VERTEX
  8
型材
 10
-51.375
 20
30.975
  0
VERTEX
  8
型材
 10
-51.425
 20
30.975
  0
VERTEX
  8
型材
 10
-51.475
 20
30.95
  0
VERTEX
  8
型材
 10
-51.525
 20
30.925
  0
VERTEX
  8
型材
 10
-51.575
 20
30.9
  0
VERTEX
  8
型材
 10
-51.6
 20
30.875
  0
VERTEX
  8
型材
 10
-51.65
 20
30.875
  0
VERTEX
  8
型材
 10
-51.7
 20
30.85
  0
VERTEX
  8
型材
 10
-51.75
 20
30.825
  0
VERTEX
  8
型材
 10
-51.775
 20
30.775
  0
VERTEX
  8
型材
 10
-51.825
 20
30.75
  0
VERTEX
  8
型材
 10
-51.85
 20
30.725
  0
VERTEX
  8
型材
 10
-51.9
 20
30.7
  0
VERTEX
  8
型材
 10
-51.925
 20
30.675
  0
VERTEX
  8
型材
 10
-51.975
 20
30.65
  0
VERTEX
  8
型材
 10
-52.0
 20
30.6
  0
VERTEX
  8
型材
 10
-52.05
 20
30.575
  0
VERTEX
  8
型材
 10
-52.075
 20
30.55
  0
VERTEX
  8
型材
 10
-52.1
 20
30.5
  0
VERTEX
  8
型材
 10
-52.125
 20
30.475
  0
VERTEX
  8
型材
 10
-52.15
 20
30.425
  0
VERTEX
  8
型材
 10
-52.175
 20
30.4
  0
VERTEX
  8
型材
 10
-52.2
 20
30.35
  0
VERTEX
  8
型材
 10
-52.225
 20
30.325
  0
VERTEX
  8
型材
 10
-52.25
 20
30.275
  0
VERTEX
  8
型材
 10
-52.275
 20
30.25
  0
VERTEX
  8
型材
 10
-52.3
 20
30.2
  0
VERTEX
  8
型材
 10
-52.3
 20
30.175
  0
VERTEX
  8
型材
 10
-52.325
 20
30.125
  0
VERTEX
  8
型材
 10
-52.325
 20
30.075
  0
VERTEX
  8
型材
 10
-52.35
 20
30.05
  0
VERTEX
  8
型材
 10
-52.35
 20
30.0
  0
VERTEX
  8
型材
 10
-52.35
 20
29.975
  0
VERTEX
  8
型材
 10
-52.375
 20
29.925
  0
VERTEX
  8
型材
 10
-52.375
 20
29.875
  0
VERTEX
  8
型材
 10
-52.375
 20
29.85
  0
VERTEX
  8
型材
 10
-52.375
 20
29.8
  0
VERTEX
  8
型材
 10
-52.375
 20
29.75
  0
VERTEX
  8
型材
 10
-52.375
 20
29.725
  0
VERTEX
  8
型材
 10
-52.375
 20
29.675
  0
VERTEX
  8
型材
 10
-52.35
 20
29.625
  0
VERTEX
  8
型材
 10
-52.35
 20
29.6
  0
VERTEX
  8
型材
 10
-52.35
 20
29.55
  0
VERTEX
  8
型材
 10
-52.325
 20
29.5
  0
VERTEX
  8
型材
 10
-52.325
 20
29.475
  0
VERTEX
  8
型材
 10
-52.3
 20
29.425
  0
VERTEX
  8
型材
 10
-52.3
 20
29.4
  0
VERTEX
  8
型材
 10
-52.275
 20
29.35
  0
VERTEX
  8
型材
 10
-52.25
 20
29.3
  0
VERTEX
  8
型材
 10
-52.225
 20
29.275
  0
VERTEX
  8
型材
 10
-52.2
 20
29.225
  0
VERTEX
  8
型材
 10
-52.2
 20
29.2
  0
VERTEX
  8
型材
 10
-52.175
 20
29.15
  0
VERTEX
  8
型材
 10
-52.125
 20
29.125
  0
VERTEX
  8
型材
 10
-52.1
 20
29.1
  0
VERTEX
  8
型材
 10
-52.075
 20
29.05
  0
VERTEX
  8
型材
 10
-52.05
 20
29.025
  0
VERTEX
  8
型材
 10
-52.025
 20
29.0
  0
VERTEX
  8
型材
 10
-51.975
 20
28.95
  0
VERTEX
  8
型材
 10
-51.95
 20
28.925
  0
VERTEX
  8
型材
 10
-51.9
 20
28.9
  0
VERTEX
  8
型材
 10
-51.875
 20
28.875
  0
VERTEX
  8
型材
 10
-51.825
 20
28.825
  0
VERTEX
  8
型材
 10
-51.8
 20
28.8
  0
VERTEX
  8
型材
 10
-51.75
 20
28.775
  0
VERTEX
  8
型材
 10
-51.7
 20
28.75
  0
VERTEX
  8
型材
 10
-51.675
 20
28.725
  0
VERTEX
  8
型材
 10
-51.625
 20
28.7
  0
VERTEX
  8
型材
 10
-51.575
 20
28.675
  0
VERTEX
  8
型材
 10
-51.525
 20
28.65
  0
VERTEX
  8
型材
 10
-51.475
 20
28.65
  0
VERTEX
  8
型材
 10
-51.425
 20
28.625
  0
VERTEX
  8
型材
 10
-51.375
 20
28.6
  0
VERTEX
  8
型材
 10
-51.325
 20
28.575
  0
VERTEX
  8
型材
 10
-51.275
 20
28.575
  0
VERTEX
  8
型材
 10
-51.225
 20
28.55
  0
VERTEX
  8
型材
 10
-51.175
 20
28.55
  0
VERTEX
  8
型材
 10
-51.125
 20
28.525
  0
VERTEX
  8
型材
 10
-51.075
 20
28.525
  0
VERTEX
  8
型材
 10
-51.025
 20
28.525
  0
VERTEX
  8
型材
 10
-50.975
 20
28.5
  0
VERTEX
  8
型材
 10
-50.925
 20
28.5
  0
VERTEX
  8
型材
 10
-50.875
 20
28.5
  0
VERTEX
  8
型材
 10
-50.825
 20
28.5
  0
VERTEX
  8
型材
 10
-50.75
 20
28.475
  0
VERTEX
  8
型材
 10
-50.7
 20
28.475
  0
VERTEX
  8
型材
 10
-50.65
 20
28.475
  0
VERTEX
  8
型材
 10
-50.6
 20
28.475
  0
VERTEX
  8
型材
 10
-50.55
 20
28.475
  0
VERTEX
  8
型材
 10
-50.5
 20
28.5
  0
VERTEX
  8
型材
 10
-50.425
 20
28.5
  0
VERTEX
  8
型材
 10
-50.375
 20
28.5
  0
VERTEX
  8
型材
 10
-50.325
 20
28.5
  0
VERTEX
  8
型材
 10
-50.275
 20
28.525
  0
VERTEX
  8
型材
 10
-50.225
 20
28.525
  0
VERTEX
  8
型材
 10
-50.175
 20
28.55
  0
VERTEX
  8
型材
 10
-50.125
 20
28.55
  0
VERTEX
  8
型材
 10
-50.075
 20
28.575
  0
VERTEX
  8
型材
 10
-50.025
 20
28.575
  0
VERTEX
  8
型材
 10
-49.975
 20
28.6
  0
VERTEX
  8
型材
 10
-49.925
 20
28.625
  0
VERTEX
  8
型材
 10
-49.875
 20
28.625
  0
VERTEX
  8
型材
 10
-49.825
 20
28.65
  0
VERTEX
  8
型材
 10
-49.775
 20
28.675
  0
VERTEX
  8
型材
 10
-49.725
 20
28.7
  0
VERTEX
  8
型材
 10
-49.7
 20
28.725
  0
VERTEX
  8
型材
 10
-49.65
 20
28.75
  0
VERTEX
  8
型材
 10
-49.6
 20
28.775
  0
VERTEX
  8
型材
 10
-49.575
 20
28.8
  0
VERTEX
  8
型材
 10
-49.525
 20
28.825
  0
VERTEX
  8
型材
 10
-49.475
 20
28.85
  0
VERTEX
  8
型材
 10
-49.45
 20
28.875
  0
VERTEX
  8
型材
 10
-49.4
 20
28.925
  0
VERTEX
  8
型材
 10
-49.375
 20
28.95
  0
VERTEX
  8
型材
 10
-49.35
 20
28.975
  0
VERTEX
  8
型材
 10
-49.3
 20
29.025
  0
VERTEX
  8
型材
 10
-49.275
 20
29.05
  0
VERTEX
  8
型材
 10
-49.25
 20
29.075
  0
VERTEX
  8
型材
 10
-49.225
 20
29.125
  0
VERTEX
  8
型材
 10
-49.2
 20
29.15
  0
VERTEX
  8
型材
 10
-49.15
 20
29.2
  0
VERTEX
  8
型材
 10
-49.15
 20
29.225
  0
VERTEX
  8
型材
 10
-49.125
 20
29.275
  0
VERTEX
  8
型材
 10
-49.1
 20
29.3
  0
VERTEX
  8
型材
 10
-49.075
 20
29.35
  0
VERTEX
  8
型材
 10
-49.05
 20
29.375
  0
VERTEX
  8
型材
 10
-49.05
 20
29.425
  0
VERTEX
  8
型材
 10
-49.025
 20
29.45
  0
VERTEX
  8
型材
 10
-49.025
 20
29.5
  0
VERTEX
  8
型材
 10
-49.0
 20
29.55
  0
VERTEX
  8
型材
 10
-49.0
 20
29.575
  0
VERTEX
  8
型材
 10
-48.975
 20
29.625
  0
SEQEND
  0
POLYLINE
  8
型材
  6
CONTINUOUS
 62
    32
 66
     1
  0
VERTEX
  8
型材
 10
-49.175
 20
30.425
  0
VERTEX
  8
型材
 10
-49.175
 20
30.425
  0
VERTEX
  8
型材
 10
-49.175
 20
30.425
  0
VERTEX
  8
型材
 10
-49.175
 20
30.425
  0
VERTEX
  8
型材
 10
-49.175
 20
30.425
  0
VERTEX
  8
型材
 10
-49.175
 20
30.425
  0
VERTEX
  8
型材
 10
-49.175
 20
30.425
  0
VERTEX
  8
型材
 10
-49.175
 20
30.425
  0
VERTEX
  8
型材
 10
-49.175
 20
30.425
  0
VERTEX
  8
型材
 10
-49.175
 20
30.425
  0
VERTEX
  8
型材
 10
-49.175
 20
30.425
  0
VERTEX
  8
型材
 10
-49.175
 20
30.425
  0
VERTEX
  8
型材
 10
-49.175
 20
30.425
  0
VERTEX
  8
型材
 10
-49.175
 20
30.4
  0
VERTEX
  8
型材
 10
-49.175
 20
30.4
  0
VERTEX
  8
型材
 10
-49.175
 20
30.4
  0
VERTEX
  8
型材
 10
-49.175
 20
30.4
  0
VERTEX
  8
型材
 10
-49.175
 20
30.4
  0
VERTEX
  8
型材
 10
-49.175
 20
30.4
  0
VERTEX
  8
型材
 10
-49.175
 20
30.4
  0
VERTEX
  8
型材
 10
-49.175
 20
30.4
  0
VERTEX
  8
型材
 10
-49.175
 20
30.4
  0
VERTEX
  8
型材
 10
-49.175
 20
30.4
  0
VERTEX
  8
型材
 10
-49.175
 20
30.4
  0
VERTEX
  8
型材
 10
-49.175
 20
30.4
  0
VERTEX
  8
型材
 10
-49.175
 20
30.4
  0
VERTEX
  8
型材
 10
-49.175
 20
30.4
  0
VERTEX
  8
型材
 10
-49.175
 20
30.4
  0
VERTEX
  8
型材
 10
-49.175
 20
30.4
  0
VERTEX
  8
型材
 10
-49.175
 20
30.4
  0
VERTEX
  8
型材
 10
-49.175
 20
30.4
  0
VERTEX
  8
型材
 10
-49.175
 20
30.4
  0
VERTEX
  8
型材
 10
-49.175
 20
30.4
  0
VERTEX
  8
型材
 10
-49.175
 20
30.4
  0
VERTEX
  8
型材
 10
-49.175
 20
30.4
  0
VERTEX
  8
型材
 10
-49.175
 20
30.4
  0
VERTEX
  8
型材
 10
-49.175
 20
30.375
  0
VERTEX
  8
型材
 10
-49.175
 20
30.375
  0
VERTEX
  8
型材
 10
-49.175
 20
30.375
  0
VERTEX
  8
型材
 10
-49.2
 20
30.375
  0
VERTEX
  8
型材
 10
-49.2
 20
30.375
  0
VERTEX
  8
型材
 10
-49.2
 20
30.375
  0
VERTEX
  8
型材
 10
-49.2
 20
30.375
  0
SEQEND
  0
LINE
  8
型材
  6
CONTINUOUS
 62
    32
 10
-49.17881
 20
30.394823
 11
-49.180155
 21
30.393913
  0
POLYLINE
  8
型材
  6
CONTINUOUS
 62
    32
 66
     1
  0
VERTEX
  8
型材
 10
-49.275
 20
30.4
  0
VERTEX
  8
型材
 10
-49.275
 20
30.425
  0
VERTEX
  8
型材
 10
-49.3
 20
30.45
  0
VERTEX
  8
型材
 10
-49.325
 20
30.475
  0
VERTEX
  8
型材
 10
-49.35
 20
30.5
  0
VERTEX
  8
型材
 10
-49.375
 20
30.525
  0
VERTEX
  8
型材
 10
-49.4
 20
30.55
  0
VERTEX
  8
型材
 10
-49.425
 20
30.575
  0
VERTEX
  8
型材
 10
-49.45
 20
30.6
  0
VERTEX
  8
型材
 10
-49.475
 20
30.6
  0
VERTEX
  8
型材
 10
-49.525
 20
30.625
  0
VERTEX
  8
型材
 10
-49.55
 20
30.65
  0
VERTEX
  8
型材
 10
-49.575
 20
30.675
  0
VERTEX
  8
型材
 10
-49.6
 20
30.7
  0
VERTEX
  8
型材
 10
-49.65
 20
30.7
  0
VERTEX
  8
型材
 10
-49.675
 20
30.725
  0
VERTEX
  8
型材
 10
-49.7
 20
30.75
  0
VERTEX
  8
型材
 10
-49.75
 20
30.75
  0
VERTEX
  8
型材
 10
-49.775
 20
30.775
  0
VERTEX
  8
型材
 10
-49.8
 20
30.8
  0
VERTEX
  8
型材
 10
-49.85
 20
30.8
  0
VERTEX
  8
型材
 10
-49.875
 20
30.825
  0
VERTEX
  8
型材
 10
-49.925
 20
30.825
  0
VERTEX
  8
型材
 10
-49.95
 20
30.85
  0
VERTEX
  8
型材
 10
-50.0
 20
30.85
  0
VERTEX
  8
型材
 10
-50.05
 20
30.85
  0
VERTEX
  8
型材
 10
-50.075
 20
30.875
  0
VERTEX
  8
型材
 10
-50.125
 20
30.875
  0
VERTEX
  8
型材
 10
-50.15
 20
30.875
  0
VERTEX
  8
型材
 10
-50.2
 20
30.875
  0
VERTEX
  8
型材
 10
-50.225
 20
30.875
  0
VERTEX
  8
型材
 10
-50.275
 20
30.9
  0
VERTEX
  8
型材
 10
-50.325
 20
30.9
  0
VERTEX
  8
型材
 10
-50.35
 20
30.9
  0
VERTEX
  8
型材
 10
-50.4
 20
30.9
  0
VERTEX
  8
型材
 10
-50.425
 20
30.9
  0
VERTEX
  8
型材
 10
-50.475
 20
30.9
  0
VERTEX
  8
型材
 10
-50.525
 20
30.875
  0
VERTEX
  8
型材
 10
-50.55
 20
30.875
  0
VERTEX
  8
型材
 10
-50.6
 20
30.875
  0
VERTEX
  8
型材
 10
-50.625
 20
30.875
  0
VERTEX
  8
型材
 10
-50.675
 20
30.875
  0
VERTEX
  8
型材
 10
-50.725
 20
30.85
  0
VERTEX
  8
型材
 10
-50.75
 20
30.85
  0
VERTEX
  8
型材
 10
-50.8
 20
30.85
  0
VERTEX
  8
型材
 10
-50.825
 20
30.825
  0
VERTEX
  8
型材
 10
-50.875
 20
30.825
  0
VERTEX
  8
型材
 10
-50.9
 20
30.8
  0
VERTEX
  8
型材
 10
-50.95
 20
30.8
  0
VERTEX
  8
型材
 10
-50.975
 20
30.775
  0
VERTEX
  8
型材
 10
-51.025
 20
30.75
  0
VERTEX
  8
型材
 10
-51.05
 20
30.75
  0
VERTEX
  8
型材
 10
-51.075
 20
30.725
  0
VERTEX
  8
型材
 10
-51.125
 20
30.7
  0
VERTEX
  8
型材
 10
-51.15
 20
30.7
  0
VERTEX
  8
型材
 10
-51.175
 20
30.675
  0
VERTEX
  8
型材
 10
-51.2
 20
30.65
  0
VERTEX
  8
型材
 10
-51.25
 20
30.625
  0
VERTEX
  8
型材
 10
-51.275
 20
30.6
  0
VERTEX
  8
型材
 10
-51.3
 20
30.6
  0
VERTEX
  8
型材
 10
-51.325
 20
30.575
  0
VERTEX
  8
型材
 10
-51.35
 20
30.55
  0
VERTEX
  8
型材
 10
-51.375
 20
30.525
  0
VERTEX
  8
型材
 10
-51.4
 20
30.5
  0
VERTEX
  8
型材
 10
-51.425
 20
30.475
  0
VERTEX
  8
型材
 10
-51.45
 20
30.45
  0
VERTEX
  8
型材
 10
-51.475
 20
30.425
  0
VERTEX
  8
型材
 10
-51.5
 20
30.4
  0
VERTEX
  8
型材
 10
-51.5
 20
30.375
  0
VERTEX
  8
型材
 10
-51.525
 20
30.325
  0
VERTEX
  8
型材
 10
-51.55
 20
30.3
  0
VERTEX
  8
型材
 10
-51.55
 20
30.275
  0
VERTEX
  8
型材
 10
-51.575
 20
30.25
  0
VERTEX
  8
型材
 10
-51.6
 20
30.225
  0
VERTEX
  8
型材
 10
-51.6
 20
30.2
  0
VERTEX
  8
型材
 10
-51.6
 20
30.15
  0
VERTEX
  8
型材
 10
-51.625
 20
30.125
  0
VERTEX
  8
型材
 10
-51.625
 20
30.1
  0
VERTEX
  8
型材
 10
-51.625
 20
30.075
  0
VERTEX
  8
型材
 10
-51.65
 20
30.05
  0
VERTEX
  8
型材
 10
-51.65
 20
30.0
  0
VERTEX
  8
型材
 10
-51.65
 20
29.975
  0
VERTEX
  8
型材
 10
-51.65
 20
29.95
  0
VERTEX
  8
型材
 10
-51.65
 20
29.925
  0
VERTEX
  8
型材
 10
-51.65
 20
29.875
  0
VERTEX
  8
型材
 10
-51.65
 20
29.85
  0
VERTEX
  8
型材
 10
-51.65
 20
29.825
  0
VERTEX
  8
型材
 10
-51.65
 20
29.8
  0
VERTEX
  8
型材
 10
-51.65
 20
29.75
  0
VERTEX
  8
型材
 10
-51.625
 20
29.725
  0
VERTEX
  8
型材
 10
-51.625
 20
29.7
  0
VERTEX
  8
型材
 10
-51.625
 20
29.675
  0
VERTEX
  8
型材
 10
-51.6
 20
29.65
  0
VERTEX
  8
型材
 10
-51.6
 20
29.6
  0
VERTEX
  8
型材
 10
-51.575
 20
29.575
  0
VERTEX
  8
型材
 10
-51.575
 20
29.55
  0
VERTEX
  8
型材
 10
-51.55
 20
29.525
  0
VERTEX
  8
型材
 10
-51.525
 20
29.5
  0
VERTEX
  8
型材
 10
-51.525
 20
29.475
  0
VERTEX
  8
型材
 10
-51.5
 20
29.45
  0
VERTEX
  8
型材
 10
-51.475
 20
29.4
  0
VERTEX
  8
型材
 10
-51.45
 20
29.375
  0
VERTEX
  8
型材
 10
-51.425
 20
29.35
  0
VERTEX
  8
型材
 10
-51.4
 20
29.325
  0
VERTEX
  8
型材
 10
-51.375
 20
29.3
  0
VERTEX
  8
型材
 10
-51.35
 20
29.275
  0
VERTEX
  8
型材
 10
-51.325
 20
29.25
  0
VERTEX
  8
型材
 10
-51.3
 20
29.25
  0
VERTEX
  8
型材
 10
-51.275
 20
29.225
  0
VERTEX
  8
型材
 10
-51.25
 20
29.2
  0
VERTEX
  8
型材
 10
-51.225
 20
29.175
  0
VERTEX
  8
型材
 10
-51.2
 20
29.15
  0
VERTEX
  8
型材
 10
-51.15
 20
29.125
  0
VERTEX
  8
型材
 10
-51.125
 20
29.125
  0
VERTEX
  8
型材
 10
-51.1
 20
29.1
  0
VERTEX
  8
型材
 10
-51.05
 20
29.075
  0
VERTEX
  8
型材
 10
-51.025
 20
29.075
  0
VERTEX
  8
型材
 10
-51.0
 20
29.05
  0
VERTEX
  8
型材
 10
-50.95
 20
29.025
  0
VERTEX
  8
型材
 10
-50.925
 20
29.025
  0
VERTEX
  8
型材
 10
-50.875
 20
29.0
  0
VERTEX
  8
型材
 10
-50.85
 20
29.0
  0
VERTEX
  8
型材
 10
-50.8
 20
28.975
  0
VERTEX
  8
型材
 10
-50.775
 20
28.975
  0
VERTEX
  8
型材
 10
-50.725
 20
28.975
  0
VERTEX
  8
型材
 10
-50.7
 20
28.95
  0
VERTEX
  8
型材
 10
-50.65
 20
28.95
  0
VERTEX
  8
型材
 10
-50.6
 20
28.95
  0
VERTEX
  8
型材
 10
-50.575
 20
28.95
  0
VERTEX
  8
型材
 10
-50.525
 20
28.925
  0
VERTEX
  8
型材
 10
-50.5
 20
28.925
  0
VERTEX
  8
型材
 10
-50.45
 20
28.925
  0
VERTEX
  8
型材
 10
-50.4
 20
28.925
  0
VERTEX
  8
型材
 10
-50.375
 20
28.925
  0
VERTEX
  8
型材
 10
-50.325
 20
28.925
  0
VERTEX
  8
型材
 10
-50.3
 20
28.925
  0
VERTEX
  8
型材
 10
-50.25
 20
28.925
  0
VERTEX
  8
型材
 10
-50.2
 20
28.925
  0
VERTEX
  8
型材
 10
-50.175
 20
28.95
  0
VERTEX
  8
型材
 10
-50.125
 20
28.95
  0
VERTEX
  8
型材
 10
-50.1
 20
28.95
  0
VERTEX
  8
型材
 10
-50.05
 20
28.95
  0
VERTEX
  8
型材
 10
-50.0
 20
28.975
  0
VERTEX
  8
型材
 10
-49.975
 20
28.975
  0
VERTEX
  8
型材
 10
-49.925
 20
29.0
  0
VERTEX
  8
型材
 10
-49.9
 20
29.0
  0
VERTEX
  8
型材
 10
-49.85
 20
29.025
  0
VERTEX
  8
型材
 10
-49.825
 20
29.025
  0
VERTEX
  8
型材
 10
-49.775
 20
29.05
  0
VERTEX
  8
型材
 10
-49.75
 20
29.05
  0
VERTEX
  8
型材
 10
-49.725
 20
29.075
  0
VERTEX
  8
型材
 10
-49.675
 20
29.075
  0
VERTEX
  8
型材
 10
-49.65
 20
29.1
  0
VERTEX
  8
型材
 10
-49.625
 20
29.125
  0
VERTEX
  8
型材
 10
-49.575
 20
29.15
  0
VERTEX
  8
型材
 10
-49.55
 20
29.15
  0
VERTEX
  8
型材
 10
-49.525
 20
29.175
  0
VERTEX
  8
型材
 10
-49.5
 20
29.2
  0
VERTEX
  8
型材
 10
-49.475
 20
29.225
  0
VERTEX
  8
型材
 10
-49.425
 20
29.25
  0
VERTEX
  8
型材
 10
-49.4
 20
29.275
  0
VERTEX
  8
型材
 10
-49.375
 20
29.3
  0
VERTEX
  8
型材
 10
-49.35
 20
29.325
  0
VERTEX
  8
型材
 10
-49.325
 20
29.35
  0
VERTEX
  8
型材
 10
-49.3
 20
29.375
  0
VERTEX
  8
型材
 10
-49.3
 20
29.4
  0
VERTEX
  8
型材
 10
-49.275
 20
29.425
  0
VERTEX
  8
型材
 10
-49.25
 20
29.45
  0
VERTEX
  8
型材
 10
-49.225
 20
29.475
  0
VERTEX
  8
型材
 10
-49.225
 20
29.5
  0
VERTEX
  8
型材
 10
-49.2
 20
29.525
  0
VERTEX
  8
型材
 10
-49.175
 20
29.55
  0
VERTEX
  8
型材
 10
-49.175
 20
29.6
  0
VERTEX
  8
型材
 10
-49.15
 20
29.625
  0
VERTEX
  8
型材
 10
-49.15
 20
29.65
  0
SEQEND
  0
POLYLINE
  8
型材
  6
CONTINUOUS
 62
    32
 66
     1
  0
VERTEX
  8
型材
 10
-49.275
 20
30.4
  0
VERTEX
  8
型材
 10
-49.275
 20
30.4
  0
VERTEX
  8
型材
 10
-49.25
 20
30.4
  0
VERTEX
  8
型材
 10
-49.25
 20
30.4
  0
VERTEX
  8
型材
 10
-49.25
 20
30.375
  0
VERTEX
  8
型材
 10
-49.25
 20
30.375
  0
VERTEX
  8
型材
 10
-49.25
 20
30.375
  0
VERTEX
  8
型材
 10
-49.25
 20
30.375
  0
VERTEX
  8
型材
 10
-49.25
 20
30.375
  0
VERTEX
  8
型材
 10
-49.25
 20
30.375
  0
VERTEX
  8
型材
 10
-49.25
 20
30.375
  0
VERTEX
  8
型材
 10
-49.25
 20
30.375
  0
VERTEX
  8
型材
 10
-49.25
 20
30.375
  0
VERTEX
  8
型材
 10
-49.25
 20
30.375
  0
VERTEX
  8
型材
 10
-49.25
 20
30.375
  0
VERTEX
  8
型材
 10
-49.25
 20
30.375
  0
VERTEX
  8
型材
 10
-49.25
 20
30.375
  0
VERTEX
  8
型材
 10
-49.25
 20
30.375
  0
VERTEX
  8
型材
 10
-49.25
 20
30.375
  0
VERTEX
  8
型材
 10
-49.25
 20
30.375
  0
VERTEX
  8
型材
 10
-49.25
 20
30.375
  0
VERTEX
  8
型材
 10
-49.25
 20
30.375
  0
VERTEX
  8
型材
 10
-49.25
 20
30.375
  0
VERTEX
  8
型材
 10
-49.225
 20
30.375
  0
VERTEX
  8
型材
 10
-49.225
 20
30.375
  0
VERTEX
  8
型材
 10
-49.225
 20
30.375
  0
VERTEX
  8
型材
 10
-49.225
 20
30.375
  0
VERTEX
  8
型材
 10
-49.225
 20
30.375
  0
VERTEX
  8
型材
 10
-49.225
 20
30.375
  0
VERTEX
  8
型材
 10
-49.225
 20
30.375
  0
VERTEX
  8
型材
 10
-49.225
 20
30.375
  0
VERTEX
  8
型材
 10
-49.225
 20
30.375
  0
VERTEX
  8
型材
 10
-49.225
 20
30.375
  0
VERTEX
  8
型材
 10
-49.225
 20
30.375
  0
VERTEX
  8
型材
 10
-49.225
 20
30.375
  0
VERTEX
  8
型材
 10
-49.225
 20
30.375
  0
VERTEX
  8
型材
 10
-49.225
 20
30.375
  0
VERTEX
  8
型材
 10
-49.225
 20
30.375
  0
VERTEX
  8
型材
 10
-49.225
 20
30.375
  0
VERTEX
  8
型材
 10
-49.225
 20
30.375
  0
VERTEX
  8
型材
 10
-49.2
 20
30.375
  0
VERTEX
  8
型材
 10
-49.2
 20
30.375
  0
VERTEX
  8
型材
 10
-49.2
 20
30.375
  0
VERTEX
  8
型材
 10
-49.2
 20
30.375
  0
VERTEX
  8
型材
 10
-49.2
 20
30.375
  0
VERTEX
  8
型材
 10
-49.2
 20
30.375
  0
VERTEX
  8
型材
 10
-49.2
 20
30.375
  0
VERTEX
  8
型材
 10
-49.2
 20
30.375
  0
VERTEX
  8
型材
 10
-49.2
 20
30.375
  0
VERTEX
  8
型材
 10
-49.2
 20
30.375
  0
VERTEX
  8
型材
 10
-49.2
 20
30.375
  0
VERTEX
  8
型材
 10
-49.2
 20
30.375
  0
VERTEX
  8
型材
 10
-49.2
 20
30.375
  0
VERTEX
  8
型材
 10
-49.2
 20
30.375
  0
VERTEX
  8
型材
 10
-49.2
 20
30.375
  0
VERTEX
  8
型材
 10
-49.2
 20
30.375
  0
SEQEND
  0
LINE
  8
型材
  6
CONTINUOUS
 62
    32
 10
-48.526365
 20
31.893925
 11
-47.899398
 21
31.893925
  0
LINE
  8
型材
  6
CONTINUOUS
 62
    32
 10
-48.526365
 20
31.893925
 11
-48.526365
 21
28.49622
  0
POLYLINE
  8
型材
  6
CONTINUOUS
 62
    32
 66
     1
  0
VERTEX
  8
型材
 10
-46.737055
 20
30.588935
  0
VERTEX
  8
型材
 10
-47.899398
 20
29.72372
  0
VERTEX
  8
型材
 10
-46.737055
 20
28.49622
  0
SEQEND
  0
LINE
  8
型材
  6
CONTINUOUS
 62
    32
 10
-46.737055
 20
30.588935
 11
-47.899398
 21
30.588935
  0
LINE
  8
型材
  6
CONTINUOUS
 62
    32
 10
-48.526365
 20
28.49622
 11
-46.737055
 21
28.49622
  0
LINE
  8
型材
  6
CONTINUOUS
 62
    32
 10
-47.899398
 20
31.893925
 11
-47.899398
 21
30.588935
  0
POLYLINE
  8
型材
  6
CONTINUOUS
 62
    32
 66
     1
  0
VERTEX
  8
型材
 10
-68.21267
 20
30.82477
  0
VERTEX
  8
型材
 10
-69.74835
 20
31.005985
  0
VERTEX
  8
型材
 10
-71.88156
 20
31.423675
  0
VERTEX
  8
型材
 10
-74.635345
 20
32.542492
  0
VERTEX
  8
型材
 10
-75.89588
 20
33.21378
  0
VERTEX
  8
型材
 10
-76.124495
 20
33.484377
  0
VERTEX
  8
型材
 10
-76.207762
 20
33.782727
  0
VERTEX
  8
型材
 10
-76.13906
 20
34.031482
  0
VERTEX
  8
型材
 10
-75.964525
 20
34.28508
  0
VERTEX
  8
型材
 10
-75.583137
 20
34.503867
  0
VERTEX
  8
型材
 10
-75.040135
 20
34.682885
  0
VERTEX
  8
型材
 10
-74.374315
 20
34.76714
  0
VERTEX
  8
型材
 10
-69.85514
 20
34.852145
  0
VERTEX
  8
型材
 10
-61.005075
 20
34.76714
  0
VERTEX
  8
型材
 10
-54.694965
 20
34.33704
  0
VERTEX
  8
型材
 10
-50.661255
 20
33.91935
  0
VERTEX
  8
型材
 10
-45.78193
 20
33.16109
  0
VERTEX
  8
型材
 10
-42.834217
 20
32.310795
  0
VERTEX
  8
型材
 10
-42.577575
 20
31.878185
  0
VERTEX
  8
型材
 10
-42.641438
 20
31.587835
  0
VERTEX
  8
型材
 10
-42.809505
 20
31.38893
  0
VERTEX
  8
型材
 10
-43.346045
 20
31.28451
  0
VERTEX
  8
型材
 10
-44.529432
 20
31.15761
  0
VERTEX
  8
型材
 10
-46.268328
 20
31.09297
  0
VERTEX
  8
型材
 10
-46.623862
 20
31.08303
  0
VERTEX
  8
型材
 10
-45.292223
 20
31.35154
  0
VERTEX
  8
型材
 10
-44.051077
 20
31.639953
  0
VERTEX
  8
型材
 10
-43.792508
 20
31.729455
  0
VERTEX
  8
型材
 10
-43.721403
 20
31.82393
  0
VERTEX
  8
型材
 10
-43.721403
 20
31.968135
  0
VERTEX
  8
型材
 10
-43.889473
 20
32.112337
  0
VERTEX
  8
型材
 10
-45.565637
 20
32.49142
  0
VERTEX
  8
型材
 10
-50.268462
 20
33.147995
  0
VERTEX
  8
型材
 10
-54.803197
 20
33.577025
  0
VERTEX
  8
型材
 10
-61.005075
 20
33.979797
  0
VERTEX
  8
型材
 10
-67.060607
 20
33.99765
  0
VERTEX
  8
型材
 10
-69.01929
 20
33.9529
  0
VERTEX
  8
型材
 10
-72.2385
 20
33.863395
  0
VERTEX
  8
型材
 10
-73.149957
 20
33.77389
  0
VERTEX
  8
型材
 10
-73.440858
 20
33.624715
  0
VERTEX
  8
型材
 10
-73.634785
 20
33.326358
  0
VERTEX
  8
型材
 10
-73.576598
 20
33.162268
  0
VERTEX
  8
型材
 10
-73.343887
 20
32.95342
  0
VERTEX
  8
型材
 10
-72.23843
 20
32.344353
  0
VERTEX
  8
型材
 10
-71.281287
 20
31.828338
  0
VERTEX
  8
型材
 10
-70.462587
 20
31.475987
  0
VERTEX
  8
型材
 10
-69.31014
 20
31.08681
  0
VERTEX
  8
型材
 10
-68.213725
 20
30.828127
  0
SEQEND
  0
LINE
  8
型材
  6
CONTINUOUS
 62
    32
 10
-42.577575
 20
27.67964
 11
-76.207762
 21
27.67964
  0
LINE
  8
型材
  6
CONTINUOUS
 62
    32
 10
-76.207762
 20
28.38839
 11
-76.207762
 21
27.67964
  0
LINE
  8
型材
  6
CONTINUOUS
 62
    32
 10
-42.577575
 20
28.38839
 11
-42.577575
 21
27.67964
  0
LINE
  8
型材
  6
CONTINUOUS
 62
    32
 10
-42.577575
 20
28.38839
 11
-65.954035
 21
28.38839
  0
LINE
  8
型材
  6
CONTINUOUS
 62
    32
 10
-70.218825
 20
28.38839
 11
-76.207762
 21
28.38839
  0
LINE
  8
型材
  6
CONTINUOUS
 62
    32
 10
-205.064163
 20
85.36887
 11
-204.56416
 21
84.86887
  0
LINE
  8
型材
  6
CONTINUOUS
 62
    32
 10
-204.564163
 20
23.86887
 11
-205.064163
 21
23.36887
  0
LINE
  8
型材
  6
CONTINUOUS
 62
    32
 10
-204.564163
 20
84.868872
 11
-204.564163
 21
23.86887
  0
LINE
  8
型材
  6
CONTINUOUS
 62
    32
 10
-85.920553
 20
-80.43478
 11
-85.420553
 21
-79.934778
  0
LINE
  8
型材
  6
CONTINUOUS
 62
    32
 10
-28.920555
 20
-79.93478
 11
-85.420555
 21
-79.93478
  0
LINE
  8
型材
  6
CONTINUOUS
 62
    32
 10
28.079443
 20
-80.43478
 11
27.579443
 21
-79.934778
  0
LINE
  8
型材
  6
CONTINUOUS
 62
    32
 10
-28.920555
 20
-79.93478
 11
27.579445
 21
-79.93478
  0
LINE
  8
型材
  6
DASHDOT
 10
-262.666963
 20
84.36887
 11
-275.927023
 21
84.36887
  0
LINE
  8
型材
  6
DASHDOT
 10
-262.666963
 20
24.36887
 11
-275.927023
 21
24.36887
  0
LINE
  8
型材
  6
DOT
 10
-118.070553
 20
-99.93478
 11
-118.070553
 21
-134.934772
  0
LINE
  8
型材
  6
DOT
 10
-224.564163
 20
111.01887
 11
-259.564155
 21
111.01887
  0
LINE
  8
型材
  6
DOT
 10
-267.964155
 20
102.61887
 11
-267.964155
 21
6.11887
  0
ARC
  8
型材
  6
DOT
 10
-259.564153
 20
102.61887
 40
8.4
 50
90.000017
 51
180.0
  0
LINE
  8
型材
  6
DOT
 10
-224.564163
 20
-2.28113
 11
-259.564155
 21
-2.28113
  0
ARC
  8
型材
  6
DOT
 10
-259.564153
 20
6.11887
 40
8.4
 50
180.0
 51
269.999983
  0
LINE
  8
型材
  6
DOT
 10
60.229443
 20
-99.93478
 11
60.229443
 21
-134.934772
  0
ARC
  8
型材
  6
DOT
 10
-109.670553
 20
-134.93477
 40
8.4
 50
180.000017
 51
270.0
  0
ARC
  8
型材
  6
DOT
 10
51.829442
 20
-134.93477
 40
8.4
 50
270.0
 51
359.999983
  0
LINE
  8
型材
  6
DOT
 10
-109.670553
 20
-143.334772
 11
51.829443
 21
-143.334772
  0
LINE
  8
型材
  6
DOT
 10
-119.670553
 20
-133.934772
 11
-118.070553
 21
-133.934772
  0
LINE
  8
型材
  6
DOT
 10
-119.670553
 20
-111.934772
 11
-118.070553
 21
-111.934772
  0
INSERT
  2
*HAT_0001
  8
型材
 10
0.0
 20
0.0
  0
LINE
  8
型材
  6
DASHDOT
 10
-113.355188
 20
-122.934772
 11
-124.405238
 21
-122.934772
  0
LINE
  8
型材
  6
DOT
 10
61.829443
 20
-133.934772
 11
60.229443
 21
-133.934772
  0
LINE
  8
型材
  6
DOT
 10
61.829443
 20
-111.934772
 11
60.229443
 21
-111.934772
  0
INSERT
  2
*HAT_0002
  8
型材
 10
0.0
 20
0.0
  0
LINE
  8
型材
  6
DASHDOT
 10
55.514077
 20
-122.934772
 11
66.564127
 21
-122.934772
  0
LINE
  8
型材
  6
DOT
 10
-86.920553
 20
-143.334772
 11
-86.920553
 21
-144.934772
  0
LINE
  8
型材
  6
DOT
 10
-80.920553
 20
-143.334772
 11
-80.920553
 21
-144.934772
  0
LINE
  8
型材
  6
DOT
 10
23.079443
 20
-143.334772
 11
23.079443
 21
-144.934772
  0
LINE
  8
型材
  6
DOT
 10
29.079443
 20
-143.334772
 11
29.079443
 21
-144.934772
  0
LINE
  8
型材
  6
DOT
 10
-269.564155
 20
81.36887
 11
-267.964155
 21
81.36887
  0
LINE
  8
型材
  6
DOT
 10
-269.564155
 20
87.36887
 11
-267.964155
 21
87.36887
  0
LINE
  8
型材
  6
DOT
 10
-269.564155
 20
21.36887
 11
-267.964155
 21
21.36887
  0
LINE
  8
型材
  6
DOT
 10
-269.564155
 20
27.36887
 11
-267.964155
 21
27.36887
  0
LINE
  8
型材
  6
CONTINUOUS
 10
19.683237
 20
69.50276
 11
16.545548
 21
66.36507
  0
POLYLINE
  8
型材
  6
CONTINUOUS
 66
     1
  0
VERTEX
  8
型材
 10
8.921962
 20
81.3689
  0
VERTEX
  8
型材
 10
8.52742
 20
80.974358
  0
SEQEND
  0
POLYLINE
  8
型材
  6
CONTINUOUS
 66
     1
  0
VERTEX
  8
型材
 10
5.07398
 20
77.520917
  0
VERTEX
  8
型材
 10
4.679437
 20
77.126375
  0
SEQEND
  0
LINE
  8
型材
  6
CONTINUOUS
 10
10.336177
 20
81.3689
 11
9.244808
 21
80.27753
  0
LINE
  8
型材
  6
CONTINUOUS
 10
5.770808
 20
76.80353
 11
4.679437
 21
75.71216
  0
LINE
  8
型材
  6
CONTINUOUS
 10
11.750388
 20
81.3689
 11
9.64767
 21
79.266182
  0
LINE
  8
型材
  6
CONTINUOUS
 10
6.782155
 20
76.400668
 11
4.679437
 21
74.29795
  0
LINE
  8
型材
  6
CONTINUOUS
 10
13.15068
 20
81.354977
 11
9.219353
 21
77.42365
  0
LINE
  8
型材
  6
CONTINUOUS
 10
8.624688
 20
76.828985
 11
4.69333
 21
72.897628
  0
TEXT
  7
TextStyle03
  8
型材
  6
CONTINUOUS
 62
    32
 10
10.1
 20
69.35
  1
開
 40
8.0
 72
     5
 11
18.275
 21
69.35
  0
LINE
  8
型材
  6
CONTINUOUS
 10
20.51332
 20
71.747053
 11
17.579875
 21
68.813608
  0
LINE
  8
型材
  6
CONTINUOUS
 10
17.285427
 20
68.51916
 11
14.301255
 21
65.534987
  0
LINE
  8
型材
  6
CONTINUOUS
 10
20.67933
 20
73.327277
 11
17.579875
 21
70.227823
  0
LINE
  8
型材
  6
CONTINUOUS
 10
20.57781
 20
74.639972
 11
17.579875
 21
71.642037
  0
LINE
  8
型材
  6
CONTINUOUS
 10
20.306525
 20
75.782898
 11
17.579875
 21
73.056248
  0
LINE
  8
型材
  6
CONTINUOUS
 10
19.907293
 20
76.79788
 11
17.579875
 21
74.470463
  0
LINE
  8
型材
  6
CONTINUOUS
 10
19.401525
 20
77.706328
 11
17.579875
 21
75.884677
  0
LINE
  8
型材
  6
CONTINUOUS
 10
15.48494
 20
80.860808
 11
11.7192
 21
77.095067
  0
LINE
  8
型材
  6
CONTINUOUS
 10
16.45841
 20
80.420068
 11
13.13341
 21
77.095067
  0
LINE
  8
型材
  6
CONTINUOUS
 10
17.330482
 20
79.877925
 11
14.547625
 21
77.095067
  0
LINE
  8
型材
  6
CONTINUOUS
 10
18.11004
 20
79.243268
 11
15.96184
 21
77.095067
  0
LINE
  8
型材
  6
CONTINUOUS
 10
18.800653
 20
78.51967
 11
17.37605
 21
77.095067
  0
LINE
  8
型材
  6
CONTINUOUS
 10
14.393093
 20
81.183175
 11
10.304985
 21
77.095067
  0
LINE
  8
型材
  6
CONTINUOUS
 10
9.62126
 20
76.411342
 11
4.865133
 21
71.655215
  0
LINE
  8
型材
  6
CONTINUOUS
 10
5.1875
 20
70.563367
 11
9.62126
 21
74.997127
  0
LINE
  8
型材
  6
CONTINUOUS
 10
5.62824
 20
69.589898
 11
9.62126
 21
73.582918
  0
LINE
  8
型材
  6
CONTINUOUS
 10
6.170383
 20
68.717825
 11
9.62126
 21
72.168702
  0
LINE
  8
型材
  6
CONTINUOUS
 10
6.80504
 20
67.938268
 11
9.62126
 21
70.754487
  0
LINE
  8
型材
  6
CONTINUOUS
 10
7.528637
 20
67.247655
 11
9.62126
 21
69.340278
  0
LINE
  8
型材
  6
CONTINUOUS
 10
8.34198
 20
66.646782
 11
10.214358
 21
68.51916
  0
LINE
  8
型材
  6
CONTINUOUS
 10
9.250427
 20
66.141015
 11
11.628572
 21
68.51916
  0
LINE
  8
型材
  6
CONTINUOUS
 10
10.26541
 20
65.741783
 11
13.042787
 21
68.51916
  0
LINE
  8
型材
  6
CONTINUOUS
 10
11.408332
 20
65.470495
 11
14.456998
 21
68.51916
  0
LINE
  8
型材
  6
CONTINUOUS
 10
12.72103
 20
65.368978
 11
15.871213
 21
68.51916
  0
LINE
  8
型材
  6
CONTINUOUS
 10
225.082287
 20
67.644925
 11
225.082287
 21
45.644925
  0
LINE
  8
型材
  6
CONTINUOUS
 10
225.082287
 20
45.644925
 11
161.082287
 21
45.644925
  0
LINE
  8
型材
  6
CONTINUOUS
 10
161.082287
 20
45.644925
 11
161.082287
 21
67.644925
  0
LINE
  8
型材
  6
CONTINUOUS
 10
225.082287
 20
67.644925
 11
161.082287
 21
67.644925
  0
TEXT
  7
TextStyle03
  8
型材
  6
CONTINUOUS
 62
    32
 10
162.3
 20
57.35
  1
換　気　装　置
 40
9.0
 72
     5
 11
224.825
 21
57.35
  0
TEXT
  7
TextStyle03
  8
型材
  6
CONTINUOUS
 62
    32
 10
167.7
 20
46.85
  1
換気時には開を押して下さい
 40
4.0
 72
     5
 11
218.975
 21
46.85
  0
LINE
  8
型材
  6
CONTINUOUS
 10
-353.239798
 20
-135.706167
 11
-155.445625
 21
-135.706167
  0
LINE
  8
型材
  6
CONTINUOUS
 10
-353.239798
 20
-159.574273
 11
-155.445625
 21
-159.574273
  0
LINE
  8
型材
  6
CONTINUOUS
 10
-353.239798
 20
-171.508325
 11
-155.445625
 21
-171.508325
  0
LINE
  8
型材
  6
CONTINUOUS
 10
-273.688713
 20
-159.574273
 11
-273.688713
 21
-219.244535
  0
LINE
  8
型材
  6
CONTINUOUS
 10
-353.239798
 20
-195.37643
 11
-155.445625
 21
-195.37643
  0
LINE
  8
型材
  6
CONTINUOUS
 10
-353.239798
 20
-207.310483
 11
-155.445625
 21
-207.310483
  0
LINE
  8
型材
  6
CONTINUOUS
 10
-353.239798
 20
-219.244535
 11
-155.445625
 21
-219.244535
  0
LINE
  8
型材
  6
CONTINUOUS
 10
-353.239798
 20
-231.178587
 11
-155.445625
 21
-231.178587
  0
LINE
  8
型材
  6
CONTINUOUS
 10
-155.445625
 20
-135.706167
 11
-155.445625
 21
-231.178587
  0
LINE
  8
型材
  6
CONTINUOUS
 10
-353.239798
 20
-135.706167
 11
-353.239798
 21
-231.178587
  0
LINE
  8
型材
  6
CONTINUOUS
 10
-353.239798
 20
-183.442378
 11
-155.445625
 21
-183.442378
  0
LINE
  8
型材
  6
CONTINUOUS
 62
    32
 10
340.716185
 20
223.378858
 11
340.716185
 21
215.578858
  0
LINE
  8
型材
  6
CONTINUOUS
 62
    32
 10
345.516185
 20
223.378858
 11
345.516185
 21
215.578858
  0
LINE
  8
型材
  6
CONTINUOUS
 62
    32
 10
338.316185
 20
215.578858
 11
340.716185
 21
215.578858
  0
LINE
  8
型材
  6
CONTINUOUS
 62
    32
 10
345.516185
 20
215.578858
 11
347.916185
 21
215.578858
  0
LINE
  8
型材
  6
CONTINUOUS
 62
    32
 10
350.316185
 20
203.578858
 11
350.316185
 21
220.378858
  0
LINE
  8
型材
  6
CONTINUOUS
 62
    32
 10
347.916185
 20
203.578858
 11
347.916185
 21
220.378858
  0
LINE
  8
型材
  6
CONTINUOUS
 62
    32
 10
280.716185
 20
223.378858
 11
280.716185
 21
215.578858
  0
LINE
  8
型材
  6
CONTINUOUS
 62
    32
 10
285.516185
 20
223.378858
 11
285.516185
 21
215.578858
  0
LINE
  8
型材
  6
CONTINUOUS
 62
    32
 10
278.316185
 20
220.378858
 11
280.416185
 21
220.378858
  0
LINE
  8
型材
  6
CONTINUOUS
 62
    32
 10
278.316185
 20
215.578858
 11
280.716185
 21
215.578858
  0
LINE
  8
型材
  6
CONTINUOUS
 62
    32
 10
333.516185
 20
220.378858
 11
340.416185
 21
220.378858
  0
LINE
  8
型材
  6
CONTINUOUS
 62
    32
 10
278.316185
 20
203.578858
 11
278.316185
 21
220.378858
  0
LINE
  8
型材
  6
CONTINUOUS
 62
    32
 10
285.516185
 20
215.578858
 11
287.916185
 21
215.578858
  0
LINE
  8
型材
  6
CONTINUOUS
 62
    32
 10
292.716185
 20
223.378858
 11
292.716185
 21
215.578858
  0
LINE
  8
型材
  6
CONTINUOUS
 62
    32
 10
297.516185
 20
223.378858
 11
297.516185
 21
215.578858
  0
LINE
  8
型材
  6
CONTINUOUS
 62
    32
 10
290.316185
 20
215.578858
 11
292.716185
 21
215.578858
  0
LINE
  8
型材
  6
CONTINUOUS
 62
    32
 10
297.516185
 20
215.578858
 11
299.916185
 21
215.578858
  0
LINE
  8
型材
  6
CONTINUOUS
 62
    32
 10
285.516185
 20
220.378858
 11
292.416185
 21
220.378858
  0
LINE
  8
型材
  6
CONTINUOUS
 62
    32
 10
287.916185
 20
203.578858
 11
287.916185
 21
220.378858
  0
LINE
  8
型材
  6
CONTINUOUS
 62
    32
 10
290.316185
 20
203.578858
 11
290.316185
 21
220.378858
  0
LINE
  8
型材
  6
CONTINUOUS
 62
    32
 10
304.716185
 20
223.378858
 11
304.716185
 21
215.578858
  0
LINE
  8
型材
  6
CONTINUOUS
 62
    32
 10
309.516185
 20
223.378858
 11
309.516185
 21
215.578858
  0
LINE
  8
型材
  6
CONTINUOUS
 62
    32
 10
302.316185
 20
215.578858
 11
304.716185
 21
215.578858
  0
LINE
  8
型材
  6
CONTINUOUS
 62
    32
 10
309.516185
 20
215.578858
 11
311.916185
 21
215.578858
  0
LINE
  8
型材
  6
CONTINUOUS
 62
    32
 10
297.516185
 20
220.378858
 11
304.416185
 21
220.378858
  0
LINE
  8
型材
  6
CONTINUOUS
 62
    32
 10
299.916185
 20
203.578858
 11
299.916185
 21
220.378858
  0
LINE
  8
型材
  6
CONTINUOUS
 62
    32
 10
302.316185
 20
203.578858
 11
302.316185
 21
220.378858
  0
LINE
  8
型材
  6
CONTINUOUS
 62
    32
 10
316.716185
 20
223.378858
 11
316.716185
 21
215.578858
  0
LINE
  8
型材
  6
CONTINUOUS
 62
    32
 10
321.516185
 20
223.378858
 11
321.516185
 21
215.578858
  0
LINE
  8
型材
  6
CONTINUOUS
 62
    32
 10
314.316185
 20
215.578858
 11
316.716185
 21
215.578858
  0
LINE
  8
型材
  6
CONTINUOUS
 62
    32
 10
321.516185
 20
215.578858
 11
323.916185
 21
215.578858
  0
LINE
  8
型材
  6
CONTINUOUS
 62
    32
 10
309.516185
 20
220.378858
 11
316.416185
 21
220.378858
  0
LINE
  8
型材
  6
CONTINUOUS
 62
    32
 10
311.916185
 20
203.578858
 11
311.916185
 21
220.378858
  0
LINE
  8
型材
  6
CONTINUOUS
 62
    32
 10
314.316185
 20
203.578858
 11
314.316185
 21
220.378858
  0
LINE
  8
型材
  6
CONTINUOUS
 62
    32
 10
328.716185
 20
223.378858
 11
328.716185
 21
215.578858
  0
LINE
  8
型材
  6
CONTINUOUS
 62
    32
 10
333.516185
 20
223.378858
 11
333.516185
 21
215.578858
  0
LINE
  8
型材
  6
CONTINUOUS
 62
    32
 10
326.316185
 20
215.578858
 11
328.716185
 21
215.578858
  0
LINE
  8
型材
  6
CONTINUOUS
 62
    32
 10
333.516185
 20
215.578858
 11
335.916185
 21
215.578858
  0
LINE
  8
型材
  6
CONTINUOUS
 62
    32
 10
321.516185
 20
220.378858
 11
328.416185
 21
220.378858
  0
LINE
  8
型材
  6
CONTINUOUS
 62
    32
 10
323.916185
 20
203.578858
 11
323.916185
 21
220.378858
  0
LINE
  8
型材
  6
CONTINUOUS
 62
    32
 10
326.316185
 20
203.578858
 11
326.316185
 21
220.378858
  0
LINE
  8
型材
  6
CONTINUOUS
 62
    32
 10
335.916185
 20
203.578858
 11
335.916185
 21
220.378858
  0
LINE
  8
型材
  6
CONTINUOUS
 62
    32
 10
338.316185
 20
203.578858
 11
338.316185
 21
220.378858
  0
LINE
  8
型材
  6
CONTINUOUS
 62
    32
 10
359.916185
 20
220.378858
 11
359.916185
 21
203.578858
  0
LINE
  8
型材
  6
CONTINUOUS
 62
    32
 10
359.916185
 20
220.378858
 11
345.816185
 21
220.378858
  0
LINE
  8
型材
  6
DASHDOTX2
 62
    32
 10
283.116185
 20
215.578858
 11
283.116185
 21
203.578858
  0
LINE
  8
型材
  6
DASHDOTX2
 62
    32
 10
295.116185
 20
215.578858
 11
295.116185
 21
203.578858
  0
LINE
  8
型材
  6
DASHDOTX2
 62
    32
 10
307.116185
 20
215.578858
 11
307.116185
 21
203.578858
  0
LINE
  8
型材
  6
DASHDOTX2
 62
    32
 10
319.116185
 20
215.578858
 11
319.116185
 21
203.578858
  0
LINE
  8
型材
  6
DASHDOTX2
 62
    32
 10
331.116185
 20
215.578858
 11
331.116185
 21
203.578858
  0
LINE
  8
型材
  6
DASHDOTX2
 62
    32
 10
343.116185
 20
215.578858
 11
343.116185
 21
203.578858
  0
LINE
  8
型材
  6
DASHDOTX2
 62
    32
 10
355.116185
 20
215.578858
 11
355.116185
 21
203.578858
  0
ARC
  8
型材
  6
CONTINUOUS
 62
    32
 10
343.116188
 20
223.378852
 40
2.4
 50
0.0
 51
180.000005
  0
ARC
  8
型材
  6
CONTINUOUS
 62
    32
 10
283.116188
 20
223.378852
 40
2.4
 50
0.0
 51
180.000005
  0
ARC
  8
型材
  6
CONTINUOUS
 62
    32
 10
295.116188
 20
223.378852
 40
2.4
 50
0.0
 51
180.000005
  0
ARC
  8
型材
  6
CONTINUOUS
 62
    32
 10
307.116188
 20
223.378852
 40
2.4
 50
0.0
 51
180.000005
  0
ARC
  8
型材
  6
CONTINUOUS
 62
    32
 10
319.116188
 20
223.378852
 40
2.4
 50
0.0
 51
180.000005
  0
ARC
  8
型材
  6
CONTINUOUS
 62
    32
 10
331.116188
 20
223.378852
 40
2.4
 50
0.0
 51
180.000005
  0
POINT
  8
型材
 62
    32
 10
351.816185
 20
209.578858
  0
POINT
  8
型材
 62
    32
 10
355.116185
 20
209.578858
  0
LINE
  8
型材
  6
CONTINUOUS
 62
    32
 10
353.919
 20
209.278943
 11
353.016195
 21
209.278943
  0
LINE
  8
型材
  6
CONTINUOUS
 62
    32
 10
354.81627
 20
207.478867
 11
354.81627
 21
208.381673
  0
LINE
  8
型材
  6
CONTINUOUS
 62
    32
 10
355.4161
 20
207.478867
 11
354.816265
 21
207.478867
  0
LINE
  8
型材
  6
CONTINUOUS
 62
    32
 10
355.4161
 20
207.478867
 11
355.4161
 21
208.381673
  0
LINE
  8
型材
  6
CONTINUOUS
 62
    32
 10
355.416105
 20
211.678847
 11
355.4161
 21
210.776043
  0
LINE
  8
型材
  6
CONTINUOUS
 62
    32
 10
354.81627
 20
211.678847
 11
354.81627
 21
210.776043
  0
LINE
  8
型材
  6
CONTINUOUS
 62
    32
 10
356.31337
 20
209.278943
 11
357.216175
 21
209.278943
  0
LINE
  8
型材
  6
CONTINUOUS
 62
    32
 10
356.31337
 20
209.878773
 11
357.216175
 21
209.878773
  0
LINE
  8
型材
  6
CONTINUOUS
 62
    32
 10
353.919
 20
209.878773
 11
353.016195
 21
209.878773
  0
LINE
  8
型材
  6
CONTINUOUS
 62
    32
 10
355.4161
 20
211.678847
 11
354.81627
 21
211.678847
  0
LINE
  8
型材
  6
CONTINUOUS
 62
    32
 10
357.216175
 20
209.278943
 11
357.216175
 21
209.878773
  0
LINE
  8
型材
  6
CONTINUOUS
 62
    32
 10
353.016195
 20
209.278943
 11
353.016195
 21
209.878773
  0
ARC
  8
型材
  6
CONTINUOUS
 62
    32
 10
353.919
 20
208.381666
 40
0.897268
 50
359.999978
 51
450.000028
  0
ARC
  8
型材
  6
CONTINUOUS
 62
    32
 10
356.313371
 20
208.381666
 40
0.897268
 50
89.999963
 51
180.0
  0
ARC
  8
型材
  6
CONTINUOUS
 62
    32
 10
356.313371
 20
210.776036
 40
0.897268
 50
180.000027
 51
270.000064
  0
ARC
  8
型材
  6
CONTINUOUS
 62
    32
 10
353.919001
 20
210.776037
 40
0.897268
 50
270.000009
 51
360.000046
  0
CIRCLE
  8
型材
  6
CONTINUOUS
 62
    32
 10
355.116185
 20
209.578858
 40
4.14
  0
POINT
  8
型材
 62
    32
 10
279.816185
 20
209.578858
  0
POINT
  8
型材
 62
    32
 10
283.116185
 20
209.578858
  0
LINE
  8
型材
  6
CONTINUOUS
 62
    32
 10
281.919
 20
209.278943
 11
281.016195
 21
209.278943
  0
LINE
  8
型材
  6
CONTINUOUS
 62
    32
 10
282.81627
 20
207.478867
 11
282.81627
 21
208.381673
  0
LINE
  8
型材
  6
CONTINUOUS
 62
    32
 10
283.4161
 20
207.478867
 11
282.816265
 21
207.478867
  0
LINE
  8
型材
  6
CONTINUOUS
 62
    32
 10
283.4161
 20
207.478867
 11
283.4161
 21
208.381673
  0
LINE
  8
型材
  6
CONTINUOUS
 62
    32
 10
283.416105
 20
211.678847
 11
283.4161
 21
210.776043
  0
LINE
  8
型材
  6
CONTINUOUS
 62
    32
 10
282.81627
 20
211.678847
 11
282.81627
 21
210.776043
  0
LINE
  8
型材
  6
CONTINUOUS
 62
    32
 10
284.31337
 20
209.278943
 11
285.216175
 21
209.278943
  0
LINE
  8
型材
  6
CONTINUOUS
 62
    32
 10
284.31337
 20
209.878773
 11
285.216175
 21
209.878773
  0
LINE
  8
型材
  6
CONTINUOUS
 62
    32
 10
281.919
 20
209.878773
 11
281.016195
 21
209.878773
  0
LINE
  8
型材
  6
CONTINUOUS
 62
    32
 10
283.4161
 20
211.678847
 11
282.81627
 21
211.678847
  0
LINE
  8
型材
  6
CONTINUOUS
 62
    32
 10
285.216175
 20
209.278943
 11
285.216175
 21
209.878773
  0
LINE
  8
型材
  6
CONTINUOUS
 62
    32
 10
281.016195
 20
209.278943
 11
281.016195
 21
209.878773
  0
ARC
  8
型材
  6
CONTINUOUS
 62
    32
 10
281.919
 20
208.381666
 40
0.897268
 50
359.999978
 51
450.000028
  0
ARC
  8
型材
  6
CONTINUOUS
 62
    32
 10
284.313371
 20
208.381666
 40
0.897268
 50
89.999963
 51
180.0
  0
ARC
  8
型材
  6
CONTINUOUS
 62
    32
 10
284.313371
 20
210.776036
 40
0.897268
 50
180.000027
 51
270.000064
  0
ARC
  8
型材
  6
CONTINUOUS
 62
    32
 10
281.919001
 20
210.776037
 40
0.897268
 50
270.000009
 51
360.000046
  0
CIRCLE
  8
型材
  6
CONTINUOUS
 62
    32
 10
283.116185
 20
209.578858
 40
4.14
  0
POINT
  8
型材
 62
    32
 10
291.816185
 20
209.578858
  0
POINT
  8
型材
 62
    32
 10
295.116185
 20
209.578858
  0
LINE
  8
型材
  6
CONTINUOUS
 62
    32
 10
293.919
 20
209.278943
 11
293.016195
 21
209.278943
  0
LINE
  8
型材
  6
CONTINUOUS
 62
    32
 10
294.81627
 20
207.478867
 11
294.81627
 21
208.381673
  0
LINE
  8
型材
  6
CONTINUOUS
 62
    32
 10
295.4161
 20
207.478867
 11
294.816265
 21
207.478867
  0
LINE
  8
型材
  6
CONTINUOUS
 62
    32
 10
295.4161
 20
207.478867
 11
295.4161
 21
208.381673
  0
LINE
  8
型材
  6
CONTINUOUS
 62
    32
 10
295.416105
 20
211.678847
 11
295.4161
 21
210.776043
  0
LINE
  8
型材
  6
CONTINUOUS
 62
    32
 10
294.81627
 20
211.678847
 11
294.81627
 21
210.776043
  0
LINE
  8
型材
  6
CONTINUOUS
 62
    32
 10
296.31337
 20
209.278943
 11
297.216175
 21
209.278943
  0
LINE
  8
型材
  6
CONTINUOUS
 62
    32
 10
296.31337
 20
209.878773
 11
297.216175
 21
209.878773
  0
LINE
  8
型材
  6
CONTINUOUS
 62
    32
 10
293.919
 20
209.878773
 11
293.016195
 21
209.878773
  0
LINE
  8
型材
  6
CONTINUOUS
 62
    32
 10
295.4161
 20
211.678847
 11
294.81627
 21
211.678847
  0
LINE
  8
型材
  6
CONTINUOUS
 62
    32
 10
297.216175
 20
209.278943
 11
297.216175
 21
209.878773
  0
LINE
  8
型材
  6
CONTINUOUS
 62
    32
 10
293.016195
 20
209.278943
 11
293.016195
 21
209.878773
  0
ARC
  8
型材
  6
CONTINUOUS
 62
    32
 10
293.919
 20
208.381666
 40
0.897268
 50
359.999978
 51
450.000028
  0
ARC
  8
型材
  6
CONTINUOUS
 62
    32
 10
296.313371
 20
208.381666
 40
0.897268
 50
89.999963
 51
180.0
  0
ARC
  8
型材
  6
CONTINUOUS
 62
    32
 10
296.313371
 20
210.776036
 40
0.897268
 50
180.000027
 51
270.000064
  0
ARC
  8
型材
  6
CONTINUOUS
 62
    32
 10
293.919001
 20
210.776037
 40
0.897268
 50
270.000009
 51
360.000046
  0
CIRCLE
  8
型材
  6
CONTINUOUS
 62
    32
 10
295.116185
 20
209.578858
 40
4.14
  0
POINT
  8
型材
 62
    32
 10
303.816185
 20
209.578858
  0
POINT
  8
型材
 62
    32
 10
307.116185
 20
209.578858
  0
LINE
  8
型材
  6
CONTINUOUS
 62
    32
 10
305.919
 20
209.278943
 11
305.016195
 21
209.278943
  0
LINE
  8
型材
  6
CONTINUOUS
 62
    32
 10
306.81627
 20
207.478867
 11
306.81627
 21
208.381673
  0
LINE
  8
型材
  6
CONTINUOUS
 62
    32
 10
307.4161
 20
207.478867
 11
306.816265
 21
207.478867
  0
LINE
  8
型材
  6
CONTINUOUS
 62
    32
 10
307.4161
 20
207.478867
 11
307.4161
 21
208.381673
  0
LINE
  8
型材
  6
CONTINUOUS
 62
    32
 10
307.416105
 20
211.678847
 11
307.4161
 21
210.776043
  0
LINE
  8
型材
  6
CONTINUOUS
 62
    32
 10
306.81627
 20
211.678847
 11
306.81627
 21
210.776043
  0
LINE
  8
型材
  6
CONTINUOUS
 62
    32
 10
308.31337
 20
209.278943
 11
309.216175
 21
209.278943
  0
LINE
  8
型材
  6
CONTINUOUS
 62
    32
 10
308.31337
 20
209.878773
 11
309.216175
 21
209.878773
  0
LINE
  8
型材
  6
CONTINUOUS
 62
    32
 10
305.919
 20
209.878773
 11
305.016195
 21
209.878773
  0
LINE
  8
型材
  6
CONTINUOUS
 62
    32
 10
307.4161
 20
211.678847
 11
306.81627
 21
211.678847
  0
LINE
  8
型材
  6
CONTINUOUS
 62
    32
 10
309.216175
 20
209.278943
 11
309.216175
 21
209.878773
  0
LINE
  8
型材
  6
CONTINUOUS
 62
    32
 10
305.016195
 20
209.278943
 11
305.016195
 21
209.878773
  0
ARC
  8
型材
  6
CONTINUOUS
 62
    32
 10
305.919
 20
208.381666
 40
0.897268
 50
359.999978
 51
450.000028
  0
ARC
  8
型材
  6
CONTINUOUS
 62
    32
 10
308.313371
 20
208.381666
 40
0.897268
 50
89.999963
 51
180.0
  0
ARC
  8
型材
  6
CONTINUOUS
 62
    32
 10
308.313371
 20
210.776036
 40
0.897268
 50
180.000027
 51
270.000064
  0
ARC
  8
型材
  6
CONTINUOUS
 62
    32
 10
305.919001
 20
210.776037
 40
0.897268
 50
270.000009
 51
360.000046
  0
CIRCLE
  8
型材
  6
CONTINUOUS
 62
    32
 10
307.116185
 20
209.578858
 40
4.14
  0
POINT
  8
型材
 62
    32
 10
315.816185
 20
209.578858
  0
POINT
  8
型材
 62
    32
 10
319.116185
 20
209.578858
  0
LINE
  8
型材
  6
CONTINUOUS
 62
    32
 10
317.919
 20
209.278943
 11
317.016195
 21
209.278943
  0
LINE
  8
型材
  6
CONTINUOUS
 62
    32
 10
318.81627
 20
207.478867
 11
318.81627
 21
208.381673
  0
LINE
  8
型材
  6
CONTINUOUS
 62
    32
 10
319.4161
 20
207.478867
 11
318.816265
 21
207.478867
  0
LINE
  8
型材
  6
CONTINUOUS
 62
    32
 10
319.4161
 20
207.478867
 11
319.4161
 21
208.381673
  0
LINE
  8
型材
  6
CONTINUOUS
 62
    32
 10
319.416105
 20
211.678847
 11
319.4161
 21
210.776043
  0
LINE
  8
型材
  6
CONTINUOUS
 62
    32
 10
318.81627
 20
211.678847
 11
318.81627
 21
210.776043
  0
LINE
  8
型材
  6
CONTINUOUS
 62
    32
 10
320.31337
 20
209.278943
 11
321.216175
 21
209.278943
  0
LINE
  8
型材
  6
CONTINUOUS
 62
    32
 10
320.31337
 20
209.878773
 11
321.216175
 21
209.878773
  0
LINE
  8
型材
  6
CONTINUOUS
 62
    32
 10
317.919
 20
209.878773
 11
317.016195
 21
209.878773
  0
LINE
  8
型材
  6
CONTINUOUS
 62
    32
 10
319.4161
 20
211.678847
 11
318.81627
 21
211.678847
  0
LINE
  8
型材
  6
CONTINUOUS
 62
    32
 10
321.216175
 20
209.278943
 11
321.216175
 21
209.878773
  0
LINE
  8
型材
  6
CONTINUOUS
 62
    32
 10
317.016195
 20
209.278943
 11
317.016195
 21
209.878773
  0
ARC
  8
型材
  6
CONTINUOUS
 62
    32
 10
317.919
 20
208.381666
 40
0.897268
 50
359.999978
 51
450.000028
  0
ARC
  8
型材
  6
CONTINUOUS
 62
    32
 10
320.313371
 20
208.381666
 40
0.897268
 50
89.999963
 51
180.0
  0
ARC
  8
型材
  6
CONTINUOUS
 62
    32
 10
320.313371
 20
210.776036
 40
0.897268
 50
180.000027
 51
270.000064
  0
ARC
  8
型材
  6
CONTINUOUS
 62
    32
 10
317.919001
 20
210.776037
 40
0.897268
 50
270.000009
 51
360.000046
  0
CIRCLE
  8
型材
  6
CONTINUOUS
 62
    32
 10
319.116185
 20
209.578858
 40
4.14
  0
POINT
  8
型材
 62
    32
 10
327.816185
 20
209.578858
  0
POINT
  8
型材
 62
    32
 10
331.116185
 20
209.578858
  0
LINE
  8
型材
  6
CONTINUOUS
 62
    32
 10
329.919
 20
209.278943
 11
329.016195
 21
209.278943
  0
LINE
  8
型材
  6
CONTINUOUS
 62
    32
 10
330.81627
 20
207.478867
 11
330.81627
 21
208.381673
  0
LINE
  8
型材
  6
CONTINUOUS
 62
    32
 10
331.4161
 20
207.478867
 11
330.816265
 21
207.478867
  0
LINE
  8
型材
  6
CONTINUOUS
 62
    32
 10
331.4161
 20
207.478867
 11
331.4161
 21
208.381673
  0
LINE
  8
型材
  6
CONTINUOUS
 62
    32
 10
331.416105
 20
211.678847
 11
331.4161
 21
210.776043
  0
LINE
  8
型材
  6
CONTINUOUS
 62
    32
 10
330.81627
 20
211.678847
 11
330.81627
 21
210.776043
  0
LINE
  8
型材
  6
CONTINUOUS
 62
    32
 10
332.31337
 20
209.278943
 11
333.216175
 21
209.278943
  0
LINE
  8
型材
  6
CONTINUOUS
 62
    32
 10
332.31337
 20
209.878773
 11
333.216175
 21
209.878773
  0
LINE
  8
型材
  6
CONTINUOUS
 62
    32
 10
329.919
 20
209.878773
 11
329.016195
 21
209.878773
  0
LINE
  8
型材
  6
CONTINUOUS
 62
    32
 10
331.4161
 20
211.678847
 11
330.81627
 21
211.678847
  0
LINE
  8
型材
  6
CONTINUOUS
 62
    32
 10
333.216175
 20
209.278943
 11
333.216175
 21
209.878773
  0
LINE
  8
型材
  6
CONTINUOUS
 62
    32
 10
329.016195
 20
209.278943
 11
329.016195
 21
209.878773
  0
ARC
  8
型材
  6
CONTINUOUS
 62
    32
 10
329.919
 20
208.381666
 40
0.897268
 50
359.999978
 51
450.000028
  0
ARC
  8
型材
  6
CONTINUOUS
 62
    32
 10
332.313371
 20
208.381666
 40
0.897268
 50
89.999963
 51
180.0
  0
ARC
  8
型材
  6
CONTINUOUS
 62
    32
 10
332.313371
 20
210.776036
 40
0.897268
 50
180.000027
 51
270.000064
  0
ARC
  8
型材
  6
CONTINUOUS
 62
    32
 10
329.919001
 20
210.776037
 40
0.897268
 50
270.000009
 51
360.000046
  0
CIRCLE
  8
型材
  6
CONTINUOUS
 62
    32
 10
331.116185
 20
209.578858
 40
4.14
  0
POINT
  8
型材
 62
    32
 10
339.816185
 20
209.578858
  0
POINT
  8
型材
 62
    32
 10
343.116185
 20
209.578858
  0
LINE
  8
型材
  6
CONTINUOUS
 62
    32
 10
341.919
 20
209.278943
 11
341.016195
 21
209.278943
  0
LINE
  8
型材
  6
CONTINUOUS
 62
    32
 10
342.81627
 20
207.478867
 11
342.81627
 21
208.381673
  0
LINE
  8
型材
  6
CONTINUOUS
 62
    32
 10
343.4161
 20
207.478867
 11
342.816265
 21
207.478867
  0
LINE
  8
型材
  6
CONTINUOUS
 62
    32
 10
343.4161
 20
207.478867
 11
343.4161
 21
208.381673
  0
LINE
  8
型材
  6
CONTINUOUS
 62
    32
 10
343.416105
 20
211.678847
 11
343.4161
 21
210.776043
  0
LINE
  8
型材
  6
CONTINUOUS
 62
    32
 10
342.81627
 20
211.678847
 11
342.81627
 21
210.776043
  0
LINE
  8
型材
  6
CONTINUOUS
 62
    32
 10
344.31337
 20
209.278943
 11
345.216175
 21
209.278943
  0
LINE
  8
型材
  6
CONTINUOUS
 62
    32
 10
344.31337
 20
209.878773
 11
345.216175
 21
209.878773
  0
LINE
  8
型材
  6
CONTINUOUS
 62
    32
 10
341.919
 20
209.878773
 11
341.016195
 21
209.878773
  0
LINE
  8
型材
  6
CONTINUOUS
 62
    32
 10
343.4161
 20
211.678847
 11
342.81627
 21
211.678847
  0
LINE
  8
型材
  6
CONTINUOUS
 62
    32
 10
345.216175
 20
209.278943
 11
345.216175
 21
209.878773
  0
LINE
  8
型材
  6
CONTINUOUS
 62
    32
 10
341.016195
 20
209.278943
 11
341.016195
 21
209.878773
  0
ARC
  8
型材
  6
CONTINUOUS
 62
    32
 10
341.919
 20
208.381666
 40
0.897268
 50
359.999978
 51
450.000028
  0
ARC
  8
型材
  6
CONTINUOUS
 62
    32
 10
344.313371
 20
208.381666
 40
0.897268
 50
89.999963
 51
180.0
  0
ARC
  8
型材
  6
CONTINUOUS
 62
    32
 10
344.313371
 20
210.776036
 40
0.897268
 50
180.000027
 51
270.000064
  0
ARC
  8
型材
  6
CONTINUOUS
 62
    32
 10
341.919001
 20
210.776037
 40
0.897268
 50
270.000009
 51
360.000046
  0
CIRCLE
  8
型材
  6
CONTINUOUS
 62
    32
 10
343.116185
 20
209.578858
 40
4.14
  0
LINE
  8
型材
  6
CONTINUOUS
 62
    32
 10
359.916185
 20
203.578858
 11
359.916185
 21
170.63714
  0
LINE
  8
型材
  6
CONTINUOUS
 62
    32
 10
275.916185
 20
203.578858
 11
275.916185
 21
220.378858
  0
LINE
  8
型材
  6
CONTINUOUS
 62
    32
 10
268.716185
 20
223.378858
 11
268.716185
 21
215.578858
  0
LINE
  8
型材
  6
CONTINUOUS
 62
    32
 10
273.516185
 20
223.378858
 11
273.516185
 21
215.578858
  0
LINE
  8
型材
  6
CONTINUOUS
 62
    32
 10
266.316185
 20
220.378858
 11
268.416185
 21
220.378858
  0
LINE
  8
型材
  6
CONTINUOUS
 62
    32
 10
266.316185
 20
215.578858
 11
268.716185
 21
215.578858
  0
LINE
  8
型材
  6
CONTINUOUS
 62
    32
 10
273.516185
 20
215.578858
 11
275.916185
 21
215.578858
  0
LINE
  8
型材
  6
CONTINUOUS
 62
    32
 10
273.516185
 20
220.378858
 11
280.416185
 21
220.378858
  0
LINE
  8
型材
  6
CONTINUOUS
 62
    32
 10
266.316185
 20
203.578858
 11
266.316185
 21
220.378858
  0
LINE
  8
型材
  6
CONTINUOUS
 62
    32
 10
263.916185
 20
203.578858
 11
263.916185
 21
220.378858
  0
LINE
  8
型材
  6
CONTINUOUS
 62
    32
 10
256.716185
 20
223.378858
 11
256.716185
 21
215.578858
  0
LINE
  8
型材
  6
CONTINUOUS
 62
    32
 10
261.516185
 20
223.378858
 11
261.516185
 21
215.578858
  0
LINE
  8
型材
  6
CONTINUOUS
 62
    32
 10
254.316185
 20
220.378858
 11
256.416185
 21
220.378858
  0
LINE
  8
型材
  6
CONTINUOUS
 62
    32
 10
254.316185
 20
215.578858
 11
256.716185
 21
215.578858
  0
LINE
  8
型材
  6
CONTINUOUS
 62
    32
 10
261.516185
 20
215.578858
 11
263.916185
 21
215.578858
  0
LINE
  8
型材
  6
CONTINUOUS
 62
    32
 10
261.516185
 20
220.378858
 11
268.416185
 21
220.378858
  0
LINE
  8
型材
  6
CONTINUOUS
 62
    32
 10
254.316185
 20
203.578858
 11
254.316185
 21
220.378858
  0
LINE
  8
型材
  6
DASHDOTX2
 62
    32
 10
259.116185
 20
215.578858
 11
259.116185
 21
203.578858
  0
LINE
  8
型材
  6
DASHDOTX2
 62
    32
 10
271.116185
 20
215.578858
 11
271.116185
 21
203.578858
  0
ARC
  8
型材
  6
CONTINUOUS
 62
    32
 10
271.116188
 20
223.378852
 40
2.4
 50
0.0
 51
180.000005
  0
ARC
  8
型材
  6
CONTINUOUS
 62
    32
 10
259.116188
 20
223.378852
 40
2.4
 50
0.0
 51
180.000005
  0
POINT
  8
型材
 62
    32
 10
267.816185
 20
209.578858
  0
POINT
  8
型材
 62
    32
 10
271.116185
 20
209.578858
  0
LINE
  8
型材
  6
CONTINUOUS
 62
    32
 10
269.919
 20
209.278943
 11
269.016195
 21
209.278943
  0
LINE
  8
型材
  6
CONTINUOUS
 62
    32
 10
270.81627
 20
207.478867
 11
270.81627
 21
208.381673
  0
LINE
  8
型材
  6
CONTINUOUS
 62
    32
 10
271.4161
 20
207.478867
 11
270.816265
 21
207.478867
  0
LINE
  8
型材
  6
CONTINUOUS
 62
    32
 10
271.4161
 20
207.478867
 11
271.4161
 21
208.381673
  0
LINE
  8
型材
  6
CONTINUOUS
 62
    32
 10
271.416105
 20
211.678847
 11
271.4161
 21
210.776043
  0
LINE
  8
型材
  6
CONTINUOUS
 62
    32
 10
270.81627
 20
211.678847
 11
270.81627
 21
210.776043
  0
LINE
  8
型材
  6
CONTINUOUS
 62
    32
 10
272.31337
 20
209.278943
 11
273.216175
 21
209.278943
  0
LINE
  8
型材
  6
CONTINUOUS
 62
    32
 10
272.31337
 20
209.878773
 11
273.216175
 21
209.878773
  0
LINE
  8
型材
  6
CONTINUOUS
 62
    32
 10
269.919
 20
209.878773
 11
269.016195
 21
209.878773
  0
LINE
  8
型材
  6
CONTINUOUS
 62
    32
 10
271.4161
 20
211.678847
 11
270.81627
 21
211.678847
  0
LINE
  8
型材
  6
CONTINUOUS
 62
    32
 10
273.216175
 20
209.278943
 11
273.216175
 21
209.878773
  0
LINE
  8
型材
  6
CONTINUOUS
 62
    32
 10
269.016195
 20
209.278943
 11
269.016195
 21
209.878773
  0
ARC
  8
型材
  6
CONTINUOUS
 62
    32
 10
269.919
 20
208.381666
 40
0.897268
 50
359.999978
 51
450.000028
  0
ARC
  8
型材
  6
CONTINUOUS
 62
    32
 10
272.313371
 20
208.381666
 40
0.897268
 50
89.999963
 51
180.0
  0
ARC
  8
型材
  6
CONTINUOUS
 62
    32
 10
272.313371
 20
210.776036
 40
0.897268
 50
180.000027
 51
270.000064
  0
ARC
  8
型材
  6
CONTINUOUS
 62
    32
 10
269.919001
 20
210.776037
 40
0.897268
 50
270.000009
 51
360.000046
  0
CIRCLE
  8
型材
  6
CONTINUOUS
 62
    32
 10
271.116185
 20
209.578858
 40
4.14
  0
POINT
  8
型材
 62
    32
 10
255.816185
 20
209.578858
  0
POINT
  8
型材
 62
    32
 10
259.116185
 20
209.578858
  0
LINE
  8
型材
  6
CONTINUOUS
 62
    32
 10
257.919
 20
209.278943
 11
257.016195
 21
209.278943
  0
LINE
  8
型材
  6
CONTINUOUS
 62
    32
 10
258.81627
 20
207.478867
 11
258.81627
 21
208.381673
  0
LINE
  8
型材
  6
CONTINUOUS
 62
    32
 10
259.4161
 20
207.478867
 11
258.816265
 21
207.478867
  0
LINE
  8
型材
  6
CONTINUOUS
 62
    32
 10
259.4161
 20
207.478867
 11
259.4161
 21
208.381673
  0
LINE
  8
型材
  6
CONTINUOUS
 62
    32
 10
259.416105
 20
211.678847
 11
259.4161
 21
210.776043
  0
LINE
  8
型材
  6
CONTINUOUS
 62
    32
 10
258.81627
 20
211.678847
 11
258.81627
 21
210.776043
  0
LINE
  8
型材
  6
CONTINUOUS
 62
    32
 10
260.31337
 20
209.278943
 11
261.216175
 21
209.278943
  0
LINE
  8
型材
  6
CONTINUOUS
 62
    32
 10
260.31337
 20
209.878773
 11
261.216175
 21
209.878773
  0
LINE
  8
型材
  6
CONTINUOUS
 62
    32
 10
257.919
 20
209.878773
 11
257.016195
 21
209.878773
  0
LINE
  8
型材
  6
CONTINUOUS
 62
    32
 10
259.4161
 20
211.678847
 11
258.81627
 21
211.678847
  0
LINE
  8
型材
  6
CONTINUOUS
 62
    32
 10
261.216175
 20
209.278943
 11
261.216175
 21
209.878773
  0
LINE
  8
型材
  6
CONTINUOUS
 62
    32
 10
257.016195
 20
209.278943
 11
257.016195
 21
209.878773
  0
ARC
  8
型材
  6
CONTINUOUS
 62
    32
 10
257.919
 20
208.381666
 40
0.897268
 50
359.999978
 51
450.000028
  0
ARC
  8
型材
  6
CONTINUOUS
 62
    32
 10
260.313371
 20
208.381666
 40
0.897268
 50
89.999963
 51
180.0
  0
ARC
  8
型材
  6
CONTINUOUS
 62
    32
 10
260.313371
 20
210.776036
 40
0.897268
 50
180.000027
 51
270.000064
  0
ARC
  8
型材
  6
CONTINUOUS
 62
    32
 10
257.919001
 20
210.776037
 40
0.897268
 50
270.000009
 51
360.000046
  0
CIRCLE
  8
型材
  6
CONTINUOUS
 62
    32
 10
259.116185
 20
209.578858
 40
4.14
  0
LINE
  8
型材
  6
CONTINUOUS
 62
    32
 10
251.916185
 20
203.578858
 11
251.916185
 21
220.378858
  0
LINE
  8
型材
  6
CONTINUOUS
 62
    32
 10
242.316185
 20
220.378858
 11
256.716185
 21
220.378858
  0
LINE
  8
型材
  6
CONTINUOUS
 62
    32
 10
242.316185
 20
220.378858
 11
242.316185
 21
203.578858
  0
LINE
  8
型材
  6
DASHDOTX2
 62
    32
 10
247.116185
 20
215.578858
 11
247.116185
 21
203.578858
  0
POINT
  8
型材
 62
    32
 10
243.816185
 20
209.578858
  0
POINT
  8
型材
 62
    32
 10
247.116185
 20
209.578858
  0
LINE
  8
型材
  6
CONTINUOUS
 62
    32
 10
245.919
 20
209.278943
 11
245.016195
 21
209.278943
  0
LINE
  8
型材
  6
CONTINUOUS
 62
    32
 10
246.81627
 20
207.478867
 11
246.81627
 21
208.381673
  0
LINE
  8
型材
  6
CONTINUOUS
 62
    32
 10
247.4161
 20
207.478867
 11
246.816265
 21
207.478867
  0
LINE
  8
型材
  6
CONTINUOUS
 62
    32
 10
247.4161
 20
207.478867
 11
247.4161
 21
208.381673
  0
LINE
  8
型材
  6
CONTINUOUS
 62
    32
 10
247.416105
 20
211.678847
 11
247.4161
 21
210.776043
  0
LINE
  8
型材
  6
CONTINUOUS
 62
    32
 10
246.81627
 20
211.678847
 11
246.81627
 21
210.776043
  0
LINE
  8
型材
  6
CONTINUOUS
 62
    32
 10
248.31337
 20
209.278943
 11
249.216175
 21
209.278943
  0
LINE
  8
型材
  6
CONTINUOUS
 62
    32
 10
248.31337
 20
209.878773
 11
249.216175
 21
209.878773
  0
LINE
  8
型材
  6
CONTINUOUS
 62
    32
 10
245.919
 20
209.878773
 11
245.016195
 21
209.878773
  0
LINE
  8
型材
  6
CONTINUOUS
 62
    32
 10
247.4161
 20
211.678847
 11
246.81627
 21
211.678847
  0
LINE
  8
型材
  6
CONTINUOUS
 62
    32
 10
249.216175
 20
209.278943
 11
249.216175
 21
209.878773
  0
LINE
  8
型材
  6
CONTINUOUS
 62
    32
 10
245.016195
 20
209.278943
 11
245.016195
 21
209.878773
  0
ARC
  8
型材
  6
CONTINUOUS
 62
    32
 10
245.919
 20
208.381666
 40
0.897268
 50
359.999978
 51
450.000028
  0
ARC
  8
型材
  6
CONTINUOUS
 62
    32
 10
248.313371
 20
208.381666
 40
0.897268
 50
89.999963
 51
180.0
  0
ARC
  8
型材
  6
CONTINUOUS
 62
    32
 10
248.313371
 20
210.776036
 40
0.897268
 50
180.000027
 51
270.000064
  0
ARC
  8
型材
  6
CONTINUOUS
 62
    32
 10
245.919001
 20
210.776037
 40
0.897268
 50
270.000009
 51
360.000046
  0
CIRCLE
  8
型材
  6
CONTINUOUS
 62
    32
 10
247.116185
 20
209.578858
 40
4.14
  0
LINE
  8
型材
  6
CONTINUOUS
 62
    32
 10
242.316185
 20
203.578858
 11
242.316185
 21
170.63714
  0
LINE
  8
型材
  6
DASHDOTX2
 62
    32
 10
361.116185
 20
209.578858
 11
242.316185
 21
209.578858
  0
LINE
  8
型材
  6
CONTINUOUS
 62
    32
 10
359.916185
 20
203.578858
 11
242.316185
 21
203.578858
  0
LINE
  8
型材
  6
CONTINUOUS
 10
359.916185
 20
170.63714
 11
242.316185
 21
170.63714
  0
TEXT
  7
TextStyle03
  8
文字
  6
CONTINUOUS
 10
-283.4
 20
188.85
  1
Ｓ＝１／１
 40
4.0
 72
     5
 11
-261.4
 21
188.85
  0
TEXT
  7
TextStyle03
  8
文字
  6
CONTINUOUS
 10
-349.65
 20
-167.925
  1
入　　力
 40
6.0
 72
     5
 11
-323.4
 21
-167.925
  0
TEXT
  7
TextStyle03
  8
文字
  6
CONTINUOUS
 10
-268.775
 20
-168.4
  1
ＤＣ２４Ｖ（駆動装置より供給）
 40
6.0
 72
     5
 11
-168.275
 21
-168.4
  0
TEXT
  7
TextStyle03
  8
文字
  6
CONTINUOUS
 10
78.075
 20
87.4
  1
「開」ボタン
 40
6.0
 72
     5
 11
117.825
 21
87.4
  0
TEXT
  7
TextStyle03
  8
文字
  6
CONTINUOUS
 10
78.075
 20
69.575
  1
「停」ボタン
 40
6.0
 72
     5
 11
117.825
 21
69.575
  0
TEXT
  7
TextStyle03
  8
文字
  6
CONTINUOUS
 10
78.075
 20
49.025
  1
「閉」ボタン
 40
6.0
 72
     5
 11
117.825
 21
49.025
  0
TEXT
  7
TextStyle03
  8
文字
  6
CONTINUOUS
 10
-293.8
 20
-26.0
  1
４－φ６穴（取付け用）
 40
6.0
 72
     5
 11
-220.3
 21
-26.0
  0
TEXT
  7
TextStyle03
  8
文字
  6
CONTINUOUS
 10
-85.525
 20
-23.875
  1
閉表示ランプ（緑）
 40
6.0
 72
     5
 11
-25.525
 21
-23.875
  0
TEXT
  7
TextStyle03
  8
文字
  6
CONTINUOUS
 10
78.175
 20
-159.125
  1
４－φ６穴（取付け用）
 40
6.0
 72
     5
 11
151.675
 21
-159.125
  0
TEXT
  7
TextStyle03
  8
文字
  6
CONTINUOUS
 10
-68.625
 20
127.3
  1
開表示ランプ（赤）
 40
6.0
 72
     5
 11
-8.625
 21
127.3
  0
TEXT
  7
TextStyle03
  8
文字
  6
CONTINUOUS
 10
-290.4
 20
10.8
  1
ボックス取付け用穴ピッチ＝
 40
6.0
 50
90.0
 72
     5
 11
-290.4
 21
97.8
  0
TEXT
  7
TextStyle03
  8
文字
  6
CONTINUOUS
 10
-349.65
 20
-192.7
  1
フェース
 40
6.0
 72
     5
 11
-323.4
 21
-192.7
  0
TEXT
  7
TextStyle03
  8
文字
  6
CONTINUOUS
 10
-349.65
 20
-204.25
  1
埋込みボックス
 40
6.0
 72
     5
 11
-303.15
 21
-204.25
  0
TEXT
  7
TextStyle03
  8
文字
  6
CONTINUOUS
 10
-268.775
 20
-204.275
  1
ＳＰＣＣ（電気亜鉛メッキ）
 40
6.0
 72
     5
 11
-181.775
 21
-204.275
  0
TEXT
  7
TextStyle03
  8
文字
  6
CONTINUOUS
 10
-268.775
 20
-192.525
  1
樹脂（ライトベージュ色）
 40
6.0
 72
     5
 11
-188.525
 21
-192.525
  0
TEXT
  7
TextStyle03
  8
文字
  6
CONTINUOUS
 10
-349.65
 20
-216.15
  1
付属品
 40
6.0
 72
     5
 11
-330.15
 21
-216.15
  0
TEXT
  7
TextStyle03
  8
文字
  6
CONTINUOUS
 10
-349.65
 20
-179.85
  1
煙感知入力
 40
6.0
 72
     5
 11
-316.65
 21
-179.85
  0
TEXT
  7
TextStyle03
  8
文字
  6
CONTINUOUS
 10
-268.775
 20
-180.325
  1
ＤＣ２４Ｖ　０．２Ａ
 40
6.0
 72
     5
 11
-202.025
 21
-180.325
  0
TEXT
  7
TextStyle03
  8
文字
  6
CONTINUOUS
 10
205.4
 20
263.025
  1
結　線　図
 40
6.0
 72
     5
 11
238.4
 21
263.025
  0
TEXT
  7
TextStyle03
  8
文字
  6
CONTINUOUS
 10
217.625
 20
156.5
  1
※　電線は番号分け又は、色分けされたものにすること。
 40
6.0
 72
     5
 11
392.375
 21
156.5
  0
TEXT
  7
TextStyle03
  8
文字
  6
CONTINUOUS
 10
280.575
 20
195.925
  1
青
 40
6.0
 72
     5
 11
286.575
 21
195.925
  0
TEXT
  7
TextStyle03
  8
文字
  6
CONTINUOUS
 10
280.575
 20
188.3
  1
６
 40
6.0
 72
     5
 11
286.575
 21
188.3
  0
TEXT
  7
TextStyle03
  8
文字
  6
CONTINUOUS
 10
280.4
 20
180.225
  1
閉
 40
6.0
 72
     5
 11
286.4
 21
180.225
  0
TEXT
  7
TextStyle03
  8
文字
  6
CONTINUOUS
 10
292.825
 20
195.925
  1
白
 40
6.0
 72
     5
 11
298.825
 21
195.925
  0
TEXT
  7
TextStyle03
  8
文字
  6
CONTINUOUS
 10
292.825
 20
188.3
  1
５
 40
6.0
 72
     5
 11
298.825
 21
188.3
  0
TEXT
  7
TextStyle03
  8
文字
  6
CONTINUOUS
 10
292.5
 20
180.225
  1
停
 40
6.0
 72
     5
 11
298.5
 21
180.225
  0
TEXT
  7
TextStyle03
  8
文字
  6
CONTINUOUS
 10
304.475
 20
195.925
  1
黄
 40
6.0
 72
     5
 11
310.475
 21
195.925
  0
TEXT
  7
TextStyle03
  8
文字
  6
CONTINUOUS
 10
304.475
 20
188.3
  1
４
 40
6.0
 72
     5
 11
310.475
 21
188.3
  0
TEXT
  7
TextStyle03
  8
文字
  6
CONTINUOUS
 10
304.175
 20
180.225
  1
開
 40
6.0
 72
     5
 11
310.175
 21
180.225
  0
TEXT
  7
TextStyle03
  8
文字
  6
CONTINUOUS
 10
316.55
 20
195.925
  1
緑
 40
6.0
 72
     5
 11
322.55
 21
195.925
  0
TEXT
  7
TextStyle03
  8
文字
  6
CONTINUOUS
 10
316.55
 20
188.3
  1
３
 40
6.0
 72
     5
 11
322.55
 21
188.3
  0
TEXT
  7
TextStyle03
  8
文字
  6
CONTINUOUS
 10
316.425
 20
180.225
  1
閉
 40
6.0
 72
     5
 11
322.425
 21
180.225
  0
TEXT
  7
TextStyle03
  8
文字
  6
CONTINUOUS
 10
328.075
 20
195.925
  1
赤
 40
6.0
 72
     5
 11
334.075
 21
195.925
  0
TEXT
  7
TextStyle03
  8
文字
  6
CONTINUOUS
 10
328.075
 20
188.3
  1
２
 40
6.0
 72
     5
 11
334.075
 21
188.3
  0
TEXT
  7
TextStyle03
  8
文字
  6
CONTINUOUS
 10
328.075
 20
180.225
  1
開
 40
6.0
 72
     5
 11
334.075
 21
180.225
  0
TEXT
  7
TextStyle03
  8
文字
  6
CONTINUOUS
 10
340.725
 20
195.925
  1
茶
 40
6.0
 72
     5
 11
346.725
 21
195.925
  0
TEXT
  7
TextStyle03
  8
文字
  6
CONTINUOUS
 10
337.5
 20
188.3
  1
１Ｎ
 40
6.0
 72
     5
 11
350.25
 21
188.3
  0
TEXT
  7
TextStyle03
  8
文字
  6
CONTINUOUS
 10
340.05
 20
180.225
  1
DC-
 40
6.0
 72
     5
 11
349.8
 21
180.225
  0
TEXT
  7
TextStyle03
  8
文字
  6
CONTINUOUS
 10
314.2
 20
172.5
  1
LED
 40
6.0
 72
     5
 11
323.95
 21
172.5
  0
TEXT
  7
TextStyle03
  8
文字
  6
CONTINUOUS
 10
326.15
 20
172.5
  1
LED
 40
6.0
 72
     5
 11
335.9
 21
172.5
  0
TEXT
  7
TextStyle03
  8
文字
  6
CONTINUOUS
 10
3.425
 20
158.35
  1
埋込みタイプ
 40
8.0
 72
     5
 11
56.425
 21
158.35
  0
TEXT
  7
TextStyle03
  8
文字
  6
CONTINUOUS
 10
268.375
 20
195.925
  1
橙
 40
6.0
 72
     5
 11
274.375
 21
195.925
  0
TEXT
  7
TextStyle03
  8
文字
  6
CONTINUOUS
 10
256.375
 20
195.925
  1
橙
 40
6.0
 72
     5
 11
262.375
 21
195.925
  0
TEXT
  7
TextStyle03
  8
文字
  6
CONTINUOUS
 10
256.675
 20
188.3
  1
DC24V
 40
6.0
 72
     5
 11
273.175
 21
188.3
  0
TEXT
  7
TextStyle03
  8
文字
  6
CONTINUOUS
 10
255.0
 20
180.975
  1
有電圧
 40
6.0
 72
     5
 11
274.5
 21
180.975
  0
TEXT
  7
TextStyle03
  8
文字
  6
CONTINUOUS
 10
257.9
 20
173.125
  1
煙感
 40
6.0
 72
     5
 11
270.65
 21
173.125
  0
TEXT
  7
TextStyle03
  8
文字
  6
CONTINUOUS
 10
160.5
 20
16.475
  1
※換気用の場合付属致します。ご指定ください。
 40
6.0
 72
     5
 11
308.25
 21
16.475
  0
TEXT
  7
TextStyle03
  8
文字
  6
CONTINUOUS
 10
160.5
 20
5.725
  1
※排煙装置印刷部の上に直接貼って下さい。
 40
6.0
 72
     5
 11
294.75
 21
5.725
  0
TEXT
  7
TextStyle03
  8
文字
  6
CONTINUOUS
 10
184.85
 20
241.025
  1
煙感知器用端子台
 40
6.0
 72
     5
 11
238.1
 21
241.025
  0
TEXT
  7
TextStyle03
  8
文字
  6
CONTINUOUS
 10
340.9
 20
241.225
  1
信号線用端子台
 40
6.0
 72
     5
 11
387.4
 21
241.225
  0
TEXT
  7
TextStyle03
  8
文字
  6
CONTINUOUS
 10
-281.225
 20
233.05
  1
スイッチボックス（埋設型）
 40
6.0
 72
     5
 11
-194.225
 21
233.05
  0
TEXT
  7
TextStyle03
  8
文字
  6
CONTINUOUS
 10
-281.225
 20
226.3
  1

 40
6.0
 41
1.125
  0
TEXT
  7
TextStyle03
  8
文字
  6
CONTINUOUS
 10
-281.225
 20
219.55
  1
品番：ＴＫ－ＯＰ－ＤＥ００２Ａ
 40
6.0
 72
     5
 11
-180.725
 21
219.55
  0
TEXT
  7
TextStyle03
  8
文字
  6
CONTINUOUS
 10
-349.65
 20
-144.0
  1
スイッチボックス（埋設型）
 40
6.0
 72
     5
 11
-262.65
 21
-144.0
  0
TEXT
  7
TextStyle03
  8
文字
  6
CONTINUOUS
 10
-349.65
 20
-150.75
  1
ＴＫ－ＯＰ－ＤＥ００２Ａ
 40
6.0
 72
     5
 11
-269.4
 21
-150.75
  0
TEXT
  7
TextStyle03
  8
文字
  6
CONTINUOUS
 10
-349.65
 20
-157.5
  1
メーカー：特殊技研金属株式会社
 40
6.0
 72
     5
 11
-249.15
 21
-157.5
  0
TEXT
  7
TextStyle03
  8
文字
  6
CONTINUOUS
 10
161.275
 20
33.675
  1
換気用ステッカー
 40
6.0
 72
     5
 11
214.525
 21
33.675
  0
TEXT
  7
TextStyle03
  8
文字
  6
CONTINUOUS
 10
161.275
 20
26.925
  1
(ＴＫ－ＯＰ－Ｆ００８)
 40
6.0
 72
     5
 11
235.15
 21
26.925
  0
TEXT
  7
TextStyle03
  8
文字
  6
CONTINUOUS
 10
291.225
 20
-276.6
  1
ＴＫ－ＯＰ－ＤＥ００２Ａ
 40
4.0
 72
     5
 11
344.725
 21
-276.6
  0
TEXT
  7
TextStyle03
  8
文字
  6
CONTINUOUS
 10
291.225
 20
-281.1
  1
ＴＫ－ＯＰ－Ｆ００８
 40
4.0
 72
     5
 11
335.725
 21
-281.1
  0
INSERT
  2
*DIM_0002
  8
寸法
  6
CONTINUOUS
 10
0.0
 20
0.0
  0
INSERT
  2
*GRP_0003
  8
寸法
  6
CONTINUOUS
 10
0.0
 20
0.0
  0
INSERT
  2
*GRP_0004
  8
寸法
  6
CONTINUOUS
 10
0.0
 20
0.0
  0
INSERT
  2
*GRP_0005
  8
寸法
  6
CONTINUOUS
 10
0.0
 20
0.0
  0
INSERT
  2
*GRP_0006
  8
寸法
  6
CONTINUOUS
 10
0.0
 20
0.0
  0
INSERT
  2
*GRP_0007
  8
寸法
  6
CONTINUOUS
 10
0.0
 20
0.0
  0
INSERT
  2
*GRP_0008
  8
寸法
  6
CONTINUOUS
 10
0.0
 20
0.0
  0
POLYLINE
  8
寸法
  6
CONTINUOUS
 66
     1
 70
     1
  0
VERTEX
  8
寸法
 10
-259.94609
 20
195.183675
  0
VERTEX
  8
寸法
 10
-285.762415
 20
195.183675
  0
VERTEX
  8
寸法
 10
-285.762415
 20
186.877552
  0
VERTEX
  8
寸法
 10
-259.94609
 20
186.877552
  0
SEQEND
  0
INSERT
  2
*GRP_0009
  8
寸法
  6
CONTINUOUS
 10
0.0
 20
0.0
  0
INSERT
  2
*DIM_0010
  8
寸法
  6
CONTINUOUS
 10
0.0
 20
0.0
  0
INSERT
  2
*DIM_0011
  8
寸法
  6
CONTINUOUS
 10
0.0
 20
0.0
  0
INSERT
  2
*DIM_0012
  8
寸法
  6
CONTINUOUS
 10
0.0
 20
0.0
  0
INSERT
  2
*DIM_0013
  8
寸法
  6
CONTINUOUS
 10
0.0
 20
0.0
  0
INSERT
  2
*DIM_0014
  8
寸法
  6
CONTINUOUS
 10
0.0
 20
0.0
  0
INSERT
  2
*DIM_0015
  8
寸法
  6
CONTINUOUS
 10
0.0
 20
0.0
  0
INSERT
  2
*DIM_0016
  8
寸法
  6
CONTINUOUS
 10
0.0
 20
0.0
  0
INSERT
  2
*DIM_0017
  8
寸法
  6
CONTINUOUS
 10
0.0
 20
0.0
  0
INSERT
  2
*DIM_0018
  8
寸法
  6
CONTINUOUS
 10
0.0
 20
0.0
  0
INSERT
  2
*DIM_0019
  8
寸法
  6
CONTINUOUS
 10
0.0
 20
0.0
  0
INSERT
  2
*DIM_0020
  8
寸法
  6
CONTINUOUS
 10
0.0
 20
0.0
  0
INSERT
  2
*DIM_0021
  8
寸法
  6
CONTINUOUS
 10
0.0
 20
0.0
  0
INSERT
  2
*DIM_0022
  8
寸法
  6
CONTINUOUS
 10
0.0
 20
0.0
  0
INSERT
  2
*DIM_0023
  8
寸法
  6
CONTINUOUS
 10
0.0
 20
0.0
  0
INSERT
  2
*DIM_0024
  8
寸法
  6
CONTINUOUS
 10
0.0
 20
0.0
  0
INSERT
  2
*DIM_0025
  8
寸法
  6
CONTINUOUS
 10
0.0
 20
0.0
  0
INSERT
  2
*DIM_0026
  8
寸法
  6
CONTINUOUS
 10
0.0
 20
0.0
  0
INSERT
  2
*DIM_0027
  8
寸法
  6
CONTINUOUS
 10
0.0
 20
0.0
  0
INSERT
  2
*DIM_0028
  8
寸法
  6
CONTINUOUS
 10
0.0
 20
0.0
  0
INSERT
  2
*DIM_0029
  8
寸法
  6
CONTINUOUS
 10
0.0
 20
0.0
  0
INSERT
  2
*DIM_0030
  8
寸法
  6
CONTINUOUS
 10
0.0
 20
0.0
  0
INSERT
  2
*DIM_0031
  8
寸法
  6
CONTINUOUS
 10
0.0
 20
0.0
  0
INSERT
  2
*DIM_0032
  8
寸法
  6
CONTINUOUS
 10
0.0
 20
0.0
  0
INSERT
  2
*DIM_0033
  8
寸法
  6
CONTINUOUS
 10
0.0
 20
0.0
  0
INSERT
  2
*DIM_0034
  8
寸法
  6
CONTINUOUS
 10
0.0
 20
0.0
  0
POLYLINE
  8
寸法
  6
CONTINUOUS
 66
     1
 70
     1
  0
VERTEX
  8
寸法
 10
240.197133
 20
271.280222
  0
VERTEX
  8
寸法
 10
201.809377
 20
271.280222
  0
VERTEX
  8
寸法
 10
201.809377
 20
260.616958
  0
VERTEX
  8
寸法
 10
240.197133
 20
260.616958
  0
SEQEND
  0
LINE
  8
寸法
  6
CONTINUOUS
 10
343.02951
 20
225.777288
 11
343.02951
 21
233.372443
  0
POLYLINE
  8
寸法
  6
CONTINUOUS
 66
     1
  0
VERTEX
  8
寸法
 10
292.316185
 20
233.372443
  0
VERTEX
  8
寸法
 10
292.316185
 20
239.5199
  0
VERTEX
  8
寸法
 10
388.655913
 20
239.5199
  0
SEQEND
  0
POLYLINE
  8
寸法
  6
CONTINUOUS
 66
     1
 70
     1
  0
VERTEX
  8
寸法
 10
60.571083
 20
170.679272
  0
VERTEX
  8
寸法
 10
-1.845015
 20
170.679272
  0
VERTEX
  8
寸法
 10
-1.845015
 20
153.787392
  0
VERTEX
  8
寸法
 10
60.571083
 20
153.787392
  0
SEQEND
  0
LINE
  8
寸法
  6
CONTINUOUS
 10
283.116185
 20
233.372443
 11
343.02951
 21
233.372443
  0
LINE
  8
寸法
  6
CONTINUOUS
 10
283.116185
 20
225.776835
 11
283.116185
 21
233.372443
  0
LINE
  8
寸法
  6
CONTINUOUS
 10
259.074105
 20
225.777865
 11
259.074105
 21
233.372443
  0
LINE
  8
寸法
  6
CONTINUOUS
 10
259.074105
 20
233.372443
 11
271.04739
 21
233.372443
  0
LINE
  8
寸法
  6
CONTINUOUS
 10
271.04739
 20
225.777865
 11
271.04739
 21
233.372443
  0
LINE
  8
寸法
  6
CONTINUOUS
 10
183.753127
 20
239.5199
 11
265.060748
 21
239.5199
  0
LINE
  8
寸法
  6
CONTINUOUS
 10
265.060748
 20
233.372443
 11
265.060748
 21
239.5199
  0
POLYLINE
  8
寸法
  6
CONTINUOUS
 66
     1
  0
VERTEX
  8
寸法
 10
-176.808773
 20
242.459843
  0
VERTEX
  8
寸法
 10
-285.762415
 20
242.459843
  0
VERTEX
  8
寸法
 10
-285.762415
 20
214.040818
  0
SEQEND
  0
LINE
  8
寸法
  6
CONTINUOUS
 10
-176.808773
 20
242.459843
 11
-176.808773
 21
214.040818
  0
LINE
  8
寸法
  6
CONTINUOUS
 10
-285.762415
 20
214.040818
 11
-176.808773
 21
214.040818
  0
INSERT
  2
*GRP_0001
  8
その他部品等
  6
CONTINUOUS
 10
0.0
 20
0.0
  0
ENDSEC
  0
EOF
