  0
SECTION
  2
HEADER
  9
$EXTMIN
 10
-420.5
 20
-297.0
  9
$EXTMAX
 10
420.5
 20
297.0
  9
$PDMODE
 70
    32
  9
$PDSIZE
 40
1.5
  9
$LTSCALE
 40
10.0
  0
ENDSEC
  0
SECTION
  2
TABLES
  0
TABLE
  2
LTYPE
 70
    15
  0
LTYPE
  2
CONTINUOUS
 70
    64
  3
実線
 72
    65
 73
     0
 40
0.0
  0
LTYPE
  2
DASHED
 70
    64
  3
破線A
 72
    65
 73
     2
 40
0.6
 49
0.4
 49
-0.2
  0
LTYPE
  2
DASHEDX2
 70
    64
  3
破線B
 72
    65
 73
     2
 40
1.3
 49
0.9
 49
-0.4
  0
LTYPE
  2
DASHDOT
 70
    64
  3
１点鎖線A
 72
    65
 73
     4
 40
0.5375
 49
0.375
 49
-0.05
 49
0.0625
 49
-0.05
  0
LTYPE
  2
DASHDOTX2
 70
    64
  3
１点鎖線B
 72
    65
 73
     4
 40
1.075
 49
0.75
 49
-0.1
 49
0.125
 49
-0.1
  0
LTYPE
  2
DIVIDE2
 70
    64
  3
２点鎖線A
 72
    65
 73
     6
 40
0.5125
 49
0.3
 49
-0.0375
 49
0.05
 49
-0.0375
 49
0.05
 49
-0.0375
  0
LTYPE
  2
DIVIDE
 70
    64
  3
２点鎖線B
 72
    65
 73
     6
 40
1.05
 49
0.55
 49
-0.1
 49
0.1
 49
-0.1
 49
0.1
 49
-0.1
  0
LTYPE
  2
DOT
 70
    64
  3
点線A
 72
    65
 73
     2
 40
0.1125
 49
0.0625
 49
-0.05
  0
LTYPE
  2
DOTX2
 70
    64
  3
点線B
 72
    65
 73
     2
 40
0.275
 49
0.15
 49
-0.125
  0
LTYPE
  2
CONTINUOUS
 70
    64
  3
実線
 72
    65
 73
     0
 40
0.0
  0
LTYPE
  2
CONTINUOUS
 70
    64
  3
実線
 72
    65
 73
     0
 40
0.0
  0
LTYPE
  2
CONTINUOUS
 70
    64
  3
実線
 72
    65
 73
     0
 40
0.0
  0
LTYPE
  2
CONTINUOUS
 70
    64
  3
実線
 72
    65
 73
     0
 40
0.0
  0
LTYPE
  2
CONTINUOUS
 70
    64
  3
実線
 72
    65
 73
     0
 40
0.0
  0
LTYPE
  2
CONTINUOUS
 70
    64
  3
実線
 72
    65
 73
     0
 40
0.0
  0
ENDTAB
  0
TABLE
  2
LAYER
 70
    34
  0
LAYER
  2
通り芯
 70
     0
 62
    15
  6
CONTINUOUS
  0
LAYER
  2
補助線
 70
     0
 62
    16
  6
CONTINUOUS
  0
LAYER
  2
躯体
 70
     0
 62
    31
  6
CONTINUOUS
  0
LAYER
  2
型材
 70
     0
 62
    32
  6
CONTINUOUS
  0
LAYER
  2
型材断面
 70
     0
 62
    47
  6
CONTINUOUS
  0
LAYER
  2
ガラス
 70
     0
 62
    48
  6
CONTINUOUS
  0
LAYER
  2
ゴム等
 70
     0
 62
    63
  6
CONTINUOUS
  0
LAYER
  2
ボルト／ビス
 70
     0
 62
    64
  6
CONTINUOUS
  0
LAYER
  2
文字
 70
     0
 62
    14
  6
CONTINUOUS
  0
LAYER
  2
寸法
 70
     0
 62
    29
  6
CONTINUOUS
  0
LAYER
  2
ﾊｯﾁﾝｸﾞ
 70
     0
 62
    95
  6
CONTINUOUS
  0
LAYER
  2
別途部材
 70
     0
 62
    96
  6
CONTINUOUS
  0
LAYER
  2
曲げ物
 70
     0
 62
   111
  6
CONTINUOUS
  0
LAYER
  2
鉄骨等
 70
     0
 62
   112
  6
CONTINUOUS
  0
LAYER
  2
St
 70
     0
 62
   127
  6
CONTINUOUS
  0
LAYER
  2
その他部品等
 70
     0
 62
   128
  6
CONTINUOUS
  0
LAYER
  2
ｶﾞｽｹｯﾄ
 70
     0
 62
   143
  6
CONTINUOUS
  0
LAYER
  2
細線01
 70
     0
 62
   144
  6
CONTINUOUS
  0
LAYER
  2
細線02
 70
     0
 62
   159
  6
CONTINUOUS
  0
LAYER
  2
ｽｹｯﾁ
 70
     0
 62
    19
  6
CONTINUOUS
  0
LAYER
  2
4
 70
     0
 62
     6
  6
CONTINUOUS
  0
LAYER
  2
ﾚｲﾔ3
 70
     0
 62
    15
  6
CONTINUOUS
  0
LAYER
  2
外形線
 70
     0
 62
     7
  6
CONTINUOUS
  0
LAYER
  2
部品
 70
     0
 62
    14
  6
CONTINUOUS
  0
LAYER
  2
サッシ芯
 70
     0
 62
    17
  6
DASHDOTX2
  0
LAYER
  2
寸法線
 70
     0
 62
    28
  6
CONTINUOUS
  0
LAYER
  2
姿図外形線
 70
     0
 62
   249
  6
CONTINUOUS
  0
LAYER
  2
姿補助線
 70
     0
 62
    30
  6
CONTINUOUS
  0
LAYER
  2
透視線
 70
     0
 62
     3
  6
DOT
  0
LAYER
  2
用紙
 70
     0
 62
     7
  6
CONTINUOUS
  0
LAYER
  2
実線図枠
 70
     0
 62
     3
  6
CONTINUOUS
  0
LAYER
  2
補助図枠
 70
     0
 62
     4
  6
CONTINUOUS
  0
LAYER
  2
建具記号
 70
     0
 62
     5
  6
CONTINUOUS
  0
LAYER
  2
補助文字
 70
     0
 62
    10
  6
CONTINUOUS
  0
ENDTAB
  0
TABLE
  2
STYLE
 70
    10
  0
STYLE
  2
STANDARD
 70
     0
 40
1.0
 41
1.0
 42
1.0
 50
0.0
 71
     0
  3
TXT
  4
BIGFONT
  0
STYLE
  2
TATE
 70
     4
 40
1.0
 41
1.0
 42
1.0
 50
0.0
 71
     0
  3
TXT
  4
BIGFONT
  0
STYLE
  2
TextStyle03
 70
     0
 40
1.0
 41
1.0
 42
1.0
 50
0.0
 71
     0
  3
MONOTXT
  4
BIGFONT
  0
STYLE
  2
TextStyle04
 70
     0
 40
1.0
 41
1.0
 42
1.0
 50
0.0
 71
     0
  3
MONOTXT
  4
BIGFONT
  0
STYLE
  2
TextStyle05
 70
     0
 40
1.0
 41
1.0
 42
1.0
 50
0.0
 71
     0
  3
MONOTXT
  4
BIGFONT
  0
STYLE
  2
TextStyle06
 70
     0
 40
1.0
 41
1.0
 42
1.0
 50
0.0
 71
     0
  3
MONOTXT
  4
BIGFONT
  0
STYLE
  2
TextStyle07
 70
     0
 40
1.0
 41
1.0
 42
1.0
 50
0.0
 71
     0
  3
MONOTXT
  4
BIGFONT
  0
STYLE
  2
TextStyle08
 70
     0
 40
1.0
 41
1.0
 42
1.0
 50
0.0
 71
     0
  3
MONOTXT
  4
BIGFONT
  0
STYLE
  2
TextStyle09
 70
     0
 40
1.0
 41
1.0
 42
1.0
 50
0.0
 71
     0
  3
MONOTXT
  4
BIGFONT
  0
STYLE
  2
TextStyle10
 70
     0
 40
1.0
 41
1.0
 42
1.0
 50
0.0
 71
     0
  3
MONOTXT
  4
BIGFONT
  0
ENDTAB
  0
ENDSEC
  0
SECTION
  2
BLOCKS
  0
BLOCK
  2
*GRP_0001
 70
    65
 10
0.0
 20
0.0
  0
LINE
  8
躯体
  6
CONTINUOUS
 62
    31
 10
374.500033
 20
-251.999995
 11
374.500033
 21
-281.999988
  0
LINE
  8
躯体
  6
CONTINUOUS
 62
    31
 10
254.50002
 20
-251.999995
 11
254.50002
 21
-281.999988
  0
LINE
  8
躯体
  6
CONTINUOUS
 62
    31
 10
154.50005
 20
-251.999995
 11
154.50005
 21
-281.999988
  0
LINE
  8
躯体
  6
CONTINUOUS
 62
    31
 10
63.500072
 20
-251.999995
 11
63.500072
 21
-281.999988
  0
LINE
  8
躯体
  6
CONTINUOUS
 62
    31
 10
23.500082
 20
-251.999995
 11
23.500082
 21
-281.999988
  0
LINE
  8
躯体
  6
CONTINUOUS
 62
    31
 10
-66.49994
 20
-251.999995
 11
-66.49994
 21
-281.999988
  0
LINE
  8
躯体
  6
CONTINUOUS
 62
    31
 10
234.500025
 20
-251.999995
 11
234.500025
 21
-281.999988
  0
LINE
  8
躯体
  6
CONTINUOUS
 62
    31
 10
214.50003
 20
-251.999995
 11
214.50003
 21
-281.999988
  0
LINE
  8
躯体
  6
CONTINUOUS
 62
    31
 10
194.500037
 20
-251.999995
 11
194.500037
 21
-281.999988
  0
LINE
  8
躯体
  6
CONTINUOUS
 62
    31
 10
174.500043
 20
-251.999995
 11
174.500043
 21
-281.999988
  0
LINE
  8
躯体
  6
CONTINUOUS
 62
    31
 10
154.50005
 20
-259.0
 11
254.50002
 21
-259.0
  0
LINE
  8
躯体
  6
CONTINUOUS
 62
    31
 10
-66.49994
 20
-267.000005
 11
63.500072
 21
-267.000005
  0
LINE
  8
躯体
  6
CONTINUOUS
 62
    31
 10
-375.499978
 20
-251.999995
 11
-375.499978
 21
-282.0
  0
LINE
  8
躯体
  6
CONTINUOUS
 62
    31
 10
-360.49997
 20
-251.999995
 11
-360.49997
 21
-282.0
  0
LINE
  8
躯体
  6
CONTINUOUS
 62
    31
 10
-239.50005
 20
-251.999995
 11
-239.50005
 21
-282.0
  0
LINE
  8
躯体
  6
CONTINUOUS
 62
    31
 10
-382.999975
 20
-257.231555
 11
-377.999978
 21
-257.231555
  0
LINE
  8
躯体
  6
CONTINUOUS
 62
    31
 10
-377.999978
 20
-257.231555
 11
-380.499975
 21
-252.901428
  0
LINE
  8
躯体
  6
CONTINUOUS
 62
    31
 10
-380.499975
 20
-252.901428
 11
-382.999975
 21
-257.231555
  0
LINE
  8
躯体
  6
CONTINUOUS
 62
    31
 10
-382.999988
 20
-263.231555
 11
-377.99999
 21
-263.231555
  0
LINE
  8
躯体
  6
CONTINUOUS
 62
    31
 10
-377.99999
 20
-263.231555
 11
-380.499988
 21
-258.901428
  0
LINE
  8
躯体
  6
CONTINUOUS
 62
    31
 10
-380.499988
 20
-258.901428
 11
-382.999988
 21
-263.231555
  0
LINE
  8
躯体
  6
CONTINUOUS
 62
    31
 10
-383.0
 20
-269.231555
 11
-378.000003
 21
-269.231555
  0
LINE
  8
躯体
  6
CONTINUOUS
 62
    31
 10
-378.000003
 20
-269.231555
 11
-380.499988
 21
-264.901428
  0
LINE
  8
躯体
  6
CONTINUOUS
 62
    31
 10
-380.499988
 20
-264.901428
 11
-383.0
 21
-269.231555
  0
LINE
  8
躯体
  6
CONTINUOUS
 62
    31
 10
-383.0
 20
-275.231555
 11
-378.000003
 21
-275.231555
  0
LINE
  8
躯体
  6
CONTINUOUS
 62
    31
 10
-378.000003
 20
-275.231555
 11
-380.5
 21
-270.901428
  0
LINE
  8
躯体
  6
CONTINUOUS
 62
    31
 10
-380.5
 20
-270.901428
 11
-383.0
 21
-275.231555
  0
LINE
  8
躯体
  6
CONTINUOUS
 62
    31
 10
-383.000012
 20
-281.231555
 11
-378.000015
 21
-281.231555
  0
LINE
  8
躯体
  6
CONTINUOUS
 62
    31
 10
-378.000015
 20
-281.231555
 11
-380.500012
 21
-276.901428
  0
LINE
  8
躯体
  6
CONTINUOUS
 62
    31
 10
-380.500012
 20
-276.901428
 11
-383.000012
 21
-281.231555
  0
LINE
  8
躯体
  6
CONTINUOUS
 62
    31
 10
-385.499988
 20
-251.999995
 11
-385.499988
 21
-282.0
  0
LINE
  8
躯体
  6
CONTINUOUS
 62
    31
 10
-229.500053
 20
-251.999995
 11
-229.500053
 21
-282.0
  0
LINE
  8
躯体
  6
CONTINUOUS
 62
    31
 10
-395.499985
 20
282.000017
 11
-395.499985
 21
-281.99998
  0
LINE
  8
躯体
  6
CONTINUOUS
 62
    31
 10
404.500023
 20
282.000017
 11
404.500023
 21
-282.0
  0
LINE
  8
躯体
  6
CONTINUOUS
 62
    31
 10
404.500023
 20
282.000017
 11
-395.499985
 21
282.000017
  0
LINE
  8
躯体
  6
CONTINUOUS
 62
    31
 10
404.500023
 20
-282.0
 11
-395.499985
 21
-282.0
  0
LINE
  8
躯体
  6
CONTINUOUS
 62
    31
 10
404.500023
 20
-251.999995
 11
-395.499985
 21
-251.999995
  0
LINE
  8
躯体
  6
CONTINUOUS
 62
    31
 10
254.50002
 20
-272.0
 11
374.500033
 21
-272.0
  0
LINE
  8
躯体
  6
CONTINUOUS
 62
    31
 10
63.500072
 20
-262.0
 11
154.50005
 21
-262.0
  0
LINE
  8
躯体
  6
CONTINUOUS
 62
    31
 10
63.500072
 20
-272.0
 11
154.50005
 21
-272.0
  0
LINE
  8
躯体
  6
CONTINUOUS
 62
    31
 10
-385.499988
 20
-258.0
 11
-239.50005
 21
-258.0
  0
LINE
  8
躯体
  6
CONTINUOUS
 62
    31
 10
-385.499988
 20
-264.0
 11
-239.50005
 21
-264.0
  0
LINE
  8
躯体
  6
CONTINUOUS
 62
    31
 10
-385.499988
 20
-270.0
 11
-239.50005
 21
-270.0
  0
LINE
  8
躯体
  6
CONTINUOUS
 62
    31
 10
-385.499988
 20
-276.0
 11
-239.50005
 21
-276.0
  0
LINE
  8
躯体
  6
CONTINUOUS
 62
    31
 10
-229.500053
 20
-276.0
 11
-66.49994
 21
-276.0
  0
LINE
  8
躯体
  6
CONTINUOUS
 62
    31
 10
-229.500053
 20
-270.0
 11
-66.49994
 21
-270.0
  0
LINE
  8
躯体
  6
CONTINUOUS
 62
    31
 10
-229.500053
 20
-264.0
 11
-66.49994
 21
-264.0
  0
LINE
  8
躯体
  6
CONTINUOUS
 62
    31
 10
-229.500053
 20
-258.0
 11
-66.49994
 21
-258.0
  0
LINE
  8
躯体
  6
CONTINUOUS
 62
    31
 10
-395.499985
 20
282.000017
 11
-395.499985
 21
-281.99998
  0
LINE
  8
躯体
  6
CONTINUOUS
 62
    31
 10
-395.499985
 20
-281.99998
 11
404.500023
 21
-281.99998
  0
LINE
  8
躯体
  6
CONTINUOUS
 62
    31
 10
404.500023
 20
-281.99998
 11
404.500023
 21
282.000017
  0
LINE
  8
躯体
  6
CONTINUOUS
 62
    31
 10
404.500023
 20
282.000017
 11
-395.499985
 21
282.000017
  0
LINE
  8
躯体
  6
CONTINUOUS
 62
    31
 10
404.500023
 20
-251.999995
 11
-395.499985
 21
-251.999995
  0
LINE
  8
躯体
  6
CONTINUOUS
 62
    31
 10
-385.499988
 20
-251.999995
 11
-385.499988
 21
-282.0
  0
LINE
  8
躯体
  6
CONTINUOUS
 62
    31
 10
-375.49994
 20
-251.999995
 11
-375.49994
 21
-282.0
  0
LINE
  8
躯体
  6
CONTINUOUS
 62
    31
 10
-360.49997
 20
-251.999995
 11
-360.49997
 21
-282.0
  0
LINE
  8
躯体
  6
CONTINUOUS
 62
    31
 10
-239.50005
 20
-251.999995
 11
-239.50005
 21
-281.99998
  0
LINE
  8
躯体
  6
CONTINUOUS
 62
    31
 10
-229.500053
 20
-251.999995
 11
-229.500053
 21
-282.0
  0
LINE
  8
躯体
  6
CONTINUOUS
 62
    31
 10
-66.49994
 20
-251.999995
 11
-66.49994
 21
-282.0
  0
LINE
  8
躯体
  6
CONTINUOUS
 62
    31
 10
23.500082
 20
-251.999995
 11
23.500082
 21
-282.0
  0
LINE
  8
躯体
  6
CONTINUOUS
 62
    31
 10
63.500072
 20
-251.999995
 11
63.500072
 21
-281.99998
  0
LINE
  8
躯体
  6
CONTINUOUS
 62
    31
 10
154.50005
 20
-251.999995
 11
154.50005
 21
-281.999988
  0
LINE
  8
躯体
  6
CONTINUOUS
 62
    31
 10
174.500043
 20
-251.999995
 11
174.500043
 21
-282.0
  0
LINE
  8
躯体
  6
CONTINUOUS
 62
    31
 10
194.500037
 20
-251.999995
 11
194.500037
 21
-281.99998
  0
LINE
  8
躯体
  6
CONTINUOUS
 62
    31
 10
214.50003
 20
-251.999995
 11
214.50003
 21
-281.99998
  0
LINE
  8
躯体
  6
CONTINUOUS
 62
    31
 10
234.500025
 20
-251.999995
 11
234.500025
 21
-281.99998
  0
LINE
  8
躯体
  6
CONTINUOUS
 62
    31
 10
254.50002
 20
-251.999995
 11
254.50002
 21
-281.999988
  0
LINE
  8
躯体
  6
CONTINUOUS
 62
    31
 10
374.500033
 20
-251.999995
 11
374.500033
 21
-282.0
  0
LINE
  8
躯体
  6
CONTINUOUS
 62
    31
 10
-385.499988
 20
-258.0
 11
-239.50005
 21
-258.0
  0
LINE
  8
躯体
  6
CONTINUOUS
 62
    31
 10
-239.50005
 20
-264.0
 11
-385.499988
 21
-264.0
  0
LINE
  8
躯体
  6
CONTINUOUS
 62
    31
 10
-385.499988
 20
-270.0
 11
-239.50005
 21
-270.0
  0
LINE
  8
躯体
  6
CONTINUOUS
 62
    31
 10
-239.50005
 20
-276.0
 11
-385.499988
 21
-276.0
  0
LINE
  8
躯体
  6
CONTINUOUS
 62
    31
 10
-229.500053
 20
-258.0
 11
-66.49994
 21
-258.0
  0
LINE
  8
躯体
  6
CONTINUOUS
 62
    31
 10
-66.49994
 20
-264.0
 11
-229.500053
 21
-264.0
  0
LINE
  8
躯体
  6
CONTINUOUS
 62
    31
 10
-229.500053
 20
-270.0
 11
-66.49994
 21
-270.0
  0
LINE
  8
躯体
  6
CONTINUOUS
 62
    31
 10
-66.49994
 20
-276.0
 11
-229.500053
 21
-276.0
  0
LINE
  8
躯体
  6
CONTINUOUS
 62
    31
 10
-66.49994
 20
-267.000005
 11
63.500072
 21
-267.000005
  0
LINE
  8
躯体
  6
CONTINUOUS
 62
    31
 10
63.500072
 20
-262.0
 11
154.50005
 21
-262.0
  0
LINE
  8
躯体
  6
CONTINUOUS
 62
    31
 10
154.50005
 20
-272.0
 11
63.500072
 21
-272.0
  0
LINE
  8
躯体
  6
CONTINUOUS
 62
    31
 10
154.50005
 20
-259.0
 11
254.50002
 21
-259.0
  0
LINE
  8
躯体
  6
CONTINUOUS
 62
    31
 10
254.50002
 20
-272.0
 11
374.500033
 21
-272.0
  0
LINE
  8
躯体
  6
CONTINUOUS
 62
    31
 10
389.770925
 20
-177.427528
 11
401.770882
 21
-177.427528
  0
LINE
  8
躯体
  6
CONTINUOUS
 62
    31
 10
389.770925
 20
-192.266918
 11
401.770882
 21
-192.266918
  0
LINE
  8
躯体
  6
CONTINUOUS
 62
    31
 10
389.770925
 20
-207.106308
 11
401.770882
 21
-207.106308
  0
LINE
  8
躯体
  6
CONTINUOUS
 62
    31
 10
389.770925
 20
-221.945695
 11
401.770882
 21
-221.945695
  0
CIRCLE
  8
躯体
  6
CONTINUOUS
 62
    31
 10
395.770905
 20
-177.427528
 40
6.0
  0
CIRCLE
  8
躯体
  6
CONTINUOUS
 62
    31
 10
395.770905
 20
-192.266918
 40
6.0
  0
CIRCLE
  8
躯体
  6
CONTINUOUS
 62
    31
 10
395.770905
 20
-207.106308
 40
6.0
  0
CIRCLE
  8
躯体
  6
CONTINUOUS
 62
    31
 10
395.770905
 20
-221.945695
 40
6.0
  0
TEXT
  7
TextStyle03
  8
躯体
  6
CONTINUOUS
 62
    31
 10
-381.25
 20
-257.125
  1
5
 40
3.0
 72
     5
 11
-379.75
 21
-257.125
  0
TEXT
  7
TextStyle03
  8
躯体
  6
CONTINUOUS
 62
    31
 10
-381.25
 20
-263.125
  1
4
 40
3.0
 72
     5
 11
-379.75
 21
-263.125
  0
TEXT
  7
TextStyle03
  8
躯体
  6
CONTINUOUS
 62
    31
 10
-381.25
 20
-269.125
  1
3
 40
3.0
 72
     5
 11
-379.75
 21
-269.125
  0
TEXT
  7
TextStyle03
  8
躯体
  6
CONTINUOUS
 62
    31
 10
-381.25
 20
-275.125
  1
2
 40
3.0
 72
     5
 11
-379.75
 21
-275.125
  0
TEXT
  7
TextStyle03
  8
躯体
  6
CONTINUOUS
 62
    31
 10
-381.25
 20
-281.125
  1
1
 40
3.0
 72
     5
 11
-379.75
 21
-281.125
  0
TEXT
  7
TextStyle03
  8
躯体
  6
CONTINUOUS
 62
    31
 10
-375.0
 20
-257.5
  1
   ,  ,  
 40
3.0
 72
     5
 11
-361.5
 21
-257.5
  0
TEXT
  7
TextStyle03
  8
躯体
  6
CONTINUOUS
 62
    31
 10
-375.0
 20
-263.5
  1
   ,  ,  
 40
3.0
 72
     5
 11
-361.5
 21
-263.5
  0
TEXT
  7
TextStyle03
  8
躯体
  6
CONTINUOUS
 62
    31
 10
-375.0
 20
-269.5
  1
   ,  ,  
 40
3.0
 72
     5
 11
-361.5
 21
-269.5
  0
TEXT
  7
TextStyle03
  8
躯体
  6
CONTINUOUS
 62
    31
 10
-375.0
 20
-275.5
  1
   ,  ,  
 40
3.0
 72
     5
 11
-361.5
 21
-275.5
  0
TEXT
  7
TextStyle03
  8
躯体
  6
CONTINUOUS
 62
    31
 10
-375.0
 20
-281.5
  1
   ,  ,  
 40
3.0
 72
     5
 11
-361.5
 21
-281.5
  0
TEXT
  7
TextStyle03
  8
躯体
  6
CONTINUOUS
 62
    31
 10
-65.45
 20
-256.45
  1
設計監理
 40
3.5
 72
     5
 11
-51.45
 21
-256.45
  0
TEXT
  7
TextStyle03
  8
躯体
  6
CONTINUOUS
 62
    31
 10
-65.45
 20
-271.625
  1
施　　工
 40
3.5
 72
     5
 11
-51.45
 21
-271.625
  0
TEXT
  7
TextStyle03
  8
躯体
  6
CONTINUOUS
 62
    31
 10
16.3
 20
-264.025
  1
殿
 40
5.0
 72
     5
 11
21.3
 21
-264.025
  0
TEXT
  7
TextStyle03
  8
躯体
  6
CONTINUOUS
 62
    31
 10
16.3
 20
-279.025
  1
殿
 40
5.0
 72
     5
 11
21.3
 21
-279.025
  0
TEXT
  7
TextStyle03
  8
躯体
  6
CONTINUOUS
 62
    31
 10
45.5
 20
-266.525
  1
月　　日
 40
4.0
 72
     5
 11
63.0
 21
-266.525
  0
TEXT
  7
TextStyle03
  8
躯体
  6
CONTINUOUS
 62
    31
 10
45.5
 20
-281.5
  1
月　　日
 40
4.0
 72
     5
 11
63.0
 21
-281.5
  0
TEXT
  7
TextStyle03
  8
躯体
  6
CONTINUOUS
 62
    31
 10
159.925
 20
-281.125
  1
　月　日
 40
3.5
 72
     5
 11
173.925
 21
-281.125
  0
TEXT
  7
TextStyle03
  8
躯体
  6
CONTINUOUS
 62
    31
 10
179.925
 20
-281.125
  1
　月　日
 40
3.5
 72
     5
 11
193.925
 21
-281.125
  0
TEXT
  7
TextStyle03
  8
躯体
  6
CONTINUOUS
 62
    31
 10
199.925
 20
-281.125
  1
　月　日
 40
3.5
 72
     5
 11
213.925
 21
-281.125
  0
TEXT
  7
TextStyle03
  8
躯体
  6
CONTINUOUS
 62
    31
 10
219.925
 20
-281.125
  1
　月　日
 40
3.5
 72
     5
 11
233.925
 21
-281.125
  0
TEXT
  7
TextStyle03
  8
躯体
  6
CONTINUOUS
 62
    31
 10
197.35
 20
-257.4
  1
照　査
 40
4.0
 72
     5
 11
210.35
 21
-257.4
  0
TEXT
  7
TextStyle03
  8
躯体
  6
CONTINUOUS
 62
    31
 10
216.6
 20
-257.2
  1
担　当
 40
4.0
 72
     5
 11
229.6
 21
-257.2
  0
TEXT
  7
TextStyle03
  8
躯体
  6
CONTINUOUS
 62
    31
 10
236.225
 20
-257.0
  1
縮　尺
 40
4.0
 72
     5
 11
249.225
 21
-257.0
  0
TEXT
  7
TextStyle03
  8
躯体
  6
CONTINUOUS
 62
    31
 10
236.625
 20
-266.225
  1
１：１
 40
4.0
 72
     5
 11
249.625
 21
-266.225
  0
TEXT
  7
TextStyle03
  8
躯体
  6
CONTINUOUS
 62
    31
 10
236.425
 20
-272.65
  1
　：　
 40
4.0
 72
     5
 11
249.425
 21
-272.65
  0
TEXT
  7
TextStyle03
  8
躯体
  6
CONTINUOUS
 62
    31
 10
236.425
 20
-279.25
  1
　：　
 40
4.0
 72
     5
 11
249.425
 21
-279.25
  0
TEXT
  7
TextStyle03
  8
躯体
  6
CONTINUOUS
 62
    31
 10
256.875
 20
-258.05
  1
工事名
 40
4.0
 72
     5
 11
269.875
 21
-258.05
  0
TEXT
  7
TextStyle03
  8
躯体
  6
CONTINUOUS
 62
    31
 10
256.6
 20
-278.025
  1
図面名
 40
4.0
 72
     5
 11
269.6
 21
-278.025
  0
TEXT
  7
TextStyle03
  8
躯体
  6
CONTINUOUS
 62
    31
 10
375.675
 20
-257.25
  1
図番
 40
4.0
 72
     5
 11
384.175
 21
-257.25
  0
TEXT
  7
TextStyle03
  8
躯体
  6
CONTINUOUS
 62
    31
 10
393.025
 20
-281.175
  1
枚の内
 40
3.5
 72
     5
 11
403.525
 21
-281.175
  0
TEXT
  7
TextStyle04
  8
躯体
  6
CONTINUOUS
 62
    31
 10
76.15
 20
-259.85
  1
特殊技研金属株式会社
 40
6.0
 72
     5
 11
145.15
 21
-259.85
  0
TEXT
  7
TATE
  8
躯体
  6
CONTINUOUS
 62
    31
 10
-234.7
 20
-254.525
  1
特　記　事　項
 40
3.5
 72
     5
 11
-234.7
 21
-279.025
  0
TEXT
  7
TATE
  8
躯体
  6
CONTINUOUS
 62
    31
 10
-390.4
 20
-259.525
  1
訂　　正
 40
3.5
 72
     5
 11
-390.4
 21
-273.525
  0
ENDBLK
  0
BLOCK
  2
*GRP_0002
 70
    65
 10
0.0
 20
0.0
  0
LINE
  8
補助線
  6
DOT
 62
    32
 10
-50.0654
 20
-165.69195
 11
-55.0654
 21
-165.69195
  0
LINE
  8
補助線
  6
DOT
 62
    32
 10
-52.5654
 20
-163.19195
 11
-52.5654
 21
-168.19195
  0
ENDBLK
  0
BLOCK
  2
*GRP_0003
 70
    65
 10
0.0
 20
0.0
  0
LINE
  8
補助線
  6
DOT
 62
    32
 10
29.9346
 20
-165.69195
 11
24.9346
 21
-165.69195
  0
LINE
  8
補助線
  6
DOT
 62
    32
 10
27.4346
 20
-163.19195
 11
27.4346
 21
-168.19195
  0
ENDBLK
  0
BLOCK
  2
*GRP_0004
 70
    65
 10
0.0
 20
0.0
  0
LINE
  8
補助線
  6
DOT
 62
    32
 10
-50.0654
 20
-40.69195
 11
-55.0654
 21
-40.69195
  0
LINE
  8
補助線
  6
DOT
 62
    32
 10
-52.5654
 20
-43.19195
 11
-52.5654
 21
-38.19195
  0
ENDBLK
  0
BLOCK
  2
*GRP_0005
 70
    65
 10
0.0
 20
0.0
  0
LINE
  8
補助線
  6
DOT
 62
    32
 10
29.9346
 20
-40.69195
 11
24.9346
 21
-40.69195
  0
LINE
  8
補助線
  6
DOT
 62
    32
 10
27.4346
 20
-43.19195
 11
27.4346
 21
-38.19195
  0
ENDBLK
  0
BLOCK
  2
*DIM_0006
 70
    65
 10
0.0
 20
0.0
  0
LINE
  8
寸法
  6
CONTINUOUS
 10
13.4346
 20
-55.69195
 11
3.443288
 21
-55.69195
  0
LINE
  8
寸法
  6
CONTINUOUS
 10
3.443288
 20
-28.19195
 11
3.443288
 21
-55.69195
  0
POINT
  8
寸法
 10
3.443288
 20
-28.19195
  0
POINT
  8
寸法
 10
3.443288
 20
-55.69195
  0
TEXT
  7
TextStyle03
  8
寸法
  6
CONTINUOUS
 10
3.05
 20
-44.05
  1
55
 40
4.0
 50
90.0
 72
     5
 11
3.05
 21
-39.8
  0
ENDBLK
  0
BLOCK
  2
*DIM_0007
 70
    65
 10
0.0
 20
0.0
  0
LINE
  8
寸法
  6
CONTINUOUS
 10
12.4346
 20
-73.19195
 11
3.443288
 21
-73.19195
  0
LINE
  8
寸法
  6
CONTINUOUS
 10
3.443288
 20
-55.69195
 11
3.443288
 21
-73.19195
  0
POINT
  8
寸法
 10
3.443288
 20
-73.19195
  0
TEXT
  7
TextStyle03
  8
寸法
  6
CONTINUOUS
 10
3.05
 20
-66.55
  1
35
 40
4.0
 50
90.0
 72
     5
 11
3.05
 21
-62.3
  0
ENDBLK
  0
BLOCK
  2
*DIM_0008
 70
    65
 10
0.0
 20
0.0
  0
LINE
  8
寸法
  6
CONTINUOUS
 10
12.4346
 20
-90.69195
 11
3.443288
 21
-90.69195
  0
LINE
  8
寸法
  6
CONTINUOUS
 10
3.443288
 20
-73.19195
 11
3.443288
 21
-90.69195
  0
POINT
  8
寸法
 10
3.443288
 20
-90.69195
  0
TEXT
  7
TextStyle03
  8
寸法
  6
CONTINUOUS
 10
3.05
 20
-84.05
  1
35
 40
4.0
 50
90.0
 72
     5
 11
3.05
 21
-79.8
  0
ENDBLK
  0
BLOCK
  2
*DIM_0009
 70
    65
 10
0.0
 20
0.0
  0
LINE
  8
寸法
  6
CONTINUOUS
 10
13.6846
 20
-108.19195
 11
3.443288
 21
-108.19195
  0
LINE
  8
寸法
  6
CONTINUOUS
 10
3.443288
 20
-90.69195
 11
3.443288
 21
-108.19195
  0
POINT
  8
寸法
 10
3.443288
 20
-108.19195
  0
TEXT
  7
TextStyle03
  8
寸法
  6
CONTINUOUS
 10
3.05
 20
-101.55
  1
35
 40
4.0
 50
90.0
 72
     5
 11
3.05
 21
-97.3
  0
ENDBLK
  0
BLOCK
  2
*DIM_0010
 70
    65
 10
0.0
 20
0.0
  0
LINE
  8
寸法
  6
CONTINUOUS
 10
-25.0654
 20
-43.19195
 11
-29.197148
 21
-43.19195
  0
LINE
  8
寸法
  6
CONTINUOUS
 10
-29.197148
 20
-28.19195
 11
-29.197148
 21
-43.19195
  0
POINT
  8
寸法
 10
-29.197148
 20
-28.19195
  0
POINT
  8
寸法
 10
-29.197148
 20
-43.19195
  0
TEXT
  7
TextStyle03
  8
寸法
  6
CONTINUOUS
 10
-29.575
 20
-37.8
  1
30
 40
4.0
 50
90.0
 72
     5
 11
-29.575
 21
-33.55
  0
ENDBLK
  0
BLOCK
  2
*GRP_0011
 70
    65
 10
0.0
 20
0.0
  0
POLYLINE
  8
寸法
  6
CONTINUOUS
 66
     1
  0
VERTEX
  8
寸法
 10
-16.168877
 20
-40.474168
  0
VERTEX
  8
寸法
 10
-3.031123
 20
-15.332842
  0
VERTEX
  8
寸法
 10
51.856632
 20
-15.332842
  0
SEQEND
  0
ENDBLK
  0
BLOCK
  2
*GRP_0012
 70
    65
 10
0.0
 20
0.0
  0
POLYLINE
  8
寸法
  6
CONTINUOUS
 66
     1
  0
VERTEX
  8
寸法
 10
202.80092
 20
-144.273745
  0
VERTEX
  8
寸法
 10
206.968368
 20
-136.322458
  0
VERTEX
  8
寸法
 10
209.809807
 20
-136.322458
  0
SEQEND
  0
ENDBLK
  0
BLOCK
  2
*GRP_0013
 70
    65
 10
0.0
 20
0.0
  0
POLYLINE
  8
寸法
  6
CONTINUOUS
 66
     1
  0
VERTEX
  8
寸法
 10
-237.604945
 20
-105.566752
  0
VERTEX
  8
寸法
 10
-239.615515
 20
-117.00064
  0
VERTEX
  8
寸法
 10
-243.025245
 20
-117.00064
  0
SEQEND
  0
ENDBLK
  0
BLOCK
  2
*GRP_0014
 70
    65
 10
0.0
 20
0.0
  0
POLYLINE
  8
寸法
  6
CONTINUOUS
 66
     1
  0
VERTEX
  8
寸法
 10
-52.5654
 20
-165.69195
  0
VERTEX
  8
寸法
 10
-61.414285
 20
-191.930102
  0
VERTEX
  8
寸法
 10
-75.55255
 20
-191.930102
  0
SEQEND
  0
ENDBLK
  0
BLOCK
  2
*GRP_0015
 70
    65
 10
0.0
 20
0.0
  0
POLYLINE
  8
寸法
  6
CONTINUOUS
 66
     1
  0
VERTEX
  8
寸法
 10
24.245917
 20
-56.554593
  0
VERTEX
  8
寸法
 10
49.21556
 20
-81.524235
  0
VERTEX
  8
寸法
 10
55.669388
 20
-81.524235
  0
SEQEND
  0
ENDBLK
  0
BLOCK
  2
*GRP_0016
 70
    65
 10
0.0
 20
0.0
  0
POLYLINE
  8
寸法
  6
CONTINUOUS
 66
     1
  0
VERTEX
  8
寸法
 10
24.465305
 20
-73.82347
  0
VERTEX
  8
寸法
 10
48.205103
 20
-97.563265
  0
VERTEX
  8
寸法
 10
55.444897
 20
-97.563265
  0
SEQEND
  0
ENDBLK
  0
BLOCK
  2
*GRP_0017
 70
    65
 10
0.0
 20
0.0
  0
POLYLINE
  8
寸法
  6
CONTINUOUS
 66
     1
  0
VERTEX
  8
寸法
 10
24.465305
 20
-91.32347
  0
VERTEX
  8
寸法
 10
48.205103
 20
-115.063265
  0
VERTEX
  8
寸法
 10
55.444897
 20
-115.063265
  0
SEQEND
  0
ENDBLK
  0
BLOCK
  2
*GRP_0018
 70
    65
 10
0.0
 20
0.0
  0
POLYLINE
  8
寸法
  6
CONTINUOUS
 66
     1
  0
VERTEX
  8
寸法
 10
24.465305
 20
-108.82347
  0
VERTEX
  8
寸法
 10
48.205103
 20
-132.563265
  0
VERTEX
  8
寸法
 10
55.444897
 20
-132.563265
  0
SEQEND
  0
ENDBLK
  0
BLOCK
  2
*DIM_0019
 70
    65
 10
0.0
 20
0.0
  0
LINE
  8
寸法
  6
CONTINUOUS
 10
22.4346
 20
-126.033788
 11
22.4346
 21
-136.290302
  0
LINE
  8
寸法
  6
CONTINUOUS
 10
42.4346
 20
-136.290302
 11
22.4346
 21
-136.290302
  0
POINT
  8
寸法
 10
42.4346
 20
-136.290302
  0
POINT
  8
寸法
 10
22.4346
 20
-136.290302
  0
TEXT
  7
TextStyle03
  8
寸法
  6
CONTINUOUS
 10
30.3
 20
-135.9
  1
40
 40
4.0
 72
     5
 11
34.55
 21
-135.9
  0
ENDBLK
  0
BLOCK
  2
*DIM_0020
 70
    65
 10
0.0
 20
0.0
  0
LINE
  8
寸法
  6
CONTINUOUS
 10
-67.5654
 20
-183.19195
 11
-67.5654
 21
-206.27519
  0
LINE
  8
寸法
  6
CONTINUOUS
 10
42.4346
 20
-183.19195
 11
42.4346
 21
-206.27519
  0
LINE
  8
寸法
  6
CONTINUOUS
 10
-67.5654
 20
-206.27519
 11
42.4346
 21
-206.27519
  0
POINT
  8
寸法
 10
-67.5654
 20
-206.27519
  0
POINT
  8
寸法
 10
42.4346
 20
-206.27519
  0
TEXT
  7
TextStyle03
  8
寸法
  6
CONTINUOUS
 10
-17.4375
 20
-205.925
  1
220
 40
6.0
 72
     5
 11
-7.7125
 21
-205.925
  0
ENDBLK
  0
BLOCK
  2
*DIM_0021
 70
    65
 10
0.0
 20
0.0
  0
LINE
  8
寸法
  6
CONTINUOUS
 10
-72.5654
 20
-28.19195
 11
-121.913242
 21
-28.19195
  0
LINE
  8
寸法
  6
CONTINUOUS
 10
-72.5654
 20
-178.19195
 11
-121.913242
 21
-178.19195
  0
LINE
  8
寸法
  6
CONTINUOUS
 10
-121.913242
 20
-28.19195
 11
-121.913242
 21
-178.19195
  0
POINT
  8
寸法
 10
-121.913242
 20
-28.19195
  0
POINT
  8
寸法
 10
-121.913242
 20
-178.19195
  0
TEXT
  7
TextStyle03
  8
寸法
  6
CONTINUOUS
 10
-122.3
 20
-108.0625
  1
300
 40
6.0
 50
90.0
 72
     5
 11
-122.3
 21
-98.3375
  0
ENDBLK
  0
BLOCK
  2
*DIM_0022
 70
    65
 10
0.0
 20
0.0
  0
LINE
  8
寸法
  6
CONTINUOUS
 10
-72.5654
 20
-28.19195
 11
-106.593912
 21
-28.19195
  0
LINE
  8
寸法
  6
CONTINUOUS
 10
-60.0654
 20
-40.69195
 11
-106.593912
 21
-40.69195
  0
LINE
  8
寸法
  6
CONTINUOUS
 10
-106.593912
 20
-28.19195
 11
-106.593912
 21
-40.69195
  0
POINT
  8
寸法
 10
-106.593912
 20
-28.19195
  0
POINT
  8
寸法
 10
-106.593912
 20
-40.69195
  0
TEXT
  7
TextStyle03
  8
寸法
  6
CONTINUOUS
 10
-106.975
 20
-37.63125
  1
25
 40
6.0
 50
90.0
 72
     5
 11
-106.975
 21
-31.26875
  0
ENDBLK
  0
BLOCK
  2
*DIM_0023
 70
    65
 10
0.0
 20
0.0
  0
LINE
  8
寸法
  6
CONTINUOUS
 10
-72.5654
 20
-178.19195
 11
-106.593912
 21
-178.19195
  0
LINE
  8
寸法
  6
CONTINUOUS
 10
-106.593912
 20
-165.69195
 11
-106.593912
 21
-178.19195
  0
POINT
  8
寸法
 10
-106.593912
 20
-178.19195
  0
TEXT
  7
TextStyle03
  8
寸法
  6
CONTINUOUS
 10
-106.975
 20
-175.13125
  1
25
 40
6.0
 50
90.0
 72
     5
 11
-106.975
 21
-168.76875
  0
ENDBLK
  0
BLOCK
  2
*DIM_0024
 70
    65
 10
0.0
 20
0.0
  0
LINE
  8
寸法
  6
CONTINUOUS
 10
-67.5654
 20
-23.19195
 11
-67.5654
 21
-4.853
  0
LINE
  8
寸法
  6
CONTINUOUS
 10
-52.5654
 20
-33.19195
 11
-52.5654
 21
-4.853
  0
LINE
  8
寸法
  6
CONTINUOUS
 10
-67.5654
 20
-4.853
 11
-52.5654
 21
-4.853
  0
POINT
  8
寸法
 10
-67.5654
 20
-4.853
  0
POINT
  8
寸法
 10
-52.5654
 20
-4.853
  0
TEXT
  7
TextStyle03
  8
寸法
  6
CONTINUOUS
 10
-63.25625
 20
-4.5
  1
30
 40
6.0
 72
     5
 11
-56.89375
 21
-4.5
  0
ENDBLK
  0
BLOCK
  2
*DIM_0025
 70
    65
 10
0.0
 20
0.0
  0
LINE
  8
寸法
  6
CONTINUOUS
 10
42.4346
 20
-23.19195
 11
42.4346
 21
-4.853
  0
LINE
  8
寸法
  6
CONTINUOUS
 10
27.4346
 20
-4.853
 11
42.4346
 21
-4.853
  0
POINT
  8
寸法
 10
42.4346
 20
-4.853
  0
TEXT
  7
TextStyle03
  8
寸法
  6
CONTINUOUS
 10
31.74375
 20
-4.5
  1
30
 40
6.0
 72
     5
 11
38.10625
 21
-4.5
  0
ENDBLK
  0
BLOCK
  2
*DIM_0026
 70
    65
 10
0.0
 20
0.0
  0
LINE
  8
寸法
  6
CONTINUOUS
 10
186.734455
 20
-28.19195
 11
158.16405
 21
-28.19195
  0
LINE
  8
寸法
  6
CONTINUOUS
 10
186.734455
 20
-178.19195
 11
158.16405
 21
-178.19195
  0
LINE
  8
寸法
  6
CONTINUOUS
 10
158.16405
 20
-28.19195
 11
158.16405
 21
-178.19195
  0
POINT
  8
寸法
 10
158.16405
 20
-28.19195
  0
POINT
  8
寸法
 10
158.16405
 20
-178.19195
  0
TEXT
  7
TextStyle03
  8
寸法
  6
CONTINUOUS
 10
157.775
 20
-108.0625
  1
300
 40
6.0
 50
90.0
 72
     5
 11
157.775
 21
-98.3375
  0
ENDBLK
  0
BLOCK
  2
*DIM_0027
 70
    65
 10
0.0
 20
0.0
  0
LINE
  8
寸法
  6
CONTINUOUS
 10
203.434455
 20
-28.19195
 11
292.594485
 21
-28.19195
  0
LINE
  8
寸法
  6
CONTINUOUS
 10
210.734455
 20
-53.19195
 11
292.594485
 21
-53.19195
  0
LINE
  8
寸法
  6
CONTINUOUS
 10
292.594485
 20
-28.19195
 11
292.594485
 21
-53.19195
  0
POINT
  8
寸法
 10
292.594485
 20
-28.19195
  0
POINT
  8
寸法
 10
292.594485
 20
-53.19195
  0
TEXT
  7
TextStyle03
  8
寸法
  6
CONTINUOUS
 10
292.2
 20
-43.88125
  1
50
 40
6.0
 50
90.0
 72
     5
 11
292.2
 21
-37.51875
  0
ENDBLK
  0
BLOCK
  2
*DIM_0028
 70
    65
 10
0.0
 20
0.0
  0
LINE
  8
寸法
  6
CONTINUOUS
 10
210.734455
 20
-153.19195
 11
292.594485
 21
-153.19195
  0
LINE
  8
寸法
  6
CONTINUOUS
 10
292.594485
 20
-53.19195
 11
292.594485
 21
-153.19195
  0
POINT
  8
寸法
 10
292.594485
 20
-153.19195
  0
TEXT
  7
TextStyle03
  8
寸法
  6
CONTINUOUS
 10
292.2
 20
-108.0625
  1
200
 40
6.0
 50
90.0
 72
     5
 11
292.2
 21
-98.3375
  0
ENDBLK
  0
BLOCK
  2
*DIM_0029
 70
    65
 10
0.0
 20
0.0
  0
LINE
  8
寸法
  6
CONTINUOUS
 10
203.434455
 20
-178.19195
 11
292.594485
 21
-178.19195
  0
LINE
  8
寸法
  6
CONTINUOUS
 10
292.594485
 20
-153.19195
 11
292.594485
 21
-178.19195
  0
POINT
  8
寸法
 10
292.594485
 20
-178.19195
  0
TEXT
  7
TextStyle03
  8
寸法
  6
CONTINUOUS
 10
292.2
 20
-168.88125
  1
50
 40
6.0
 50
90.0
 72
     5
 11
292.2
 21
-162.51875
  0
ENDBLK
  0
BLOCK
  2
*DIM_0030
 70
    65
 10
0.0
 20
0.0
  0
LINE
  8
寸法
  6
CONTINUOUS
 10
208.434455
 20
-28.19195
 11
284.279945
 21
-28.19195
  0
LINE
  8
寸法
  6
CONTINUOUS
 10
230.984455
 20
-59.94195
 11
284.279945
 21
-59.94195
  0
LINE
  8
寸法
  6
CONTINUOUS
 10
284.279945
 20
-28.19195
 11
284.279945
 21
-59.94195
  0
POINT
  8
寸法
 10
284.279945
 20
-28.19195
  0
POINT
  8
寸法
 10
284.279945
 20
-59.94195
  0
TEXT
  7
TextStyle03
  8
寸法
  6
CONTINUOUS
 10
283.9
 20
-50.61875
  1
63.5
 40
6.0
 50
90.0
 72
     5
 11
283.9
 21
-37.53125
  0
ENDBLK
  0
BLOCK
  2
*DIM_0031
 70
    65
 10
0.0
 20
0.0
  0
LINE
  8
寸法
  6
CONTINUOUS
 10
190.934455
 20
-23.99195
 11
190.934455
 21
-4.853
  0
LINE
  8
寸法
  6
CONTINUOUS
 10
256.734455
 20
-25.74195
 11
256.734455
 21
-4.853
  0
LINE
  8
寸法
  6
CONTINUOUS
 10
190.934455
 20
-4.853
 11
256.734455
 21
-4.853
  0
POINT
  8
寸法
 10
190.934455
 20
-4.853
  0
POINT
  8
寸法
 10
256.734455
 20
-4.853
  0
TEXT
  7
TextStyle03
  8
寸法
  6
CONTINUOUS
 10
215.6
 20
-4.5
  1
131.6
 40
6.0
 72
     5
 11
232.05
 21
-4.5
  0
ENDBLK
  0
BLOCK
  2
*DIM_0032
 70
    65
 10
0.0
 20
0.0
  0
LINE
  8
寸法
  6
CONTINUOUS
 10
216.734455
 20
-74.19195
 11
216.734455
 21
-87.680505
  0
LINE
  8
寸法
  6
CONTINUOUS
 10
256.734455
 20
-87.680505
 11
216.734455
 21
-87.680505
  0
POINT
  8
寸法
 10
256.734455
 20
-87.680505
  0
POINT
  8
寸法
 10
216.734455
 20
-87.680505
  0
TEXT
  7
TextStyle03
  8
寸法
  6
CONTINUOUS
 10
233.54375
 20
-87.325
  1
80
 40
6.0
 72
     5
 11
239.90625
 21
-87.325
  0
ENDBLK
  0
BLOCK
  2
*DIM_0033
 70
    65
 10
0.0
 20
0.0
  0
LINE
  8
寸法
  6
CONTINUOUS
 10
-211.865255
 20
-28.19195
 11
-183.29485
 21
-28.19195
  0
LINE
  8
寸法
  6
CONTINUOUS
 10
-211.865255
 20
-178.19195
 11
-183.29485
 21
-178.19195
  0
LINE
  8
寸法
  6
CONTINUOUS
 10
-183.29485
 20
-28.19195
 11
-183.29485
 21
-178.19195
  0
POINT
  8
寸法
 10
-183.29485
 20
-28.19195
  0
POINT
  8
寸法
 10
-183.29485
 20
-178.19195
  0
TEXT
  7
TextStyle03
  8
寸法
  6
CONTINUOUS
 10
-183.675
 20
-108.0625
  1
300
 40
6.0
 50
90.0
 72
     5
 11
-183.675
 21
-98.3375
  0
ENDBLK
  0
BLOCK
  2
*DIM_0034
 70
    65
 10
0.0
 20
0.0
  0
LINE
  8
寸法
  6
CONTINUOUS
 10
-233.565255
 20
-28.19195
 11
-309.410745
 21
-28.19195
  0
LINE
  8
寸法
  6
CONTINUOUS
 10
-256.115255
 20
-59.94195
 11
-309.410745
 21
-59.94195
  0
LINE
  8
寸法
  6
CONTINUOUS
 10
-309.410745
 20
-28.19195
 11
-309.410745
 21
-59.94195
  0
POINT
  8
寸法
 10
-309.410745
 20
-28.19195
  0
POINT
  8
寸法
 10
-309.410745
 20
-59.94195
  0
TEXT
  7
TextStyle03
  8
寸法
  6
CONTINUOUS
 10
-309.8
 20
-50.61875
  1
63.5
 40
6.0
 50
90.0
 72
     5
 11
-309.8
 21
-37.53125
  0
ENDBLK
  0
BLOCK
  2
*DIM_0035
 70
    65
 10
0.0
 20
0.0
  0
LINE
  8
寸法
  6
CONTINUOUS
 10
-216.065255
 20
-23.99195
 11
-216.065255
 21
-4.853
  0
LINE
  8
寸法
  6
CONTINUOUS
 10
-281.865255
 20
-25.74195
 11
-281.865255
 21
-4.853
  0
LINE
  8
寸法
  6
CONTINUOUS
 10
-216.065255
 20
-4.853
 11
-281.865255
 21
-4.853
  0
POINT
  8
寸法
 10
-216.065255
 20
-4.853
  0
POINT
  8
寸法
 10
-281.865255
 20
-4.853
  0
TEXT
  7
TextStyle03
  8
寸法
  6
CONTINUOUS
 10
-257.2
 20
-4.5
  1
131.6
 40
6.0
 72
     5
 11
-240.75
 21
-4.5
  0
ENDBLK
  0
BLOCK
  2
*DIM_0036
 70
    65
 10
0.0
 20
0.0
  0
LINE
  8
寸法
  6
CONTINUOUS
 10
-241.865255
 20
-74.19195
 11
-241.865255
 21
-87.680505
  0
LINE
  8
寸法
  6
CONTINUOUS
 10
-281.865255
 20
-87.680505
 11
-241.865255
 21
-87.680505
  0
POINT
  8
寸法
 10
-281.865255
 20
-87.680505
  0
POINT
  8
寸法
 10
-241.865255
 20
-87.680505
  0
TEXT
  7
TextStyle03
  8
寸法
  6
CONTINUOUS
 10
-265.05625
 20
-87.325
  1
80
 40
6.0
 72
     5
 11
-258.69375
 21
-87.325
  0
ENDBLK
  0
BLOCK
  2
*DIM_0037
 70
    65
 10
0.0
 20
0.0
  0
LINE
  8
寸法
  6
CONTINUOUS
 10
-228.565255
 20
-28.19195
 11
-317.725285
 21
-28.19195
  0
LINE
  8
寸法
  6
CONTINUOUS
 10
-255.565255
 20
-103.19195
 11
-317.725285
 21
-103.19195
  0
LINE
  8
寸法
  6
CONTINUOUS
 10
-317.725285
 20
-28.19195
 11
-317.725285
 21
-103.19195
  0
POINT
  8
寸法
 10
-317.725285
 20
-28.19195
  0
POINT
  8
寸法
 10
-317.725285
 20
-103.19195
  0
TEXT
  7
TextStyle03
  8
寸法
  6
CONTINUOUS
 10
-318.125
 20
-70.5625
  1
150
 40
6.0
 50
90.0
 72
     5
 11
-318.125
 21
-60.8375
  0
ENDBLK
  0
BLOCK
  2
*DIM_0038
 70
    65
 10
0.0
 20
0.0
  0
LINE
  8
寸法
  6
CONTINUOUS
 10
-228.565255
 20
-178.19195
 11
-317.725285
 21
-178.19195
  0
LINE
  8
寸法
  6
CONTINUOUS
 10
-317.725285
 20
-103.19195
 11
-317.725285
 21
-178.19195
  0
POINT
  8
寸法
 10
-317.725285
 20
-178.19195
  0
TEXT
  7
TextStyle03
  8
寸法
  6
CONTINUOUS
 10
-318.125
 20
-145.5625
  1
150
 40
6.0
 50
90.0
 72
     5
 11
-318.125
 21
-135.8375
  0
ENDBLK
  0
BLOCK
  2
*DIM_0039
 70
    65
 10
0.0
 20
0.0
  0
LINE
  8
寸法
  6
CONTINUOUS
 10
-67.5654
 20
183.25197
 11
-67.5654
 21
260.409677
  0
LINE
  8
寸法
  6
CONTINUOUS
 10
42.4346
 20
183.25197
 11
42.4346
 21
260.409677
  0
LINE
  8
寸法
  6
CONTINUOUS
 10
-67.5654
 20
260.409677
 11
42.4346
 21
260.409677
  0
POINT
  8
寸法
 10
-67.5654
 20
260.409677
  0
POINT
  8
寸法
 10
42.4346
 20
260.409677
  0
TEXT
  7
TextStyle03
  8
寸法
  6
CONTINUOUS
 10
-17.4375
 20
260.775
  1
220
 40
6.0
 72
     5
 11
-7.7125
 21
260.775
  0
ENDBLK
  0
BLOCK
  2
*DIM_0040
 70
    65
 10
0.0
 20
0.0
  0
LINE
  8
寸法
  6
CONTINUOUS
 10
-32.5654
 20
210.80197
 11
-32.5654
 21
251.363405
  0
LINE
  8
寸法
  6
CONTINUOUS
 10
7.4346
 20
210.80197
 11
7.4346
 21
251.363405
  0
LINE
  8
寸法
  6
CONTINUOUS
 10
-32.5654
 20
251.363405
 11
7.4346
 21
251.363405
  0
POINT
  8
寸法
 10
-32.5654
 20
251.363405
  0
POINT
  8
寸法
 10
7.4346
 20
251.363405
  0
TEXT
  7
TextStyle03
  8
寸法
  6
CONTINUOUS
 10
-15.75625
 20
251.725
  1
80
 40
6.0
 72
     5
 11
-9.39375
 21
251.725
  0
ENDBLK
  0
BLOCK
  2
*DIM_0041
 70
    65
 10
0.0
 20
0.0
  0
LINE
  8
寸法
  6
CONTINUOUS
 10
-70.5154
 20
236.55197
 11
-121.913242
 21
236.55197
  0
LINE
  8
寸法
  6
CONTINUOUS
 10
-71.7654
 20
170.751973
 11
-121.913242
 21
170.751973
  0
LINE
  8
寸法
  6
CONTINUOUS
 10
-121.913242
 20
236.55197
 11
-121.913242
 21
170.751973
  0
POINT
  8
寸法
 10
-121.913242
 20
236.55197
  0
POINT
  8
寸法
 10
-121.913242
 20
170.751973
  0
TEXT
  7
TextStyle03
  8
寸法
  6
CONTINUOUS
 10
-122.3
 20
195.425
  1
131.6
 40
6.0
 50
90.0
 72
     5
 11
-122.3
 21
211.875
  0
ENDBLK
  0
BLOCK
  2
*DIM_0042
 70
    65
 10
0.0
 20
0.0
  0
LINE
  8
寸法
  6
CONTINUOUS
 10
34.0846
 20
68.15197
 11
-121.913242
 21
68.15197
  0
LINE
  8
寸法
  6
CONTINUOUS
 10
-121.913242
 20
170.751973
 11
-121.913242
 21
68.15197
  0
POINT
  8
寸法
 10
-121.913242
 20
170.751973
  0
POINT
  8
寸法
 10
-121.913242
 20
68.15197
  0
TEXT
  7
TextStyle03
  8
寸法
  6
CONTINUOUS
 10
-122.3
 20
111.225
  1
205.2
 40
6.0
 50
90.0
 72
     5
 11
-122.3
 21
127.675
  0
ENDBLK
  0
BLOCK
  2
*DIM_0043
 70
    65
 10
0.0
 20
0.0
  0
LINE
  8
寸法
  6
CONTINUOUS
 10
50.8346
 20
184.85197
 11
50.8346
 21
260.409677
  0
LINE
  8
寸法
  6
CONTINUOUS
 10
42.4346
 20
260.409677
 11
50.8346
 21
260.409677
  0
POINT
  8
寸法
 10
42.4346
 20
260.409677
  0
POINT
  8
寸法
 10
50.8346
 20
260.409677
  0
TEXT
  7
TextStyle03
  8
寸法
  6
CONTINUOUS
 10
40.08125
 20
260.775
  1
16.8
 40
6.0
 72
     5
 11
53.16875
 21
260.775
  0
ENDBLK
  0
BLOCK
  2
*DIM_0044
 70
    65
 10
0.0
 20
0.0
  0
LINE
  8
寸法
  6
CONTINUOUS
 10
27.4346
 20
-33.19195
 11
27.4346
 21
-4.853
  0
LINE
  8
寸法
  6
CONTINUOUS
 10
-52.5654
 20
-4.853
 11
27.4346
 21
-4.853
  0
POINT
  8
寸法
 10
27.4346
 20
-4.853
  0
TEXT
  7
TextStyle03
  8
寸法
  6
CONTINUOUS
 10
-17.4375
 20
-4.5
  1
160
 40
6.0
 72
     5
 11
-7.7125
 21
-4.5
  0
ENDBLK
  0
BLOCK
  2
*DIM_0045
 70
    65
 10
0.0
 20
0.0
  0
LINE
  8
寸法
  6
CONTINUOUS
 10
19.200035
 20
196.55197
 11
35.049818
 21
196.55197
  0
LINE
  8
寸法
  6
CONTINUOUS
 10
35.049818
 20
170.75197
 11
35.049818
 21
196.55197
  0
POINT
  8
寸法
 10
35.049818
 20
170.75197
  0
POINT
  8
寸法
 10
35.049818
 20
196.55197
  0
TEXT
  7
TextStyle03
  8
寸法
  6
CONTINUOUS
 10
33.55
 20
180.78125
  1
51.6
 40
6.0
 50
90.0
 72
     5
 11
33.55
 21
193.86875
  0
ENDBLK
  0
BLOCK
  2
*DIM_0046
 70
    65
 10
0.0
 20
0.0
  0
LINE
  8
寸法
  6
CONTINUOUS
 10
-60.0654
 20
-165.69195
 11
-106.593912
 21
-165.69195
  0
LINE
  8
寸法
  6
CONTINUOUS
 10
-106.593912
 20
-40.69195
 11
-106.593912
 21
-165.69195
  0
POINT
  8
寸法
 10
-106.593912
 20
-40.69195
  0
POINT
  8
寸法
 10
-106.593912
 20
-165.69195
  0
TEXT
  7
TextStyle03
  8
寸法
  6
CONTINUOUS
 10
-106.975
 20
-151.775
  1
ボックス取付け用穴ピッチ＝250
 40
6.0
 50
90.0
 72
     5
 11
-106.975
 21
-54.625
  0
ENDBLK
  0
ENDSEC
  0
SECTION
  2
ENTITIES
  0
POLYLINE
  8
通り芯
  6
CONTINUOUS
 66
     1
 70
     1
  0
VERTEX
  8
通り芯
 10
-420.5
 20
-297.0
  0
VERTEX
  8
通り芯
 10
420.5
 20
-297.0
  0
VERTEX
  8
通り芯
 10
420.5
 20
297.0
  0
VERTEX
  8
通り芯
 10
-420.5
 20
297.0
  0
SEQEND
  0
LINE
  8
型材
  6
CONTINUOUS
 62
    32
 10
-20.0654
 20
-37.19195
 11
-20.0654
 21
-49.19195
  0
LINE
  8
型材
  6
CONTINUOUS
 62
    32
 10
-20.0654
 20
-49.19195
 11
-5.0654
 21
-49.19195
  0
LINE
  8
型材
  6
CONTINUOUS
 62
    32
 10
-5.0654
 20
-49.19195
 11
-5.0654
 21
-37.19195
  0
LINE
  8
型材
  6
CONTINUOUS
 62
    32
 10
-20.0654
 20
-37.19195
 11
-5.0654
 21
-37.19195
  0
LINE
  8
型材
  6
CONTINUOUS
 62
    32
 10
-19.3154
 20
-48.44195
 11
-5.8154
 21
-48.44195
  0
LINE
  8
型材
  6
CONTINUOUS
 62
    32
 10
-5.8154
 20
-48.44195
 11
-5.8154
 21
-37.94195
  0
LINE
  8
型材
  6
CONTINUOUS
 62
    32
 10
-5.8154
 20
-37.94195
 11
-19.3154
 21
-37.94195
  0
LINE
  8
型材
  6
CONTINUOUS
 62
    32
 10
-19.3154
 20
-48.44195
 11
-19.3154
 21
-37.94195
  0
CIRCLE
  8
型材
  6
CONTINUOUS
 62
    32
 10
22.4346
 20
-73.19195
 40
5.0
  0
CIRCLE
  8
型材
  6
CONTINUOUS
 62
    32
 10
22.4346
 20
-90.69195
 40
5.0
  0
CIRCLE
  8
型材
  6
CONTINUOUS
 62
    32
 10
22.4346
 20
-108.19195
 40
3.75
  0
CIRCLE
  8
型材
  6
CONTINUOUS
 62
    32
 10
22.4346
 20
-108.19195
 40
1.25
  0
CIRCLE
  8
型材
  6
CONTINUOUS
 62
    32
 10
22.4346
 20
-55.69195
 40
4.0
  0
CIRCLE
  8
型材
  6
CONTINUOUS
 62
    32
 10
22.4346
 20
-55.69195
 40
3.370778
  0
INSERT
  2
*GRP_0002
  8
型材
  6
DOT
 62
    32
 10
0.0
 20
0.0
  0
INSERT
  2
*GRP_0003
  8
型材
  6
DOT
 62
    32
 10
0.0
 20
0.0
  0
INSERT
  2
*GRP_0004
  8
型材
  6
DOT
 62
    32
 10
0.0
 20
0.0
  0
INSERT
  2
*GRP_0005
  8
型材
  6
DOT
 62
    32
 10
0.0
 20
0.0
  0
LINE
  8
型材
  6
CONTINUOUS
 62
    32
 10
-68.8154
 20
-66.69195
 11
-68.8154
 21
-53.19195
  0
ARC
  8
型材
  6
CONTINUOUS
 62
    32
 10
-66.315399
 20
-53.191951
 40
2.5
 50
120.0
 51
180.0
  0
ARC
  8
型材
  6
CONTINUOUS
 62
    32
 10
-66.315399
 20
-66.691951
 40
2.5
 50
180.0
 51
240.0
  0
LINE
  8
型材
  6
CONTINUOUS
 62
    32
 10
43.6846
 20
-66.69195
 11
43.6846
 21
-53.19195
  0
ARC
  8
型材
  6
CONTINUOUS
 62
    32
 10
41.184601
 20
-53.191951
 40
2.5
 50
0.0
 51
60.0
  0
ARC
  8
型材
  6
CONTINUOUS
 62
    32
 10
41.184601
 20
-66.691951
 40
2.5
 50
300.0
 51
360.0
  0
LINE
  8
型材
  6
CONTINUOUS
 62
    32
 10
-25.8154
 20
-27.44195
 11
-39.3154
 21
-27.44195
  0
ARC
  8
型材
  6
CONTINUOUS
 62
    32
 10
-25.815399
 20
-29.941951
 40
2.5
 50
44.427004
 51
90.0
  0
ARC
  8
型材
  6
CONTINUOUS
 62
    32
 10
-39.315399
 20
-29.941951
 40
2.5
 50
90.0
 51
135.572996
  0
LINE
  8
型材
  6
CONTINUOUS
 62
    32
 10
0.6846
 20
-27.44195
 11
14.1846
 21
-27.44195
  0
ARC
  8
型材
  6
CONTINUOUS
 62
    32
 10
0.684601
 20
-29.941951
 40
2.5
 50
90.0
 51
135.572996
  0
ARC
  8
型材
  6
CONTINUOUS
 62
    32
 10
14.184601
 20
-29.941951
 40
2.5
 50
44.427004
 51
90.0
  0
LINE
  8
型材
  6
CONTINUOUS
 62
    32
 10
42.4346
 20
-28.19195
 11
42.4346
 21
-178.19195
  0
LINE
  8
型材
  6
CONTINUOUS
 62
    32
 10
42.4346
 20
-178.19195
 11
-67.5654
 21
-178.19195
  0
LINE
  8
型材
  6
CONTINUOUS
 62
    32
 10
-67.5654
 20
-178.19195
 11
-67.5654
 21
-28.19195
  0
LINE
  8
型材
  6
CONTINUOUS
 62
    32
 10
42.4346
 20
-28.19195
 11
-67.5654
 21
-28.19195
  0
CIRCLE
  8
型材
  6
CONTINUOUS
 62
    32
 10
22.4346
 20
-73.19195
 40
3.75
  0
CIRCLE
  8
型材
  6
CONTINUOUS
 62
    32
 10
22.4346
 20
-90.69195
 40
3.75
  0
CIRCLE
  8
型材
  6
CONTINUOUS
 62
    32
 10
22.4346
 20
-108.19195
 40
3.125
  0
CIRCLE
  8
型材
  6
DOT
 62
    32
 10
27.4346
 20
-165.69195
 40
2.25
  0
CIRCLE
  8
型材
  6
DOT
 62
    32
 10
-52.5654
 20
-165.69195
 40
2.25
  0
CIRCLE
  8
型材
  6
DOT
 62
    32
 10
27.4346
 20
-40.69195
 40
2.25
  0
CIRCLE
  8
型材
  6
DOT
 62
    32
 10
-52.5654
 20
-40.69195
 40
2.25
  0
LINE
  8
型材
  6
CONTINUOUS
 62
    32
 10
-72.5654
 20
-99.44195
 11
-72.5654
 21
-106.94195
  0
LINE
  8
型材
  6
CONTINUOUS
 62
    32
 10
-67.5654
 20
-106.94195
 11
-67.5654
 21
-99.44195
  0
LINE
  8
型材
  6
CONTINUOUS
 62
    32
 10
-68.0654
 20
-106.94195
 11
-68.0654
 21
-99.44195
  0
LINE
  8
型材
  6
CONTINUOUS
 62
    32
 10
-69.5654
 20
-106.94195
 11
-69.5654
 21
-99.44195
  0
LINE
  8
型材
  6
CONTINUOUS
 62
    32
 10
-70.0654
 20
-106.94195
 11
-70.0654
 21
-99.44195
  0
ARC
  8
型材
  6
CONTINUOUS
 62
    32
 10
-72.177719
 20
-98.112927
 40
0.375
 50
90.0
 51
180.0
  0
LINE
  8
型材
  6
CONTINUOUS
 62
    32
 10
-72.55272
 20
-98.112928
 11
-72.55272
 21
-98.112928
  0
ARC
  8
型材
  6
CONTINUOUS
 62
    32
 10
-72.177719
 20
-98.112927
 40
0.375
 50
180.0
 51
270.0
  0
LINE
  8
型材
  6
CONTINUOUS
 62
    32
 10
-72.17772
 20
-97.737928
 11
-69.940402
 21
-97.737928
  0
ARC
  8
型材
  6
CONTINUOUS
 62
    32
 10
-69.940401
 20
-99.237927
 40
1.5
 50
0.0
 51
90.0
  0
LINE
  8
型材
  6
CONTINUOUS
 62
    32
 10
-72.17772
 20
-98.487928
 11
-69.940402
 21
-98.487928
  0
ARC
  8
型材
  6
CONTINUOUS
 62
    32
 10
-69.940401
 20
-99.237927
 40
0.75
 50
0.0
 51
90.0
  0
ARC
  8
型材
  6
CONTINUOUS
 62
    32
 10
-72.177719
 20
-108.270972
 40
0.375
 50
180.0
 51
270.0
  0
LINE
  8
型材
  6
CONTINUOUS
 62
    32
 10
-72.55272
 20
-108.270972
 11
-72.55272
 21
-108.270972
  0
ARC
  8
型材
  6
CONTINUOUS
 62
    32
 10
-72.177719
 20
-108.270972
 40
0.375
 50
90.0
 51
180.0
  0
LINE
  8
型材
  6
CONTINUOUS
 62
    32
 10
-72.17772
 20
-108.645972
 11
-69.940402
 21
-108.645972
  0
ARC
  8
型材
  6
CONTINUOUS
 62
    32
 10
-69.940401
 20
-107.145972
 40
1.5
 50
-90.0
 51
0.0
  0
LINE
  8
型材
  6
CONTINUOUS
 62
    32
 10
-72.17772
 20
-107.895972
 11
-69.940402
 21
-107.895972
  0
ARC
  8
型材
  6
CONTINUOUS
 62
    32
 10
-69.940401
 20
-107.145972
 40
0.75
 50
-90.0
 51
0.0
  0
LINE
  8
型材
  6
CONTINUOUS
 62
    32
 10
-69.190402
 20
-99.237928
 11
-69.190402
 21
-107.145972
  0
LINE
  8
型材
  6
CONTINUOUS
 62
    32
 10
-68.440402
 20
-99.237928
 11
-68.440402
 21
-107.145972
  0
LINE
  8
型材
  6
CONTINUOUS
 62
    32
 10
-72.5654
 20
-106.94195
 11
-69.190402
 21
-106.94195
  0
LINE
  8
型材
  6
CONTINUOUS
 62
    32
 10
-68.440402
 20
-106.94195
 11
-67.5654
 21
-106.94195
  0
LINE
  8
型材
  6
CONTINUOUS
 62
    32
 10
-72.5654
 20
-99.44195
 11
-69.190402
 21
-99.44195
  0
LINE
  8
型材
  6
CONTINUOUS
 62
    32
 10
-68.440402
 20
-99.44195
 11
-67.5654
 21
-99.44195
  0
LINE
  8
型材
  6
DASHDOT
 10
-32.5654
 20
-32.092025
 11
-32.5654
 21
-24.010393
  0
LINE
  8
型材
  6
DASHDOT
 10
7.4346
 20
-32.092025
 11
7.4346
 21
-24.010393
  0
LINE
  8
型材
  6
DASHDOT
 10
39.034525
 20
-59.94195
 11
47.116158
 21
-59.94195
  0
LINE
  8
型材
  6
DASHDOT
 10
-64.165325
 20
-59.94195
 11
-72.246958
 21
-59.94195
  0
LINE
  8
型材
  6
CONTINUOUS
 62
    32
 10
190.184455
 20
-37.19195
 11
190.934455
 21
-37.19195
  0
LINE
  8
型材
  6
CONTINUOUS
 62
    32
 10
187.684455
 20
-37.94195
 11
190.184455
 21
-37.94195
  0
LINE
  8
型材
  6
CONTINUOUS
 62
    32
 10
190.184455
 20
-49.19195
 11
190.934455
 21
-49.19195
  0
LINE
  8
型材
  6
CONTINUOUS
 62
    32
 10
187.684455
 20
-48.44195
 11
190.184455
 21
-48.44195
  0
LINE
  8
型材
  6
CONTINUOUS
 62
    32
 10
187.684455
 20
-37.94195
 11
187.684455
 21
-48.44195
  0
LINE
  8
型材
  6
CONTINUOUS
 62
    32
 10
190.184455
 20
-37.19195
 11
190.184455
 21
-49.19195
  0
LINE
  8
型材
  6
CONTINUOUS
 62
    32
 10
190.434455
 20
-51.69195
 11
190.434455
 21
-59.69195
  0
LINE
  8
型材
  6
CONTINUOUS
 62
    32
 10
190.434455
 20
-59.69195
 11
190.934455
 21
-59.69195
  0
LINE
  8
型材
  6
CONTINUOUS
 62
    32
 10
190.434455
 20
-51.69195
 11
190.934455
 21
-51.69195
  0
LINE
  8
型材
  6
CONTINUOUS
 62
    32
 10
190.434455
 20
-52.321173
 11
187.27937
 21
-54.44819
  0
LINE
  8
型材
  6
CONTINUOUS
 62
    32
 10
187.27937
 20
-56.93571
 11
190.434455
 21
-59.062727
  0
ARC
  8
型材
  6
CONTINUOUS
 62
    32
 10
188.117859
 20
-55.691951
 40
1.5
 50
123.986096
 51
236.013904
  0
LINE
  8
型材
  6
CONTINUOUS
 62
    32
 10
190.184455
 20
-68.19195
 11
190.184455
 21
-78.19195
  0
LINE
  8
型材
  6
CONTINUOUS
 62
    32
 10
190.184455
 20
-68.19195
 11
190.934455
 21
-68.19195
  0
LINE
  8
型材
  6
CONTINUOUS
 62
    32
 10
190.184455
 20
-78.19195
 11
190.934455
 21
-78.19195
  0
LINE
  8
型材
  6
CONTINUOUS
 62
    32
 10
183.434455
 20
-69.44195
 11
183.434455
 21
-76.94195
  0
LINE
  8
型材
  6
CONTINUOUS
 62
    32
 10
183.434455
 20
-69.44195
 11
190.184455
 21
-69.44195
  0
LINE
  8
型材
  6
CONTINUOUS
 62
    32
 10
183.434455
 20
-76.94195
 11
190.184455
 21
-76.94195
  0
LINE
  8
型材
  6
CONTINUOUS
 62
    32
 10
190.184455
 20
-85.69195
 11
190.184455
 21
-95.69195
  0
LINE
  8
型材
  6
CONTINUOUS
 62
    32
 10
190.184455
 20
-85.69195
 11
190.934455
 21
-85.69195
  0
LINE
  8
型材
  6
CONTINUOUS
 62
    32
 10
190.184455
 20
-95.69195
 11
190.934455
 21
-95.69195
  0
LINE
  8
型材
  6
CONTINUOUS
 62
    32
 10
183.434455
 20
-86.94195
 11
183.434455
 21
-94.44195
  0
LINE
  8
型材
  6
CONTINUOUS
 62
    32
 10
183.434455
 20
-86.94195
 11
190.184455
 21
-86.94195
  0
LINE
  8
型材
  6
CONTINUOUS
 62
    32
 10
183.434455
 20
-94.44195
 11
190.184455
 21
-94.44195
  0
LINE
  8
型材
  6
CONTINUOUS
 62
    32
 10
190.434455
 20
-104.44195
 11
190.934455
 21
-104.44195
  0
LINE
  8
型材
  6
CONTINUOUS
 62
    32
 10
190.434455
 20
-105.06695
 11
189.934455
 21
-105.06695
  0
LINE
  8
型材
  6
CONTINUOUS
 62
    32
 10
190.434455
 20
-111.94195
 11
190.934455
 21
-111.94195
  0
LINE
  8
型材
  6
CONTINUOUS
 62
    32
 10
190.434455
 20
-111.31695
 11
189.934455
 21
-111.31695
  0
LINE
  8
型材
  6
CONTINUOUS
 62
    32
 10
189.934455
 20
-105.06695
 11
189.934455
 21
-111.31695
  0
LINE
  8
型材
  6
CONTINUOUS
 62
    32
 10
190.434455
 20
-104.44195
 11
190.434455
 21
-111.94195
  0
LINE
  8
型材
  6
CONTINUOUS
 62
    32
 10
182.184455
 20
-106.94195
 11
189.934455
 21
-107.456182
  0
LINE
  8
型材
  6
CONTINUOUS
 62
    32
 10
182.184455
 20
-109.44195
 11
189.934455
 21
-108.927718
  0
ARC
  8
型材
  6
CONTINUOUS
 62
    32
 10
182.184456
 20
-108.191951
 40
1.25
 50
90.0
 51
270.0
  0
LINE
  8
型材
  6
CONTINUOUS
 62
    32
 10
205.734455
 20
-43.19195
 11
205.734455
 21
-63.19195
  0
LINE
  8
型材
  6
CONTINUOUS
 62
    32
 10
200.584455
 20
-43.19195
 11
200.584455
 21
-63.19195
  0
LINE
  8
型材
  6
CONTINUOUS
 62
    32
 10
199.584455
 20
-43.19195
 11
199.584455
 21
-63.19195
  0
LINE
  8
型材
  6
CONTINUOUS
 62
    32
 10
205.734455
 20
-43.19195
 11
198.434455
 21
-43.19195
  0
LINE
  8
型材
  6
CONTINUOUS
 62
    32
 10
205.734455
 20
-63.19195
 11
198.434455
 21
-63.19195
  0
LINE
  8
型材
  6
CONTINUOUS
 62
    32
 10
205.734455
 20
-143.19195
 11
205.734455
 21
-163.19195
  0
LINE
  8
型材
  6
CONTINUOUS
 62
    32
 10
200.584455
 20
-143.19195
 11
200.584455
 21
-163.19195
  0
LINE
  8
型材
  6
CONTINUOUS
 62
    32
 10
199.584455
 20
-143.19195
 11
199.584455
 21
-163.19195
  0
LINE
  8
型材
  6
CONTINUOUS
 62
    32
 10
205.734455
 20
-143.19195
 11
198.434455
 21
-143.19195
  0
LINE
  8
型材
  6
CONTINUOUS
 62
    32
 10
205.734455
 20
-163.19195
 11
198.434455
 21
-163.19195
  0
CIRCLE
  8
型材
  6
CONTINUOUS
 62
    32
 10
203.234455
 20
-46.94195
 40
0.875
  0
CIRCLE
  8
型材
  6
CONTINUOUS
 62
    32
 10
203.234455
 20
-59.44195
 40
0.875
  0
CIRCLE
  8
型材
  6
CONTINUOUS
 62
    32
 10
203.234455
 20
-146.94195
 40
0.875
  0
CIRCLE
  8
型材
  6
CONTINUOUS
 62
    32
 10
203.234455
 20
-159.44195
 40
0.875
  0
CIRCLE
  8
型材
  6
CONTINUOUS
 62
    32
 10
216.734455
 20
-59.94195
 40
9.25
  0
CIRCLE
  8
型材
  6
CONTINUOUS
 62
    32
 10
216.734455
 20
-59.94195
 40
5.25
  0
LINE
  8
型材
  6
CONTINUOUS
 62
    32
 10
198.434455
 20
-28.19195
 11
198.434455
 21
-178.19195
  0
LINE
  8
型材
  6
CONTINUOUS
 62
    32
 10
191.734455
 20
-178.19195
 11
198.434455
 21
-178.19195
  0
ARC
  8
型材
  6
CONTINUOUS
 62
    32
 10
191.734454
 20
-177.391951
 40
0.8
 50
180.0
 51
270.0
  0
LINE
  8
型材
  6
CONTINUOUS
 62
    32
 10
191.734455
 20
-28.19195
 11
198.434455
 21
-28.19195
  0
LINE
  8
型材
  6
CONTINUOUS
 62
    32
 10
190.934455
 20
-28.99195
 11
190.934455
 21
-177.39195
  0
ARC
  8
型材
  6
CONTINUOUS
 62
    32
 10
191.734454
 20
-28.991951
 40
0.8
 50
90.0
 51
180.0
  0
ARC
  8
型材
  6
CONTINUOUS
 62
    32
 10
255.934456
 20
-175.641951
 40
0.8
 50
-90.0
 51
0.0
  0
LINE
  8
型材
  6
CONTINUOUS
 62
    32
 10
256.734455
 20
-30.74195
 11
256.734455
 21
-175.64195
  0
ARC
  8
型材
  6
CONTINUOUS
 62
    32
 10
255.934456
 20
-30.741951
 40
0.8
 50
0.0
 51
90.0
  0
LINE
  8
型材
  6
CONTINUOUS
 62
    32
 10
255.934455
 20
-29.94195
 11
198.434455
 21
-29.94195
  0
LINE
  8
型材
  6
CONTINUOUS
 62
    32
 10
255.934455
 20
-176.44195
 11
198.434455
 21
-176.44195
  0
CIRCLE
  8
型材
  6
DOT
 62
    32
 10
216.734455
 20
-59.94195
 40
6.75
  0
LINE
  8
型材
  6
DASHDOT
 10
263.854945
 20
-40.69195
 11
250.216025
 21
-40.69195
  0
LINE
  8
型材
  6
DASHDOT
 10
263.854945
 20
-165.69195
 11
250.216025
 21
-165.69195
  0
LINE
  8
型材
  6
CONTINUOUS
 62
    32
 10
-215.315255
 20
-37.19195
 11
-216.065255
 21
-37.19195
  0
LINE
  8
型材
  6
CONTINUOUS
 62
    32
 10
-212.815255
 20
-37.94195
 11
-215.315255
 21
-37.94195
  0
LINE
  8
型材
  6
CONTINUOUS
 62
    32
 10
-215.315255
 20
-49.19195
 11
-216.065255
 21
-49.19195
  0
LINE
  8
型材
  6
CONTINUOUS
 62
    32
 10
-212.815255
 20
-48.44195
 11
-215.315255
 21
-48.44195
  0
LINE
  8
型材
  6
CONTINUOUS
 62
    32
 10
-212.815255
 20
-37.94195
 11
-212.815255
 21
-48.44195
  0
LINE
  8
型材
  6
CONTINUOUS
 62
    32
 10
-215.315255
 20
-37.19195
 11
-215.315255
 21
-49.19195
  0
LINE
  8
型材
  6
CONTINUOUS
 62
    32
 10
-215.565255
 20
-51.69195
 11
-215.565255
 21
-59.69195
  0
LINE
  8
型材
  6
CONTINUOUS
 62
    32
 10
-215.565255
 20
-59.69195
 11
-216.065255
 21
-59.69195
  0
LINE
  8
型材
  6
CONTINUOUS
 62
    32
 10
-215.565255
 20
-51.69195
 11
-216.065255
 21
-51.69195
  0
LINE
  8
型材
  6
CONTINUOUS
 62
    32
 10
-215.565255
 20
-52.321173
 11
-212.41017
 21
-54.44819
  0
LINE
  8
型材
  6
CONTINUOUS
 62
    32
 10
-212.41017
 20
-56.93571
 11
-215.565255
 21
-59.062727
  0
ARC
  8
型材
  6
CONTINUOUS
 62
    32
 10
-213.248658
 20
-55.691951
 40
1.5
 50
-56.013904
 51
56.013904
  0
LINE
  8
型材
  6
CONTINUOUS
 62
    32
 10
-215.315255
 20
-68.19195
 11
-215.315255
 21
-78.19195
  0
LINE
  8
型材
  6
CONTINUOUS
 62
    32
 10
-215.315255
 20
-68.19195
 11
-216.065255
 21
-68.19195
  0
LINE
  8
型材
  6
CONTINUOUS
 62
    32
 10
-215.315255
 20
-78.19195
 11
-216.065255
 21
-78.19195
  0
LINE
  8
型材
  6
CONTINUOUS
 62
    32
 10
-208.565255
 20
-69.44195
 11
-208.565255
 21
-76.94195
  0
LINE
  8
型材
  6
CONTINUOUS
 62
    32
 10
-208.565255
 20
-69.44195
 11
-215.315255
 21
-69.44195
  0
LINE
  8
型材
  6
CONTINUOUS
 62
    32
 10
-208.565255
 20
-76.94195
 11
-215.315255
 21
-76.94195
  0
LINE
  8
型材
  6
CONTINUOUS
 62
    32
 10
-215.315255
 20
-85.69195
 11
-215.315255
 21
-95.69195
  0
LINE
  8
型材
  6
CONTINUOUS
 62
    32
 10
-215.315255
 20
-85.69195
 11
-216.065255
 21
-85.69195
  0
LINE
  8
型材
  6
CONTINUOUS
 62
    32
 10
-215.315255
 20
-95.69195
 11
-216.065255
 21
-95.69195
  0
LINE
  8
型材
  6
CONTINUOUS
 62
    32
 10
-208.565255
 20
-86.94195
 11
-208.565255
 21
-94.44195
  0
LINE
  8
型材
  6
CONTINUOUS
 62
    32
 10
-208.565255
 20
-86.94195
 11
-215.315255
 21
-86.94195
  0
LINE
  8
型材
  6
CONTINUOUS
 62
    32
 10
-208.565255
 20
-94.44195
 11
-215.315255
 21
-94.44195
  0
LINE
  8
型材
  6
CONTINUOUS
 62
    32
 10
-215.565255
 20
-104.44195
 11
-216.065255
 21
-104.44195
  0
LINE
  8
型材
  6
CONTINUOUS
 62
    32
 10
-215.565255
 20
-105.06695
 11
-215.065255
 21
-105.06695
  0
LINE
  8
型材
  6
CONTINUOUS
 62
    32
 10
-215.565255
 20
-111.94195
 11
-216.065255
 21
-111.94195
  0
LINE
  8
型材
  6
CONTINUOUS
 62
    32
 10
-215.565255
 20
-111.31695
 11
-215.065255
 21
-111.31695
  0
LINE
  8
型材
  6
CONTINUOUS
 62
    32
 10
-215.065255
 20
-105.06695
 11
-215.065255
 21
-111.31695
  0
LINE
  8
型材
  6
CONTINUOUS
 62
    32
 10
-215.565255
 20
-104.44195
 11
-215.565255
 21
-111.94195
  0
LINE
  8
型材
  6
CONTINUOUS
 62
    32
 10
-207.315255
 20
-106.94195
 11
-215.065255
 21
-107.456182
  0
LINE
  8
型材
  6
CONTINUOUS
 62
    32
 10
-207.315255
 20
-109.44195
 11
-215.065255
 21
-108.927718
  0
ARC
  8
型材
  6
CONTINUOUS
 62
    32
 10
-207.315255
 20
-108.191951
 40
1.25
 50
270.0
 51
450.0
  0
CIRCLE
  8
型材
  6
CONTINUOUS
 62
    32
 10
-241.865255
 20
-59.94195
 40
9.25
  0
CIRCLE
  8
型材
  6
CONTINUOUS
 62
    32
 10
-241.865255
 20
-59.94195
 40
5.25
  0
LINE
  8
型材
  6
CONTINUOUS
 62
    32
 10
-216.865255
 20
-178.19195
 11
-223.565255
 21
-178.19195
  0
ARC
  8
型材
  6
CONTINUOUS
 62
    32
 10
-216.865257
 20
-177.391951
 40
0.8
 50
270.0
 51
360.0
  0
LINE
  8
型材
  6
CONTINUOUS
 62
    32
 10
-216.865255
 20
-28.19195
 11
-223.565255
 21
-28.19195
  0
LINE
  8
型材
  6
CONTINUOUS
 62
    32
 10
-216.065255
 20
-28.99195
 11
-216.065255
 21
-177.39195
  0
ARC
  8
型材
  6
CONTINUOUS
 62
    32
 10
-216.865257
 20
-28.991951
 40
0.8
 50
0.0
 51
90.0
  0
LINE
  8
型材
  6
CONTINUOUS
 62
    32
 10
-229.565255
 20
-98.19195
 11
-223.565255
 21
-98.19195
  0
LINE
  8
型材
  6
CONTINUOUS
 62
    32
 10
-229.565255
 20
-108.19195
 11
-223.565255
 21
-108.19195
  0
LINE
  8
型材
  6
CONTINUOUS
 62
    32
 10
-223.565255
 20
-28.19195
 11
-223.565255
 21
-98.19195
  0
LINE
  8
型材
  6
CONTINUOUS
 62
    32
 10
-223.565255
 20
-108.19195
 11
-223.565255
 21
-178.19195
  0
LINE
  8
型材
  6
CONTINUOUS
 62
    32
 10
-229.565255
 20
-98.19195
 11
-229.565255
 21
-98.314917
  0
LINE
  8
型材
  6
CONTINUOUS
 62
    32
 10
-229.565255
 20
-99.066177
 11
-229.565255
 21
-107.317723
  0
LINE
  8
型材
  6
CONTINUOUS
 62
    32
 10
-229.565255
 20
-108.068983
 11
-229.565255
 21
-108.19195
  0
ARC
  8
型材
  6
CONTINUOUS
 62
    32
 10
-281.065255
 20
-175.641951
 40
0.8
 50
180.0
 51
270.0
  0
LINE
  8
型材
  6
CONTINUOUS
 62
    32
 10
-281.865255
 20
-30.74195
 11
-281.865255
 21
-175.64195
  0
ARC
  8
型材
  6
CONTINUOUS
 62
    32
 10
-281.065255
 20
-30.741951
 40
0.8
 50
90.0
 51
180.0
  0
LINE
  8
型材
  6
CONTINUOUS
 62
    32
 10
-281.065255
 20
-29.94195
 11
-223.565255
 21
-29.94195
  0
LINE
  8
型材
  6
CONTINUOUS
 62
    32
 10
-281.065255
 20
-176.44195
 11
-223.565255
 21
-176.44195
  0
CIRCLE
  8
型材
  6
DOT
 62
    32
 10
-241.865255
 20
-59.94195
 40
6.75
  0
LINE
  8
型材
  6
CONTINUOUS
 62
    32
 10
-229.065255
 20
-100.19195
 11
-229.065255
 21
-106.19195
  0
CIRCLE
  8
型材
  6
CONTINUOUS
 62
    32
 10
-219.565255
 20
-103.19195
 40
0.8
  0
CIRCLE
  8
型材
  6
CONTINUOUS
 62
    32
 10
-224.565255
 20
-103.19195
 40
0.8
  0
LINE
  8
型材
  6
CONTINUOUS
 62
    32
 10
-234.065255
 20
-99.44195
 11
-234.065255
 21
-106.94195
  0
LINE
  8
型材
  6
CONTINUOUS
 62
    32
 10
-247.065255
 20
-99.44195
 11
-247.065255
 21
-106.94195
  0
LINE
  8
型材
  6
CONTINUOUS
 62
    32
 10
-247.065255
 20
-99.44195
 11
-250.565255
 21
-100.44195
  0
LINE
  8
型材
  6
CONTINUOUS
 62
    32
 10
-250.565255
 20
-105.94195
 11
-247.065255
 21
-106.94195
  0
LINE
  8
型材
  6
CONTINUOUS
 62
    32
 10
-250.565255
 20
-100.44195
 11
-250.565255
 21
-105.94195
  0
LINE
  8
型材
  6
CONTINUOUS
 62
    32
 10
-234.065255
 20
-99.44195
 11
-247.065255
 21
-99.44195
  0
LINE
  8
型材
  6
CONTINUOUS
 62
    32
 10
-234.065255
 20
-106.94195
 11
-247.065255
 21
-106.94195
  0
LINE
  8
型材
  6
CONTINUOUS
 62
    32
 10
-234.065255
 20
-99.94195
 11
-235.565255
 21
-99.94195
  0
LINE
  8
型材
  6
CONTINUOUS
 62
    32
 10
-235.565255
 20
-99.94195
 11
-235.565255
 21
-100.44195
  0
LINE
  8
型材
  6
CONTINUOUS
 62
    32
 10
-235.565255
 20
-100.44195
 11
-234.565255
 21
-100.44195
  0
LINE
  8
型材
  6
CONTINUOUS
 62
    32
 10
-234.065255
 20
-106.44195
 11
-235.565255
 21
-106.44195
  0
LINE
  8
型材
  6
CONTINUOUS
 62
    32
 10
-235.565255
 20
-106.44195
 11
-235.565255
 21
-105.94195
  0
LINE
  8
型材
  6
CONTINUOUS
 62
    32
 10
-235.565255
 20
-105.94195
 11
-234.565255
 21
-105.94195
  0
LINE
  8
型材
  6
CONTINUOUS
 62
    32
 10
-234.565255
 20
-100.44195
 11
-234.565255
 21
-105.94195
  0
LINE
  8
型材
  6
CONTINUOUS
 62
    32
 10
-227.065255
 20
-100.19195
 11
-227.065255
 21
-106.19195
  0
CIRCLE
  8
型材
  6
CONTINUOUS
 62
    32
 10
-239.565255
 20
-103.19195
 40
0.8
  0
CIRCLE
  8
型材
  6
CONTINUOUS
 62
    32
 10
-244.565255
 20
-103.19195
 40
0.8
  0
LINE
  8
型材
  6
CONTINUOUS
 62
    32
 10
-227.815255
 20
-100.19195
 11
-227.815255
 21
-99.16759
  0
LINE
  8
型材
  6
CONTINUOUS
 62
    32
 10
-227.815255
 20
-99.16759
 11
-239.565255
 21
-98.486672
  0
LINE
  8
型材
  6
CONTINUOUS
 62
    32
 10
-239.565255
 20
-98.486672
 11
-239.565255
 21
-99.44195
  0
LINE
  8
型材
  6
CONTINUOUS
 62
    32
 10
-240.315255
 20
-98.48667
 11
-240.315255
 21
-99.44195
  0
ARC
  8
型材
  6
CONTINUOUS
 62
    32
 10
-239.565255
 20
-98.486673
 40
0.75
 50
86.683397
 51
180.0
  0
LINE
  8
型材
  6
CONTINUOUS
 62
    32
 10
-227.771865
 20
-98.418845
 11
-239.521865
 21
-97.737928
  0
LINE
  8
型材
  6
CONTINUOUS
 62
    32
 10
-227.065255
 20
-100.19195
 11
-227.065255
 21
-99.167587
  0
ARC
  8
型材
  6
CONTINUOUS
 62
    32
 10
-227.815255
 20
-99.16759
 40
0.75
 50
360.0
 51
446.683398
  0
LINE
  8
型材
  6
CONTINUOUS
 62
    32
 10
-227.815255
 20
-106.19195
 11
-227.815255
 21
-107.21631
  0
LINE
  8
型材
  6
CONTINUOUS
 62
    32
 10
-227.815255
 20
-107.21631
 11
-239.565255
 21
-107.897228
  0
LINE
  8
型材
  6
CONTINUOUS
 62
    32
 10
-239.565255
 20
-107.897228
 11
-239.565255
 21
-106.94195
  0
LINE
  8
型材
  6
CONTINUOUS
 62
    32
 10
-240.315255
 20
-107.89723
 11
-240.315255
 21
-106.94195
  0
ARC
  8
型材
  6
CONTINUOUS
 62
    32
 10
-239.565255
 20
-107.897231
 40
0.75
 50
180.0
 51
273.316603
  0
LINE
  8
型材
  6
CONTINUOUS
 62
    32
 10
-227.771865
 20
-107.965055
 11
-239.521865
 21
-108.645972
  0
LINE
  8
型材
  6
CONTINUOUS
 62
    32
 10
-227.065255
 20
-106.19195
 11
-227.065255
 21
-107.216313
  0
ARC
  8
型材
  6
CONTINUOUS
 62
    32
 10
-227.815255
 20
-107.216314
 40
0.75
 50
273.316602
 51
360.0
  0
LINE
  8
型材
  6
CONTINUOUS
 62
    32
 10
-217.065255
 20
-100.19195
 11
-229.065255
 21
-100.19195
  0
ARC
  8
型材
  6
CONTINUOUS
 62
    32
 10
-217.065255
 20
-100.691952
 40
0.5
 50
0.0
 51
90.0
  0
LINE
  8
型材
  6
CONTINUOUS
 62
    32
 10
-216.565255
 20
-100.69195
 11
-216.565255
 21
-105.69195
  0
LINE
  8
型材
  6
CONTINUOUS
 62
    32
 10
-217.065255
 20
-106.19195
 11
-229.065255
 21
-106.19195
  0
ARC
  8
型材
  6
CONTINUOUS
 62
    32
 10
-217.065255
 20
-105.691952
 40
0.5
 50
270.0
 51
360.0
  0
LINE
  8
型材
  6
DASHDOT
 10
-288.985745
 20
-40.69195
 11
-275.346825
 21
-40.69195
  0
LINE
  8
型材
  6
DASHDOT
 10
-288.985745
 20
-165.69195
 11
-275.346825
 21
-165.69195
  0
CIRCLE
  8
型材
  6
CONTINUOUS
 62
    32
 10
41.6846
 20
179.90197
 40
0.5
  0
LINE
  8
型材
  6
CONTINUOUS
 62
    32
 10
41.6846
 20
179.40197
 11
41.6846
 21
178.25197
  0
LINE
  8
型材
  6
CONTINUOUS
 62
    32
 10
41.6846
 20
180.40197
 11
41.6846
 21
185.55197
  0
LINE
  8
型材
  6
CONTINUOUS
 62
    32
 10
41.6846
 20
185.55197
 11
41.1846
 21
185.55197
  0
CIRCLE
  8
型材
  6
CONTINUOUS
 62
    32
 10
-32.5654
 20
196.55197
 40
9.25
  0
CIRCLE
  8
型材
  6
CONTINUOUS
 62
    32
 10
-32.5654
 20
196.55197
 40
5.25
  0
CIRCLE
  8
型材
  6
CONTINUOUS
 62
    32
 10
7.4346
 20
196.55197
 40
9.25
  0
CIRCLE
  8
型材
  6
CONTINUOUS
 62
    32
 10
7.4346
 20
196.55197
 40
5.25
  0
LINE
  8
型材
  6
CONTINUOUS
 62
    32
 10
42.4346
 20
178.25197
 11
-67.5654
 21
178.25197
  0
LINE
  8
型材
  6
CONTINUOUS
 62
    32
 10
-67.5654
 20
171.55197
 11
-67.5654
 21
178.25197
  0
ARC
  8
型材
  6
CONTINUOUS
 62
    32
 10
-66.765399
 20
171.551973
 40
0.8
 50
180.0
 51
270.0
  0
LINE
  8
型材
  6
CONTINUOUS
 62
    32
 10
42.4346
 20
178.25197
 11
42.4346
 21
171.55197
  0
LINE
  8
型材
  6
CONTINUOUS
 62
    32
 10
41.6346
 20
170.75197
 11
-66.7654
 21
170.75197
  0
ARC
  8
型材
  6
CONTINUOUS
 62
    32
 10
41.634601
 20
171.551973
 40
0.8
 50
-90.0
 51
0.0
  0
ARC
  8
型材
  6
CONTINUOUS
 62
    32
 10
40.3846
 20
235.751972
 40
0.8
 50
0.0
 51
90.0
  0
LINE
  8
型材
  6
CONTINUOUS
 62
    32
 10
-65.5154
 20
236.55197
 11
40.3846
 21
236.55197
  0
ARC
  8
型材
  6
CONTINUOUS
 62
    32
 10
-65.5154
 20
235.751972
 40
0.8
 50
90.0
 51
180.0
  0
LINE
  8
型材
  6
DOT
 62
    32
 10
-65.5154
 20
235.75197
 11
40.3846
 21
235.75197
  0
LINE
  8
型材
  6
CONTINUOUS
 62
    32
 10
40.3846
 20
235.75197
 11
40.3846
 21
178.25197
  0
LINE
  8
型材
  6
CONTINUOUS
 62
    32
 10
41.1846
 20
235.75197
 11
41.1846
 21
178.25197
  0
LINE
  8
型材
  6
CONTINUOUS
 62
    32
 10
-66.3154
 20
235.75197
 11
-66.3154
 21
178.25197
  0
LINE
  8
型材
  6
CONTINUOUS
 62
    32
 10
-65.5154
 20
235.75197
 11
-65.5154
 21
178.25197
  0
CIRCLE
  8
型材
  6
DOT
 62
    32
 10
-32.5654
 20
196.55197
 40
6.75
  0
CIRCLE
  8
型材
  6
DOT
 62
    32
 10
7.4346
 20
196.55197
 40
6.75
  0
ARC
  8
型材
  6
CONTINUOUS
 62
    32
 10
-68.815399
 20
182.501974
 40
1.25
 50
0.0
 51
90.0
  0
LINE
  8
型材
  6
CONTINUOUS
 62
    32
 10
-68.8154
 20
183.75197
 11
-68.8154
 21
183.75197
  0
LINE
  8
型材
  6
CONTINUOUS
 62
    32
 10
-68.8154
 20
183.25197
 11
-68.8154
 21
183.25197
  0
ARC
  8
型材
  6
CONTINUOUS
 62
    32
 10
-68.815399
 20
182.501974
 40
0.75
 50
0.0
 51
90.0
  0
LINE
  8
型材
  6
CONTINUOUS
 62
    32
 10
-69.5654
 20
181.75197
 11
-70.0654
 21
181.75197
  0
LINE
  8
型材
  6
CONTINUOUS
 62
    32
 10
-70.0654
 20
182.50197
 11
-70.0654
 21
181.75197
  0
LINE
  8
型材
  6
CONTINUOUS
 62
    32
 10
-68.0654
 20
182.50197
 11
-68.0654
 21
171.25197
  0
LINE
  8
型材
  6
CONTINUOUS
 62
    32
 10
-67.5654
 20
182.50197
 11
-67.5654
 21
171.25197
  0
LINE
  8
型材
  6
CONTINUOUS
 62
    32
 10
-67.5654
 20
171.25197
 11
-68.0654
 21
171.25197
  0
ARC
  8
型材
  6
CONTINUOUS
 62
    32
 10
-68.815399
 20
182.501974
 40
0.75
 50
177.562684
 51
180.0
  0
LINE
  8
型材
  6
CONTINUOUS
 62
    32
 10
-66.3154
 20
205.25197
 11
-66.8154
 21
205.25197
  0
LINE
  8
型材
  6
CONTINUOUS
 62
    32
 10
-70.134857
 20
205.25197
 11
-69.029735
 21
201.75197
  0
LINE
  8
型材
  6
CONTINUOUS
 62
    32
 10
-69.610525
 20
205.25197
 11
-68.505403
 21
201.75197
  0
LINE
  8
型材
  6
CONTINUOUS
 62
    32
 10
-71.3154
 20
190.75197
 11
-69.029735
 21
201.75197
  0
LINE
  8
型材
  6
CONTINUOUS
 62
    32
 10
-68.505403
 20
201.75197
 11
-66.8154
 21
200.518813
  0
LINE
  8
型材
  6
CONTINUOUS
 62
    32
 10
-70.134857
 20
205.25197
 11
-69.610525
 21
205.25197
  0
LINE
  8
型材
  6
CONTINUOUS
 62
    32
 10
-66.8154
 20
189.75197
 11
-66.8154
 21
205.25197
  0
ARC
  8
型材
  6
CONTINUOUS
 62
    32
 10
-67.815399
 20
189.751974
 40
1.0
 50
-90.0
 51
0.0
  0
LINE
  8
型材
  6
CONTINUOUS
 62
    32
 10
-66.3154
 20
188.75197
 11
-69.3154
 21
188.75197
  0
CIRCLE
  8
型材
  6
CONTINUOUS
 62
    32
 10
-67.8154
 20
189.75197
 40
0.832878
  0
LINE
  8
型材
  6
CONTINUOUS
 62
    32
 10
-66.3154
 20
188.75197
 11
-66.3154
 21
205.25197
  0
ARC
  8
型材
  6
CONTINUOUS
 62
    32
 10
-67.762634
 20
194.626974
 40
0.375
 50
329.659113
 51
509.659113
  0
ARC
  8
型材
  6
CONTINUOUS
 62
    32
 10
-68.799821
 20
182.168517
 40
0.375
 50
209.743533
 51
389.743533
  0
LINE
  8
型材
  6
CONTINUOUS
 62
    32
 10
-68.086272
 20
194.816397
 11
-71.738555
 21
188.576505
  0
LINE
  8
型材
  6
CONTINUOUS
 62
    32
 10
-69.125417
 20
181.98247
 11
-71.748992
 21
186.573978
  0
ARC
  8
型材
  6
CONTINUOUS
 62
    32
 10
-70.012483
 20
187.566219
 40
2.0
 50
149.659074
 51
209.743535
  0
LINE
  8
型材
  6
CONTINUOUS
 62
    32
 10
-67.438995
 20
194.43754
 11
-71.091277
 21
188.197645
  0
LINE
  8
型材
  6
CONTINUOUS
 62
    32
 10
-68.474227
 20
182.354558
 11
-71.097803
 21
186.946065
  0
ARC
  8
型材
  6
CONTINUOUS
 62
    32
 10
-70.012483
 20
187.566217
 40
1.25
 50
149.659077
 51
209.743533
  0
ARC
  8
型材
  6
CONTINUOUS
 62
    32
 10
-68.815399
 20
182.501974
 40
0.75
 50
90.0
 51
102.43881
  0
ARC
  8
型材
  6
CONTINUOUS
 62
    32
 10
-68.815399
 20
182.501974
 40
1.25
 50
90.0
 51
109.462753
  0
ARC
  8
型材
  6
CONTINUOUS
 62
    32
 10
-68.815399
 20
182.501974
 40
1.25
 50
144.674534
 51
180.0
  0
LINE
  8
型材
  6
CONTINUOUS
 62
    32
 10
-69.5654
 20
181.75197
 11
-69.5654
 21
182.752483
  0
ARC
  8
型材
  6
CONTINUOUS
 62
    32
 10
-69.315399
 20
190.751974
 40
2.0
 50
180.0
 51
209.91204
  0
ARC
  8
型材
  6
CONTINUOUS
 62
    32
 10
-69.315399
 20
190.751974
 40
2.0
 50
232.699404
 51
270.0
  0
LINE
  8
型材
  6
DOT
 62
    32
 10
43.3346
 20
180.65197
 11
43.3346
 21
70.65197
  0
LINE
  8
型材
  6
DOT
 62
    32
 10
50.0346
 20
70.65197
 11
43.3346
 21
70.65197
  0
ARC
  8
型材
  6
DOT
 62
    32
 10
50.034599
 20
71.451972
 40
0.8
 50
270.0
 51
360.0
  0
LINE
  8
型材
  6
DOT
 62
    32
 10
43.3346
 20
180.65197
 11
50.0346
 21
180.65197
  0
LINE
  8
型材
  6
DOT
 62
    32
 10
50.8346
 20
179.85197
 11
50.8346
 21
71.45197
  0
ARC
  8
型材
  6
DOT
 62
    32
 10
50.034599
 20
179.851972
 40
0.8
 50
0.0
 51
90.0
  0
ARC
  8
型材
  6
DOT
 62
    32
 10
39.084598
 20
69.401972
 40
1.25
 50
90.0
 51
180.0
  0
ARC
  8
型材
  6
DOT
 62
    32
 10
39.084598
 20
69.401972
 40
0.75
 50
90.0
 51
180.0
  0
LINE
  8
型材
  6
DOT
 62
    32
 10
39.8346
 20
68.65197
 11
39.8346
 21
68.15197
  0
LINE
  8
型材
  6
DOT
 62
    32
 10
39.0846
 20
68.15197
 11
39.8346
 21
68.15197
  0
LINE
  8
型材
  6
DOT
 62
    32
 10
39.0846
 20
70.15197
 11
50.3346
 21
70.15197
  0
LINE
  8
型材
  6
DOT
 62
    32
 10
39.0846
 20
70.65197
 11
50.3346
 21
70.65197
  0
LINE
  8
型材
  6
DOT
 62
    32
 10
50.3346
 20
70.65197
 11
50.3346
 21
70.15197
  0
ARC
  8
型材
  6
DOT
 62
    32
 10
39.084598
 20
69.401972
 40
0.75
 50
180.0
 51
192.43881
  0
ARC
  8
型材
  6
DOT
 62
    32
 10
39.084598
 20
69.401972
 40
1.25
 50
180.0
 51
199.462753
  0
ARC
  8
型材
  6
DOT
 62
    32
 10
39.084598
 20
69.401972
 40
1.25
 50
234.674534
 51
270.0
  0
LINE
  8
型材
  6
DOT
 62
    32
 10
39.8346
 20
68.65197
 11
38.834087
 21
68.65197
  0
ARC
  8
型材
  6
DASHDOT
 10
41.6846
 20
179.901971
 40
109.26246
 50
184.803764
 51
270.865271
  0
LINE
  8
型材
  6
DASHDOT
 10
-52.5654
 20
244.284052
 11
-52.5654
 21
230.266275
  0
LINE
  8
型材
  6
DASHDOT
 10
27.4346
 20
244.284052
 11
27.4346
 21
230.266275
  0
LINE
  8
型材
  6
DASHDOT
 10
-12.5654
 20
-178.19195
 11
-12.5654
 21
245.24144
  0
LINE
  8
型材
  6
CONTINUOUS
 10
163.652082
 20
219.075115
 11
361.446255
 21
219.075115
  0
LINE
  8
型材
  6
CONTINUOUS
 10
163.652082
 20
195.20701
 11
361.446255
 21
195.20701
  0
LINE
  8
型材
  6
CONTINUOUS
 10
163.652082
 20
207.141063
 11
361.446255
 21
207.141063
  0
LINE
  8
型材
  6
CONTINUOUS
 10
163.652082
 20
159.404853
 11
361.446255
 21
159.404853
  0
LINE
  8
型材
  6
CONTINUOUS
 10
163.652082
 20
147.4708
 11
361.446255
 21
147.4708
  0
LINE
  8
型材
  6
CONTINUOUS
 10
243.203168
 20
219.075115
 11
243.203168
 21
159.404853
  0
LINE
  8
型材
  6
CONTINUOUS
 10
163.652082
 20
171.338905
 11
361.446255
 21
171.338905
  0
LINE
  8
型材
  6
CONTINUOUS
 10
163.652082
 20
183.272957
 11
361.446255
 21
183.272957
  0
LINE
  8
型材
  6
DOT
 10
255.934455
 20
-30.74195
 11
198.434455
 21
-30.74195
  0
LINE
  8
型材
  6
DOT
 10
255.934455
 20
-30.74195
 11
255.934455
 21
-175.64195
  0
LINE
  8
型材
  6
DOT
 10
255.934455
 20
-175.64195
 11
198.434455
 21
-175.64195
  0
LINE
  8
型材
  6
DOT
 10
-281.065255
 20
-175.64195
 11
-223.565255
 21
-175.64195
  0
LINE
  8
型材
  6
DOT
 10
-281.065255
 20
-30.74195
 11
-281.065255
 21
-175.64195
  0
LINE
  8
型材
  6
DOT
 10
-281.065255
 20
-30.74195
 11
-223.565255
 21
-30.74195
  0
LINE
  8
型材
  6
DOT
 10
-281.865255
 20
-42.94195
 11
-281.065255
 21
-42.94195
  0
LINE
  8
型材
  6
DOT
 10
-281.865255
 20
-38.44195
 11
-281.065255
 21
-38.44195
  0
LINE
  8
型材
  6
DOT
 10
-281.665255
 20
-38.44195
 11
-281.665255
 21
-42.94195
  0
LINE
  8
型材
  6
DOT
 10
-281.465255
 20
-38.44195
 11
-281.465255
 21
-42.94195
  0
LINE
  8
型材
  6
DOT
 10
-281.265255
 20
-38.44195
 11
-281.265255
 21
-42.94195
  0
LINE
  8
型材
  6
DOT
 10
-281.865255
 20
-167.94195
 11
-281.065255
 21
-167.94195
  0
LINE
  8
型材
  6
DOT
 10
-281.865255
 20
-163.44195
 11
-281.065255
 21
-163.44195
  0
LINE
  8
型材
  6
DOT
 10
-281.665255
 20
-163.44195
 11
-281.665255
 21
-167.94195
  0
LINE
  8
型材
  6
DOT
 10
-281.465255
 20
-163.44195
 11
-281.465255
 21
-167.94195
  0
LINE
  8
型材
  6
DOT
 10
-281.265255
 20
-163.44195
 11
-281.265255
 21
-167.94195
  0
LINE
  8
型材
  6
DOT
 10
255.934455
 20
-42.94195
 11
256.734455
 21
-42.94195
  0
LINE
  8
型材
  6
DOT
 10
255.934455
 20
-38.44195
 11
256.734455
 21
-38.44195
  0
LINE
  8
型材
  6
DOT
 10
256.134455
 20
-38.44195
 11
256.134455
 21
-42.94195
  0
LINE
  8
型材
  6
DOT
 10
256.334455
 20
-38.44195
 11
256.334455
 21
-42.94195
  0
LINE
  8
型材
  6
DOT
 10
256.534455
 20
-38.44195
 11
256.534455
 21
-42.94195
  0
LINE
  8
型材
  6
DOT
 10
255.934455
 20
-167.94195
 11
256.734455
 21
-167.94195
  0
LINE
  8
型材
  6
DOT
 10
255.934455
 20
-163.44195
 11
256.734455
 21
-163.44195
  0
LINE
  8
型材
  6
DOT
 10
256.134455
 20
-163.44195
 11
256.134455
 21
-167.94195
  0
LINE
  8
型材
  6
DOT
 10
256.334455
 20
-163.44195
 11
256.334455
 21
-167.94195
  0
LINE
  8
型材
  6
DOT
 10
256.534455
 20
-163.44195
 11
256.534455
 21
-167.94195
  0
LINE
  8
型材
  6
DOT
 10
29.6846
 20
235.75197
 11
29.6846
 21
236.55197
  0
LINE
  8
型材
  6
DOT
 10
25.1846
 20
235.75197
 11
25.1846
 21
236.55197
  0
LINE
  8
型材
  6
DOT
 10
25.1846
 20
235.95197
 11
29.6846
 21
235.95197
  0
LINE
  8
型材
  6
DOT
 10
25.1846
 20
236.15197
 11
29.6846
 21
236.15197
  0
LINE
  8
型材
  6
DOT
 10
25.1846
 20
236.35197
 11
29.6846
 21
236.35197
  0
LINE
  8
型材
  6
DOT
 10
-50.3154
 20
235.75197
 11
-50.3154
 21
236.55197
  0
LINE
  8
型材
  6
DOT
 10
-54.8154
 20
235.75197
 11
-54.8154
 21
236.55197
  0
LINE
  8
型材
  6
DOT
 10
-54.8154
 20
235.95197
 11
-50.3154
 21
235.95197
  0
LINE
  8
型材
  6
DOT
 10
-54.8154
 20
236.15197
 11
-50.3154
 21
236.15197
  0
LINE
  8
型材
  6
DOT
 10
-54.8154
 20
236.35197
 11
-50.3154
 21
236.35197
  0
LINE
  8
型材
  6
CONTINUOUS
 10
163.652082
 20
254.247833
 11
361.446255
 21
254.247833
  0
LINE
  8
型材
  6
CONTINUOUS
 10
361.446255
 20
147.4708
 11
361.446255
 21
254.247833
  0
LINE
  8
型材
  6
CONTINUOUS
 10
163.652082
 20
147.4708
 11
163.652082
 21
254.247833
  0
TEXT
  7
TextStyle03
  8
文字
  6
CONTINUOUS
 10
167.25
 20
210.35
  1
入力／出力
 40
6.0
 72
     5
 11
200.25
 21
210.35
  0
TEXT
  7
TextStyle03
  8
文字
  6
CONTINUOUS
 10
167.25
 20
197.85
  1
ボックス
 40
6.0
 72
     5
 11
193.5
 21
197.85
  0
TEXT
  7
TextStyle03
  8
文字
  6
CONTINUOUS
 10
248.125
 20
198.225
  1
ＳＰＣＣ（焼付け塗装）
 40
6.0
 72
     5
 11
321.625
 21
198.225
  0
TEXT
  7
TextStyle03
  8
文字
  6
CONTINUOUS
 10
274.775
 20
-279.275
  1
ＴＫ－ＯＰ－Ｙ００１
 40
4.0
 72
     5
 11
319.275
 21
-279.275
  0
TEXT
  7
TextStyle03
  8
文字
  6
CONTINUOUS
 10
107.775
 20
61.05
  1
予備電源装置
 40
6.0
 72
     5
 11
147.525
 21
61.05
  0
TEXT
  7
TextStyle03
  8
文字
  6
CONTINUOUS
 10
107.775
 20
54.3
  1

 40
6.0
 41
1.125
  0
TEXT
  7
TextStyle03
  8
文字
  6
CONTINUOUS
 10
107.775
 20
47.55
  1
品番：ＴＫ－ＯＰ－Ｙ００１
 40
6.0
 72
     5
 11
194.775
 21
47.55
  0
TEXT
  7
TextStyle03
  8
文字
  6
CONTINUOUS
 10
167.25
 20
162.475
  1
付属品
 40
6.0
 72
     5
 11
186.75
 21
162.475
  0
TEXT
  7
TextStyle03
  8
文字
  6
CONTINUOUS
 10
167.25
 20
150.675
  1
※フェース色は日塗工Ｃ２５－８０Ａ（淡グレー）近似色。
 40
6.0
 72
     5
 11
348.75
 21
150.675
  0
TEXT
  7
TextStyle03
  8
文字
  6
CONTINUOUS
 10
167.25
 20
186.2
  1
充電時間
 40
6.0
 72
     5
 11
193.5
 21
186.2
  0
TEXT
  7
TextStyle03
  8
文字
  6
CONTINUOUS
 10
167.25
 20
174.075
  1
バッテリー保障期間
 40
6.0
 72
     5
 11
227.25
 21
174.075
  0
TEXT
  7
TextStyle03
  8
文字
  6
CONTINUOUS
 10
247.2
 20
173.95
  1
２年
 40
6.0
 72
     5
 11
259.95
 21
173.95
  0
TEXT
  7
TextStyle03
  8
文字
  6
CONTINUOUS
 10
278.275
 20
166.25
  1
１００Ｖ　１Ａ　×　１個
 40
4.0
 72
     5
 11
358.525
 21
166.25
  0
TEXT
  7
TextStyle03
  8
文字
  6
CONTINUOUS
 10
278.275
 20
160.775
  1
１００Ｖ　３Ａ　×　１個
 40
4.0
 72
     5
 11
358.525
 21
160.775
  0
TEXT
  7
TextStyle03
  8
文字
  6
CONTINUOUS
 10
103.975
 20
23.425
  1
Ｓ＝１／２
 40
4.0
 72
     5
 11
125.975
 21
23.425
  0
TEXT
  7
TextStyle03
  8
文字
  6
CONTINUOUS
 10
213.0
 20
-138.4
  1
SUS蝶番
 40
6.0
 72
     5
 11
235.875
 21
-138.4
  0
TEXT
  7
TextStyle03
  8
文字
  6
CONTINUOUS
 10
57.35
 20
-134.65
  1
電源ＯＮ／ＯＦＦスイッチ
 40
6.0
 72
     5
 11
137.6
 21
-134.65
  0
TEXT
  7
TextStyle03
  8
文字
  6
CONTINUOUS
 10
-304.95
 20
-119.825
  1
パッチン錠(鍵無し)
 40
6.0
 72
     5
 11
-244.575
 21
-119.825
  0
TEXT
  7
TextStyle03
  8
文字
  6
CONTINUOUS
 10
-149.825
 20
-194.05
  1
４－φ９穴（取付け用）
 40
6.0
 72
     5
 11
-76.325
 21
-194.05
  0
TEXT
  7
TextStyle03
  8
文字
  6
CONTINUOUS
 10
53.625
 20
-17.975
  1
電源ランプ(電源ＯＮ時点灯)
 40
6.0
 72
     5
 11
141.0
 21
-17.975
  0
TEXT
  7
TextStyle03
  8
文字
  6
CONTINUOUS
 10
-55.925
 20
3.825
  1
ボックス取付け用穴ピッチ＝
 40
6.0
 72
     5
 11
31.075
 21
3.825
  0
TEXT
  7
TextStyle03
  8
文字
  6
CONTINUOUS
 10
167.25
 20
241.375
  1
予備電源装置（オプション）
 40
6.0
 72
     5
 11
254.25
 21
241.375
  0
TEXT
  7
TextStyle03
  8
文字
  6
CONTINUOUS
 10
167.25
 20
234.625
  1

 40
6.0
 41
1.125
  0
TEXT
  7
TextStyle03
  8
文字
  6
CONTINUOUS
 10
167.25
 20
227.875
  1

 40
6.0
 41
1.125
  0
TEXT
  7
TextStyle03
  8
文字
  6
CONTINUOUS
 10
167.25
 20
221.125
  1
メーカー：特殊技研金属株式会社
 40
6.0
 72
     5
 11
267.75
 21
221.125
  0
TEXT
  7
TextStyle03
  8
文字
  6
CONTINUOUS
 10
168.0
 20
234.8
  1
※防災電源(非常電源)が設けられない場合は予備電源が必要となります。
 40
5.0
 72
     5
 11
353.0
 21
234.8
  0
TEXT
  7
TextStyle03
  8
文字
  6
CONTINUOUS
 10
247.9
 20
210.35
  1
AC100V　4A　／　DC24V　3A
 40
6.0
 72
     5
 11
331.9
 21
210.35
  0
TEXT
  7
TextStyle03
  8
文字
  6
CONTINUOUS
 10
247.2
 20
186.2
  1
約２時間
 40
6.0
 72
     5
 11
273.45
 21
186.2
  0
TEXT
  7
TextStyle03
  8
文字
  6
CONTINUOUS
 10
57.35
 20
-100.575
  1
バッテリーヒューズ(100V　3A)
 40
6.0
 72
     5
 11
151.475
 21
-100.575
  0
TEXT
  7
TextStyle03
  8
文字
  6
CONTINUOUS
 10
57.35
 20
-117.6
  1
電源ヒューズ(100V　1A)
 40
6.0
 72
     5
 11
131.225
 21
-117.6
  0
TEXT
  7
TextStyle03
  8
文字
  6
CONTINUOUS
 10
245.45
 20
162.475
  1
ヒューズ：
 40
6.0
 72
     5
 11
278.45
 21
162.475
  0
TEXT
  7
TextStyle03
  8
文字
  6
CONTINUOUS
 10
57.35
 20
-83.5
  1
充電ランプ(充電中に点灯)
 40
6.0
 72
     5
 11
137.975
 21
-83.5
  0
INSERT
  2
*DIM_0006
  8
寸法
  6
CONTINUOUS
 10
0.0
 20
0.0
  0
INSERT
  2
*DIM_0007
  8
寸法
  6
CONTINUOUS
 10
0.0
 20
0.0
  0
INSERT
  2
*DIM_0008
  8
寸法
  6
CONTINUOUS
 10
0.0
 20
0.0
  0
INSERT
  2
*DIM_0009
  8
寸法
  6
CONTINUOUS
 10
0.0
 20
0.0
  0
INSERT
  2
*DIM_0010
  8
寸法
  6
CONTINUOUS
 10
0.0
 20
0.0
  0
INSERT
  2
*GRP_0011
  8
寸法
  6
CONTINUOUS
 10
0.0
 20
0.0
  0
INSERT
  2
*GRP_0012
  8
寸法
  6
CONTINUOUS
 10
0.0
 20
0.0
  0
INSERT
  2
*GRP_0013
  8
寸法
  6
CONTINUOUS
 10
0.0
 20
0.0
  0
INSERT
  2
*GRP_0014
  8
寸法
  6
CONTINUOUS
 10
0.0
 20
0.0
  0
INSERT
  2
*GRP_0015
  8
寸法
  6
CONTINUOUS
 10
0.0
 20
0.0
  0
INSERT
  2
*GRP_0016
  8
寸法
  6
CONTINUOUS
 10
0.0
 20
0.0
  0
INSERT
  2
*GRP_0017
  8
寸法
  6
CONTINUOUS
 10
0.0
 20
0.0
  0
INSERT
  2
*GRP_0018
  8
寸法
  6
CONTINUOUS
 10
0.0
 20
0.0
  0
INSERT
  2
*DIM_0019
  8
寸法
  6
CONTINUOUS
 10
0.0
 20
0.0
  0
LINE
  8
寸法
  6
CONTINUOUS
 10
101.533065
 20
42.614992
 11
206.49378
 21
42.614992
  0
POLYLINE
  8
寸法
  6
CONTINUOUS
 66
     1
  0
VERTEX
  8
寸法
 10
206.49378
 20
42.614992
  0
VERTEX
  8
寸法
 10
206.49378
 20
71.034017
  0
VERTEX
  8
寸法
 10
101.533065
 20
71.034017
  0
VERTEX
  8
寸法
 10
101.533065
 20
42.614992
  0
SEQEND
  0
POLYLINE
  8
寸法
  6
CONTINUOUS
 66
     1
 70
     1
  0
VERTEX
  8
寸法
 10
127.674325
 20
29.923222
  0
VERTEX
  8
寸法
 10
101.533065
 20
29.923222
  0
VERTEX
  8
寸法
 10
101.533065
 20
21.20947
  0
VERTEX
  8
寸法
 10
127.674325
 20
21.20947
  0
SEQEND
  0
INSERT
  2
*DIM_0020
  8
寸法
  6
CONTINUOUS
 10
0.0
 20
0.0
  0
INSERT
  2
*DIM_0021
  8
寸法
  6
CONTINUOUS
 10
0.0
 20
0.0
  0
INSERT
  2
*DIM_0022
  8
寸法
  6
CONTINUOUS
 10
0.0
 20
0.0
  0
INSERT
  2
*DIM_0023
  8
寸法
  6
CONTINUOUS
 10
0.0
 20
0.0
  0
INSERT
  2
*DIM_0024
  8
寸法
  6
CONTINUOUS
 10
0.0
 20
0.0
  0
INSERT
  2
*DIM_0025
  8
寸法
  6
CONTINUOUS
 10
0.0
 20
0.0
  0
INSERT
  2
*DIM_0026
  8
寸法
  6
CONTINUOUS
 10
0.0
 20
0.0
  0
INSERT
  2
*DIM_0027
  8
寸法
  6
CONTINUOUS
 10
0.0
 20
0.0
  0
INSERT
  2
*DIM_0028
  8
寸法
  6
CONTINUOUS
 10
0.0
 20
0.0
  0
INSERT
  2
*DIM_0029
  8
寸法
  6
CONTINUOUS
 10
0.0
 20
0.0
  0
INSERT
  2
*DIM_0030
  8
寸法
  6
CONTINUOUS
 10
0.0
 20
0.0
  0
INSERT
  2
*DIM_0031
  8
寸法
  6
CONTINUOUS
 10
0.0
 20
0.0
  0
INSERT
  2
*DIM_0032
  8
寸法
  6
CONTINUOUS
 10
0.0
 20
0.0
  0
INSERT
  2
*DIM_0033
  8
寸法
  6
CONTINUOUS
 10
0.0
 20
0.0
  0
INSERT
  2
*DIM_0034
  8
寸法
  6
CONTINUOUS
 10
0.0
 20
0.0
  0
INSERT
  2
*DIM_0035
  8
寸法
  6
CONTINUOUS
 10
0.0
 20
0.0
  0
INSERT
  2
*DIM_0036
  8
寸法
  6
CONTINUOUS
 10
0.0
 20
0.0
  0
INSERT
  2
*DIM_0037
  8
寸法
  6
CONTINUOUS
 10
0.0
 20
0.0
  0
INSERT
  2
*DIM_0038
  8
寸法
  6
CONTINUOUS
 10
0.0
 20
0.0
  0
INSERT
  2
*DIM_0039
  8
寸法
  6
CONTINUOUS
 10
0.0
 20
0.0
  0
INSERT
  2
*DIM_0040
  8
寸法
  6
CONTINUOUS
 10
0.0
 20
0.0
  0
INSERT
  2
*DIM_0041
  8
寸法
  6
CONTINUOUS
 10
0.0
 20
0.0
  0
INSERT
  2
*DIM_0042
  8
寸法
  6
CONTINUOUS
 10
0.0
 20
0.0
  0
INSERT
  2
*DIM_0043
  8
寸法
  6
CONTINUOUS
 10
0.0
 20
0.0
  0
INSERT
  2
*DIM_0044
  8
寸法
  6
CONTINUOUS
 10
0.0
 20
0.0
  0
INSERT
  2
*DIM_0045
  8
寸法
  6
CONTINUOUS
 10
0.0
 20
0.0
  0
INSERT
  2
*DIM_0046
  8
寸法
  6
CONTINUOUS
 10
0.0
 20
0.0
  0
INSERT
  2
*GRP_0001
  8
その他部品等
  6
CONTINUOUS
 10
0.0
 20
0.0
  0
ENDSEC
  0
EOF
