  0
SECTION
  2
HEADER
  9
$EXTMIN
 10
-210.0
 20
-148.5
  9
$EXTMAX
 10
210.0
 20
148.5
  9
$PDMODE
 70
    32
  9
$PDSIZE
 40
0.3
  9
$LTSCALE
 40
10.0
  0
ENDSEC
  0
SECTION
  2
TABLES
  0
TABLE
  2
LTYPE
 70
    15
  0
LTYPE
  2
CONTINUOUS
 70
    64
  3
実線
 72
    65
 73
     0
 40
0.0
  0
LTYPE
  2
DASHED
 70
    64
  3
破線A
 72
    65
 73
     2
 40
0.6
 49
0.4
 49
-0.2
  0
LTYPE
  2
DASHEDX2
 70
    64
  3
破線B
 72
    65
 73
     2
 40
1.3
 49
0.9
 49
-0.4
  0
LTYPE
  2
DASHDOT
 70
    64
  3
１点鎖線A
 72
    65
 73
     4
 40
0.5375
 49
0.375
 49
-0.05
 49
0.0625
 49
-0.05
  0
LTYPE
  2
DASHDOTX2
 70
    64
  3
１点鎖線B
 72
    65
 73
     4
 40
1.075
 49
0.75
 49
-0.1
 49
0.125
 49
-0.1
  0
LTYPE
  2
DIVIDE2
 70
    64
  3
２点鎖線A
 72
    65
 73
     6
 40
0.5125
 49
0.3
 49
-0.0375
 49
0.05
 49
-0.0375
 49
0.05
 49
-0.0375
  0
LTYPE
  2
DIVIDE
 70
    64
  3
２点鎖線B
 72
    65
 73
     6
 40
1.05
 49
0.55
 49
-0.1
 49
0.1
 49
-0.1
 49
0.1
 49
-0.1
  0
LTYPE
  2
DOT
 70
    64
  3
点線A
 72
    65
 73
     2
 40
0.1125
 49
0.0625
 49
-0.05
  0
LTYPE
  2
DOTX2
 70
    64
  3
点線B
 72
    65
 73
     2
 40
0.275
 49
0.15
 49
-0.125
  0
LTYPE
  2
CONTINUOUS
 70
    64
  3
実線
 72
    65
 73
     0
 40
0.0
  0
LTYPE
  2
CONTINUOUS
 70
    64
  3
実線
 72
    65
 73
     0
 40
0.0
  0
LTYPE
  2
CONTINUOUS
 70
    64
  3
実線
 72
    65
 73
     0
 40
0.0
  0
LTYPE
  2
CONTINUOUS
 70
    64
  3
実線
 72
    65
 73
     0
 40
0.0
  0
LTYPE
  2
CONTINUOUS
 70
    64
  3
実線
 72
    65
 73
     0
 40
0.0
  0
LTYPE
  2
CONTINUOUS
 70
    64
  3
実線
 72
    65
 73
     0
 40
0.0
  0
ENDTAB
  0
TABLE
  2
LAYER
 70
    41
  0
LAYER
  2
通り芯
 70
     0
 62
    15
  6
CONTINUOUS
  0
LAYER
  2
補助線
 70
     0
 62
    16
  6
DOT
  0
LAYER
  2
躯体
 70
     0
 62
    31
  6
CONTINUOUS
  0
LAYER
  2
型材
 70
     0
 62
    32
  6
CONTINUOUS
  0
LAYER
  2
型材断面
 70
     0
 62
    47
  6
CONTINUOUS
  0
LAYER
  2
ガラス
 70
     0
 62
    48
  6
CONTINUOUS
  0
LAYER
  2
ゴム等
 70
     0
 62
    63
  6
CONTINUOUS
  0
LAYER
  2
ボルト／ビス
 70
     0
 62
    64
  6
CONTINUOUS
  0
LAYER
  2
文字
 70
     0
 62
    79
  6
CONTINUOUS
  0
LAYER
  2
寸法
 70
     0
 62
    80
  6
CONTINUOUS
  0
LAYER
  2
ﾊｯﾁﾝｸﾞ
 70
     0
 62
    95
  6
CONTINUOUS
  0
LAYER
  2
別途部材
 70
     0
 62
    96
  6
CONTINUOUS
  0
LAYER
  2
曲げ物
 70
     0
 62
   111
  6
CONTINUOUS
  0
LAYER
  2
鉄骨等
 70
     0
 62
   112
  6
CONTINUOUS
  0
LAYER
  2
St
 70
     0
 62
   127
  6
CONTINUOUS
  0
LAYER
  2
その他部品等
 70
     0
 62
   128
  6
CONTINUOUS
  0
LAYER
  2
ｶﾞｽｹｯﾄ
 70
     0
 62
   143
  6
CONTINUOUS
  0
LAYER
  2
ｽｹｯﾁ
 70
     0
 62
    14
  6
CONTINUOUS
  0
LAYER
  2
0
 70
     0
 62
    17
  6
CONTINUOUS
  0
LAYER
  2
1
 70
     0
 62
    30
  6
CONTINUOUS
  0
LAYER
  2
4
 70
     0
 62
    33
  6
CONTINUOUS
  0
LAYER
  2
ﾚｲﾔ3
 70
     0
 62
    46
  6
CONTINUOUS
  0
LAYER
  2
外形線
 70
     0
 62
    49
  6
CONTINUOUS
  0
LAYER
  2
部品
 70
     0
 62
    14
  6
CONTINUOUS
  0
LAYER
  2
サッシ芯
 70
     0
 62
    17
  6
DASHDOTX2
  0
LAYER
  2
寸法線
 70
     0
 62
    62
  6
CONTINUOUS
  0
LAYER
  2
姿図外形線
 70
     0
 62
    65
  6
CONTINUOUS
  0
LAYER
  2
姿補助線
 70
     0
 62
    30
  6
CONTINUOUS
  0
LAYER
  2
透視線
 70
     0
 62
    78
  6
DOT
  0
LAYER
  2
用紙
 70
     0
 62
    81
  6
CONTINUOUS
  0
LAYER
  2
実線図枠
 70
     0
 62
    94
  6
CONTINUOUS
  0
LAYER
  2
補助図枠
 70
     0
 62
    97
  6
CONTINUOUS
  0
LAYER
  2
建具記号
 70
     0
 62
   110
  6
CONTINUOUS
  0
LAYER
  2
補助文字
 70
     0
 62
   113
  6
CONTINUOUS
  0
LAYER
  2
LAYER001
 70
     0
 62
     7
  6
CONTINUOUS
  0
LAYER
  2
LAYER010
 70
     0
 62
    11
  6
CONTINUOUS
  0
LAYER
  2
LAYER011
 70
     0
 62
    12
  6
CONTINUOUS
  0
LAYER
  2
LAYER013
 70
     0
 62
    14
  6
CONTINUOUS
  0
LAYER
  2
LAYER026
 70
     0
 62
    11
  6
CONTINUOUS
  0
LAYER
  2
断面線04
 70
     0
 62
     4
  6
CONTINUOUS
  0
LAYER
  2
投影線02
 70
     0
 62
    12
  6
CONTINUOUS
  0
ENDTAB
  0
TABLE
  2
STYLE
 70
    10
  0
STYLE
  2
STANDARD
 70
     0
 40
1.0
 41
1.0
 42
1.0
 50
0.0
 71
     0
  3
TXT
  4
BIGFONT
  0
STYLE
  2
TATE
 70
     4
 40
1.0
 41
1.0
 42
1.0
 50
0.0
 71
     0
  3
TXT
  4
BIGFONT
  0
STYLE
  2
TextStyle03
 70
     0
 40
1.0
 41
1.0
 42
1.0
 50
0.0
 71
     0
  3
MONOTXT
  4
BIGFONT
  0
STYLE
  2
TextStyle04
 70
     0
 40
1.0
 41
1.0
 42
1.0
 50
0.0
 71
     0
  3
MONOTXT
  4
BIGFONT
  0
STYLE
  2
TextStyle05
 70
     0
 40
1.0
 41
1.0
 42
1.0
 50
0.0
 71
     0
  3
MONOTXT
  4
BIGFONT
  0
STYLE
  2
TextStyle06
 70
     0
 40
1.0
 41
1.0
 42
1.0
 50
0.0
 71
     0
  3
MONOTXT
  4
BIGFONT
  0
STYLE
  2
TextStyle07
 70
     0
 40
1.0
 41
1.0
 42
1.0
 50
0.0
 71
     0
  3
MONOTXT
  4
BIGFONT
  0
STYLE
  2
TextStyle08
 70
     0
 40
1.0
 41
1.0
 42
1.0
 50
0.0
 71
     0
  3
MONOTXT
  4
BIGFONT
  0
STYLE
  2
TextStyle09
 70
     0
 40
1.0
 41
1.0
 42
1.0
 50
0.0
 71
     0
  3
MONOTXT
  4
BIGFONT
  0
STYLE
  2
TextStyle10
 70
     0
 40
1.0
 41
1.0
 42
1.0
 50
0.0
 71
     0
  3
MONOTXT
  4
BIGFONT
  0
ENDTAB
  0
ENDSEC
  0
SECTION
  2
BLOCKS
  0
BLOCK
  2
*HAT_0001
 70
    65
 10
0.0
 20
0.0
  0
LINE
  8
ゴム等
 10
-62.875
 20
-32.25
 11
-62.525
 21
-32.6
  0
LINE
  8
ゴム等
 10
-62.875
 20
-31.6
 11
-61.9
 21
-32.6
  0
LINE
  8
ゴム等
 10
-62.875
 20
-30.975
 11
-61.275
 21
-32.6
  0
LINE
  8
ゴム等
 10
-62.875
 20
-30.35
 11
-60.725
 21
-32.525
  0
LINE
  8
ゴム等
 10
-62.675
 20
-29.95
 11
-60.725
 21
-31.9
  0
LINE
  8
ゴム等
 10
-62.05
 20
-29.95
 11
-60.725
 21
-31.25
  0
LINE
  8
ゴム等
 10
-61.425
 20
-29.95
 11
-60.725
 21
-30.65
  0
LINE
  8
ゴム等
 10
-60.775
 20
-29.95
 11
-60.725
 21
-30.0
  0
ENDBLK
  0
BLOCK
  2
*HAT_0002
 70
    65
 10
0.0
 20
0.0
  0
LINE
  8
ゴム等
 10
54.8
 20
-32.25
 11
54.45
 21
-32.6
  0
LINE
  8
ゴム等
 10
54.8
 20
-31.6
 11
53.825
 21
-32.6
  0
LINE
  8
ゴム等
 10
54.8
 20
-30.975
 11
53.2
 21
-32.6
  0
LINE
  8
ゴム等
 10
54.8
 20
-30.35
 11
52.65
 21
-32.525
  0
LINE
  8
ゴム等
 10
54.6
 20
-29.95
 11
52.65
 21
-31.9
  0
LINE
  8
ゴム等
 10
53.975
 20
-29.95
 11
52.65
 21
-31.25
  0
LINE
  8
ゴム等
 10
53.35
 20
-29.95
 11
52.65
 21
-30.65
  0
LINE
  8
ゴム等
 10
52.7
 20
-29.95
 11
52.65
 21
-30.0
  0
ENDBLK
  0
BLOCK
  2
*HAT_0003
 70
    65
 10
0.0
 20
0.0
  0
LINE
  8
ゴム等
 10
2.925
 20
-32.2
 11
3.275
 21
-32.55
  0
LINE
  8
ゴム等
 10
2.925
 20
-31.55
 11
3.9
 21
-32.55
  0
LINE
  8
ゴム等
 10
2.925
 20
-30.925
 11
4.525
 21
-32.55
  0
LINE
  8
ゴム等
 10
2.925
 20
-30.3
 11
5.075
 21
-32.475
  0
LINE
  8
ゴム等
 10
3.125
 20
-29.9
 11
5.075
 21
-31.85
  0
LINE
  8
ゴム等
 10
3.75
 20
-29.9
 11
5.075
 21
-31.2
  0
LINE
  8
ゴム等
 10
4.375
 20
-29.9
 11
5.075
 21
-30.6
  0
LINE
  8
ゴム等
 10
5.025
 20
-29.9
 11
5.075
 21
-29.95
  0
ENDBLK
  0
BLOCK
  2
*HAT_0004
 70
    65
 10
0.0
 20
0.0
  0
LINE
  8
ゴム等
 10
-10.975
 20
-32.2
 11
-11.325
 21
-32.55
  0
LINE
  8
ゴム等
 10
-10.975
 20
-31.55
 11
-11.95
 21
-32.55
  0
LINE
  8
ゴム等
 10
-10.975
 20
-30.925
 11
-12.575
 21
-32.55
  0
LINE
  8
ゴム等
 10
-10.975
 20
-30.3
 11
-13.125
 21
-32.475
  0
LINE
  8
ゴム等
 10
-11.175
 20
-29.9
 11
-13.125
 21
-31.85
  0
LINE
  8
ゴム等
 10
-11.8
 20
-29.9
 11
-13.125
 21
-31.2
  0
LINE
  8
ゴム等
 10
-12.425
 20
-29.9
 11
-13.125
 21
-30.6
  0
LINE
  8
ゴム等
 10
-13.075
 20
-29.9
 11
-13.125
 21
-29.95
  0
ENDBLK
  0
BLOCK
  2
*HAT_0005
 70
    65
 10
0.0
 20
0.0
  0
LINE
  8
ゴム等
 10
2.925
 20
-96.15
 11
3.275
 21
-96.5
  0
LINE
  8
ゴム等
 10
2.925
 20
-95.5
 11
3.9
 21
-96.5
  0
LINE
  8
ゴム等
 10
2.925
 20
-94.875
 11
4.525
 21
-96.5
  0
LINE
  8
ゴム等
 10
2.925
 20
-94.25
 11
5.075
 21
-96.425
  0
LINE
  8
ゴム等
 10
3.125
 20
-93.85
 11
5.075
 21
-95.8
  0
LINE
  8
ゴム等
 10
3.75
 20
-93.85
 11
5.075
 21
-95.15
  0
LINE
  8
ゴム等
 10
4.375
 20
-93.85
 11
5.075
 21
-94.55
  0
LINE
  8
ゴム等
 10
5.025
 20
-93.85
 11
5.075
 21
-93.9
  0
ENDBLK
  0
BLOCK
  2
*HAT_0006
 70
    65
 10
0.0
 20
0.0
  0
LINE
  8
ゴム等
 10
-10.975
 20
-96.15
 11
-11.325
 21
-96.5
  0
LINE
  8
ゴム等
 10
-10.975
 20
-95.5
 11
-11.95
 21
-96.5
  0
LINE
  8
ゴム等
 10
-10.975
 20
-94.875
 11
-12.575
 21
-96.5
  0
LINE
  8
ゴム等
 10
-10.975
 20
-94.25
 11
-13.125
 21
-96.425
  0
LINE
  8
ゴム等
 10
-11.175
 20
-93.85
 11
-13.125
 21
-95.8
  0
LINE
  8
ゴム等
 10
-11.8
 20
-93.85
 11
-13.125
 21
-95.15
  0
LINE
  8
ゴム等
 10
-12.425
 20
-93.85
 11
-13.125
 21
-94.55
  0
LINE
  8
ゴム等
 10
-13.075
 20
-93.85
 11
-13.125
 21
-93.9
  0
ENDBLK
  0
BLOCK
  2
*HAT_0007
 70
    65
 10
0.0
 20
0.0
  0
LINE
  8
型材断面
  6
DOT
 10
-65.75
 20
-42.525
 11
-65.3
 21
-42.075
  0
LINE
  8
型材断面
  6
DOT
 10
-66.775
 20
-42.7
 11
-65.3
 21
-41.225
  0
LINE
  8
型材断面
  6
DOT
 10
-67.8
 20
-42.875
 11
-65.3
 21
-40.375
  0
LINE
  8
型材断面
  6
DOT
 10
-67.95
 20
-42.2
 11
-66.1
 21
-40.325
  0
LINE
  8
型材断面
  6
DOT
 10
-67.95
 20
-41.35
 11
-66.95
 21
-40.325
  0
LINE
  8
型材断面
  6
DOT
 10
-67.95
 20
-40.5
 11
-67.775
 21
-40.325
  0
ENDBLK
  0
BLOCK
  2
*HAT_0008
 70
    65
 10
0.0
 20
0.0
  0
LINE
  8
型材断面
  6
DOT
 10
57.675
 20
-42.525
 11
57.225
 21
-42.075
  0
LINE
  8
型材断面
  6
DOT
 10
58.7
 20
-42.7
 11
57.225
 21
-41.225
  0
LINE
  8
型材断面
  6
DOT
 10
59.725
 20
-42.875
 11
57.225
 21
-40.375
  0
LINE
  8
型材断面
  6
DOT
 10
59.875
 20
-42.2
 11
58.025
 21
-40.325
  0
LINE
  8
型材断面
  6
DOT
 10
59.875
 20
-41.35
 11
58.875
 21
-40.325
  0
LINE
  8
型材断面
  6
DOT
 10
59.875
 20
-40.5
 11
59.7
 21
-40.325
  0
ENDBLK
  0
BLOCK
  2
*HAT_0009
 70
    65
 10
0.0
 20
0.0
  0
LINE
  8
型材断面
  6
DOT
 10
136.575
 20
9.4
 11
136.125
 21
9.85
  0
LINE
  8
型材断面
  6
DOT
 10
137.6
 20
9.225
 11
136.125
 21
10.7
  0
LINE
  8
型材断面
  6
DOT
 10
138.625
 20
9.05
 11
136.125
 21
11.55
  0
LINE
  8
型材断面
  6
DOT
 10
138.775
 20
9.725
 11
136.925
 21
11.6
  0
LINE
  8
型材断面
  6
DOT
 10
138.775
 20
10.575
 11
137.775
 21
11.6
  0
LINE
  8
型材断面
  6
DOT
 10
138.775
 20
11.425
 11
138.6
 21
11.6
  0
ENDBLK
  0
BLOCK
  2
*HAT_0010
 70
    65
 10
0.0
 20
0.0
  0
LINE
  8
ﾊｯﾁﾝｸﾞ
 10
-59.875
 20
-23.725
 11
-59.425
 21
-23.275
  0
LINE
  8
ﾊｯﾁﾝｸﾞ
 10
-60.8
 20
-23.725
 11
-59.425
 21
-22.35
  0
LINE
  8
ﾊｯﾁﾝｸﾞ
 10
-61.65
 20
-23.625
 11
-59.425
 21
-21.4
  0
LINE
  8
ﾊｯﾁﾝｸﾞ
 10
-61.65
 20
-22.675
 11
-59.85
 21
-20.9
  0
LINE
  8
ﾊｯﾁﾝｸﾞ
 10
-61.65
 20
-21.75
 11
-60.8
 21
-20.9
  0
LINE
  8
ﾊｯﾁﾝｸﾞ
 10
-61.65
 20
-22.85
 11
-60.8
 21
-23.725
  0
LINE
  8
ﾊｯﾁﾝｸﾞ
 10
-61.65
 20
-21.925
 11
-59.85
 21
-23.725
  0
LINE
  8
ﾊｯﾁﾝｸﾞ
 10
-61.65
 20
-20.975
 11
-59.425
 21
-23.2
  0
LINE
  8
ﾊｯﾁﾝｸﾞ
 10
-60.8
 20
-20.9
 11
-59.425
 21
-22.25
  0
LINE
  8
ﾊｯﾁﾝｸﾞ
 10
-59.85
 20
-20.9
 11
-59.425
 21
-21.325
  0
ENDBLK
  0
BLOCK
  2
*HAT_0011
 70
    65
 10
0.0
 20
0.0
  0
LINE
  8
ﾊｯﾁﾝｸﾞ
 10
51.825
 20
-23.725
 11
51.375
 21
-23.275
  0
LINE
  8
ﾊｯﾁﾝｸﾞ
 10
52.75
 20
-23.725
 11
51.375
 21
-22.35
  0
LINE
  8
ﾊｯﾁﾝｸﾞ
 10
53.6
 20
-23.625
 11
51.375
 21
-21.4
  0
LINE
  8
ﾊｯﾁﾝｸﾞ
 10
53.6
 20
-22.675
 11
51.8
 21
-20.9
  0
LINE
  8
ﾊｯﾁﾝｸﾞ
 10
53.6
 20
-21.75
 11
52.75
 21
-20.9
  0
LINE
  8
ﾊｯﾁﾝｸﾞ
 10
53.6
 20
-22.85
 11
52.75
 21
-23.725
  0
LINE
  8
ﾊｯﾁﾝｸﾞ
 10
53.6
 20
-21.925
 11
51.8
 21
-23.725
  0
LINE
  8
ﾊｯﾁﾝｸﾞ
 10
53.6
 20
-20.975
 11
51.375
 21
-23.2
  0
LINE
  8
ﾊｯﾁﾝｸﾞ
 10
52.75
 20
-20.9
 11
51.375
 21
-22.25
  0
LINE
  8
ﾊｯﾁﾝｸﾞ
 10
51.8
 20
-20.9
 11
51.375
 21
-21.325
  0
ENDBLK
  0
BLOCK
  2
*HAT_0012
 70
    65
 10
0.0
 20
0.0
  0
LINE
  8
ﾊｯﾁﾝｸﾞ
 10
7.175
 20
-23.725
 11
7.625
 21
-23.275
  0
LINE
  8
ﾊｯﾁﾝｸﾞ
 10
6.475
 20
-23.725
 11
7.625
 21
-22.575
  0
LINE
  8
ﾊｯﾁﾝｸﾞ
 10
5.775
 20
-23.725
 11
7.625
 21
-21.875
  0
LINE
  8
ﾊｯﾁﾝｸﾞ
 10
5.05
 20
-23.725
 11
7.625
 21
-21.15
  0
LINE
  8
ﾊｯﾁﾝｸﾞ
 10
4.95
 20
-23.125
 11
7.3
 21
-20.775
  0
LINE
  8
ﾊｯﾁﾝｸﾞ
 10
4.95
 20
-22.4
 11
6.575
 21
-20.775
  0
LINE
  8
ﾊｯﾁﾝｸﾞ
 10
4.95
 20
-21.7
 11
5.95
 21
-20.7
  0
LINE
  8
ﾊｯﾁﾝｸﾞ
 10
4.95
 20
-21.0
 11
5.4
 21
-20.55
  0
LINE
  8
ﾊｯﾁﾝｸﾞ
 10
4.95
 20
-23.075
 11
5.6
 21
-23.725
  0
LINE
  8
ﾊｯﾁﾝｸﾞ
 10
4.95
 20
-22.375
 11
6.3
 21
-23.725
  0
LINE
  8
ﾊｯﾁﾝｸﾞ
 10
4.95
 20
-21.65
 11
7.0
 21
-23.725
  0
LINE
  8
ﾊｯﾁﾝｸﾞ
 10
4.95
 20
-20.95
 11
7.625
 21
-23.625
  0
LINE
  8
ﾊｯﾁﾝｸﾞ
 10
5.25
 20
-20.55
 11
7.625
 21
-22.925
  0
LINE
  8
ﾊｯﾁﾝｸﾞ
 10
6.2
 20
-20.775
 11
7.625
 21
-22.2
  0
LINE
  8
ﾊｯﾁﾝｸﾞ
 10
6.9
 20
-20.775
 11
7.625
 21
-21.5
  0
LINE
  8
ﾊｯﾁﾝｸﾞ
 10
7.6
 20
-20.775
 11
7.625
 21
-20.8
  0
ENDBLK
  0
BLOCK
  2
*HAT_0013
 70
    65
 10
0.0
 20
0.0
  0
LINE
  8
ﾊｯﾁﾝｸﾞ
 10
-15.25
 20
-23.725
 11
-15.7
 21
-23.275
  0
LINE
  8
ﾊｯﾁﾝｸﾞ
 10
-14.55
 20
-23.725
 11
-15.7
 21
-22.575
  0
LINE
  8
ﾊｯﾁﾝｸﾞ
 10
-13.85
 20
-23.725
 11
-15.7
 21
-21.875
  0
LINE
  8
ﾊｯﾁﾝｸﾞ
 10
-13.125
 20
-23.725
 11
-15.7
 21
-21.15
  0
LINE
  8
ﾊｯﾁﾝｸﾞ
 10
-13.025
 20
-23.125
 11
-15.375
 21
-20.775
  0
LINE
  8
ﾊｯﾁﾝｸﾞ
 10
-13.025
 20
-22.4
 11
-14.65
 21
-20.775
  0
LINE
  8
ﾊｯﾁﾝｸﾞ
 10
-13.025
 20
-21.7
 11
-14.025
 21
-20.7
  0
LINE
  8
ﾊｯﾁﾝｸﾞ
 10
-13.025
 20
-21.0
 11
-13.475
 21
-20.55
  0
LINE
  8
ﾊｯﾁﾝｸﾞ
 10
-13.025
 20
-23.075
 11
-13.675
 21
-23.725
  0
LINE
  8
ﾊｯﾁﾝｸﾞ
 10
-13.025
 20
-22.375
 11
-14.375
 21
-23.725
  0
LINE
  8
ﾊｯﾁﾝｸﾞ
 10
-13.025
 20
-21.65
 11
-15.075
 21
-23.725
  0
LINE
  8
ﾊｯﾁﾝｸﾞ
 10
-13.025
 20
-20.95
 11
-15.7
 21
-23.625
  0
LINE
  8
ﾊｯﾁﾝｸﾞ
 10
-13.325
 20
-20.55
 11
-15.7
 21
-22.925
  0
LINE
  8
ﾊｯﾁﾝｸﾞ
 10
-14.275
 20
-20.775
 11
-15.7
 21
-22.2
  0
LINE
  8
ﾊｯﾁﾝｸﾞ
 10
-14.975
 20
-20.775
 11
-15.7
 21
-21.5
  0
LINE
  8
ﾊｯﾁﾝｸﾞ
 10
-15.675
 20
-20.775
 11
-15.7
 21
-20.8
  0
ENDBLK
  0
BLOCK
  2
*HAT_0014
 70
    65
 10
0.0
 20
0.0
  0
LINE
  8
ﾊｯﾁﾝｸﾞ
 10
7.175
 20
-87.675
 11
7.625
 21
-87.225
  0
LINE
  8
ﾊｯﾁﾝｸﾞ
 10
6.475
 20
-87.675
 11
7.625
 21
-86.525
  0
LINE
  8
ﾊｯﾁﾝｸﾞ
 10
5.775
 20
-87.675
 11
7.625
 21
-85.825
  0
LINE
  8
ﾊｯﾁﾝｸﾞ
 10
5.05
 20
-87.675
 11
7.625
 21
-85.1
  0
LINE
  8
ﾊｯﾁﾝｸﾞ
 10
4.95
 20
-87.075
 11
7.3
 21
-84.725
  0
LINE
  8
ﾊｯﾁﾝｸﾞ
 10
4.95
 20
-86.35
 11
6.575
 21
-84.725
  0
LINE
  8
ﾊｯﾁﾝｸﾞ
 10
4.95
 20
-85.65
 11
5.95
 21
-84.65
  0
LINE
  8
ﾊｯﾁﾝｸﾞ
 10
4.95
 20
-84.95
 11
5.4
 21
-84.5
  0
LINE
  8
ﾊｯﾁﾝｸﾞ
 10
4.95
 20
-87.025
 11
5.6
 21
-87.675
  0
LINE
  8
ﾊｯﾁﾝｸﾞ
 10
4.95
 20
-86.325
 11
6.3
 21
-87.675
  0
LINE
  8
ﾊｯﾁﾝｸﾞ
 10
4.95
 20
-85.6
 11
7.0
 21
-87.675
  0
LINE
  8
ﾊｯﾁﾝｸﾞ
 10
4.95
 20
-84.9
 11
7.625
 21
-87.575
  0
LINE
  8
ﾊｯﾁﾝｸﾞ
 10
5.25
 20
-84.5
 11
7.625
 21
-86.875
  0
LINE
  8
ﾊｯﾁﾝｸﾞ
 10
6.2
 20
-84.725
 11
7.625
 21
-86.15
  0
LINE
  8
ﾊｯﾁﾝｸﾞ
 10
6.9
 20
-84.725
 11
7.625
 21
-85.45
  0
LINE
  8
ﾊｯﾁﾝｸﾞ
 10
7.6
 20
-84.725
 11
7.625
 21
-84.75
  0
ENDBLK
  0
BLOCK
  2
*HAT_0015
 70
    65
 10
0.0
 20
0.0
  0
LINE
  8
ﾊｯﾁﾝｸﾞ
 10
-15.25
 20
-87.675
 11
-15.7
 21
-87.225
  0
LINE
  8
ﾊｯﾁﾝｸﾞ
 10
-14.55
 20
-87.675
 11
-15.7
 21
-86.525
  0
LINE
  8
ﾊｯﾁﾝｸﾞ
 10
-13.85
 20
-87.675
 11
-15.7
 21
-85.825
  0
LINE
  8
ﾊｯﾁﾝｸﾞ
 10
-13.125
 20
-87.675
 11
-15.7
 21
-85.1
  0
LINE
  8
ﾊｯﾁﾝｸﾞ
 10
-13.025
 20
-87.075
 11
-15.375
 21
-84.725
  0
LINE
  8
ﾊｯﾁﾝｸﾞ
 10
-13.025
 20
-86.35
 11
-14.65
 21
-84.725
  0
LINE
  8
ﾊｯﾁﾝｸﾞ
 10
-13.025
 20
-85.65
 11
-14.025
 21
-84.65
  0
LINE
  8
ﾊｯﾁﾝｸﾞ
 10
-13.025
 20
-84.95
 11
-13.475
 21
-84.5
  0
LINE
  8
ﾊｯﾁﾝｸﾞ
 10
-13.025
 20
-87.025
 11
-13.675
 21
-87.675
  0
LINE
  8
ﾊｯﾁﾝｸﾞ
 10
-13.025
 20
-86.325
 11
-14.375
 21
-87.675
  0
LINE
  8
ﾊｯﾁﾝｸﾞ
 10
-13.025
 20
-85.6
 11
-15.075
 21
-87.675
  0
LINE
  8
ﾊｯﾁﾝｸﾞ
 10
-13.025
 20
-84.9
 11
-15.7
 21
-87.575
  0
LINE
  8
ﾊｯﾁﾝｸﾞ
 10
-13.325
 20
-84.5
 11
-15.7
 21
-86.875
  0
LINE
  8
ﾊｯﾁﾝｸﾞ
 10
-14.275
 20
-84.725
 11
-15.7
 21
-86.15
  0
LINE
  8
ﾊｯﾁﾝｸﾞ
 10
-14.975
 20
-84.725
 11
-15.7
 21
-85.45
  0
LINE
  8
ﾊｯﾁﾝｸﾞ
 10
-15.675
 20
-84.725
 11
-15.7
 21
-84.75
  0
ENDBLK
  0
BLOCK
  2
*HAT_0016
 70
    65
 10
0.0
 20
0.0
  0
LINE
  8
その他部品等
 10
-95.65
 20
-57.675
 11
-95.425
 21
-57.425
  0
LINE
  8
その他部品等
 10
-96.75
 20
-57.825
 11
-95.425
 21
-56.5
  0
LINE
  8
その他部品等
 10
-97.825
 20
-57.975
 11
-95.425
 21
-55.55
  0
LINE
  8
その他部品等
 10
-97.975
 20
-57.15
 11
-95.425
 21
-54.625
  0
LINE
  8
その他部品等
 10
-97.975
 20
-56.2
 11
-95.425
 21
-53.675
  0
LINE
  8
その他部品等
 10
-97.975
 20
-55.275
 11
-95.675
 21
-52.975
  0
LINE
  8
その他部品等
 10
-97.975
 20
-54.325
 11
-96.625
 21
-52.975
  0
LINE
  8
その他部品等
 10
-97.975
 20
-53.375
 11
-97.55
 21
-52.975
  0
LINE
  8
その他部品等
 10
-97.975
 20
-57.675
 11
-97.7
 21
-57.95
  0
LINE
  8
その他部品等
 10
-97.975
 20
-56.725
 11
-96.875
 21
-57.825
  0
LINE
  8
その他部品等
 10
-97.975
 20
-55.8
 11
-96.05
 21
-57.725
  0
LINE
  8
その他部品等
 10
-97.975
 20
-54.85
 11
-95.425
 21
-57.375
  0
LINE
  8
その他部品等
 10
-97.975
 20
-53.925
 11
-95.425
 21
-56.45
  0
LINE
  8
その他部品等
 10
-97.975
 20
-52.975
 11
-95.425
 21
-55.5
  0
LINE
  8
その他部品等
 10
-97.025
 20
-52.975
 11
-95.425
 21
-54.575
  0
LINE
  8
その他部品等
 10
-96.075
 20
-52.975
 11
-95.425
 21
-53.625
  0
ENDBLK
  0
BLOCK
  2
*HAT_0017
 70
    65
 10
0.0
 20
0.0
  0
LINE
  8
その他部品等
 10
87.6
 20
-57.675
 11
87.375
 21
-57.425
  0
LINE
  8
その他部品等
 10
88.7
 20
-57.825
 11
87.375
 21
-56.5
  0
LINE
  8
その他部品等
 10
89.775
 20
-57.975
 11
87.375
 21
-55.55
  0
LINE
  8
その他部品等
 10
89.925
 20
-57.15
 11
87.375
 21
-54.625
  0
LINE
  8
その他部品等
 10
89.925
 20
-56.2
 11
87.375
 21
-53.675
  0
LINE
  8
その他部品等
 10
89.925
 20
-55.275
 11
87.625
 21
-52.975
  0
LINE
  8
その他部品等
 10
89.925
 20
-54.325
 11
88.575
 21
-52.975
  0
LINE
  8
その他部品等
 10
89.925
 20
-53.375
 11
89.5
 21
-52.975
  0
LINE
  8
その他部品等
 10
89.925
 20
-57.675
 11
89.65
 21
-57.95
  0
LINE
  8
その他部品等
 10
89.925
 20
-56.725
 11
88.825
 21
-57.825
  0
LINE
  8
その他部品等
 10
89.925
 20
-55.8
 11
88.0
 21
-57.725
  0
LINE
  8
その他部品等
 10
89.925
 20
-54.85
 11
87.375
 21
-57.375
  0
LINE
  8
その他部品等
 10
89.925
 20
-53.925
 11
87.375
 21
-56.45
  0
LINE
  8
その他部品等
 10
89.925
 20
-52.975
 11
87.375
 21
-55.5
  0
LINE
  8
その他部品等
 10
88.975
 20
-52.975
 11
87.375
 21
-54.575
  0
LINE
  8
その他部品等
 10
88.025
 20
-52.975
 11
87.375
 21
-53.625
  0
ENDBLK
  0
BLOCK
  2
*HAT_0018
 70
    65
 10
0.0
 20
0.0
  0
LINE
  8
その他部品等
 10
117.175
 20
-82.525
 11
116.575
 21
-81.925
  0
LINE
  8
その他部品等
 10
118.1
 20
-82.525
 11
116.575
 21
-81.0
  0
LINE
  8
その他部品等
 10
119.05
 20
-82.525
 11
116.575
 21
-80.05
  0
LINE
  8
その他部品等
 10
119.975
 20
-82.525
 11
117.325
 21
-79.85
  0
LINE
  8
その他部品等
 10
120.925
 20
-82.525
 11
118.25
 21
-79.85
  0
LINE
  8
その他部品等
 10
121.875
 20
-82.525
 11
119.2
 21
-79.85
  0
LINE
  8
その他部品等
 10
122.725
 20
-82.425
 11
120.125
 21
-79.85
  0
LINE
  8
その他部品等
 10
122.725
 20
-81.475
 11
121.075
 21
-79.85
  0
LINE
  8
その他部品等
 10
122.725
 20
-80.525
 11
122.025
 21
-79.85
  0
LINE
  8
その他部品等
 10
122.725
 20
-82.3
 11
122.5
 21
-82.525
  0
LINE
  8
その他部品等
 10
122.725
 20
-81.35
 11
121.55
 21
-82.525
  0
LINE
  8
その他部品等
 10
122.725
 20
-80.425
 11
120.625
 21
-82.525
  0
LINE
  8
その他部品等
 10
122.35
 20
-79.85
 11
119.675
 21
-82.525
  0
LINE
  8
その他部品等
 10
121.4
 20
-79.85
 11
118.725
 21
-82.525
  0
LINE
  8
その他部品等
 10
120.475
 20
-79.85
 11
117.8
 21
-82.525
  0
LINE
  8
その他部品等
 10
119.525
 20
-79.85
 11
116.85
 21
-82.525
  0
LINE
  8
その他部品等
 10
118.575
 20
-79.85
 11
116.575
 21
-81.85
  0
LINE
  8
その他部品等
 10
117.625
 20
-79.85
 11
116.575
 21
-80.9
  0
LINE
  8
その他部品等
 10
116.7
 20
-79.85
 11
116.575
 21
-79.975
  0
ENDBLK
  0
BLOCK
  2
*HAT_0019
 70
    65
 10
0.0
 20
0.0
  0
LINE
  8
その他部品等
 10
-125.25
 20
-82.525
 11
-124.65
 21
-81.925
  0
LINE
  8
その他部品等
 10
-126.175
 20
-82.525
 11
-124.65
 21
-81.0
  0
LINE
  8
その他部品等
 10
-127.125
 20
-82.525
 11
-124.65
 21
-80.05
  0
LINE
  8
その他部品等
 10
-128.05
 20
-82.525
 11
-125.4
 21
-79.85
  0
LINE
  8
その他部品等
 10
-129.0
 20
-82.525
 11
-126.325
 21
-79.85
  0
LINE
  8
その他部品等
 10
-129.95
 20
-82.525
 11
-127.275
 21
-79.85
  0
LINE
  8
その他部品等
 10
-130.8
 20
-82.425
 11
-128.2
 21
-79.85
  0
LINE
  8
その他部品等
 10
-130.8
 20
-81.475
 11
-129.15
 21
-79.85
  0
LINE
  8
その他部品等
 10
-130.8
 20
-80.525
 11
-130.1
 21
-79.85
  0
LINE
  8
その他部品等
 10
-130.8
 20
-82.3
 11
-130.575
 21
-82.525
  0
LINE
  8
その他部品等
 10
-130.8
 20
-81.35
 11
-129.625
 21
-82.525
  0
LINE
  8
その他部品等
 10
-130.8
 20
-80.425
 11
-128.7
 21
-82.525
  0
LINE
  8
その他部品等
 10
-130.425
 20
-79.85
 11
-127.75
 21
-82.525
  0
LINE
  8
その他部品等
 10
-129.475
 20
-79.85
 11
-126.8
 21
-82.525
  0
LINE
  8
その他部品等
 10
-128.55
 20
-79.85
 11
-125.875
 21
-82.525
  0
LINE
  8
その他部品等
 10
-127.6
 20
-79.85
 11
-124.925
 21
-82.525
  0
LINE
  8
その他部品等
 10
-126.65
 20
-79.85
 11
-124.65
 21
-81.85
  0
LINE
  8
その他部品等
 10
-125.7
 20
-79.85
 11
-124.65
 21
-80.9
  0
LINE
  8
その他部品等
 10
-124.775
 20
-79.85
 11
-124.65
 21
-79.975
  0
ENDBLK
  0
BLOCK
  2
*GRP_0001
 70
    65
 10
0.0
 20
0.0
  0
LINE
  8
型材断面
  6
CONTINUOUS
 10
195.0
 20
133.5
 11
195.0
 21
-133.5
  0
LINE
  8
型材断面
  6
CONTINUOUS
 10
195.0
 20
-133.5
 11
-185.0
 21
-133.5
  0
LINE
  8
型材断面
  6
CONTINUOUS
 10
-185.0
 20
-133.5
 11
-185.0
 21
133.5
  0
LINE
  8
型材断面
  6
CONTINUOUS
 10
195.0
 20
133.5
 11
-185.0
 21
133.5
  0
LINE
  8
型材断面
  6
CONTINUOUS
 10
145.0
 20
-133.5
 11
145.0
 21
-118.5
  0
LINE
  8
型材断面
  6
CONTINUOUS
 10
195.0
 20
-118.5
 11
145.0
 21
-118.5
  0
ENDBLK
  0
BLOCK
  2
*GRP_0002
 70
    65
 10
0.0
 20
0.0
  0
LINE
  8
曲げ物
  6
CONTINUOUS
 10
120.878912
 20
-76.18557
 11
120.878862
 21
-96.18557
  0
LINE
  8
曲げ物
  6
DOT
 10
120.545587
 20
-76.18557
 11
120.545537
 21
-96.18557
  0
LINE
  8
曲げ物
  6
CONTINUOUS
 10
117.545572
 20
-76.18557
 11
117.545548
 21
-96.18557
  0
LINE
  8
曲げ物
  6
DOT
 10
117.878923
 20
-76.18557
 11
117.878873
 21
-96.18557
  0
LINE
  8
曲げ物
  6
CONTINUOUS
 10
120.878862
 20
-96.18557
 11
117.545548
 21
-96.18557
  0
LINE
  8
曲げ物
  6
CONTINUOUS
 10
120.878912
 20
-76.18557
 11
117.545572
 21
-76.18557
  0
ENDBLK
  0
BLOCK
  2
*GRP_0003
 70
    65
 10
0.0
 20
0.0
  0
LINE
  8
曲げ物
  6
CONTINUOUS
 10
-125.62534
 20
-76.18557
 11
-125.62539
 21
-96.18557
  0
LINE
  8
曲げ物
  6
DOT
 10
-125.958665
 20
-76.18557
 11
-125.958715
 21
-96.18557
  0
LINE
  8
曲げ物
  6
CONTINUOUS
 10
-128.95868
 20
-76.18557
 11
-128.958705
 21
-96.18557
  0
LINE
  8
曲げ物
  6
DOT
 10
-128.62533
 20
-76.18557
 11
-128.62538
 21
-96.18557
  0
LINE
  8
曲げ物
  6
CONTINUOUS
 10
-125.62539
 20
-96.18557
 11
-128.958705
 21
-96.18557
  0
LINE
  8
曲げ物
  6
CONTINUOUS
 10
-125.62534
 20
-76.18557
 11
-128.95868
 21
-76.18557
  0
ENDBLK
  0
BLOCK
  2
*GRP_0004
 70
    65
 10
0.0
 20
0.0
  0
LINE
  8
型材断面
  6
CONTINUOUS
 62
    47
 10
-131.291878
 20
-62.518902
 11
-131.291918
 21
-82.518902
  0
LINE
  8
型材断面
  6
CONTINUOUS
 10
-130.758553
 20
-79.352235
 11
-130.091885
 21
-79.352235
  0
LINE
  8
型材断面
  6
CONTINUOUS
 10
-129.591885
 20
-78.518902
 11
-130.091885
 21
-78.518902
  0
LINE
  8
型材断面
  6
CONTINUOUS
 10
-130.091885
 20
-79.352235
 11
-130.091885
 21
-78.518902
  0
LINE
  8
型材断面
  6
CONTINUOUS
 10
-129.591885
 20
-79.518902
 11
-129.591885
 21
-78.518902
  0
LINE
  8
型材断面
  6
CONTINUOUS
 10
-130.758553
 20
-79.852235
 11
-129.925217
 21
-79.852235
  0
ARC
  8
型材断面
  6
CONTINUOUS
 10
-129.925223
 20
-79.518904
 40
0.333333
 50
-90.0
 51
0.0
  0
LINE
  8
型材断面
  6
CONTINUOUS
 62
    47
 10
-131.291918
 20
-82.518902
 11
-130.758585
 21
-82.518902
  0
LINE
  8
型材断面
  6
CONTINUOUS
 10
-130.758547
 20
-62.984587
 11
-130.758577
 21
-79.352235
  0
LINE
  8
型材断面
  6
CONTINUOUS
 10
-130.75858
 20
-79.852235
 11
-130.758585
 21
-82.518902
  0
LINE
  8
型材断面
  6
CONTINUOUS
 10
-126.496875
 20
-62.403365
 11
-126.404968
 21
-63.065075
  0
LINE
  8
型材断面
  6
CONTINUOUS
 10
-126.404968
 20
-63.065075
 11
-125.14986
 21
-62.89431
  0
LINE
  8
型材断面
  6
CONTINUOUS
 10
-125.14986
 20
-62.89431
 11
-125.081073
 21
-63.38956
  0
LINE
  8
型材断面
  6
CONTINUOUS
 10
-125.081073
 20
-63.38956
 11
-126.83162
 21
-63.62773
  0
LINE
  8
型材断面
  6
CONTINUOUS
 10
-126.992123
 20
-62.47215
 11
-126.83162
 21
-63.62773
  0
LINE
  8
型材断面
  6
CONTINUOUS
 10
-107.003218
 20
-59.751165
 11
-106.914998
 21
-60.413375
  0
LINE
  8
型材断面
  6
CONTINUOUS
 10
-106.914998
 20
-60.413375
 11
-108.170108
 21
-60.58414
  0
LINE
  8
型材断面
  6
CONTINUOUS
 10
-108.170108
 20
-60.58414
 11
-108.10408
 21
-61.079765
  0
LINE
  8
型材断面
  6
CONTINUOUS
 10
-108.10408
 20
-61.079765
 11
-106.353532
 21
-60.841595
  0
LINE
  8
型材断面
  6
CONTINUOUS
 10
-106.507595
 20
-59.68514
 11
-106.353532
 21
-60.841595
  0
LINE
  8
型材断面
  6
CONTINUOUS
 10
-94.843937
 20
-58.771055
 11
-94.77515
 21
-59.266302
  0
LINE
  8
型材断面
  6
CONTINUOUS
 10
-92.958545
 20
-59.019145
 11
-94.77515
 21
-59.266302
  0
LINE
  8
型材断面
  6
CONTINUOUS
 10
-94.843937
 20
-58.771055
 11
-93.458545
 21
-58.582565
  0
LINE
  8
型材断面
  6
CONTINUOUS
 10
-93.458545
 20
-58.582565
 11
-93.458545
 21
-57.909757
  0
LINE
  8
型材断面
  6
CONTINUOUS
 10
-130.758547
 20
-62.984587
 11
-126.992123
 21
-62.47215
  0
LINE
  8
型材断面
  6
CONTINUOUS
 10
-126.496683
 20
-62.404742
 11
-107.003032
 21
-59.752545
  0
LINE
  8
型材断面
  6
CONTINUOUS
 10
-106.507595
 20
-59.68514
 11
-93.458545
 21
-57.909757
  0
LINE
  8
型材断面
  6
CONTINUOUS
 10
-93.491878
 20
-53.476045
 11
-92.958545
 21
-53.476045
  0
LINE
  8
型材断面
  6
CONTINUOUS
 62
    47
 10
-92.958545
 20
-58.985505
 11
-92.958545
 21
-53.476045
  0
LINE
  8
型材断面
  6
CONTINUOUS
 10
-93.491878
 20
-53.476045
 11
-93.491878
 21
-57.376045
  0
LINE
  8
型材断面
  6
CONTINUOUS
 10
-131.291878
 20
-62.518902
 11
-93.491878
 21
-57.376045
  0
ENDBLK
  0
BLOCK
  2
*GRP_0005
 70
    65
 10
0.0
 20
0.0
  0
LINE
  8
型材断面
  6
CONTINUOUS
 62
    47
 10
123.212082
 20
-62.518902
 11
123.212123
 21
-82.518902
  0
LINE
  8
型材断面
  6
CONTINUOUS
 10
122.678758
 20
-79.352235
 11
122.01209
 21
-79.352235
  0
LINE
  8
型材断面
  6
CONTINUOUS
 10
121.51209
 20
-78.518902
 11
122.01209
 21
-78.518902
  0
LINE
  8
型材断面
  6
CONTINUOUS
 10
122.01209
 20
-79.352235
 11
122.01209
 21
-78.518902
  0
LINE
  8
型材断面
  6
CONTINUOUS
 10
121.51209
 20
-79.518902
 11
121.51209
 21
-78.518902
  0
LINE
  8
型材断面
  6
CONTINUOUS
 10
122.678758
 20
-79.852235
 11
121.845422
 21
-79.852235
  0
ARC
  8
型材断面
  6
CONTINUOUS
 10
121.845425
 20
-79.518904
 40
0.333333
 50
180.0
 51
270.0
  0
LINE
  8
型材断面
  6
CONTINUOUS
 62
    47
 10
123.212123
 20
-82.518902
 11
122.67879
 21
-82.518902
  0
LINE
  8
型材断面
  6
CONTINUOUS
 10
122.678752
 20
-62.984587
 11
122.678782
 21
-79.352235
  0
LINE
  8
型材断面
  6
CONTINUOUS
 10
122.678785
 20
-79.852235
 11
122.67879
 21
-82.518902
  0
LINE
  8
型材断面
  6
CONTINUOUS
 10
118.41708
 20
-62.403365
 11
118.325173
 21
-63.065075
  0
LINE
  8
型材断面
  6
CONTINUOUS
 10
118.325173
 20
-63.065075
 11
117.070065
 21
-62.89431
  0
LINE
  8
型材断面
  6
CONTINUOUS
 10
117.070065
 20
-62.89431
 11
117.001277
 21
-63.38956
  0
LINE
  8
型材断面
  6
CONTINUOUS
 10
117.001277
 20
-63.38956
 11
118.751825
 21
-63.62773
  0
LINE
  8
型材断面
  6
CONTINUOUS
 10
118.912327
 20
-62.47215
 11
118.751825
 21
-63.62773
  0
LINE
  8
型材断面
  6
CONTINUOUS
 10
98.923423
 20
-59.751165
 11
98.835203
 21
-60.413375
  0
LINE
  8
型材断面
  6
CONTINUOUS
 10
98.835203
 20
-60.413375
 11
100.090313
 21
-60.58414
  0
LINE
  8
型材断面
  6
CONTINUOUS
 10
100.090313
 20
-60.58414
 11
100.024285
 21
-61.079765
  0
LINE
  8
型材断面
  6
CONTINUOUS
 10
100.024285
 20
-61.079765
 11
98.273738
 21
-60.841595
  0
LINE
  8
型材断面
  6
CONTINUOUS
 10
98.4278
 20
-59.68514
 11
98.273738
 21
-60.841595
  0
LINE
  8
型材断面
  6
CONTINUOUS
 10
86.764142
 20
-58.771055
 11
86.695355
 21
-59.266302
  0
LINE
  8
型材断面
  6
CONTINUOUS
 10
84.87875
 20
-59.019145
 11
86.695355
 21
-59.266302
  0
LINE
  8
型材断面
  6
CONTINUOUS
 10
86.764142
 20
-58.771055
 11
85.37875
 21
-58.582565
  0
LINE
  8
型材断面
  6
CONTINUOUS
 10
85.37875
 20
-58.582565
 11
85.37875
 21
-57.909757
  0
LINE
  8
型材断面
  6
CONTINUOUS
 10
122.678752
 20
-62.984587
 11
118.912327
 21
-62.47215
  0
LINE
  8
型材断面
  6
CONTINUOUS
 10
118.416887
 20
-62.404742
 11
98.923237
 21
-59.752545
  0
LINE
  8
型材断面
  6
CONTINUOUS
 10
98.4278
 20
-59.68514
 11
85.37875
 21
-57.909757
  0
LINE
  8
型材断面
  6
CONTINUOUS
 10
85.412082
 20
-53.476045
 11
84.87875
 21
-53.476045
  0
LINE
  8
型材断面
  6
CONTINUOUS
 62
    47
 10
84.87875
 20
-58.985505
 11
84.87875
 21
-53.476045
  0
LINE
  8
型材断面
  6
CONTINUOUS
 10
85.412082
 20
-53.476045
 11
85.412082
 21
-57.376045
  0
LINE
  8
型材断面
  6
CONTINUOUS
 10
123.212082
 20
-62.518902
 11
85.412082
 21
-57.376045
  0
ENDBLK
  0
BLOCK
  2
*GRP_0006
 70
    65
 10
0.0
 20
0.0
  0
LINE
  8
型材断面
  6
CONTINUOUS
 62
    47
 10
-58.62517
 20
-52.317123
 11
-58.62517
 21
-41.993257
  0
LINE
  8
型材断面
  6
CONTINUOUS
 62
    47
 10
-97.291905
 20
-48.546953
 11
-58.62517
 21
-41.993257
  0
LINE
  8
型材断面
  6
CONTINUOUS
 62
    47
 10
-97.291905
 20
-48.546953
 11
-97.291905
 21
-52.317123
  0
LINE
  8
型材断面
  6
CONTINUOUS
 62
    47
 10
-92.958533
 20
-52.983748
 11
-97.95845
 21
-52.983748
  0
LINE
  8
型材断面
  6
CONTINUOUS
 62
    47
 10
-64.4918
 20
-52.317123
 11
-58.62517
 21
-52.317123
  0
LINE
  8
型材断面
  6
CONTINUOUS
 62
    47
 10
-64.4918
 20
-52.983748
 11
-57.958512
 21
-52.983748
  0
LINE
  8
型材断面
  6
CONTINUOUS
 62
    47
 10
-64.62519
 20
-52.850418
 11
-64.62519
 21
-52.450395
  0
LINE
  8
型材断面
  6
CONTINUOUS
 62
    47
 10
-89.758468
 20
-52.317123
 11
-97.291905
 21
-52.317123
  0
LINE
  8
型材断面
  6
CONTINUOUS
 62
    47
 10
-89.758468
 20
-52.983748
 11
-92.291817
 21
-52.983748
  0
LINE
  8
型材断面
  6
CONTINUOUS
 62
    47
 10
-89.625195
 20
-52.850418
 11
-89.625195
 21
-52.450395
  0
LINE
  8
型材断面
  6
CONTINUOUS
 62
    47
 10
-97.95845
 20
-52.983748
 11
-97.95845
 21
-47.98377
  0
LINE
  8
型材断面
  6
CONTINUOUS
 62
    47
 10
-97.95845
 20
-47.98377
 11
-68.625135
 21
-43.011965
  0
LINE
  8
型材断面
  6
CONTINUOUS
 62
    47
 10
-67.958528
 20
-42.898965
 11
-58.62517
 21
-41.31709
  0
LINE
  8
型材断面
  6
CONTINUOUS
 62
    47
 10
-67.958528
 20
-40.317112
 11
-66.458593
 21
-40.317112
  0
LINE
  8
型材断面
  6
CONTINUOUS
 62
    47
 10
-66.458593
 20
-38.650443
 11
-66.858528
 21
-38.650443
  0
LINE
  8
型材断面
  6
CONTINUOUS
 62
    47
 10
-66.858528
 20
-38.650443
 11
-66.858528
 21
-39.650432
  0
LINE
  8
型材断面
  6
CONTINUOUS
 62
    47
 10
-66.858528
 20
-39.650432
 11
-67.958528
 21
-39.650432
  0
LINE
  8
型材断面
  6
CONTINUOUS
 62
    47
 10
-67.958528
 20
-40.317112
 11
-67.958528
 21
-42.898965
  0
LINE
  8
型材断面
  6
CONTINUOUS
 62
    47
 10
-66.458593
 20
-38.650443
 11
-66.458593
 21
-40.317112
  0
ARC
  8
型材断面
  6
CONTINUOUS
 62
    47
 10
-64.491801
 20
-52.450396
 40
0.133333
 50
90.001373
 51
180.002747
  0
ARC
  8
型材断面
  6
CONTINUOUS
 62
    47
 10
-64.491801
 20
-52.850418
 40
0.133333
 50
180.002747
 51
270.00412
  0
ARC
  8
型材断面
  6
CONTINUOUS
 62
    47
 10
-89.758468
 20
-52.450396
 40
0.133333
 50
0.0
 51
90.001373
  0
ARC
  8
型材断面
  6
CONTINUOUS
 62
    47
 10
-89.758468
 20
-52.850418
 40
0.133333
 50
270.00412
 51
360.0
  0
LINE
  8
型材断面
  6
CONTINUOUS
 62
    47
 10
-66.858528
 20
-25.650518
 11
-66.458593
 21
-25.650518
  0
LINE
  8
型材断面
  6
CONTINUOUS
 62
    47
 10
-66.858528
 20
-26.317198
 11
-67.958528
 21
-26.317198
  0
LINE
  8
型材断面
  6
CONTINUOUS
 62
    47
 10
-66.458593
 20
-25.650518
 11
-68.625135
 21
-25.650518
  0
LINE
  8
型材断面
  6
CONTINUOUS
 62
    47
 10
-68.625135
 20
-26.31707
 11
-68.625135
 21
-25.650518
  0
LINE
  8
型材断面
  6
CONTINUOUS
 62
    47
 10
-67.958528
 20
-26.31707
 11
-66.858528
 21
-26.31707
  0
LINE
  8
型材断面
  6
CONTINUOUS
 62
    47
 10
-67.958528
 20
-33.31711
 11
-60.291867
 21
-33.31711
  0
LINE
  8
型材断面
  6
CONTINUOUS
 62
    47
 10
-60.291867
 20
-33.31711
 11
-60.291867
 21
-31.983792
  0
LINE
  8
型材断面
  6
CONTINUOUS
 62
    47
 10
-60.291867
 20
-31.983792
 11
-60.691802
 21
-31.983792
  0
LINE
  8
型材断面
  6
CONTINUOUS
 62
    47
 10
-60.691802
 20
-32.650413
 11
-60.691802
 21
-31.983792
  0
LINE
  8
型材断面
  6
CONTINUOUS
 62
    47
 10
-65.625303
 20
-31.383813
 11
-64.291932
 21
-31.383813
  0
LINE
  8
型材断面
  6
CONTINUOUS
 62
    47
 10
-64.291932
 20
-31.383813
 11
-64.291932
 21
-32.650482
  0
LINE
  8
型材断面
  6
CONTINUOUS
 62
    47
 10
-64.791895
 20
-32.650482
 11
-64.791895
 21
-31.883813
  0
LINE
  8
型材断面
  6
CONTINUOUS
 62
    47
 10
-64.791895
 20
-31.883813
 11
-65.625303
 21
-31.883813
  0
LINE
  8
型材断面
  6
CONTINUOUS
 62
    47
 10
-65.625303
 20
-31.883813
 11
-65.625303
 21
-31.383813
  0
LINE
  8
型材断面
  6
CONTINUOUS
 62
    47
 10
-60.691802
 20
-32.650413
 11
-64.291932
 21
-32.650413
  0
LINE
  8
型材断面
  6
CONTINUOUS
 62
    47
 10
-64.791895
 20
-32.650482
 11
-67.958528
 21
-32.650482
  0
LINE
  8
型材断面
  6
CONTINUOUS
 62
    47
 10
-67.958528
 20
-39.650432
 11
-67.958528
 21
-33.31711
  0
LINE
  8
型材断面
  6
CONTINUOUS
 62
    47
 10
-67.958528
 20
-26.31707
 11
-67.958528
 21
-32.650482
  0
LINE
  8
型材断面
  6
CONTINUOUS
 10
-66.458593
 20
-27.317183
 11
-66.858528
 21
-27.317183
  0
LINE
  8
型材断面
  6
CONTINUOUS
 62
    47
 10
-66.858528
 20
-26.317198
 11
-66.858528
 21
-27.317183
  0
LINE
  8
型材断面
  6
CONTINUOUS
 62
    47
 10
-69.491835
 20
-28.417105
 11
-68.625135
 21
-28.417105
  0
LINE
  8
型材断面
  6
CONTINUOUS
 62
    47
 10
-69.491835
 20
-28.817083
 11
-68.625135
 21
-28.817083
  0
LINE
  8
型材断面
  6
CONTINUOUS
 62
    47
 10
-69.625108
 20
-28.68375
 11
-69.625108
 21
-28.55042
  0
ARC
  8
型材断面
  6
CONTINUOUS
 62
    47
 10
-69.491837
 20
-28.55042
 40
0.133333
 50
90.001373
 51
180.002747
  0
ARC
  8
型材断面
  6
CONTINUOUS
 62
    47
 10
-69.491837
 20
-28.683751
 40
0.133333
 50
180.002747
 51
270.00412
  0
LINE
  8
型材断面
  6
CONTINUOUS
 62
    47
 10
-78.491298
 20
-28.817083
 11
-80.024605
 21
-28.817083
  0
LINE
  8
型材断面
  6
CONTINUOUS
 62
    47
 10
-78.491298
 20
-28.417105
 11
-79.35802
 21
-28.417105
  0
LINE
  8
型材断面
  6
CONTINUOUS
 62
    47
 10
-78.358025
 20
-28.55042
 11
-78.358025
 21
-28.68375
  0
ARC
  8
型材断面
  6
CONTINUOUS
 62
    47
 10
-78.491299
 20
-28.683751
 40
0.133333
 50
270.00412
 51
360.0
  0
ARC
  8
型材断面
  6
CONTINUOUS
 62
    47
 10
-78.491299
 20
-28.55042
 40
0.133333
 50
0.0
 51
90.001373
  0
LINE
  8
型材断面
  6
CONTINUOUS
 62
    47
 10
-68.625135
 20
-43.011965
 11
-68.625135
 21
-28.817083
  0
LINE
  8
型材断面
  6
CONTINUOUS
 10
-68.625135
 20
-27.31707
 11
-79.35802
 21
-27.31707
  0
LINE
  8
型材断面
  6
CONTINUOUS
 62
    47
 10
-79.35802
 20
-28.417105
 11
-79.35802
 21
-27.31707
  0
LINE
  8
型材断面
  6
CONTINUOUS
 62
    47
 10
-68.625135
 20
-28.417105
 11
-68.625135
 21
-27.31707
  0
LINE
  8
型材断面
  6
CONTINUOUS
 10
-74.62467
 20
-26.41707
 11
-74.52467
 21
-26.31707
  0
LINE
  8
型材断面
  6
CONTINUOUS
 62
    47
 10
-68.625135
 20
-26.31707
 11
-74.52467
 21
-26.31707
  0
LINE
  8
型材断面
  6
CONTINUOUS
 10
-74.62467
 20
-26.41707
 11
-74.72467
 21
-26.31707
  0
LINE
  8
型材断面
  6
CONTINUOUS
 62
    47
 10
-74.72467
 20
-26.31707
 11
-80.024605
 21
-26.31707
  0
LINE
  8
型材断面
  6
CONTINUOUS
 10
-80.024605
 20
-28.817083
 11
-80.024605
 21
-26.31707
  0
LINE
  8
型材断面
  6
CONTINUOUS
 62
    47
 10
-92.291817
 20
-52.983748
 11
-92.291817
 21
-57.983748
  0
LINE
  8
型材断面
  6
CONTINUOUS
 10
-92.958545
 20
-57.983748
 11
-92.291817
 21
-57.983748
  0
LINE
  8
型材断面
  6
CONTINUOUS
 10
-92.858545
 20
-55.483748
 11
-92.958545
 21
-55.383748
  0
LINE
  8
型材断面
  6
CONTINUOUS
 10
-92.858545
 20
-55.483748
 11
-92.958545
 21
-55.583748
  0
LINE
  8
型材断面
  6
CONTINUOUS
 62
    47
 10
-92.958533
 20
-52.983748
 11
-92.958533
 21
-55.38376
  0
LINE
  8
型材断面
  6
CONTINUOUS
 62
    47
 10
-92.958533
 20
-55.583735
 11
-92.958533
 21
-57.983748
  0
LINE
  8
型材断面
  6
CONTINUOUS
 10
-58.62517
 20
-38.31709
 11
-57.958512
 21
-38.31709
  0
LINE
  8
型材断面
  6
CONTINUOUS
 62
    47
 10
-58.62517
 20
-41.31709
 11
-58.62517
 21
-38.31709
  0
LINE
  8
型材断面
  6
CONTINUOUS
 62
    47
 10
-57.958512
 20
-52.983748
 11
-57.958512
 21
-38.31709
  0
LINE
  8
型材断面
  6
CONTINUOUS
 10
-66.458593
 20
-25.650518
 11
-66.458593
 21
-27.317183
  0
CIRCLE
  8
LAYER010
  6
CONTINUOUS
 62
     7
 10
-97.95845
 20
-47.98377
 40
0.11111
  0
ENDBLK
  0
BLOCK
  2
*GRP_0007
 70
    65
 10
0.0
 20
0.0
  0
LINE
  8
型材断面
  6
CONTINUOUS
 62
    47
 10
50.545375
 20
-52.317123
 11
50.545375
 21
-41.993257
  0
LINE
  8
型材断面
  6
CONTINUOUS
 62
    47
 10
89.21211
 20
-48.546953
 11
50.545375
 21
-41.993257
  0
LINE
  8
型材断面
  6
CONTINUOUS
 62
    47
 10
89.21211
 20
-48.546953
 11
89.21211
 21
-52.317123
  0
LINE
  8
型材断面
  6
CONTINUOUS
 62
    47
 10
84.878737
 20
-52.983748
 11
89.878655
 21
-52.983748
  0
LINE
  8
型材断面
  6
CONTINUOUS
 62
    47
 10
56.412005
 20
-52.317123
 11
50.545375
 21
-52.317123
  0
LINE
  8
型材断面
  6
CONTINUOUS
 62
    47
 10
56.412005
 20
-52.983748
 11
49.878717
 21
-52.983748
  0
LINE
  8
型材断面
  6
CONTINUOUS
 62
    47
 10
56.545395
 20
-52.850418
 11
56.545395
 21
-52.450395
  0
LINE
  8
型材断面
  6
CONTINUOUS
 62
    47
 10
81.678672
 20
-52.317123
 11
89.21211
 21
-52.317123
  0
LINE
  8
型材断面
  6
CONTINUOUS
 62
    47
 10
81.678672
 20
-52.983748
 11
84.212023
 21
-52.983748
  0
LINE
  8
型材断面
  6
CONTINUOUS
 62
    47
 10
81.5454
 20
-52.850418
 11
81.5454
 21
-52.450395
  0
LINE
  8
型材断面
  6
CONTINUOUS
 62
    47
 10
89.878655
 20
-52.983748
 11
89.878655
 21
-47.98377
  0
LINE
  8
型材断面
  6
CONTINUOUS
 62
    47
 10
89.878655
 20
-47.98377
 11
60.54534
 21
-43.011965
  0
LINE
  8
型材断面
  6
CONTINUOUS
 62
    47
 10
59.878732
 20
-42.898965
 11
50.545375
 21
-41.31709
  0
LINE
  8
型材断面
  6
CONTINUOUS
 62
    47
 10
59.878732
 20
-40.317112
 11
58.378797
 21
-40.317112
  0
LINE
  8
型材断面
  6
CONTINUOUS
 62
    47
 10
58.378797
 20
-38.650443
 11
58.778732
 21
-38.650443
  0
LINE
  8
型材断面
  6
CONTINUOUS
 62
    47
 10
58.778732
 20
-38.650443
 11
58.778732
 21
-39.650432
  0
LINE
  8
型材断面
  6
CONTINUOUS
 62
    47
 10
58.778732
 20
-39.650432
 11
59.878732
 21
-39.650432
  0
LINE
  8
型材断面
  6
CONTINUOUS
 62
    47
 10
59.878732
 20
-40.317112
 11
59.878732
 21
-42.898965
  0
LINE
  8
型材断面
  6
CONTINUOUS
 62
    47
 10
58.378797
 20
-38.650443
 11
58.378797
 21
-40.317112
  0
ARC
  8
型材断面
  6
CONTINUOUS
 62
    47
 10
56.412004
 20
-52.450396
 40
0.133333
 50
359.997253
 51
449.998627
  0
ARC
  8
型材断面
  6
CONTINUOUS
 62
    47
 10
56.412004
 20
-52.850418
 40
0.133333
 50
269.99588
 51
359.997253
  0
ARC
  8
型材断面
  6
CONTINUOUS
 62
    47
 10
81.678671
 20
-52.450396
 40
0.133333
 50
89.998627
 51
180.0
  0
ARC
  8
型材断面
  6
CONTINUOUS
 62
    47
 10
81.678671
 20
-52.850418
 40
0.133333
 50
180.0
 51
269.99588
  0
LINE
  8
型材断面
  6
CONTINUOUS
 62
    47
 10
58.778732
 20
-25.650518
 11
58.378797
 21
-25.650518
  0
LINE
  8
型材断面
  6
CONTINUOUS
 62
    47
 10
58.778732
 20
-26.317198
 11
59.878732
 21
-26.317198
  0
LINE
  8
型材断面
  6
CONTINUOUS
 62
    47
 10
58.378797
 20
-25.650518
 11
60.54534
 21
-25.650518
  0
LINE
  8
型材断面
  6
CONTINUOUS
 62
    47
 10
60.54534
 20
-26.31707
 11
60.54534
 21
-25.650518
  0
LINE
  8
型材断面
  6
CONTINUOUS
 62
    47
 10
59.878732
 20
-26.31707
 11
58.778732
 21
-26.31707
  0
LINE
  8
型材断面
  6
CONTINUOUS
 62
    47
 10
59.878732
 20
-33.31711
 11
52.212073
 21
-33.31711
  0
LINE
  8
型材断面
  6
CONTINUOUS
 62
    47
 10
52.212073
 20
-33.31711
 11
52.212073
 21
-31.983792
  0
LINE
  8
型材断面
  6
CONTINUOUS
 62
    47
 10
52.212073
 20
-31.983792
 11
52.612008
 21
-31.983792
  0
LINE
  8
型材断面
  6
CONTINUOUS
 62
    47
 10
52.612008
 20
-32.650413
 11
52.612008
 21
-31.983792
  0
LINE
  8
型材断面
  6
CONTINUOUS
 62
    47
 10
57.545507
 20
-31.383813
 11
56.212138
 21
-31.383813
  0
LINE
  8
型材断面
  6
CONTINUOUS
 62
    47
 10
56.212138
 20
-31.383813
 11
56.212138
 21
-32.650482
  0
LINE
  8
型材断面
  6
CONTINUOUS
 62
    47
 10
56.7121
 20
-32.650482
 11
56.7121
 21
-31.883813
  0
LINE
  8
型材断面
  6
CONTINUOUS
 62
    47
 10
56.7121
 20
-31.883813
 11
57.545507
 21
-31.883813
  0
LINE
  8
型材断面
  6
CONTINUOUS
 62
    47
 10
57.545507
 20
-31.883813
 11
57.545507
 21
-31.383813
  0
LINE
  8
型材断面
  6
CONTINUOUS
 62
    47
 10
52.612008
 20
-32.650413
 11
56.212138
 21
-32.650413
  0
LINE
  8
型材断面
  6
CONTINUOUS
 62
    47
 10
56.7121
 20
-32.650482
 11
59.878732
 21
-32.650482
  0
LINE
  8
型材断面
  6
CONTINUOUS
 62
    47
 10
59.878732
 20
-39.650432
 11
59.878732
 21
-33.31711
  0
LINE
  8
型材断面
  6
CONTINUOUS
 62
    47
 10
59.878732
 20
-26.31707
 11
59.878732
 21
-32.650482
  0
LINE
  8
型材断面
  6
CONTINUOUS
 10
58.378797
 20
-27.317183
 11
58.778732
 21
-27.317183
  0
LINE
  8
型材断面
  6
CONTINUOUS
 62
    47
 10
58.778732
 20
-26.317198
 11
58.778732
 21
-27.317183
  0
LINE
  8
型材断面
  6
CONTINUOUS
 62
    47
 10
61.41204
 20
-28.417105
 11
60.54534
 21
-28.417105
  0
LINE
  8
型材断面
  6
CONTINUOUS
 62
    47
 10
61.41204
 20
-28.817083
 11
60.54534
 21
-28.817083
  0
LINE
  8
型材断面
  6
CONTINUOUS
 62
    47
 10
61.545313
 20
-28.68375
 11
61.545313
 21
-28.55042
  0
ARC
  8
型材断面
  6
CONTINUOUS
 62
    47
 10
61.41204
 20
-28.55042
 40
0.133333
 50
359.997253
 51
449.998627
  0
ARC
  8
型材断面
  6
CONTINUOUS
 62
    47
 10
61.41204
 20
-28.683751
 40
0.133333
 50
269.99588
 51
359.997253
  0
LINE
  8
型材断面
  6
CONTINUOUS
 62
    47
 10
70.411502
 20
-28.817083
 11
71.94481
 21
-28.817083
  0
LINE
  8
型材断面
  6
CONTINUOUS
 62
    47
 10
70.411502
 20
-28.417105
 11
71.278225
 21
-28.417105
  0
LINE
  8
型材断面
  6
CONTINUOUS
 62
    47
 10
70.27823
 20
-28.55042
 11
70.27823
 21
-28.68375
  0
ARC
  8
型材断面
  6
CONTINUOUS
 62
    47
 10
70.411501
 20
-28.683751
 40
0.133333
 50
180.0
 51
269.99588
  0
ARC
  8
型材断面
  6
CONTINUOUS
 62
    47
 10
70.411501
 20
-28.55042
 40
0.133333
 50
89.998627
 51
180.0
  0
LINE
  8
型材断面
  6
CONTINUOUS
 62
    47
 10
60.54534
 20
-43.011965
 11
60.54534
 21
-28.817083
  0
LINE
  8
型材断面
  6
CONTINUOUS
 10
60.54534
 20
-27.31707
 11
71.278225
 21
-27.31707
  0
LINE
  8
型材断面
  6
CONTINUOUS
 62
    47
 10
71.278225
 20
-28.417105
 11
71.278225
 21
-27.31707
  0
LINE
  8
型材断面
  6
CONTINUOUS
 62
    47
 10
60.54534
 20
-28.417105
 11
60.54534
 21
-27.31707
  0
LINE
  8
型材断面
  6
CONTINUOUS
 10
66.544875
 20
-26.41707
 11
66.444875
 21
-26.31707
  0
LINE
  8
型材断面
  6
CONTINUOUS
 62
    47
 10
60.54534
 20
-26.31707
 11
66.444875
 21
-26.31707
  0
LINE
  8
型材断面
  6
CONTINUOUS
 10
66.544875
 20
-26.41707
 11
66.644875
 21
-26.31707
  0
LINE
  8
型材断面
  6
CONTINUOUS
 62
    47
 10
66.644875
 20
-26.31707
 11
71.94481
 21
-26.31707
  0
LINE
  8
型材断面
  6
CONTINUOUS
 10
71.94481
 20
-28.817083
 11
71.94481
 21
-26.31707
  0
LINE
  8
型材断面
  6
CONTINUOUS
 62
    47
 10
84.212023
 20
-52.983748
 11
84.212023
 21
-57.983748
  0
LINE
  8
型材断面
  6
CONTINUOUS
 10
84.87875
 20
-57.983748
 11
84.212023
 21
-57.983748
  0
LINE
  8
型材断面
  6
CONTINUOUS
 10
84.77875
 20
-55.483748
 11
84.87875
 21
-55.383748
  0
LINE
  8
型材断面
  6
CONTINUOUS
 10
84.77875
 20
-55.483748
 11
84.87875
 21
-55.583748
  0
LINE
  8
型材断面
  6
CONTINUOUS
 62
    47
 10
84.878737
 20
-52.983748
 11
84.878737
 21
-55.38376
  0
LINE
  8
型材断面
  6
CONTINUOUS
 62
    47
 10
84.878737
 20
-55.583735
 11
84.878737
 21
-57.983748
  0
LINE
  8
型材断面
  6
CONTINUOUS
 10
50.545375
 20
-38.31709
 11
49.878717
 21
-38.31709
  0
LINE
  8
型材断面
  6
CONTINUOUS
 62
    47
 10
50.545375
 20
-41.31709
 11
50.545375
 21
-38.31709
  0
LINE
  8
型材断面
  6
CONTINUOUS
 62
    47
 10
49.878717
 20
-52.983748
 11
49.878717
 21
-38.31709
  0
LINE
  8
型材断面
  6
CONTINUOUS
 10
58.378797
 20
-25.650518
 11
58.378797
 21
-27.317183
  0
CIRCLE
  8
LAYER010
  6
CONTINUOUS
 62
     7
 10
89.878655
 20
-47.98377
 40
0.11111
  0
ENDBLK
  0
BLOCK
  2
*GRP_0008
 70
    65
 10
0.0
 20
0.0
  0
LINE
  8
断面線04
  6
CONTINUOUS
 62
    47
 10
8.12677
 20
-35.983748
 11
7.793427
 21
-37.650413
  0
LINE
  8
断面線04
  6
CONTINUOUS
 62
    47
 10
-8.439898
 20
-32.650413
 11
-8.439898
 21
-31.883748
  0
ARC
  8
断面線04
  6
CONTINUOUS
 62
    47
 10
-6.673248
 20
-26.750411
 40
0.1
 50
90.0
 51
180.0
  0
LINE
  8
断面線04
  6
CONTINUOUS
 62
    47
 10
-6.77323
 20
-27.21708
 11
-6.77323
 21
-26.750413
  0
ARC
  8
断面線04
  6
CONTINUOUS
 62
    47
 10
-6.673248
 20
-27.217078
 40
0.1
 50
180.0
 51
270.0
  0
ARC
  8
断面線04
  6
CONTINUOUS
 62
    47
 10
-7.706582
 20
-31.483744
 40
0.1
 50
0.0
 51
90.0
  0
LINE
  8
断面線04
  6
CONTINUOUS
 62
    47
 10
-7.606573
 20
-31.783748
 11
-7.606573
 21
-31.483748
  0
LINE
  8
断面線04
  6
CONTINUOUS
 62
    47
 10
-7.706573
 20
-31.883748
 11
-8.439898
 21
-31.883748
  0
ARC
  8
断面線04
  6
CONTINUOUS
 62
    47
 10
-7.706582
 20
-31.783744
 40
0.1
 50
270.0
 51
360.0
  0
LINE
  8
断面線04
  6
CONTINUOUS
 62
    47
 10
-7.706573
 20
-31.383748
 11
-8.839898
 21
-31.383748
  0
LINE
  8
断面線04
  6
CONTINUOUS
 62
    47
 10
-8.939898
 20
-32.650413
 11
-8.939898
 21
-31.483748
  0
ARC
  8
断面線04
  6
CONTINUOUS
 62
    47
 10
-8.839915
 20
-31.483744
 40
0.1
 50
90.0
 51
180.0
  0
LINE
  8
断面線04
  6
CONTINUOUS
 62
    47
 10
-8.439898
 20
-32.650413
 11
-6.039898
 21
-32.650413
  0
LINE
  8
断面線04
  6
CONTINUOUS
 62
    47
 10
-13.206573
 20
-32.650413
 11
-13.206573
 21
-32.083748
  0
ARC
  8
断面線04
  6
CONTINUOUS
 62
    47
 10
-13.306582
 20
-32.083744
 40
0.1
 50
0.0
 51
90.0
  0
LINE
  8
断面線04
  6
CONTINUOUS
 62
    47
 10
-13.306573
 20
-31.983748
 11
-13.506573
 21
-31.983748
  0
ARC
  8
断面線04
  6
CONTINUOUS
 62
    47
 10
-13.506582
 20
-32.083744
 40
0.1
 50
90.0
 51
180.0
  0
LINE
  8
断面線04
  6
CONTINUOUS
 62
    47
 10
-16.539898
 20
-38.31708
 11
-16.539898
 21
-35.983748
  0
LINE
  8
断面線04
  6
CONTINUOUS
 62
    47
 10
-13.606573
 20
-37.650413
 11
-15.87323
 21
-37.650413
  0
LINE
  8
断面線04
  6
CONTINUOUS
 62
    47
 10
-8.939898
 20
-32.650413
 11
-13.206573
 21
-32.650413
  0
LINE
  8
断面線04
  6
CONTINUOUS
 62
    47
 10
-6.67323
 20
-26.650413
 11
-4.039898
 21
-26.650413
  0
LINE
  8
断面線04
  6
CONTINUOUS
 62
    47
 10
-6.039898
 20
-32.650413
 11
-6.039898
 21
-27.31708
  0
LINE
  8
断面線04
  6
CONTINUOUS
 62
    47
 10
-6.67323
 20
-27.31708
 11
-6.039898
 21
-27.31708
  0
LINE
  8
断面線04
  6
CONTINUOUS
 62
    47
 10
0.360102
 20
-32.650413
 11
0.360102
 21
-31.883748
  0
ARC
  8
断面線04
  6
CONTINUOUS
 62
    47
 10
-1.406582
 20
-26.750411
 40
0.1
 50
0.0
 51
90.0
  0
LINE
  8
断面線04
  6
CONTINUOUS
 62
    47
 10
-1.306573
 20
-27.21708
 11
-1.306573
 21
-26.750413
  0
ARC
  8
断面線04
  6
CONTINUOUS
 62
    47
 10
-1.406582
 20
-27.217078
 40
0.1
 50
270.0
 51
360.0
  0
ARC
  8
断面線04
  6
CONTINUOUS
 62
    47
 10
-0.373249
 20
-31.483744
 40
0.1
 50
90.0
 51
180.0
  0
LINE
  8
断面線04
  6
CONTINUOUS
 62
    47
 10
-0.47323
 20
-31.783748
 11
-0.47323
 21
-31.483748
  0
LINE
  8
断面線04
  6
CONTINUOUS
 62
    47
 10
-0.37323
 20
-31.883748
 11
0.360102
 21
-31.883748
  0
ARC
  8
断面線04
  6
CONTINUOUS
 62
    47
 10
-0.373249
 20
-31.783744
 40
0.1
 50
180.0
 51
270.0
  0
LINE
  8
断面線04
  6
CONTINUOUS
 62
    47
 10
-0.37323
 20
-31.383748
 11
0.760102
 21
-31.383748
  0
LINE
  8
断面線04
  6
CONTINUOUS
 62
    47
 10
0.860102
 20
-32.650413
 11
0.860102
 21
-31.483748
  0
ARC
  8
断面線04
  6
CONTINUOUS
 62
    47
 10
0.760085
 20
-31.483744
 40
0.1
 50
0.0
 51
90.0
  0
LINE
  8
断面線04
  6
CONTINUOUS
 62
    47
 10
0.360102
 20
-32.650413
 11
-2.039898
 21
-32.650413
  0
LINE
  8
断面線04
  6
CONTINUOUS
 62
    47
 10
5.12677
 20
-32.650413
 11
5.12677
 21
-32.083748
  0
ARC
  8
断面線04
  6
CONTINUOUS
 62
    47
 10
5.226751
 20
-32.083744
 40
0.1
 50
90.0
 51
180.0
  0
LINE
  8
断面線04
  6
CONTINUOUS
 62
    47
 10
5.22677
 20
-31.983748
 11
5.42677
 21
-31.983748
  0
ARC
  8
断面線04
  6
CONTINUOUS
 62
    47
 10
5.426751
 20
-32.083744
 40
0.1
 50
0.0
 51
90.0
  0
LINE
  8
断面線04
  6
CONTINUOUS
 62
    47
 10
5.52677
 20
-37.650413
 11
7.793427
 21
-37.650413
  0
LINE
  8
断面線04
  6
CONTINUOUS
 62
    47
 10
0.860102
 20
-32.650413
 11
5.12677
 21
-32.650413
  0
LINE
  8
断面線04
  6
CONTINUOUS
 62
    47
 10
-1.406573
 20
-26.650413
 11
-4.039898
 21
-26.650413
  0
LINE
  8
断面線04
  6
CONTINUOUS
 62
    47
 10
-2.039898
 20
-32.650413
 11
-2.039898
 21
-27.31708
  0
LINE
  8
断面線04
  6
CONTINUOUS
 62
    47
 10
-1.406573
 20
-27.31708
 11
-2.039898
 21
-27.31708
  0
LINE
  8
断面線04
  6
CONTINUOUS
 62
    47
 10
8.460102
 20
-35.983748
 11
8.12677
 21
-35.983748
  0
LINE
  8
断面線04
  6
CONTINUOUS
 62
    47
 10
-16.206573
 20
-35.983748
 11
-15.87323
 21
-37.650413
  0
LINE
  8
断面線04
  6
CONTINUOUS
 62
    47
 10
-16.539898
 20
-35.983748
 11
-16.206573
 21
-35.983748
  0
LINE
  8
断面線04
  6
CONTINUOUS
 62
    47
 10
-13.606573
 20
-32.083748
 11
-13.606573
 21
-37.650413
  0
LINE
  8
断面線04
  6
CONTINUOUS
 62
    47
 10
5.52677
 20
-32.083748
 11
5.52677
 21
-37.650413
  0
LINE
  8
断面線04
  6
CONTINUOUS
 62
    47
 10
8.460102
 20
-35.983748
 11
8.460102
 21
-38.31708
  0
LINE
  8
断面線04
  6
CONTINUOUS
 62
    47
 10
-13.606573
 20
-52.983748
 11
5.52677
 21
-52.983748
  0
LINE
  8
断面線04
  6
CONTINUOUS
 62
    47
 10
-13.606573
 20
-52.983748
 11
-13.606573
 21
-38.31708
  0
LINE
  8
断面線04
  6
CONTINUOUS
 62
    47
 10
5.52677
 20
-52.983748
 11
5.52677
 21
-38.31708
  0
LINE
  8
断面線04
  6
CONTINUOUS
 62
    47
 10
-16.539898
 20
-38.31708
 11
-13.606573
 21
-38.31708
  0
LINE
  8
断面線04
  6
CONTINUOUS
 62
    47
 10
5.52677
 20
-38.31708
 11
8.460102
 21
-38.31708
  0
ARC
  8
断面線04
  6
CONTINUOUS
 62
    47
 10
-11.876467
 20
-35.264424
 40
0.25
 50
312.542364
 51
492.542397
  0
ARC
  8
断面線04
  6
CONTINUOUS
 62
    47
 10
-12.439913
 20
-34.650443
 40
0.583333
 50
47.457615
 51
312.542407
  0
ARC
  8
断面線04
  6
CONTINUOUS
 62
    47
 10
-12.439913
 20
-34.650443
 40
1.083333
 50
252.079761
 51
312.542389
  0
ARC
  8
断面線04
  6
CONTINUOUS
 62
    47
 10
-11.876467
 20
-34.036462
 40
0.25
 50
227.457603
 51
407.457636
  0
LINE
  8
断面線04
  6
CONTINUOUS
 62
    47
 10
-5.206573
 20
-33.483748
 11
-12.439905
 21
-33.483748
  0
ARC
  8
断面線04
  6
CONTINUOUS
 62
    47
 10
-12.439913
 20
-34.650443
 40
1.083333
 50
47.457611
 51
90.000025
  0
LINE
  8
断面線04
  6
CONTINUOUS
 62
    47
 10
-12.439905
 20
-33.567112
 11
-12.439905
 21
-33.483748
  0
ARC
  8
断面線04
  6
CONTINUOUS
 62
    47
 10
3.796643
 20
-35.264424
 40
0.25
 50
47.457603
 51
227.457636
  0
ARC
  8
断面線04
  6
CONTINUOUS
 62
    47
 10
4.360089
 20
-34.650443
 40
0.583333
 50
227.457593
 51
492.542385
  0
ARC
  8
断面線04
  6
CONTINUOUS
 62
    47
 10
3.796643
 20
-34.036462
 40
0.25
 50
132.542364
 51
312.542397
  0
ARC
  8
断面線04
  6
CONTINUOUS
 62
    47
 10
4.360089
 20
-34.650443
 40
1.083333
 50
89.999975
 51
132.542389
  0
ARC
  8
断面線04
  6
CONTINUOUS
 62
    47
 10
4.360089
 20
-34.650443
 40
1.083333
 50
227.457611
 51
287.920239
  0
LINE
  8
断面線04
  6
CONTINUOUS
 62
    47
 10
4.360102
 20
-33.567112
 11
4.360102
 21
-33.483748
  0
LINE
  8
断面線04
  6
CONTINUOUS
 62
    47
 10
-2.87323
 20
-33.483748
 11
4.360102
 21
-33.483748
  0
LINE
  8
断面線04
  6
CONTINUOUS
 62
    47
 10
-2.87323
 20
-27.983748
 11
-5.206573
 21
-27.983748
  0
ARC
  8
断面線04
  6
CONTINUOUS
 62
    47
 10
-11.440682
 20
-51.35281
 40
0.25
 50
357.542364
 51
537.542397
  0
ARC
  8
断面線04
  6
CONTINUOUS
 62
    47
 10
-12.273249
 20
-51.317076
 40
0.583333
 50
92.457615
 51
357.542407
  0
ARC
  8
断面線04
  6
CONTINUOUS
 62
    47
 10
-12.308982
 20
-50.48451
 40
0.25
 50
272.457576
 51
452.457618
  0
ARC
  8
断面線04
  6
CONTINUOUS
 62
    47
 10
-12.273249
 20
-51.317076
 40
1.083333
 50
332.513353
 51
357.542389
  0
ARC
  8
断面線04
  6
CONTINUOUS
 62
    47
 10
3.360852
 20
-51.35281
 40
0.25
 50
2.457603
 51
182.457636
  0
ARC
  8
断面線04
  6
CONTINUOUS
 62
    47
 10
4.193419
 20
-51.317076
 40
0.583333
 50
182.457593
 51
447.542385
  0
ARC
  8
断面線04
  6
CONTINUOUS
 62
    47
 10
4.229153
 20
-50.48451
 40
0.25
 50
87.542382
 51
267.542424
  0
ARC
  8
断面線04
  6
CONTINUOUS
 62
    47
 10
4.193419
 20
-51.317076
 40
1.083333
 50
182.457611
 51
207.486647
  0
ARC
  8
断面線04
  6
CONTINUOUS
 62
    47
 10
4.193419
 20
-51.317077
 40
1.083333
 50
62.513336
 51
87.542389
  0
ARC
  8
断面線04
  6
CONTINUOUS
 62
    47
 10
-12.273249
 20
-51.317077
 40
1.083333
 50
92.457611
 51
117.486331
  0
LINE
  8
断面線04
  6
CONTINUOUS
 62
    47
 10
-3.206563
 20
-30.504022
 11
-3.206563
 21
-31.004022
  0
LINE
  8
断面線04
  6
CONTINUOUS
 62
    47
 10
-4.87323
 20
-31.004022
 11
-4.87323
 21
-30.504022
  0
LINE
  8
断面線04
  6
CONTINUOUS
 62
    47
 10
-4.87323
 20
-31.004022
 11
-5.206573
 21
-31.004022
  0
LINE
  8
断面線04
  6
CONTINUOUS
 62
    47
 10
-4.87323
 20
-30.504022
 11
-5.206573
 21
-30.504022
  0
LINE
  8
断面線04
  6
CONTINUOUS
 62
    47
 10
-3.206563
 20
-30.504022
 11
-2.87323
 21
-30.504022
  0
LINE
  8
断面線04
  6
CONTINUOUS
 62
    47
 10
-3.206563
 20
-31.004022
 11
-2.87323
 21
-31.004022
  0
LINE
  8
断面線04
  6
CONTINUOUS
 62
    47
 10
-2.87323
 20
-33.483748
 11
-2.87323
 21
-31.004022
  0
LINE
  8
断面線04
  6
CONTINUOUS
 62
    47
 10
-2.87323
 20
-30.504022
 11
-2.87323
 21
-27.983748
  0
LINE
  8
断面線04
  6
CONTINUOUS
 62
    47
 10
-5.206573
 20
-33.483748
 11
-5.206573
 21
-31.004022
  0
LINE
  8
断面線04
  6
CONTINUOUS
 62
    47
 10
-5.206573
 20
-30.504022
 11
-5.206573
 21
-27.983748
  0
LINE
  8
断面線04
  6
CONTINUOUS
 62
    47
 10
-2.706563
 20
-50.483748
 11
-3.206563
 21
-50.483748
  0
LINE
  8
断面線04
  6
CONTINUOUS
 62
    47
 10
-5.37323
 20
-50.483748
 11
-4.87323
 21
-50.483748
  0
LINE
  8
断面線04
  6
CONTINUOUS
 62
    47
 10
-3.206563
 20
-50.483748
 11
-3.206563
 21
-51.81708
  0
LINE
  8
断面線04
  6
CONTINUOUS
 62
    47
 10
-3.206563
 20
-51.81708
 11
-4.87323
 21
-51.81708
  0
LINE
  8
断面線04
  6
CONTINUOUS
 62
    47
 10
-4.87323
 20
-50.483748
 11
-4.87323
 21
-51.81708
  0
LINE
  8
断面線04
  6
CONTINUOUS
 62
    47
 10
-5.37323
 20
-50.483748
 11
-5.37323
 21
-51.81708
  0
LINE
  8
断面線04
  6
CONTINUOUS
 62
    47
 10
-11.312187
 20
-51.81708
 11
-5.37323
 21
-51.81708
  0
LINE
  8
断面線04
  6
CONTINUOUS
 62
    47
 10
-2.706563
 20
-50.483748
 11
-2.706563
 21
-51.81708
  0
LINE
  8
断面線04
  6
CONTINUOUS
 62
    47
 10
3.232388
 20
-51.81708
 11
-2.706563
 21
-51.81708
  0
LINE
  8
断面線04
  6
CONTINUOUS
 62
    47
 10
-12.773237
 20
-50.35603
 11
-12.773237
 21
-37.983748
  0
LINE
  8
断面線04
  6
CONTINUOUS
 62
    47
 10
-7.539898
 20
-37.983748
 11
-12.773237
 21
-37.983748
  0
LINE
  8
断面線04
  6
CONTINUOUS
 62
    47
 10
-0.539898
 20
-37.983748
 11
4.693438
 21
-37.983748
  0
LINE
  8
断面線04
  6
CONTINUOUS
 62
    47
 10
4.693438
 20
-50.35603
 11
4.693438
 21
-37.983748
  0
LINE
  8
断面線04
  6
CONTINUOUS
 62
    47
 10
-12.773237
 20
-35.681222
 11
-12.773237
 21
-37.31708
  0
LINE
  8
断面線04
  6
CONTINUOUS
 62
    47
 10
-12.773237
 20
-37.31708
 11
-7.539898
 21
-37.31708
  0
LINE
  8
断面線04
  6
CONTINUOUS
 62
    47
 10
-7.539898
 20
-37.983748
 11
-7.539898
 21
-37.31708
  0
LINE
  8
断面線04
  6
CONTINUOUS
 62
    47
 10
4.693438
 20
-35.681222
 11
4.693438
 21
-37.31708
  0
LINE
  8
断面線04
  6
CONTINUOUS
 62
    47
 10
4.693438
 20
-37.31708
 11
-0.539898
 21
-37.31708
  0
LINE
  8
断面線04
  6
CONTINUOUS
 62
    47
 10
-0.539898
 20
-37.983748
 11
-0.539898
 21
-37.31708
  0
ENDBLK
  0
BLOCK
  2
*GRP_0009
 70
    65
 10
0.0
 20
0.0
  0
LINE
  8
型材断面
  6
CONTINUOUS
 62
    47
 10
7.293438
 20
-19.717045
 11
-4.039912
 21
-19.717045
  0
ARC
  8
型材断面
  6
CONTINUOUS
 62
    47
 10
7.293442
 20
-20.05034
 40
0.333333
 50
0.000053
 51
90.000053
  0
ARC
  8
型材断面
  6
CONTINUOUS
 62
    47
 10
-7.806623
 20
-21.883686
 40
0.166667
 50
90.000053
 51
180.000053
  0
LINE
  8
型材断面
  6
CONTINUOUS
 62
    47
 10
-7.97333
 20
-21.883713
 11
-7.97333
 21
-22.217045
  0
ARC
  8
型材断面
  6
CONTINUOUS
 62
    47
 10
-7.806622
 20
-22.21702
 40
0.166667
 50
180.000053
 51
270.000053
  0
ARC
  8
型材断面
  6
CONTINUOUS
 62
    47
 10
-1.373289
 20
-21.88368
 40
0.166667
 50
90.000053
 51
180.000053
  0
LINE
  8
型材断面
  6
CONTINUOUS
 62
    47
 10
-1.539998
 20
-21.883713
 11
-1.53998
 21
-22.217045
  0
ARC
  8
型材断面
  6
CONTINUOUS
 62
    47
 10
-1.373289
 20
-22.217014
 40
0.166667
 50
180.000053
 51
270.000053
  0
LINE
  8
型材断面
  6
CONTINUOUS
 62
    47
 10
-1.37333
 20
-21.717045
 11
0.893338
 21
-21.717045
  0
LINE
  8
型材断面
  6
CONTINUOUS
 62
    47
 10
1.393353
 20
-21.483713
 11
0.893338
 21
-21.483713
  0
LINE
  8
型材断面
  6
CONTINUOUS
 62
    47
 10
0.893338
 20
-21.717045
 11
0.893338
 21
-21.483713
  0
LINE
  8
型材断面
  6
CONTINUOUS
 62
    47
 10
-7.306663
 20
-21.483713
 11
-6.806663
 21
-21.483713
  0
LINE
  8
型材断面
  6
CONTINUOUS
 62
    47
 10
1.2267
 20
-22.383713
 11
1.2267
 21
-22.383713
  0
ARC
  8
型材断面
  6
CONTINUOUS
 62
    47
 10
1.460032
 20
-22.38371
 40
0.233333
 50
90.0
 51
180.0
  0
LINE
  8
型材断面
  6
CONTINUOUS
 62
    47
 10
-6.806663
 20
-21.483713
 11
-6.806642
 21
-20.550378
  0
LINE
  8
型材断面
  6
CONTINUOUS
 62
    47
 10
-15.706552
 20
-20.783713
 11
-14.039898
 21
-20.783713
  0
LINE
  8
型材断面
  6
CONTINUOUS
 62
    47
 10
1.393353
 20
-21.483713
 11
1.393332
 21
-20.550378
  0
LINE
  8
型材断面
  6
CONTINUOUS
 62
    47
 10
7.626737
 20
-20.050363
 11
7.626737
 21
-20.783713
  0
LINE
  8
型材断面
  6
CONTINUOUS
 62
    47
 10
7.626737
 20
-20.783713
 11
5.96007
 21
-20.783713
  0
LINE
  8
型材断面
  6
CONTINUOUS
 62
    47
 10
5.96007
 20
-20.550378
 11
5.96007
 21
-20.783713
  0
LINE
  8
型材断面
  6
CONTINUOUS
 62
    47
 10
-0.57334
 20
-20.550378
 11
-0.573337
 21
-20.717045
  0
LINE
  8
型材断面
  6
CONTINUOUS
 62
    47
 10
5.96007
 20
-20.550378
 11
1.96
 21
-20.550378
  0
LINE
  8
型材断面
  6
CONTINUOUS
 62
    47
 10
1.460032
 20
-22.150378
 11
1.626695
 21
-22.150378
  0
LINE
  8
型材断面
  6
CONTINUOUS
 62
    47
 10
1.96
 20
-20.550378
 11
1.960028
 21
-21.817037
  0
ARC
  8
型材断面
  6
CONTINUOUS
 62
    47
 10
1.626693
 20
-21.817044
 40
0.333333
 50
270.0
 51
360.001253
  0
LINE
  8
型材断面
  6
CONTINUOUS
 62
    47
 10
-0.57334
 20
-20.550378
 11
1.393332
 21
-20.550378
  0
LINE
  8
型材断面
  6
CONTINUOUS
 62
    47
 10
-2.373337
 20
-20.550378
 11
-6.239975
 21
-20.550378
  0
LINE
  8
型材断面
  6
CONTINUOUS
 62
    47
 10
-6.239975
 20
-20.550378
 11
-6.240015
 21
-22.383713
  0
LINE
  8
型材断面
  6
CONTINUOUS
 62
    47
 10
-7.47333
 20
-22.383713
 11
-7.47333
 21
-22.383713
  0
ARC
  8
型材断面
  6
CONTINUOUS
 62
    47
 10
-7.306665
 20
-22.383711
 40
0.166667
 50
90.0
 51
180.0
  0
LINE
  8
型材断面
  6
CONTINUOUS
 62
    47
 10
-7.306663
 20
-22.217045
 11
-6.90665
 21
-22.217045
  0
LINE
  8
型材断面
  6
CONTINUOUS
 62
    47
 10
-6.740015
 20
-22.383713
 11
-6.740015
 21
-22.383683
  0
ARC
  8
型材断面
  6
CONTINUOUS
 62
    47
 10
-6.906651
 20
-22.383677
 40
0.166633
 50
-0.001289
 51
90.0
  0
LINE
  8
型材断面
  6
CONTINUOUS
 62
    47
 10
-7.306663
 20
-21.483713
 11
-7.306663
 21
-21.617045
  0
LINE
  8
型材断面
  6
CONTINUOUS
 62
    47
 10
-7.806663
 20
-21.717045
 11
-7.406663
 21
-21.717045
  0
ARC
  8
型材断面
  6
CONTINUOUS
 62
    47
 10
-7.406665
 20
-21.617044
 40
0.1
 50
-90.0
 51
0.0
  0
LINE
  8
型材断面
  6
CONTINUOUS
 62
    47
 10
0.393368
 20
-22.383713
 11
0.393368
 21
-22.383713
  0
ARC
  8
型材断面
  6
CONTINUOUS
 62
    47
 10
0.226699
 20
-22.383711
 40
0.166667
 50
0.0
 51
90.0
  0
LINE
  8
型材断面
  6
CONTINUOUS
 62
    47
 10
-0.706638
 20
-22.383713
 11
-0.706638
 21
-22.383687
  0
LINE
  8
型材断面
  6
CONTINUOUS
 62
    47
 10
0.2267
 20
-22.217045
 11
-0.540005
 21
-22.217045
  0
ARC
  8
型材断面
  6
CONTINUOUS
 62
    47
 10
-0.540006
 20
-22.383677
 40
0.166633
 50
90.0
 51
180.002865
  0
LINE
  8
型材断面
  6
CONTINUOUS
 62
    47
 10
-7.806647
 20
-22.383713
 11
-7.47333
 21
-22.383713
  0
LINE
  8
型材断面
  6
CONTINUOUS
 62
    47
 10
-6.740015
 20
-22.383713
 11
-6.240015
 21
-22.383713
  0
LINE
  8
型材断面
  6
CONTINUOUS
 62
    47
 10
-1.37333
 20
-22.383713
 11
-0.706638
 21
-22.383713
  0
LINE
  8
型材断面
  6
CONTINUOUS
 62
    47
 10
0.393368
 20
-22.383713
 11
1.2267
 21
-22.383713
  0
LINE
  8
型材断面
  6
CONTINUOUS
 62
    47
 10
-2.373337
 20
-20.550378
 11
-2.20667
 21
-20.717045
  0
LINE
  8
型材断面
  6
CONTINUOUS
 62
    47
 10
-0.573337
 20
-20.717045
 11
-2.20667
 21
-20.717045
  0
LINE
  8
型材断面
  6
CONTINUOUS
 62
    47
 10
-8.806653
 20
-20.550378
 11
-8.639988
 21
-20.717045
  0
LINE
  8
型材断面
  6
CONTINUOUS
 62
    47
 10
-6.806642
 20
-20.550378
 11
-7.906653
 21
-20.550378
  0
LINE
  8
型材断面
  6
CONTINUOUS
 62
    47
 10
-8.639988
 20
-20.717045
 11
-7.906653
 21
-20.717045
  0
LINE
  8
型材断面
  6
CONTINUOUS
 62
    47
 10
-7.906653
 20
-20.550378
 11
-7.906653
 21
-20.717045
  0
LINE
  8
型材断面
  6
CONTINUOUS
 62
    47
 10
-14.039898
 20
-20.783713
 11
-14.039898
 21
-20.550378
  0
LINE
  8
型材断面
  6
CONTINUOUS
 62
    47
 10
-8.806653
 20
-20.550378
 11
-14.039898
 21
-20.550378
  0
LINE
  8
型材断面
  6
CONTINUOUS
 62
    47
 10
-15.706565
 20
-20.050382
 11
-15.706552
 21
-20.783713
  0
LINE
  8
型材断面
  6
CONTINUOUS
 62
    47
 10
-15.37323
 20
-19.717045
 11
-4.039912
 21
-19.717045
  0
ARC
  8
型材断面
  6
CONTINUOUS
 10
-15.373232
 20
-20.050378
 40
0.333333
 50
90.0
 51
180.000843
  0
ENDBLK
  0
BLOCK
  2
*GRP_0010
 70
    65
 10
0.0
 20
0.0
  0
LINE
  8
型材断面
  6
CONTINUOUS
 62
    47
 10
-8.806615
 20
-20.717075
 11
-8.806615
 21
-22.883742
  0
ARC
  8
型材断面
  6
CONTINUOUS
 62
    47
 10
-8.639948
 20
-22.883743
 40
0.166667
 50
180.0
 51
270.0
  0
ARC
  8
型材断面
  6
CONTINUOUS
 62
    47
 10
-7.139949
 20
-20.883742
 40
0.166667
 50
0.0
 51
90.0
  0
LINE
  8
型材断面
  6
CONTINUOUS
 62
    47
 10
-6.973283
 20
-20.883742
 11
-6.973283
 21
-21.217075
  0
ARC
  8
型材断面
  6
CONTINUOUS
 62
    47
 10
-7.139949
 20
-21.217075
 40
0.166667
 50
270.0
 51
360.0
  0
LINE
  8
型材断面
  6
CONTINUOUS
 62
    47
 10
-7.13995
 20
-20.717075
 11
-8.806615
 21
-20.717075
  0
LINE
  8
型材断面
  6
CONTINUOUS
 62
    47
 10
-7.973283
 20
-22.383742
 11
-5.706615
 21
-22.383742
  0
ARC
  8
型材断面
  6
CONTINUOUS
 62
    47
 10
1.060051
 20
-20.883742
 40
0.166667
 50
0.0
 51
90.0
  0
LINE
  8
型材断面
  6
CONTINUOUS
 62
    47
 10
1.226718
 20
-20.883742
 11
1.226718
 21
-21.217075
  0
ARC
  8
型材断面
  6
CONTINUOUS
 62
    47
 10
1.060051
 20
-21.217075
 40
0.166667
 50
270.0
 51
360.0
  0
ARC
  8
型材断面
  6
CONTINUOUS
 62
    47
 10
1.060052
 20
-23.050409
 40
0.166667
 50
270.0
 51
360.0
  0
ARC
  8
型材断面
  6
CONTINUOUS
 62
    47
 10
1.060051
 20
-22.550409
 40
0.166667
 50
0.0
 51
90.0
  0
LINE
  8
型材断面
  6
CONTINUOUS
 62
    47
 10
1.226718
 20
-22.550407
 11
1.226718
 21
-23.050407
  0
LINE
  8
型材断面
  6
CONTINUOUS
 62
    47
 10
-1.53995
 20
-22.383742
 11
1.06005
 21
-22.383742
  0
LINE
  8
型材断面
  6
CONTINUOUS
 62
    47
 10
1.06005
 20
-21.383742
 11
-1.206615
 21
-21.383742
  0
LINE
  8
型材断面
  6
CONTINUOUS
 62
    47
 10
-1.206615
 20
-21.383742
 11
-1.206615
 21
-21.617075
  0
LINE
  8
型材断面
  6
CONTINUOUS
 62
    47
 10
-1.53995
 20
-21.617075
 11
-1.206615
 21
-21.617075
  0
LINE
  8
型材断面
  6
CONTINUOUS
 62
    47
 10
-1.53995
 20
-22.383742
 11
-1.53995
 21
-21.617075
  0
LINE
  8
型材断面
  6
CONTINUOUS
 62
    47
 10
-7.63995
 20
-21.617075
 11
-7.973283
 21
-21.617075
  0
LINE
  8
型材断面
  6
CONTINUOUS
 62
    47
 10
-7.973283
 20
-22.383742
 11
-7.973283
 21
-21.617075
  0
LINE
  8
型材断面
  6
CONTINUOUS
 62
    47
 10
-7.63995
 20
-21.617075
 11
-7.63995
 21
-21.383742
  0
LINE
  8
型材断面
  6
CONTINUOUS
 62
    47
 10
-7.13995
 20
-21.383742
 11
-7.63995
 21
-21.383742
  0
LINE
  8
型材断面
  6
CONTINUOUS
 62
    47
 10
0.06005
 20
-20.817075
 11
0.16005
 21
-20.717075
  0
LINE
  8
型材断面
  6
CONTINUOUS
 62
    47
 10
0.06005
 20
-20.817075
 11
-0.03995
 21
-20.717075
  0
LINE
  8
型材断面
  6
CONTINUOUS
 62
    47
 10
-2.373283
 20
-20.717075
 11
-0.03995
 21
-20.717075
  0
LINE
  8
型材断面
  6
CONTINUOUS
 62
    47
 10
1.06005
 20
-20.717075
 11
0.16005
 21
-20.717075
  0
LINE
  8
型材断面
  6
CONTINUOUS
 62
    47
 10
-0.93995
 20
-23.217075
 11
1.060052
 21
-23.217075
  0
ARC
  8
型材断面
  6
CONTINUOUS
 62
    47
 10
-0.93995
 20
-23.883742
 40
0.666667
 50
90.0
 51
180.0
  0
LINE
  8
型材断面
  6
CONTINUOUS
 62
    47
 10
-8.63995
 20
-23.050407
 11
-7.13995
 21
-23.050407
  0
ARC
  8
型材断面
  6
CONTINUOUS
 62
    47
 10
-7.13995
 20
-23.717076
 40
0.666667
 50
0.0
 51
90.0
  0
LINE
  8
型材断面
  6
CONTINUOUS
 62
    47
 10
-2.273115
 20
-26.550413
 11
-2.273115
 21
-26.650413
  0
LINE
  8
型材断面
  6
CONTINUOUS
 62
    47
 10
-5.806615
 20
-26.550413
 11
-5.806615
 21
-26.650413
  0
LINE
  8
型材断面
  6
CONTINUOUS
 62
    47
 10
-2.273115
 20
-26.550413
 11
-5.806615
 21
-26.550413
  0
LINE
  8
型材断面
  6
CONTINUOUS
 62
    47
 10
-6.073283
 20
-26.550413
 11
-6.073283
 21
-26.650413
  0
LINE
  8
型材断面
  6
CONTINUOUS
 62
    47
 10
-5.806615
 20
-26.650413
 11
-6.073283
 21
-26.650413
  0
LINE
  8
型材断面
  6
CONTINUOUS
 62
    47
 10
-2.006448
 20
-26.550413
 11
-2.006448
 21
-26.650413
  0
LINE
  8
型材断面
  6
CONTINUOUS
 62
    47
 10
-2.273115
 20
-26.650413
 11
-2.006448
 21
-26.650413
  0
LINE
  8
型材断面
  6
CONTINUOUS
 62
    47
 10
-2.006448
 20
-26.550413
 11
-1.606615
 21
-26.550413
  0
LINE
  8
型材断面
  6
CONTINUOUS
 62
    47
 10
-6.073283
 20
-26.550413
 11
-6.473283
 21
-26.550413
  0
ARC
  8
型材断面
  6
CONTINUOUS
 62
    47
 10
-2.539948
 20
-25.617079
 40
0.166667
 50
270.0
 51
360.0
  0
ARC
  8
型材断面
  6
CONTINUOUS
 62
    47
 10
-5.539948
 20
-25.617079
 40
0.166667
 50
180.0
 51
270.0
  0
LINE
  8
型材断面
  6
CONTINUOUS
 62
    47
 10
-4.03995
 20
-25.883745
 11
-3.93995
 21
-25.783745
  0
LINE
  8
型材断面
  6
CONTINUOUS
 62
    47
 10
-4.03995
 20
-25.883745
 11
-4.13995
 21
-25.783745
  0
LINE
  8
型材断面
  6
CONTINUOUS
 62
    47
 10
-3.93995
 20
-25.783745
 11
-2.53995
 21
-25.783745
  0
LINE
  8
型材断面
  6
CONTINUOUS
 62
    47
 10
-5.53995
 20
-25.783745
 11
-4.13995
 21
-25.783745
  0
LINE
  8
型材断面
  6
CONTINUOUS
 62
    47
 10
-6.473283
 20
-23.717075
 11
-6.473283
 21
-26.550413
  0
LINE
  8
型材断面
  6
CONTINUOUS
 62
    47
 10
-1.606615
 20
-23.883742
 11
-1.606615
 21
-26.550413
  0
LINE
  8
型材断面
  6
CONTINUOUS
 62
    47
 10
-5.706615
 20
-22.383742
 11
-5.706615
 21
-25.61708
  0
LINE
  8
型材断面
  6
CONTINUOUS
 62
    47
 10
-2.373283
 20
-20.717075
 11
-2.373283
 21
-25.61708
  0
LINE
  8
型材断面
  6
DOT
 10
-4.03995
 20
-26.550413
 11
-4.03995
 21
-25.783745
  0
ENDBLK
  0
BLOCK
  2
*GRP_0011
 70
    65
 10
0.0
 20
0.0
  0
LINE
  8
型材断面
  6
CONTINUOUS
 10
8.126778
 20
-99.95719
 11
7.793442
 21
-101.623858
  0
LINE
  8
型材断面
  6
CONTINUOUS
 62
    47
 10
-8.43989
 20
-96.62386
 11
-8.43989
 21
-95.857193
  0
ARC
  8
型材断面
  6
CONTINUOUS
 62
    47
 10
-6.673226
 20
-90.723855
 40
0.1
 50
90.0
 51
180.0
  0
LINE
  8
型材断面
  6
CONTINUOUS
 62
    47
 10
-6.773222
 20
-91.190525
 11
-6.773222
 21
-90.72386
  0
ARC
  8
型材断面
  6
CONTINUOUS
 62
    47
 10
-6.673226
 20
-91.190522
 40
0.1
 50
180.0
 51
270.0
  0
ARC
  8
型材断面
  6
CONTINUOUS
 62
    47
 10
-7.706559
 20
-95.457189
 40
0.1
 50
0.0
 51
90.0
  0
LINE
  8
型材断面
  6
CONTINUOUS
 62
    47
 10
-7.606557
 20
-95.757193
 11
-7.606557
 21
-95.457193
  0
LINE
  8
型材断面
  6
CONTINUOUS
 62
    47
 10
-7.706557
 20
-95.857193
 11
-8.43989
 21
-95.857193
  0
ARC
  8
型材断面
  6
CONTINUOUS
 62
    47
 10
-7.706559
 20
-95.757189
 40
0.1
 50
270.0
 51
360.0
  0
LINE
  8
型材断面
  6
CONTINUOUS
 62
    47
 10
-7.706557
 20
-95.357193
 11
-8.83989
 21
-95.357193
  0
LINE
  8
型材断面
  6
CONTINUOUS
 62
    47
 10
-8.93989
 20
-96.62386
 11
-8.93989
 21
-95.457193
  0
ARC
  8
型材断面
  6
CONTINUOUS
 62
    47
 10
-8.839893
 20
-95.457189
 40
0.1
 50
90.0
 51
180.0
  0
LINE
  8
型材断面
  6
CONTINUOUS
 62
    47
 10
-8.43989
 20
-96.62386
 11
-6.03989
 21
-96.62386
  0
LINE
  8
型材断面
  6
CONTINUOUS
 62
    47
 10
-13.206557
 20
-96.62386
 11
-13.206557
 21
-96.057193
  0
ARC
  8
型材断面
  6
CONTINUOUS
 62
    47
 10
-13.306559
 20
-96.057189
 40
0.1
 50
0.0
 51
90.0
  0
LINE
  8
型材断面
  6
CONTINUOUS
 62
    47
 10
-13.306557
 20
-95.957193
 11
-13.506557
 21
-95.957193
  0
ARC
  8
型材断面
  6
CONTINUOUS
 62
    47
 10
-13.506559
 20
-96.057189
 40
0.1
 50
90.0
 51
180.0
  0
LINE
  8
型材断面
  6
CONTINUOUS
 62
    47
 10
-13.606557
 20
-96.057193
 11
-13.606557
 21
-101.623858
  0
LINE
  8
型材断面
  6
CONTINUOUS
 62
    47
 10
-13.35656
 20
-98.623858
 11
-11.523228
 21
-98.623858
  0
ARC
  8
型材断面
  6
CONTINUOUS
 62
    47
 10
-11.876447
 20
-99.237836
 40
0.25
 50
312.542364
 51
492.542397
  0
ARC
  8
型材断面
  6
CONTINUOUS
 62
    47
 10
-12.439893
 20
-98.623855
 40
0.583333
 50
47.457615
 51
312.542407
  0
ARC
  8
型材断面
  6
CONTINUOUS
 62
    47
 10
-11.876447
 20
-98.009874
 40
0.25
 50
227.457576
 51
407.457618
  0
ARC
  8
型材断面
  6
CONTINUOUS
 62
    47
 10
-12.439893
 20
-98.623856
 40
1.083333
 50
47.457611
 51
90.000044
  0
LINE
  8
型材断面
  6
CONTINUOUS
 10
-16.53989
 20
-102.290525
 11
-16.53989
 21
-99.95719
  0
LINE
  8
型材断面
  6
CONTINUOUS
 10
-13.606557
 20
-101.623858
 11
-15.873222
 21
-101.623858
  0
LINE
  8
型材断面
  6
CONTINUOUS
 62
    47
 10
-4.03989
 20
-102.290525
 11
-16.53989
 21
-102.290525
  0
LINE
  8
型材断面
  6
CONTINUOUS
 62
    47
 10
-12.439893
 20
-97.707193
 11
-12.439893
 21
-99.70719
  0
LINE
  8
型材断面
  6
CONTINUOUS
 10
-4.03989
 20
-101.457193
 11
-12.773225
 21
-101.457193
  0
LINE
  8
型材断面
  6
CONTINUOUS
 10
-12.773225
 20
-101.457193
 11
-12.773225
 21
-99.654635
  0
LINE
  8
型材断面
  6
CONTINUOUS
 10
-12.439893
 20
-97.540525
 11
-12.439893
 21
-97.457193
  0
ARC
  8
型材断面
  6
CONTINUOUS
 62
    47
 10
-12.439893
 20
-98.623855
 40
1.083333
 50
252.079718
 51
312.542389
  0
LINE
  8
型材断面
  6
CONTINUOUS
 10
-12.439893
 20
-97.457193
 11
-5.206557
 21
-97.457193
  0
LINE
  8
型材断面
  6
CONTINUOUS
 62
    47
 10
-8.93989
 20
-96.62386
 11
-13.206557
 21
-96.62386
  0
LINE
  8
型材断面
  6
CONTINUOUS
 62
    47
 10
-6.673222
 20
-90.62386
 11
-4.03989
 21
-90.62386
  0
LINE
  8
型材断面
  6
CONTINUOUS
 10
-5.206557
 20
-97.457193
 11
-5.206557
 21
-91.290525
  0
LINE
  8
型材断面
  6
CONTINUOUS
 62
    47
 10
-6.03989
 20
-96.62386
 11
-6.03989
 21
-91.290525
  0
LINE
  8
型材断面
  6
CONTINUOUS
 62
    47
 10
-6.673222
 20
-91.290525
 11
-6.03989
 21
-91.290525
  0
LINE
  8
型材断面
  6
CONTINUOUS
 62
    47
 10
-5.206557
 20
-91.290525
 11
-4.03989
 21
-91.290525
  0
LINE
  8
型材断面
  6
CONTINUOUS
 62
    47
 10
0.36011
 20
-96.62386
 11
0.36011
 21
-95.857193
  0
ARC
  8
型材断面
  6
CONTINUOUS
 62
    47
 10
-1.40656
 20
-90.723855
 40
0.1
 50
0.0
 51
90.0
  0
LINE
  8
型材断面
  6
CONTINUOUS
 62
    47
 10
-1.306557
 20
-91.190525
 11
-1.306557
 21
-90.72386
  0
ARC
  8
型材断面
  6
CONTINUOUS
 62
    47
 10
-1.40656
 20
-91.190522
 40
0.1
 50
270.0
 51
360.0
  0
ARC
  8
型材断面
  6
CONTINUOUS
 62
    47
 10
-0.373226
 20
-95.457189
 40
0.1
 50
90.0
 51
180.0
  0
LINE
  8
型材断面
  6
CONTINUOUS
 62
    47
 10
-0.473222
 20
-95.757193
 11
-0.473222
 21
-95.457193
  0
LINE
  8
型材断面
  6
CONTINUOUS
 62
    47
 10
-0.373222
 20
-95.857193
 11
0.36011
 21
-95.857193
  0
ARC
  8
型材断面
  6
CONTINUOUS
 62
    47
 10
-0.373226
 20
-95.757189
 40
0.1
 50
180.0
 51
270.0
  0
LINE
  8
型材断面
  6
CONTINUOUS
 62
    47
 10
-0.373222
 20
-95.357193
 11
0.76011
 21
-95.357193
  0
LINE
  8
型材断面
  6
CONTINUOUS
 62
    47
 10
0.86011
 20
-96.62386
 11
0.86011
 21
-95.457193
  0
ARC
  8
型材断面
  6
CONTINUOUS
 62
    47
 10
0.760107
 20
-95.457189
 40
0.1
 50
0.0
 51
90.0
  0
LINE
  8
型材断面
  6
CONTINUOUS
 62
    47
 10
0.36011
 20
-96.62386
 11
-2.03989
 21
-96.62386
  0
LINE
  8
型材断面
  6
CONTINUOUS
 62
    47
 10
5.126778
 20
-96.62386
 11
5.126778
 21
-96.057193
  0
ARC
  8
型材断面
  6
CONTINUOUS
 62
    47
 10
5.226774
 20
-96.057189
 40
0.1
 50
90.0
 51
180.0
  0
LINE
  8
型材断面
  6
CONTINUOUS
 62
    47
 10
5.226778
 20
-95.957193
 11
5.426778
 21
-95.957193
  0
ARC
  8
型材断面
  6
CONTINUOUS
 62
    47
 10
5.426774
 20
-96.057189
 40
0.1
 50
0.0
 51
90.0
  0
LINE
  8
型材断面
  6
CONTINUOUS
 62
    47
 10
5.526778
 20
-96.057193
 11
5.526778
 21
-101.623858
  0
LINE
  8
型材断面
  6
CONTINUOUS
 62
    47
 10
5.27678
 20
-98.623858
 11
3.443448
 21
-98.623858
  0
ARC
  8
型材断面
  6
CONTINUOUS
 62
    47
 10
3.796661
 20
-99.237836
 40
0.25
 50
47.457603
 51
227.457636
  0
ARC
  8
型材断面
  6
CONTINUOUS
 62
    47
 10
4.360107
 20
-98.623855
 40
0.583333
 50
227.457593
 51
492.542385
  0
ARC
  8
型材断面
  6
CONTINUOUS
 62
    47
 10
3.796661
 20
-98.009874
 40
0.25
 50
132.542382
 51
312.542424
  0
ARC
  8
型材断面
  6
CONTINUOUS
 62
    47
 10
4.360107
 20
-98.623856
 40
1.083333
 50
89.999956
 51
132.542389
  0
LINE
  8
型材断面
  6
CONTINUOUS
 10
8.46011
 20
-102.290525
 11
8.46011
 21
-99.95719
  0
LINE
  8
型材断面
  6
CONTINUOUS
 10
5.526778
 20
-101.623858
 11
7.793442
 21
-101.623858
  0
LINE
  8
型材断面
  6
CONTINUOUS
 62
    47
 10
-4.03989
 20
-102.290525
 11
8.46011
 21
-102.290525
  0
LINE
  8
型材断面
  6
CONTINUOUS
 62
    47
 10
4.360112
 20
-97.707193
 11
4.360112
 21
-99.70719
  0
LINE
  8
型材断面
  6
CONTINUOUS
 10
-4.03989
 20
-101.457193
 11
4.693445
 21
-101.457193
  0
LINE
  8
型材断面
  6
CONTINUOUS
 10
4.693445
 20
-101.457193
 11
4.693445
 21
-99.654635
  0
LINE
  8
型材断面
  6
CONTINUOUS
 10
4.360112
 20
-97.540525
 11
4.360112
 21
-97.457193
  0
ARC
  8
型材断面
  6
CONTINUOUS
 62
    47
 10
4.360107
 20
-98.623855
 40
1.083333
 50
227.457611
 51
287.920282
  0
LINE
  8
型材断面
  6
CONTINUOUS
 10
4.360112
 20
-97.457193
 11
-2.873222
 21
-97.457193
  0
LINE
  8
型材断面
  6
CONTINUOUS
 62
    47
 10
0.86011
 20
-96.62386
 11
5.126778
 21
-96.62386
  0
LINE
  8
型材断面
  6
CONTINUOUS
 62
    47
 10
-1.406557
 20
-90.62386
 11
-4.03989
 21
-90.62386
  0
LINE
  8
型材断面
  6
CONTINUOUS
 10
-2.873222
 20
-97.457193
 11
-2.873222
 21
-91.290525
  0
LINE
  8
型材断面
  6
CONTINUOUS
 62
    47
 10
-2.03989
 20
-96.62386
 11
-2.03989
 21
-91.290525
  0
LINE
  8
型材断面
  6
CONTINUOUS
 62
    47
 10
-1.406557
 20
-91.290525
 11
-2.03989
 21
-91.290525
  0
LINE
  8
型材断面
  6
CONTINUOUS
 62
    47
 10
-2.873222
 20
-91.290525
 11
-4.03989
 21
-91.290525
  0
LINE
  8
型材断面
  6
CONTINUOUS
 10
8.46011
 20
-99.95719
 11
8.126778
 21
-99.95719
  0
LINE
  8
型材断面
  6
CONTINUOUS
 10
-16.206557
 20
-99.95719
 11
-15.873222
 21
-101.623858
  0
LINE
  8
型材断面
  6
CONTINUOUS
 10
-16.53989
 20
-99.95719
 11
-16.206557
 21
-99.95719
  0
ENDBLK
  0
BLOCK
  2
*GRP_0012
 70
    65
 10
0.0
 20
0.0
  0
LINE
  8
型材断面
  6
CONTINUOUS
 62
    47
 10
7.293445
 20
-83.69049
 11
-4.039905
 21
-83.69049
  0
ARC
  8
型材断面
  6
CONTINUOUS
 62
    47
 10
7.29345
 20
-84.023786
 40
0.333333
 50
0.000053
 51
90.000053
  0
ARC
  8
型材断面
  6
CONTINUOUS
 62
    47
 10
-7.806615
 20
-85.857132
 40
0.166667
 50
90.000053
 51
180.000053
  0
LINE
  8
型材断面
  6
CONTINUOUS
 62
    47
 10
-7.973322
 20
-85.857158
 11
-7.973322
 21
-86.19049
  0
ARC
  8
型材断面
  6
CONTINUOUS
 62
    47
 10
-7.806615
 20
-86.190465
 40
0.166667
 50
180.000053
 51
270.000053
  0
ARC
  8
型材断面
  6
CONTINUOUS
 62
    47
 10
-1.373282
 20
-85.857126
 40
0.166667
 50
90.000053
 51
180.000053
  0
LINE
  8
型材断面
  6
CONTINUOUS
 62
    47
 10
-1.53999
 20
-85.857158
 11
-1.539973
 21
-86.19049
  0
ARC
  8
型材断面
  6
CONTINUOUS
 62
    47
 10
-1.373282
 20
-86.190459
 40
0.166667
 50
180.000053
 51
270.000053
  0
LINE
  8
型材断面
  6
CONTINUOUS
 62
    47
 10
-1.373322
 20
-85.69049
 11
0.893345
 21
-85.69049
  0
LINE
  8
型材断面
  6
CONTINUOUS
 62
    47
 10
1.39336
 20
-85.457157
 11
0.893345
 21
-85.457157
  0
LINE
  8
型材断面
  6
CONTINUOUS
 62
    47
 10
0.893345
 20
-85.69049
 11
0.893345
 21
-85.457157
  0
LINE
  8
型材断面
  6
CONTINUOUS
 62
    47
 10
-7.306655
 20
-85.457157
 11
-6.806655
 21
-85.457157
  0
LINE
  8
型材断面
  6
CONTINUOUS
 62
    47
 10
1.226707
 20
-86.357158
 11
1.226707
 21
-86.357158
  0
ARC
  8
型材断面
  6
CONTINUOUS
 62
    47
 10
1.46004
 20
-86.357156
 40
0.233333
 50
90.0
 51
180.0
  0
LINE
  8
型材断面
  6
CONTINUOUS
 62
    47
 10
-6.806655
 20
-85.457157
 11
-6.806635
 21
-84.523823
  0
LINE
  8
型材断面
  6
CONTINUOUS
 62
    47
 10
-15.706545
 20
-84.757157
 11
-14.03989
 21
-84.757157
  0
LINE
  8
型材断面
  6
CONTINUOUS
 62
    47
 10
1.39336
 20
-85.457157
 11
1.39334
 21
-84.523823
  0
LINE
  8
型材断面
  6
CONTINUOUS
 62
    47
 10
7.626745
 20
-84.023808
 11
7.626745
 21
-84.757157
  0
LINE
  8
型材断面
  6
CONTINUOUS
 62
    47
 10
7.626745
 20
-84.757157
 11
5.960078
 21
-84.757157
  0
LINE
  8
型材断面
  6
CONTINUOUS
 62
    47
 10
5.960078
 20
-84.523823
 11
5.960078
 21
-84.757157
  0
LINE
  8
型材断面
  6
CONTINUOUS
 62
    47
 10
-0.573333
 20
-84.523823
 11
-0.57333
 21
-84.69049
  0
LINE
  8
型材断面
  6
CONTINUOUS
 62
    47
 10
5.960078
 20
-84.523823
 11
1.960008
 21
-84.523823
  0
LINE
  8
型材断面
  6
CONTINUOUS
 62
    47
 10
1.46004
 20
-86.123823
 11
1.626702
 21
-86.123823
  0
LINE
  8
型材断面
  6
CONTINUOUS
 62
    47
 10
1.960008
 20
-84.523823
 11
1.960035
 21
-85.790482
  0
ARC
  8
型材断面
  6
CONTINUOUS
 62
    47
 10
1.6267
 20
-85.79049
 40
0.333333
 50
270.0
 51
360.001253
  0
LINE
  8
型材断面
  6
CONTINUOUS
 62
    47
 10
-0.573333
 20
-84.523823
 11
1.39334
 21
-84.523823
  0
LINE
  8
型材断面
  6
CONTINUOUS
 62
    47
 10
-2.37333
 20
-84.523823
 11
-6.239967
 21
-84.523823
  0
LINE
  8
型材断面
  6
CONTINUOUS
 62
    47
 10
-6.239967
 20
-84.523823
 11
-6.240007
 21
-86.357158
  0
LINE
  8
型材断面
  6
CONTINUOUS
 62
    47
 10
-7.473322
 20
-86.357158
 11
-7.473322
 21
-86.357158
  0
ARC
  8
型材断面
  6
CONTINUOUS
 62
    47
 10
-7.306657
 20
-86.357156
 40
0.166667
 50
90.0
 51
180.0
  0
LINE
  8
型材断面
  6
CONTINUOUS
 62
    47
 10
-7.306655
 20
-86.19049
 11
-6.906642
 21
-86.19049
  0
LINE
  8
型材断面
  6
CONTINUOUS
 62
    47
 10
-6.740007
 20
-86.357158
 11
-6.740007
 21
-86.357128
  0
ARC
  8
型材断面
  6
CONTINUOUS
 62
    47
 10
-6.906643
 20
-86.357123
 40
0.166633
 50
-0.001289
 51
90.0
  0
LINE
  8
型材断面
  6
CONTINUOUS
 62
    47
 10
-7.306655
 20
-85.457157
 11
-7.306655
 21
-85.59049
  0
LINE
  8
型材断面
  6
CONTINUOUS
 62
    47
 10
-7.806655
 20
-85.69049
 11
-7.406655
 21
-85.69049
  0
ARC
  8
型材断面
  6
CONTINUOUS
 62
    47
 10
-7.406657
 20
-85.59049
 40
0.1
 50
-90.0
 51
0.0
  0
LINE
  8
型材断面
  6
CONTINUOUS
 62
    47
 10
0.393375
 20
-86.357158
 11
0.393375
 21
-86.357158
  0
ARC
  8
型材断面
  6
CONTINUOUS
 62
    47
 10
0.226706
 20
-86.357156
 40
0.166667
 50
0.0
 51
90.0
  0
LINE
  8
型材断面
  6
CONTINUOUS
 62
    47
 10
-0.70663
 20
-86.357158
 11
-0.70663
 21
-86.357132
  0
LINE
  8
型材断面
  6
CONTINUOUS
 62
    47
 10
0.226707
 20
-86.19049
 11
-0.539998
 21
-86.19049
  0
ARC
  8
型材断面
  6
CONTINUOUS
 62
    47
 10
-0.539999
 20
-86.357123
 40
0.166633
 50
90.0
 51
180.002865
  0
LINE
  8
型材断面
  6
CONTINUOUS
 62
    47
 10
-7.80664
 20
-86.357158
 11
-7.473322
 21
-86.357158
  0
LINE
  8
型材断面
  6
CONTINUOUS
 62
    47
 10
-6.740007
 20
-86.357158
 11
-6.240007
 21
-86.357158
  0
LINE
  8
型材断面
  6
CONTINUOUS
 62
    47
 10
-1.373322
 20
-86.357158
 11
-0.70663
 21
-86.357158
  0
LINE
  8
型材断面
  6
CONTINUOUS
 62
    47
 10
0.393375
 20
-86.357158
 11
1.226707
 21
-86.357158
  0
LINE
  8
型材断面
  6
CONTINUOUS
 62
    47
 10
-2.37333
 20
-84.523823
 11
-2.206663
 21
-84.69049
  0
LINE
  8
型材断面
  6
CONTINUOUS
 62
    47
 10
-0.57333
 20
-84.69049
 11
-2.206663
 21
-84.69049
  0
LINE
  8
型材断面
  6
CONTINUOUS
 62
    47
 10
-8.806645
 20
-84.523823
 11
-8.63998
 21
-84.69049
  0
LINE
  8
型材断面
  6
CONTINUOUS
 62
    47
 10
-6.806635
 20
-84.523823
 11
-7.906645
 21
-84.523823
  0
LINE
  8
型材断面
  6
CONTINUOUS
 62
    47
 10
-8.63998
 20
-84.69049
 11
-7.906645
 21
-84.69049
  0
LINE
  8
型材断面
  6
CONTINUOUS
 62
    47
 10
-7.906645
 20
-84.523823
 11
-7.906645
 21
-84.69049
  0
LINE
  8
型材断面
  6
CONTINUOUS
 62
    47
 10
-14.03989
 20
-84.757157
 11
-14.03989
 21
-84.523823
  0
LINE
  8
型材断面
  6
CONTINUOUS
 62
    47
 10
-8.806645
 20
-84.523823
 11
-14.03989
 21
-84.523823
  0
LINE
  8
型材断面
  6
CONTINUOUS
 62
    47
 10
-15.706557
 20
-84.023827
 11
-15.706545
 21
-84.757157
  0
LINE
  8
型材断面
  6
CONTINUOUS
 62
    47
 10
-15.373222
 20
-83.69049
 11
-4.039905
 21
-83.69049
  0
ARC
  8
型材断面
  6
CONTINUOUS
 10
-15.373224
 20
-84.023824
 40
0.333333
 50
90.0
 51
180.000843
  0
ENDBLK
  0
BLOCK
  2
*GRP_0013
 70
    65
 10
0.0
 20
0.0
  0
LINE
  8
型材断面
  6
CONTINUOUS
 62
    47
 10
-8.806607
 20
-84.69052
 11
-8.806607
 21
-86.857187
  0
ARC
  8
型材断面
  6
CONTINUOUS
 62
    47
 10
-8.639941
 20
-86.857188
 40
0.166667
 50
180.0
 51
270.0
  0
ARC
  8
型材断面
  6
CONTINUOUS
 62
    47
 10
-7.139942
 20
-84.857188
 40
0.166667
 50
0.0
 51
90.0
  0
LINE
  8
型材断面
  6
CONTINUOUS
 62
    47
 10
-6.973275
 20
-84.857187
 11
-6.973275
 21
-85.19052
  0
ARC
  8
型材断面
  6
CONTINUOUS
 62
    47
 10
-7.139942
 20
-85.190521
 40
0.166667
 50
270.0
 51
360.0
  0
LINE
  8
型材断面
  6
CONTINUOUS
 62
    47
 10
-7.139942
 20
-84.69052
 11
-8.806607
 21
-84.69052
  0
LINE
  8
型材断面
  6
CONTINUOUS
 62
    47
 10
-7.973275
 20
-86.357187
 11
-5.706607
 21
-86.357187
  0
ARC
  8
型材断面
  6
CONTINUOUS
 62
    47
 10
1.060058
 20
-84.857188
 40
0.166667
 50
0.0
 51
90.0
  0
LINE
  8
型材断面
  6
CONTINUOUS
 62
    47
 10
1.226725
 20
-84.857187
 11
1.226725
 21
-85.19052
  0
ARC
  8
型材断面
  6
CONTINUOUS
 62
    47
 10
1.060058
 20
-85.190521
 40
0.166667
 50
270.0
 51
360.0
  0
ARC
  8
型材断面
  6
CONTINUOUS
 62
    47
 10
1.060059
 20
-87.023855
 40
0.166667
 50
270.0
 51
360.0
  0
ARC
  8
型材断面
  6
CONTINUOUS
 62
    47
 10
1.060058
 20
-86.523854
 40
0.166667
 50
0.0
 51
90.0
  0
LINE
  8
型材断面
  6
CONTINUOUS
 62
    47
 10
1.226725
 20
-86.523852
 11
1.226725
 21
-87.023852
  0
LINE
  8
型材断面
  6
CONTINUOUS
 62
    47
 10
-1.539942
 20
-86.357187
 11
1.060058
 21
-86.357187
  0
LINE
  8
型材断面
  6
CONTINUOUS
 62
    47
 10
1.060058
 20
-85.357187
 11
-1.206607
 21
-85.357187
  0
LINE
  8
型材断面
  6
CONTINUOUS
 62
    47
 10
-1.206607
 20
-85.357187
 11
-1.206607
 21
-85.59052
  0
LINE
  8
型材断面
  6
CONTINUOUS
 62
    47
 10
-1.539942
 20
-85.59052
 11
-1.206607
 21
-85.59052
  0
LINE
  8
型材断面
  6
CONTINUOUS
 62
    47
 10
-1.539942
 20
-86.357187
 11
-1.539942
 21
-85.59052
  0
LINE
  8
型材断面
  6
CONTINUOUS
 62
    47
 10
-7.639942
 20
-85.59052
 11
-7.973275
 21
-85.59052
  0
LINE
  8
型材断面
  6
CONTINUOUS
 62
    47
 10
-7.973275
 20
-86.357187
 11
-7.973275
 21
-85.59052
  0
LINE
  8
型材断面
  6
CONTINUOUS
 62
    47
 10
-7.639942
 20
-85.59052
 11
-7.639942
 21
-85.357187
  0
LINE
  8
型材断面
  6
CONTINUOUS
 62
    47
 10
-7.139942
 20
-85.357187
 11
-7.639942
 21
-85.357187
  0
LINE
  8
型材断面
  6
CONTINUOUS
 62
    47
 10
0.060058
 20
-84.79052
 11
0.160058
 21
-84.69052
  0
LINE
  8
型材断面
  6
CONTINUOUS
 62
    47
 10
0.060058
 20
-84.79052
 11
-0.039942
 21
-84.69052
  0
LINE
  8
型材断面
  6
CONTINUOUS
 62
    47
 10
-2.373275
 20
-84.69052
 11
-0.039942
 21
-84.69052
  0
LINE
  8
型材断面
  6
CONTINUOUS
 62
    47
 10
1.060058
 20
-84.69052
 11
0.160058
 21
-84.69052
  0
LINE
  8
型材断面
  6
CONTINUOUS
 62
    47
 10
-0.939942
 20
-87.19052
 11
1.06006
 21
-87.19052
  0
ARC
  8
型材断面
  6
CONTINUOUS
 62
    47
 10
-0.939943
 20
-87.857188
 40
0.666667
 50
90.0
 51
180.0
  0
LINE
  8
型材断面
  6
CONTINUOUS
 62
    47
 10
-8.639942
 20
-87.023852
 11
-7.139942
 21
-87.023852
  0
ARC
  8
型材断面
  6
CONTINUOUS
 62
    47
 10
-7.139943
 20
-87.690521
 40
0.666667
 50
0.0
 51
90.0
  0
LINE
  8
型材断面
  6
CONTINUOUS
 62
    47
 10
-2.273107
 20
-90.523858
 11
-2.273107
 21
-90.623858
  0
LINE
  8
型材断面
  6
CONTINUOUS
 62
    47
 10
-5.806607
 20
-90.523858
 11
-5.806607
 21
-90.623858
  0
LINE
  8
型材断面
  6
CONTINUOUS
 62
    47
 10
-2.273107
 20
-90.523858
 11
-5.806607
 21
-90.523858
  0
LINE
  8
型材断面
  6
CONTINUOUS
 62
    47
 10
-6.073275
 20
-90.523858
 11
-6.073275
 21
-90.623858
  0
LINE
  8
型材断面
  6
CONTINUOUS
 62
    47
 10
-5.806607
 20
-90.623858
 11
-6.073275
 21
-90.623858
  0
LINE
  8
型材断面
  6
CONTINUOUS
 62
    47
 10
-2.00644
 20
-90.523858
 11
-2.00644
 21
-90.623858
  0
LINE
  8
型材断面
  6
CONTINUOUS
 62
    47
 10
-2.273107
 20
-90.623858
 11
-2.00644
 21
-90.623858
  0
LINE
  8
型材断面
  6
CONTINUOUS
 62
    47
 10
-2.00644
 20
-90.523858
 11
-1.606607
 21
-90.523858
  0
LINE
  8
型材断面
  6
CONTINUOUS
 62
    47
 10
-6.073275
 20
-90.523858
 11
-6.473275
 21
-90.523858
  0
ARC
  8
型材断面
  6
CONTINUOUS
 62
    47
 10
-2.539941
 20
-89.590525
 40
0.166667
 50
270.0
 51
360.0
  0
ARC
  8
型材断面
  6
CONTINUOUS
 62
    47
 10
-5.539941
 20
-89.590525
 40
0.166667
 50
180.0
 51
270.0
  0
LINE
  8
型材断面
  6
CONTINUOUS
 62
    47
 10
-4.039942
 20
-89.85719
 11
-3.939942
 21
-89.75719
  0
LINE
  8
型材断面
  6
CONTINUOUS
 62
    47
 10
-4.039942
 20
-89.85719
 11
-4.139942
 21
-89.75719
  0
LINE
  8
型材断面
  6
CONTINUOUS
 62
    47
 10
-3.939942
 20
-89.75719
 11
-2.539942
 21
-89.75719
  0
LINE
  8
型材断面
  6
CONTINUOUS
 62
    47
 10
-5.539942
 20
-89.75719
 11
-4.139942
 21
-89.75719
  0
LINE
  8
型材断面
  6
CONTINUOUS
 62
    47
 10
-6.473275
 20
-87.69052
 11
-6.473275
 21
-90.523858
  0
LINE
  8
型材断面
  6
CONTINUOUS
 62
    47
 10
-1.606607
 20
-87.857187
 11
-1.606607
 21
-90.523858
  0
LINE
  8
型材断面
  6
CONTINUOUS
 62
    47
 10
-5.706607
 20
-86.357187
 11
-5.706607
 21
-89.590525
  0
LINE
  8
型材断面
  6
CONTINUOUS
 62
    47
 10
-2.373275
 20
-84.69052
 11
-2.373275
 21
-89.590525
  0
LINE
  8
型材断面
  6
DOT
 10
-4.039942
 20
-90.523858
 11
-4.039942
 21
-89.75719
  0
ENDBLK
  0
BLOCK
  2
*GRP_0014
 70
    65
 10
0.0
 20
0.0
  0
LINE
  8
型材断面
  6
CONTINUOUS
 62
    47
 10
129.48791
 20
-0.37296
 11
129.48791
 21
9.950905
  0
LINE
  8
型材断面
  6
CONTINUOUS
 62
    47
 10
168.154645
 20
3.39721
 11
129.48791
 21
9.950905
  0
LINE
  8
型材断面
  6
CONTINUOUS
 62
    47
 10
168.154645
 20
3.39721
 11
168.154645
 21
-0.37296
  0
LINE
  8
型材断面
  6
CONTINUOUS
 62
    47
 10
163.821272
 20
-1.039585
 11
168.82119
 21
-1.039585
  0
LINE
  8
型材断面
  6
CONTINUOUS
 62
    47
 10
135.35454
 20
-0.37296
 11
129.48791
 21
-0.37296
  0
LINE
  8
型材断面
  6
CONTINUOUS
 62
    47
 10
135.35454
 20
-1.039585
 11
128.821253
 21
-1.039585
  0
LINE
  8
型材断面
  6
CONTINUOUS
 62
    47
 10
135.48793
 20
-0.906255
 11
135.48793
 21
-0.506232
  0
LINE
  8
型材断面
  6
CONTINUOUS
 62
    47
 10
160.621207
 20
-0.37296
 11
168.154645
 21
-0.37296
  0
LINE
  8
型材断面
  6
CONTINUOUS
 62
    47
 10
160.621207
 20
-1.039585
 11
163.154558
 21
-1.039585
  0
LINE
  8
型材断面
  6
CONTINUOUS
 62
    47
 10
160.487935
 20
-0.906255
 11
160.487935
 21
-0.506232
  0
LINE
  8
型材断面
  6
CONTINUOUS
 62
    47
 10
168.82119
 20
-1.039585
 11
168.82119
 21
3.960392
  0
LINE
  8
型材断面
  6
CONTINUOUS
 62
    47
 10
168.82119
 20
3.960392
 11
139.487875
 21
8.932198
  0
LINE
  8
型材断面
  6
CONTINUOUS
 62
    47
 10
138.821268
 20
9.045197
 11
129.48791
 21
10.627073
  0
LINE
  8
型材断面
  6
CONTINUOUS
 62
    47
 10
138.821268
 20
11.62705
 11
137.321333
 21
11.62705
  0
LINE
  8
型材断面
  6
CONTINUOUS
 62
    47
 10
137.321333
 20
13.29372
 11
137.721268
 21
13.29372
  0
LINE
  8
型材断面
  6
CONTINUOUS
 62
    47
 10
137.721268
 20
13.29372
 11
137.721268
 21
12.29373
  0
LINE
  8
型材断面
  6
CONTINUOUS
 62
    47
 10
137.721268
 20
12.29373
 11
138.821268
 21
12.29373
  0
LINE
  8
型材断面
  6
CONTINUOUS
 62
    47
 10
138.821268
 20
11.62705
 11
138.821268
 21
9.045197
  0
LINE
  8
型材断面
  6
CONTINUOUS
 62
    47
 10
137.321333
 20
13.29372
 11
137.321333
 21
11.62705
  0
ARC
  8
型材断面
  6
CONTINUOUS
 62
    47
 10
135.35454
 20
-0.506234
 40
0.133333
 50
359.997253
 51
449.998627
  0
ARC
  8
型材断面
  6
CONTINUOUS
 62
    47
 10
135.35454
 20
-0.906257
 40
0.133333
 50
269.99588
 51
359.997253
  0
ARC
  8
型材断面
  6
CONTINUOUS
 62
    47
 10
160.621208
 20
-0.506234
 40
0.133333
 50
89.998627
 51
180.0
  0
ARC
  8
型材断面
  6
CONTINUOUS
 62
    47
 10
160.621208
 20
-0.906257
 40
0.133333
 50
180.0
 51
269.99588
  0
LINE
  8
型材断面
  6
CONTINUOUS
 62
    47
 10
137.721268
 20
26.293645
 11
137.321333
 21
26.293645
  0
LINE
  8
型材断面
  6
CONTINUOUS
 62
    47
 10
137.721268
 20
25.626965
 11
138.821268
 21
25.626965
  0
LINE
  8
型材断面
  6
CONTINUOUS
 62
    47
 10
137.321333
 20
26.293645
 11
139.487875
 21
26.293645
  0
LINE
  8
型材断面
  6
CONTINUOUS
 62
    47
 10
139.487875
 20
25.627093
 11
139.487875
 21
26.293645
  0
LINE
  8
型材断面
  6
CONTINUOUS
 62
    47
 10
138.821268
 20
25.627093
 11
137.721268
 21
25.627093
  0
LINE
  8
型材断面
  6
CONTINUOUS
 62
    47
 10
138.821268
 20
18.627052
 11
131.154608
 21
18.627052
  0
LINE
  8
型材断面
  6
CONTINUOUS
 62
    47
 10
131.154608
 20
18.627052
 11
131.154608
 21
19.96037
  0
LINE
  8
型材断面
  6
CONTINUOUS
 62
    47
 10
131.154608
 20
19.96037
 11
131.554543
 21
19.96037
  0
LINE
  8
型材断面
  6
CONTINUOUS
 62
    47
 10
131.554543
 20
19.29375
 11
131.554543
 21
19.96037
  0
LINE
  8
型材断面
  6
CONTINUOUS
 62
    47
 10
136.488042
 20
20.56035
 11
135.154673
 21
20.56035
  0
LINE
  8
型材断面
  6
CONTINUOUS
 62
    47
 10
135.154673
 20
20.56035
 11
135.154673
 21
19.29368
  0
LINE
  8
型材断面
  6
CONTINUOUS
 62
    47
 10
135.654635
 20
19.29368
 11
135.654635
 21
20.06035
  0
LINE
  8
型材断面
  6
CONTINUOUS
 62
    47
 10
135.654635
 20
20.06035
 11
136.488042
 21
20.06035
  0
LINE
  8
型材断面
  6
CONTINUOUS
 62
    47
 10
136.488042
 20
20.06035
 11
136.488042
 21
20.56035
  0
LINE
  8
型材断面
  6
CONTINUOUS
 62
    47
 10
131.554543
 20
19.29375
 11
135.154673
 21
19.29375
  0
LINE
  8
型材断面
  6
CONTINUOUS
 62
    47
 10
135.654635
 20
19.29368
 11
138.821268
 21
19.29368
  0
LINE
  8
型材断面
  6
CONTINUOUS
 62
    47
 10
138.821268
 20
12.29373
 11
138.821268
 21
18.627052
  0
LINE
  8
型材断面
  6
CONTINUOUS
 62
    47
 10
138.821268
 20
25.627093
 11
138.821268
 21
19.29368
  0
LINE
  8
型材断面
  6
CONTINUOUS
 10
137.321333
 20
24.62698
 11
137.721268
 21
24.62698
  0
LINE
  8
型材断面
  6
CONTINUOUS
 62
    47
 10
137.721268
 20
25.626965
 11
137.721268
 21
24.62698
  0
LINE
  8
型材断面
  6
CONTINUOUS
 62
    47
 10
140.354575
 20
23.527058
 11
139.487875
 21
23.527058
  0
LINE
  8
型材断面
  6
CONTINUOUS
 62
    47
 10
140.354575
 20
23.12708
 11
139.487875
 21
23.12708
  0
LINE
  8
型材断面
  6
CONTINUOUS
 62
    47
 10
140.487847
 20
23.260412
 11
140.487847
 21
23.393743
  0
ARC
  8
型材断面
  6
CONTINUOUS
 62
    47
 10
140.354576
 20
23.393741
 40
0.133333
 50
359.997253
 51
449.998627
  0
ARC
  8
型材断面
  6
CONTINUOUS
 62
    47
 10
140.354576
 20
23.26041
 40
0.133333
 50
269.99588
 51
359.997253
  0
LINE
  8
型材断面
  6
CONTINUOUS
 62
    47
 10
149.354038
 20
23.12708
 11
150.887345
 21
23.12708
  0
LINE
  8
型材断面
  6
CONTINUOUS
 62
    47
 10
149.354038
 20
23.527058
 11
150.22076
 21
23.527058
  0
LINE
  8
型材断面
  6
CONTINUOUS
 62
    47
 10
149.220765
 20
23.393743
 11
149.220765
 21
23.260412
  0
ARC
  8
型材断面
  6
CONTINUOUS
 62
    47
 10
149.354038
 20
23.26041
 40
0.133333
 50
180.0
 51
269.99588
  0
ARC
  8
型材断面
  6
CONTINUOUS
 62
    47
 10
149.354038
 20
23.393741
 40
0.133333
 50
89.998627
 51
180.0
  0
LINE
  8
型材断面
  6
CONTINUOUS
 62
    47
 10
139.487875
 20
8.932198
 11
139.487875
 21
23.12708
  0
LINE
  8
型材断面
  6
CONTINUOUS
 10
139.487875
 20
24.627093
 11
150.22076
 21
24.627093
  0
LINE
  8
型材断面
  6
CONTINUOUS
 62
    47
 10
150.22076
 20
23.527058
 11
150.22076
 21
24.627093
  0
LINE
  8
型材断面
  6
CONTINUOUS
 62
    47
 10
139.487875
 20
23.527058
 11
139.487875
 21
24.627093
  0
LINE
  8
型材断面
  6
CONTINUOUS
 10
145.48741
 20
25.527093
 11
145.38741
 21
25.627093
  0
LINE
  8
型材断面
  6
CONTINUOUS
 62
    47
 10
139.487875
 20
25.627093
 11
145.38741
 21
25.627093
  0
LINE
  8
型材断面
  6
CONTINUOUS
 10
145.48741
 20
25.527093
 11
145.58741
 21
25.627093
  0
LINE
  8
型材断面
  6
CONTINUOUS
 62
    47
 10
145.58741
 20
25.627093
 11
150.887345
 21
25.627093
  0
LINE
  8
型材断面
  6
CONTINUOUS
 10
150.887345
 20
23.12708
 11
150.887345
 21
25.627093
  0
LINE
  8
型材断面
  6
CONTINUOUS
 62
    47
 10
163.154558
 20
-1.039585
 11
163.154558
 21
-6.039585
  0
LINE
  8
型材断面
  6
CONTINUOUS
 10
163.821285
 20
-6.039585
 11
163.154558
 21
-6.039585
  0
LINE
  8
型材断面
  6
CONTINUOUS
 10
163.721285
 20
-3.539585
 11
163.821285
 21
-3.439585
  0
LINE
  8
型材断面
  6
CONTINUOUS
 10
163.721285
 20
-3.539585
 11
163.821285
 21
-3.639585
  0
LINE
  8
型材断面
  6
CONTINUOUS
 62
    47
 10
163.821272
 20
-1.039585
 11
163.821272
 21
-3.439598
  0
LINE
  8
型材断面
  6
CONTINUOUS
 62
    47
 10
163.821272
 20
-3.639573
 11
163.821272
 21
-6.039585
  0
LINE
  8
型材断面
  6
CONTINUOUS
 10
129.48791
 20
13.627073
 11
128.821253
 21
13.627073
  0
LINE
  8
型材断面
  6
CONTINUOUS
 62
    47
 10
129.48791
 20
10.627073
 11
129.48791
 21
13.627073
  0
LINE
  8
型材断面
  6
CONTINUOUS
 62
    47
 10
128.821253
 20
-1.039585
 11
128.821253
 21
13.627073
  0
LINE
  8
型材断面
  6
CONTINUOUS
 10
137.321333
 20
26.293645
 11
137.321333
 21
24.62698
  0
CIRCLE
  8
LAYER010
  6
CONTINUOUS
 62
     7
 10
168.82119
 20
3.960392
 40
0.11111
  0
ENDBLK
  0
BLOCK
  2
*GRP_0015
 70
    65
 10
0.0
 20
0.0
  0
LINE
  8
ゴム等
  6
CONTINUOUS
 10
-60.691802
 20
-29.983745
 11
-60.691802
 21
-32.650413
  0
LINE
  8
ゴム等
  6
CONTINUOUS
 10
-60.691802
 20
-29.983745
 11
-62.85847
 21
-29.983745
  0
LINE
  8
ゴム等
  6
CONTINUOUS
 10
-60.691802
 20
-32.650413
 11
-62.525135
 21
-32.650413
  0
LINE
  8
ゴム等
  6
CONTINUOUS
 10
-62.85847
 20
-32.31708
 11
-62.85847
 21
-29.983745
  0
LINE
  8
ゴム等
  6
CONTINUOUS
 10
-62.525135
 20
-32.650413
 11
-62.85847
 21
-32.31708
  0
INSERT
  2
*HAT_0001
  8
ゴム等
 10
0.0
 20
0.0
  0
ENDBLK
  0
BLOCK
  2
*GRP_0016
 70
    65
 10
0.0
 20
0.0
  0
LINE
  8
ゴム等
  6
CONTINUOUS
 10
52.612008
 20
-29.983745
 11
52.612008
 21
-32.650413
  0
LINE
  8
ゴム等
  6
CONTINUOUS
 10
52.612008
 20
-29.983745
 11
54.778675
 21
-29.983745
  0
LINE
  8
ゴム等
  6
CONTINUOUS
 10
52.612008
 20
-32.650413
 11
54.44534
 21
-32.650413
  0
LINE
  8
ゴム等
  6
CONTINUOUS
 10
54.778675
 20
-32.31708
 11
54.778675
 21
-29.983745
  0
LINE
  8
ゴム等
  6
CONTINUOUS
 10
54.44534
 20
-32.650413
 11
54.778675
 21
-32.31708
  0
INSERT
  2
*HAT_0002
  8
ゴム等
 10
0.0
 20
0.0
  0
ENDBLK
  0
BLOCK
  2
*GRP_0017
 70
    65
 10
0.0
 20
0.0
  0
LINE
  8
ゴム等
  6
CONTINUOUS
 10
5.12677
 20
-29.983745
 11
5.12677
 21
-32.650413
  0
LINE
  8
ゴム等
  6
CONTINUOUS
 10
5.12677
 20
-29.983745
 11
2.960102
 21
-29.983745
  0
LINE
  8
ゴム等
  6
CONTINUOUS
 10
5.12677
 20
-32.650413
 11
3.293438
 21
-32.650413
  0
LINE
  8
ゴム等
  6
CONTINUOUS
 10
2.960102
 20
-32.31708
 11
2.960102
 21
-29.983745
  0
LINE
  8
ゴム等
  6
CONTINUOUS
 10
3.293438
 20
-32.650413
 11
2.960102
 21
-32.31708
  0
INSERT
  2
*HAT_0003
  8
ゴム等
 10
0.0
 20
0.0
  0
ENDBLK
  0
BLOCK
  2
*GRP_0018
 70
    65
 10
0.0
 20
0.0
  0
LINE
  8
ゴム等
  6
CONTINUOUS
 10
-13.206565
 20
-29.983745
 11
-13.206565
 21
-32.650413
  0
LINE
  8
ゴム等
  6
CONTINUOUS
 10
-13.206565
 20
-29.983745
 11
-11.039898
 21
-29.983745
  0
LINE
  8
ゴム等
  6
CONTINUOUS
 10
-13.206565
 20
-32.650413
 11
-11.373232
 21
-32.650413
  0
LINE
  8
ゴム等
  6
CONTINUOUS
 10
-11.039898
 20
-32.31708
 11
-11.039898
 21
-29.983745
  0
LINE
  8
ゴム等
  6
CONTINUOUS
 10
-11.373232
 20
-32.650413
 11
-11.039898
 21
-32.31708
  0
INSERT
  2
*HAT_0004
  8
ゴム等
 10
0.0
 20
0.0
  0
ENDBLK
  0
BLOCK
  2
*GRP_0019
 70
    65
 10
0.0
 20
0.0
  0
LINE
  8
ゴム等
  6
CONTINUOUS
 10
5.126778
 20
-93.95719
 11
5.126778
 21
-96.623858
  0
LINE
  8
ゴム等
  6
CONTINUOUS
 10
5.126778
 20
-93.95719
 11
2.96011
 21
-93.95719
  0
LINE
  8
ゴム等
  6
CONTINUOUS
 10
5.126778
 20
-96.623858
 11
3.293445
 21
-96.623858
  0
LINE
  8
ゴム等
  6
CONTINUOUS
 10
2.96011
 20
-96.290525
 11
2.96011
 21
-93.95719
  0
LINE
  8
ゴム等
  6
CONTINUOUS
 10
3.293445
 20
-96.623858
 11
2.96011
 21
-96.290525
  0
INSERT
  2
*HAT_0005
  8
ゴム等
 10
0.0
 20
0.0
  0
ENDBLK
  0
BLOCK
  2
*GRP_0020
 70
    65
 10
0.0
 20
0.0
  0
LINE
  8
ゴム等
  6
CONTINUOUS
 10
-13.206557
 20
-93.95719
 11
-13.206557
 21
-96.623858
  0
LINE
  8
ゴム等
  6
CONTINUOUS
 10
-13.206557
 20
-93.95719
 11
-11.03989
 21
-93.95719
  0
LINE
  8
ゴム等
  6
CONTINUOUS
 10
-13.206557
 20
-96.623858
 11
-11.373225
 21
-96.623858
  0
LINE
  8
ゴム等
  6
CONTINUOUS
 10
-11.03989
 20
-96.290525
 11
-11.03989
 21
-93.95719
  0
LINE
  8
ゴム等
  6
CONTINUOUS
 10
-11.373225
 20
-96.623858
 11
-11.03989
 21
-96.290525
  0
INSERT
  2
*HAT_0006
  8
ゴム等
 10
0.0
 20
0.0
  0
ENDBLK
  0
BLOCK
  2
*GRP_0021
 70
    65
 10
0.0
 20
0.0
  0
LINE
  8
ボルト／ビス
  6
CONTINUOUS
 62
    64
 10
-93.491878
 20
-54.310247
 11
-93.841265
 21
-54.340815
  0
ARC
  8
ボルト／ビス
  6
CONTINUOUS
 62
    64
 10
-93.791879
 20
-54.905326
 40
0.566667
 50
94.999989
 51
180.0
  0
LINE
  8
ボルト／ビス
  6
CONTINUOUS
 62
    64
 10
-94.358545
 20
-54.905325
 11
-94.358545
 21
-55.476915
  0
LINE
  8
ボルト／ビス
  6
CONTINUOUS
 62
    64
 10
-93.491878
 20
-56.643582
 11
-93.841265
 21
-56.613015
  0
ARC
  8
ボルト／ビス
  6
CONTINUOUS
 62
    64
 10
-93.791879
 20
-56.048503
 40
0.566667
 50
180.0
 51
265.000011
  0
LINE
  8
ボルト／ビス
  6
CONTINUOUS
 62
    64
 10
-94.358545
 20
-56.048505
 11
-94.358545
 21
-55.476915
  0
LINE
  8
ボルト／ビス
  6
CONTINUOUS
 62
    64
 10
-94.230242
 20
-54.678035
 11
-94.310963
 21
-54.678035
  0
LINE
  8
ボルト／ビス
  6
CONTINUOUS
 62
    64
 10
-94.013548
 20
-55.243582
 11
-94.013548
 21
-55.476915
  0
LINE
  8
ボルト／ビス
  6
CONTINUOUS
 62
    64
 10
-94.230242
 20
-55.110247
 11
-94.230242
 21
-54.678035
  0
LINE
  8
ボルト／ビス
  6
CONTINUOUS
 62
    64
 10
-94.013548
 20
-55.243582
 11
-94.09691
 21
-55.243582
  0
ARC
  8
ボルト／ビス
  6
CONTINUOUS
 62
    64
 10
-94.09691
 20
-55.110248
 40
0.133333
 50
180.0
 51
270.0
  0
LINE
  8
ボルト／ビス
  6
CONTINUOUS
 62
    64
 10
-94.230242
 20
-56.275795
 11
-94.310963
 21
-56.275795
  0
LINE
  8
ボルト／ビス
  6
CONTINUOUS
 62
    64
 10
-94.013548
 20
-55.710247
 11
-94.013548
 21
-55.476915
  0
LINE
  8
ボルト／ビス
  6
CONTINUOUS
 62
    64
 10
-94.230242
 20
-55.843582
 11
-94.230242
 21
-56.275795
  0
LINE
  8
ボルト／ビス
  6
CONTINUOUS
 62
    64
 10
-94.013548
 20
-55.710247
 11
-94.09691
 21
-55.710247
  0
ARC
  8
ボルト／ビス
  6
CONTINUOUS
 62
    64
 10
-94.09691
 20
-55.843581
 40
0.133333
 50
90.0
 51
180.0
  0
LINE
  8
ボルト／ビス
  6
CONTINUOUS
 62
    64
 10
-93.491878
 20
-54.310247
 11
-93.491878
 21
-56.643582
  0
LINE
  8
ボルト／ビス
  6
CONTINUOUS
 62
    64
 10
-90.32521
 20
-54.810247
 11
-90.158545
 21
-54.976915
  0
LINE
  8
ボルト／ビス
  6
CONTINUOUS
 62
    64
 10
-90.32521
 20
-56.143582
 11
-90.158545
 21
-55.976915
  0
LINE
  8
ボルト／ビス
  6
CONTINUOUS
 62
    64
 10
-90.32521
 20
-54.810247
 11
-90.32521
 21
-56.143582
  0
LINE
  8
ボルト／ビス
  6
CONTINUOUS
 62
    64
 10
-90.158545
 20
-54.976915
 11
-90.158545
 21
-55.976915
  0
LINE
  8
ボルト／ビス
  6
CONTINUOUS
 62
    64
 10
-95.015672
 20
-55.476915
 11
-89.633587
 21
-55.476915
  0
LINE
  8
ボルト／ビス
  6
CONTINUOUS
 62
    64
 10
-93.491878
 20
-54.810247
 11
-90.32521
 21
-54.810247
  0
LINE
  8
ボルト／ビス
  6
CONTINUOUS
 62
    64
 10
-93.491878
 20
-56.143582
 11
-90.32521
 21
-56.143582
  0
LINE
  8
ボルト／ビス
  6
CONTINUOUS
 62
    64
 10
-93.491878
 20
-55.976915
 11
-90.158545
 21
-55.976915
  0
LINE
  8
ボルト／ビス
  6
CONTINUOUS
 62
    64
 10
-93.491878
 20
-54.976915
 11
-90.158545
 21
-54.976915
  0
ENDBLK
  0
BLOCK
  2
*GRP_0022
 70
    65
 10
0.0
 20
0.0
  0
LINE
  8
ボルト／ビス
  6
CONTINUOUS
 62
    64
 10
85.412082
 20
-54.310247
 11
85.76147
 21
-54.340815
  0
ARC
  8
ボルト／ビス
  6
CONTINUOUS
 62
    64
 10
85.712081
 20
-54.905326
 40
0.566667
 50
0.0
 51
85.000011
  0
LINE
  8
ボルト／ビス
  6
CONTINUOUS
 62
    64
 10
86.27875
 20
-54.905325
 11
86.27875
 21
-55.476915
  0
LINE
  8
ボルト／ビス
  6
CONTINUOUS
 62
    64
 10
85.412082
 20
-56.643582
 11
85.76147
 21
-56.613015
  0
ARC
  8
ボルト／ビス
  6
CONTINUOUS
 62
    64
 10
85.712081
 20
-56.048503
 40
0.566667
 50
274.999989
 51
360.0
  0
LINE
  8
ボルト／ビス
  6
CONTINUOUS
 62
    64
 10
86.27875
 20
-56.048505
 11
86.27875
 21
-55.476915
  0
LINE
  8
ボルト／ビス
  6
CONTINUOUS
 62
    64
 10
86.150447
 20
-54.678035
 11
86.231168
 21
-54.678035
  0
LINE
  8
ボルト／ビス
  6
CONTINUOUS
 62
    64
 10
85.933753
 20
-55.243582
 11
85.933753
 21
-55.476915
  0
LINE
  8
ボルト／ビス
  6
CONTINUOUS
 62
    64
 10
86.150447
 20
-55.110247
 11
86.150447
 21
-54.678035
  0
LINE
  8
ボルト／ビス
  6
CONTINUOUS
 62
    64
 10
85.933753
 20
-55.243582
 11
86.017115
 21
-55.243582
  0
ARC
  8
ボルト／ビス
  6
CONTINUOUS
 62
    64
 10
86.017113
 20
-55.110248
 40
0.133333
 50
270.0
 51
360.0
  0
LINE
  8
ボルト／ビス
  6
CONTINUOUS
 62
    64
 10
86.150447
 20
-56.275795
 11
86.231168
 21
-56.275795
  0
LINE
  8
ボルト／ビス
  6
CONTINUOUS
 62
    64
 10
85.933753
 20
-55.710247
 11
85.933753
 21
-55.476915
  0
LINE
  8
ボルト／ビス
  6
CONTINUOUS
 62
    64
 10
86.150447
 20
-55.843582
 11
86.150447
 21
-56.275795
  0
LINE
  8
ボルト／ビス
  6
CONTINUOUS
 62
    64
 10
85.933753
 20
-55.710247
 11
86.017115
 21
-55.710247
  0
ARC
  8
ボルト／ビス
  6
CONTINUOUS
 62
    64
 10
86.017113
 20
-55.843581
 40
0.133333
 50
0.0
 51
90.0
  0
LINE
  8
ボルト／ビス
  6
CONTINUOUS
 62
    64
 10
85.412082
 20
-54.310247
 11
85.412082
 21
-56.643582
  0
LINE
  8
ボルト／ビス
  6
CONTINUOUS
 62
    64
 10
82.245415
 20
-54.810247
 11
82.07875
 21
-54.976915
  0
LINE
  8
ボルト／ビス
  6
CONTINUOUS
 62
    64
 10
82.245415
 20
-56.143582
 11
82.07875
 21
-55.976915
  0
LINE
  8
ボルト／ビス
  6
CONTINUOUS
 62
    64
 10
82.245415
 20
-54.810247
 11
82.245415
 21
-56.143582
  0
LINE
  8
ボルト／ビス
  6
CONTINUOUS
 62
    64
 10
82.07875
 20
-54.976915
 11
82.07875
 21
-55.976915
  0
LINE
  8
ボルト／ビス
  6
CONTINUOUS
 62
    64
 10
86.935878
 20
-55.476915
 11
81.553793
 21
-55.476915
  0
LINE
  8
ボルト／ビス
  6
CONTINUOUS
 62
    64
 10
85.412082
 20
-54.810247
 11
82.245415
 21
-54.810247
  0
LINE
  8
ボルト／ビス
  6
CONTINUOUS
 62
    64
 10
85.412082
 20
-56.143582
 11
82.245415
 21
-56.143582
  0
LINE
  8
ボルト／ビス
  6
CONTINUOUS
 62
    64
 10
85.412082
 20
-55.976915
 11
82.07875
 21
-55.976915
  0
LINE
  8
ボルト／ビス
  6
CONTINUOUS
 62
    64
 10
85.412082
 20
-54.976915
 11
82.07875
 21
-54.976915
  0
ENDBLK
  0
BLOCK
  2
*GRP_0023
 70
    65
 10
0.0
 20
0.0
  0
POLYLINE
  8
ボルト／ビス
  6
CONTINUOUS
 62
    64
 66
     1
  0
VERTEX
  8
ボルト／ビス
 10
56.377935
 20
-54.717077
  0
VERTEX
  8
ボルト／ビス
 10
56.373935
 20
-54.733403
  0
VERTEX
  8
ボルト／ビス
 10
56.361935
 20
-54.749578
  0
VERTEX
  8
ボルト／ビス
 10
56.342058
 20
-54.765457
  0
VERTEX
  8
ボルト／ビス
 10
56.314505
 20
-54.780858
  0
VERTEX
  8
ボルト／ビス
 10
56.279535
 20
-54.79563
  0
VERTEX
  8
ボルト／ビス
 10
56.237507
 20
-54.809657
  0
VERTEX
  8
ボルト／ビス
 10
56.188777
 20
-54.822803
  0
VERTEX
  8
ボルト／ビス
 10
56.133857
 20
-54.83493
  0
VERTEX
  8
ボルト／ビス
 10
56.073257
 20
-54.845903
  0
VERTEX
  8
ボルト／ビス
 10
56.007577
 20
-54.855657
  0
VERTEX
  8
ボルト／ビス
 10
55.937435
 20
-54.864058
  0
VERTEX
  8
ボルト／ビス
 10
55.863517
 20
-54.871058
  0
VERTEX
  8
ボルト／ビス
 10
55.786507
 20
-54.876558
  0
VERTEX
  8
ボルト／ビス
 10
55.707195
 20
-54.88053
  0
VERTEX
  8
ボルト／ビス
 10
55.626277
 20
-54.88293
  0
VERTEX
  8
ボルト／ビス
 10
55.544617
 20
-54.88373
  0
VERTEX
  8
ボルト／ビス
 10
55.462938
 20
-54.88293
  0
VERTEX
  8
ボルト／ビス
 10
55.382037
 20
-54.88053
  0
VERTEX
  8
ボルト／ビス
 10
55.302717
 20
-54.876558
  0
VERTEX
  8
ボルト／ビス
 10
55.225718
 20
-54.871058
  0
VERTEX
  8
ボルト／ビス
 10
55.151795
 20
-54.864058
  0
VERTEX
  8
ボルト／ビス
 10
55.081638
 20
-54.855657
  0
VERTEX
  8
ボルト／ビス
 10
55.015965
 20
-54.845903
  0
VERTEX
  8
ボルト／ビス
 10
54.955365
 20
-54.83493
  0
VERTEX
  8
ボルト／ビス
 10
54.900438
 20
-54.822803
  0
VERTEX
  8
ボルト／ビス
 10
54.851718
 20
-54.809657
  0
VERTEX
  8
ボルト／ビス
 10
54.809695
 20
-54.79563
  0
VERTEX
  8
ボルト／ビス
 10
54.774718
 20
-54.780858
  0
VERTEX
  8
ボルト／ビス
 10
54.747168
 20
-54.765457
  0
VERTEX
  8
ボルト／ビス
 10
54.727295
 20
-54.749578
  0
VERTEX
  8
ボルト／ビス
 10
54.715278
 20
-54.733403
  0
VERTEX
  8
ボルト／ビス
 10
54.711295
 20
-54.717077
  0
SEQEND
  0
LINE
  8
ボルト／ビス
  6
CONTINUOUS
 62
    64
 10
56.377935
 20
-54.717077
 11
56.544607
 21
-54.274338
  0
LINE
  8
ボルト／ビス
  6
CONTINUOUS
 62
    64
 10
54.715278
 20
-54.733403
 11
54.544617
 21
-54.274338
  0
LINE
  8
ボルト／ビス
  6
CONTINUOUS
 62
    64
 10
54.544617
 20
-54.050403
 11
54.544617
 21
-54.274338
  0
LINE
  8
ボルト／ビス
  6
CONTINUOUS
 62
    64
 10
56.544607
 20
-54.050403
 11
56.544607
 21
-54.274338
  0
ARC
  8
ボルト／ビス
  6
CONTINUOUS
 62
    64
 10
55.54461
 20
-54.607084
 40
0.033333
 50
9.840875
 51
170.159125
  0
LINE
  8
ボルト／ビス
  6
CONTINUOUS
 62
    64
 10
55.612805
 20
-54.805177
 11
55.937435
 21
-54.864058
  0
LINE
  8
ボルト／ビス
  6
CONTINUOUS
 62
    64
 10
55.476418
 20
-54.805177
 11
55.151795
 21
-54.864058
  0
LINE
  8
ボルト／ビス
  6
CONTINUOUS
 62
    64
 10
55.577465
 20
-54.601378
 11
55.612805
 21
-54.805177
  0
LINE
  8
ボルト／ビス
  6
CONTINUOUS
 62
    64
 10
55.511758
 20
-54.601378
 11
55.476418
 21
-54.805177
  0
LINE
  8
ボルト／ビス
  6
CONTINUOUS
 62
    64
 10
56.544607
 20
-54.050403
 11
54.544617
 21
-54.050403
  0
LINE
  8
ボルト／ビス
  6
CONTINUOUS
 62
    64
 10
56.211277
 20
-51.217098
 11
56.044607
 21
-51.050422
  0
LINE
  8
ボルト／ビス
  6
CONTINUOUS
 62
    64
 10
55.044617
 20
-51.050422
 11
54.877938
 21
-51.217098
  0
LINE
  8
ボルト／ビス
  6
CONTINUOUS
 62
    64
 10
55.044617
 20
-54.050403
 11
55.044617
 21
-51.050422
  0
LINE
  8
ボルト／ビス
  6
CONTINUOUS
 62
    64
 10
55.044617
 20
-51.050422
 11
56.044607
 21
-51.050422
  0
LINE
  8
ボルト／ビス
  6
CONTINUOUS
 62
    64
 10
56.044607
 20
-54.050403
 11
56.044607
 21
-51.050422
  0
LINE
  8
ボルト／ビス
  6
CONTINUOUS
 62
    64
 10
56.211277
 20
-54.050403
 11
56.211277
 21
-51.217098
  0
LINE
  8
ボルト／ビス
  6
CONTINUOUS
 62
    64
 10
56.211277
 20
-51.217098
 11
54.877938
 21
-51.217098
  0
LINE
  8
ボルト／ビス
  6
CONTINUOUS
 62
    64
 10
54.877938
 20
-54.050403
 11
54.877938
 21
-51.217098
  0
LINE
  8
ボルト／ビス
  6
CONTINUOUS
 62
    64
 10
55.544617
 20
-56.353323
 11
55.544617
 21
-50.46475
  0
ENDBLK
  0
BLOCK
  2
*GRP_0024
 70
    65
 10
0.0
 20
0.0
  0
POLYLINE
  8
ボルト／ビス
  6
CONTINUOUS
 62
    64
 66
     1
  0
VERTEX
  8
ボルト／ビス
 10
83.378667
 20
-54.717077
  0
VERTEX
  8
ボルト／ビス
 10
83.374665
 20
-54.733403
  0
VERTEX
  8
ボルト／ビス
 10
83.362665
 20
-54.749578
  0
VERTEX
  8
ボルト／ビス
 10
83.342795
 20
-54.765457
  0
VERTEX
  8
ボルト／ビス
 10
83.315237
 20
-54.780858
  0
VERTEX
  8
ボルト／ビス
 10
83.280268
 20
-54.79563
  0
VERTEX
  8
ボルト／ビス
 10
83.238237
 20
-54.809657
  0
VERTEX
  8
ボルト／ビス
 10
83.189515
 20
-54.822803
  0
VERTEX
  8
ボルト／ビス
 10
83.134595
 20
-54.83493
  0
VERTEX
  8
ボルト／ビス
 10
83.073995
 20
-54.845903
  0
VERTEX
  8
ボルト／ビス
 10
83.008315
 20
-54.855657
  0
VERTEX
  8
ボルト／ビス
 10
82.938165
 20
-54.864058
  0
VERTEX
  8
ボルト／ビス
 10
82.864255
 20
-54.871058
  0
VERTEX
  8
ボルト／ビス
 10
82.787238
 20
-54.876558
  0
VERTEX
  8
ボルト／ビス
 10
82.707925
 20
-54.88053
  0
VERTEX
  8
ボルト／ビス
 10
82.627015
 20
-54.88293
  0
VERTEX
  8
ボルト／ビス
 10
82.545355
 20
-54.88373
  0
VERTEX
  8
ボルト／ビス
 10
82.463675
 20
-54.88293
  0
VERTEX
  8
ボルト／ビス
 10
82.382775
 20
-54.88053
  0
VERTEX
  8
ボルト／ビス
 10
82.303455
 20
-54.876558
  0
VERTEX
  8
ボルト／ビス
 10
82.226455
 20
-54.871058
  0
VERTEX
  8
ボルト／ビス
 10
82.152525
 20
-54.864058
  0
VERTEX
  8
ボルト／ビス
 10
82.082375
 20
-54.855657
  0
VERTEX
  8
ボルト／ビス
 10
82.016698
 20
-54.845903
  0
VERTEX
  8
ボルト／ビス
 10
81.956098
 20
-54.83493
  0
VERTEX
  8
ボルト／ビス
 10
81.901175
 20
-54.822803
  0
VERTEX
  8
ボルト／ビス
 10
81.852455
 20
-54.809657
  0
VERTEX
  8
ボルト／ビス
 10
81.810427
 20
-54.79563
  0
VERTEX
  8
ボルト／ビス
 10
81.775455
 20
-54.780858
  0
VERTEX
  8
ボルト／ビス
 10
81.747897
 20
-54.765457
  0
VERTEX
  8
ボルト／ビス
 10
81.728025
 20
-54.749578
  0
VERTEX
  8
ボルト／ビス
 10
81.716015
 20
-54.733403
  0
VERTEX
  8
ボルト／ビス
 10
81.712027
 20
-54.717077
  0
SEQEND
  0
LINE
  8
ボルト／ビス
  6
CONTINUOUS
 62
    64
 10
83.378667
 20
-54.717077
 11
83.545337
 21
-54.274338
  0
LINE
  8
ボルト／ビス
  6
CONTINUOUS
 62
    64
 10
81.716015
 20
-54.733403
 11
81.545355
 21
-54.274338
  0
LINE
  8
ボルト／ビス
  6
CONTINUOUS
 62
    64
 10
81.545355
 20
-54.050403
 11
81.545355
 21
-54.274338
  0
LINE
  8
ボルト／ビス
  6
CONTINUOUS
 62
    64
 10
83.545337
 20
-54.050403
 11
83.545337
 21
-54.274338
  0
ARC
  8
ボルト／ビス
  6
CONTINUOUS
 62
    64
 10
82.545345
 20
-54.607084
 40
0.033333
 50
9.840875
 51
170.159125
  0
LINE
  8
ボルト／ビス
  6
CONTINUOUS
 62
    64
 10
82.613537
 20
-54.805177
 11
82.938165
 21
-54.864058
  0
LINE
  8
ボルト／ビス
  6
CONTINUOUS
 62
    64
 10
82.477155
 20
-54.805177
 11
82.152525
 21
-54.864058
  0
LINE
  8
ボルト／ビス
  6
CONTINUOUS
 62
    64
 10
82.578197
 20
-54.601378
 11
82.613537
 21
-54.805177
  0
LINE
  8
ボルト／ビス
  6
CONTINUOUS
 62
    64
 10
82.512495
 20
-54.601378
 11
82.477155
 21
-54.805177
  0
LINE
  8
ボルト／ビス
  6
CONTINUOUS
 62
    64
 10
83.545337
 20
-54.050403
 11
81.545355
 21
-54.050403
  0
LINE
  8
ボルト／ビス
  6
CONTINUOUS
 62
    64
 10
83.212015
 20
-51.217098
 11
83.045337
 21
-51.050422
  0
LINE
  8
ボルト／ビス
  6
CONTINUOUS
 62
    64
 10
82.045355
 20
-51.050422
 11
81.878675
 21
-51.217098
  0
LINE
  8
ボルト／ビス
  6
CONTINUOUS
 62
    64
 10
82.045355
 20
-54.050403
 11
82.045355
 21
-51.050422
  0
LINE
  8
ボルト／ビス
  6
CONTINUOUS
 62
    64
 10
82.045355
 20
-51.050422
 11
83.045337
 21
-51.050422
  0
LINE
  8
ボルト／ビス
  6
CONTINUOUS
 62
    64
 10
83.045337
 20
-54.050403
 11
83.045337
 21
-51.050422
  0
LINE
  8
ボルト／ビス
  6
CONTINUOUS
 62
    64
 10
83.212015
 20
-54.050403
 11
83.212015
 21
-51.217098
  0
LINE
  8
ボルト／ビス
  6
CONTINUOUS
 62
    64
 10
83.212015
 20
-51.217098
 11
81.878675
 21
-51.217098
  0
LINE
  8
ボルト／ビス
  6
CONTINUOUS
 62
    64
 10
81.878675
 20
-54.050403
 11
81.878675
 21
-51.217098
  0
LINE
  8
ボルト／ビス
  6
CONTINUOUS
 62
    64
 10
82.545355
 20
-56.353323
 11
82.545355
 21
-50.46475
  0
ENDBLK
  0
BLOCK
  2
*GRP_0025
 70
    65
 10
0.0
 20
0.0
  0
LINE
  8
ボルト／ビス
  6
CONTINUOUS
 62
    64
 10
75.262335
 20
-66.735293
 11
75.110568
 21
-67.152268
  0
ARC
  8
ボルト／ビス
  6
CONTINUOUS
 62
    64
 10
73.897611
 20
-66.526804
 40
1.364723
 50
0.0
 51
27.277966
  0
LINE
  8
ボルト／ビス
  6
CONTINUOUS
 62
    64
 10
75.262335
 20
-62.56554
 11
75.110568
 21
-62.148565
  0
ARC
  8
ボルト／ビス
  6
CONTINUOUS
 62
    64
 10
73.897611
 20
-62.774026
 40
1.364723
 50
332.722034
 51
360.0
  0
ARC
  8
ボルト／ビス
  6
CONTINUOUS
 62
    64
 10
70.03109
 20
-64.650415
 40
5.231244
 50
346.165046
 51
373.834954
  0
LINE
  8
ボルト／ビス
  6
CONTINUOUS
 62
    64
 10
73.545667
 20
-67.152268
 11
75.110568
 21
-67.152268
  0
LINE
  8
ボルト／ビス
  6
CONTINUOUS
 62
    64
 10
73.545667
 20
-62.148565
 11
75.110568
 21
-62.148565
  0
LINE
  8
ボルト／ビス
  6
CONTINUOUS
 62
    64
 10
75.262335
 20
-62.56554
 11
75.262335
 21
-66.735293
  0
LINE
  8
ボルト／ビス
  6
CONTINUOUS
 62
    64
 10
75.110568
 20
-63.39949
 11
73.545667
 21
-63.39949
  0
LINE
  8
ボルト／ビス
  6
CONTINUOUS
 62
    64
 10
75.110568
 20
-65.901343
 11
73.545667
 21
-65.901343
  0
LINE
  8
ボルト／ビス
  6
CONTINUOUS
 62
    64
 10
73.545667
 20
-62.148565
 11
73.545667
 21
-67.152268
  0
LINE
  8
ボルト／ビス
  6
CONTINUOUS
 62
    64
 10
72.945667
 20
-67.567083
 11
72.612335
 21
-67.567083
  0
LINE
  8
ボルト／ビス
  6
CONTINUOUS
 62
    64
 10
72.945667
 20
-61.73375
 11
72.612335
 21
-61.73375
  0
LINE
  8
ボルト／ビス
  6
CONTINUOUS
 62
    64
 10
72.945667
 20
-67.567083
 11
72.945667
 21
-61.73375
  0
LINE
  8
ボルト／ビス
  6
CONTINUOUS
 62
    64
 10
72.612335
 20
-67.567083
 11
72.612335
 21
-61.73375
  0
LINE
  8
ボルト／ビス
  6
CONTINUOUS
 62
    64
 10
73.545667
 20
-64.650415
 11
72.945667
 21
-64.650415
  0
LINE
  8
ボルト／ビス
  6
CONTINUOUS
 62
    64
 10
73.545667
 20
-62.017083
 11
72.945667
 21
-62.017083
  0
LINE
  8
ボルト／ビス
  6
CONTINUOUS
 62
    64
 10
73.545667
 20
-67.28375
 11
72.945667
 21
-67.28375
  0
LINE
  8
ボルト／ビス
  6
CONTINUOUS
 62
    64
 10
73.545667
 20
-62.017083
 11
73.545667
 21
-67.28375
  0
LINE
  8
ボルト／ビス
  6
CONTINUOUS
 62
    64
 10
76.929
 20
-64.650415
 11
63.545667
 21
-64.650415
  0
LINE
  8
ボルト／ビス
  6
CONTINUOUS
 62
    64
 10
65.212335
 20
-63.58375
 11
65.212335
 21
-65.717083
  0
LINE
  8
ボルト／ビス
  6
CONTINUOUS
 62
    64
 10
65.612335
 20
-63.317083
 11
65.212335
 21
-63.58375
  0
LINE
  8
ボルト／ビス
  6
CONTINUOUS
 62
    64
 10
65.612335
 20
-65.98375
 11
65.212335
 21
-65.717083
  0
LINE
  8
ボルト／ビス
  6
CONTINUOUS
 62
    64
 10
65.212335
 20
-63.58375
 11
65.212335
 21
-65.717083
  0
LINE
  8
ボルト／ビス
  6
CONTINUOUS
 62
    64
 10
65.612335
 20
-63.317083
 11
65.612335
 21
-65.98375
  0
LINE
  8
ボルト／ビス
  6
CONTINUOUS
 62
    64
 10
72.612335
 20
-63.317083
 11
65.612335
 21
-63.317083
  0
LINE
  8
ボルト／ビス
  6
CONTINUOUS
 62
    64
 10
72.612335
 20
-65.98375
 11
65.612335
 21
-65.98375
  0
LINE
  8
ボルト／ビス
  6
CONTINUOUS
 62
    64
 10
72.612335
 20
-63.58375
 11
65.212335
 21
-63.58375
  0
LINE
  8
ボルト／ビス
  6
CONTINUOUS
 62
    64
 10
72.612335
 20
-65.717083
 11
65.212335
 21
-65.717083
  0
ENDBLK
  0
BLOCK
  2
*GRP_0026
 70
    65
 10
0.0
 20
0.0
  0
LINE
  8
ボルト／ビス
  6
CONTINUOUS
 62
    64
 10
67.829
 20
-66.73529
 11
67.980765
 21
-67.152265
  0
ARC
  8
ボルト／ビス
  6
CONTINUOUS
 62
    64
 10
69.193722
 20
-66.526803
 40
1.364723
 50
152.722034
 51
180.0
  0
LINE
  8
ボルト／ビス
  6
CONTINUOUS
 62
    64
 10
67.829
 20
-62.565538
 11
67.980765
 21
-62.148563
  0
ARC
  8
ボルト／ビス
  6
CONTINUOUS
 62
    64
 10
69.193722
 20
-62.774025
 40
1.364723
 50
180.0
 51
207.277966
  0
ARC
  8
ボルト／ビス
  6
CONTINUOUS
 62
    64
 10
73.060242
 20
-64.650414
 40
5.231244
 50
166.165046
 51
193.834954
  0
LINE
  8
ボルト／ビス
  6
CONTINUOUS
 62
    64
 10
69.545667
 20
-67.152265
 11
67.980765
 21
-67.152265
  0
LINE
  8
ボルト／ビス
  6
CONTINUOUS
 62
    64
 10
69.545667
 20
-62.148563
 11
67.980765
 21
-62.148563
  0
LINE
  8
ボルト／ビス
  6
CONTINUOUS
 62
    64
 10
67.829
 20
-62.565538
 11
67.829
 21
-66.73529
  0
LINE
  8
ボルト／ビス
  6
CONTINUOUS
 62
    64
 10
67.980765
 20
-63.399488
 11
69.545667
 21
-63.399488
  0
LINE
  8
ボルト／ビス
  6
CONTINUOUS
 62
    64
 10
67.980765
 20
-65.90134
 11
69.545667
 21
-65.90134
  0
LINE
  8
ボルト／ビス
  6
CONTINUOUS
 62
    64
 10
69.545667
 20
-62.148563
 11
69.545667
 21
-67.152265
  0
LINE
  8
ボルト／ビス
  6
CONTINUOUS
 62
    64
 10
70.145667
 20
-67.56708
 11
70.479
 21
-67.56708
  0
LINE
  8
ボルト／ビス
  6
CONTINUOUS
 62
    64
 10
70.145667
 20
-61.733748
 11
70.479
 21
-61.733748
  0
LINE
  8
ボルト／ビス
  6
CONTINUOUS
 62
    64
 10
70.145667
 20
-67.56708
 11
70.145667
 21
-61.733748
  0
LINE
  8
ボルト／ビス
  6
CONTINUOUS
 62
    64
 10
70.479
 20
-67.56708
 11
70.479
 21
-61.733748
  0
LINE
  8
ボルト／ビス
  6
CONTINUOUS
 62
    64
 10
69.545667
 20
-64.650413
 11
70.145667
 21
-64.650413
  0
LINE
  8
ボルト／ビス
  6
CONTINUOUS
 62
    64
 10
69.545667
 20
-62.01708
 11
70.145667
 21
-62.01708
  0
LINE
  8
ボルト／ビス
  6
CONTINUOUS
 62
    64
 10
69.545667
 20
-67.283748
 11
70.145667
 21
-67.283748
  0
LINE
  8
ボルト／ビス
  6
CONTINUOUS
 62
    64
 10
69.545667
 20
-62.01708
 11
69.545667
 21
-67.283748
  0
ENDBLK
  0
BLOCK
  2
*GRP_0027
 70
    65
 10
0.0
 20
0.0
  0
POLYLINE
  8
ボルト／ビス
  6
CONTINUOUS
 62
    64
 66
     1
  0
VERTEX
  8
ボルト／ビス
 10
-64.45773
 20
-54.717077
  0
VERTEX
  8
ボルト／ビス
 10
-64.45373
 20
-54.733403
  0
VERTEX
  8
ボルト／ビス
 10
-64.44173
 20
-54.749578
  0
VERTEX
  8
ボルト／ビス
 10
-64.421853
 20
-54.765457
  0
VERTEX
  8
ボルト／ビス
 10
-64.3943
 20
-54.780858
  0
VERTEX
  8
ボルト／ビス
 10
-64.35933
 20
-54.79563
  0
VERTEX
  8
ボルト／ビス
 10
-64.317303
 20
-54.809657
  0
VERTEX
  8
ボルト／ビス
 10
-64.268573
 20
-54.822803
  0
VERTEX
  8
ボルト／ビス
 10
-64.213652
 20
-54.83493
  0
VERTEX
  8
ボルト／ビス
 10
-64.153053
 20
-54.845903
  0
VERTEX
  8
ボルト／ビス
 10
-64.087373
 20
-54.855657
  0
VERTEX
  8
ボルト／ビス
 10
-64.01723
 20
-54.864058
  0
VERTEX
  8
ボルト／ビス
 10
-63.943312
 20
-54.871058
  0
VERTEX
  8
ボルト／ビス
 10
-63.866302
 20
-54.876558
  0
VERTEX
  8
ボルト／ビス
 10
-63.78699
 20
-54.88053
  0
VERTEX
  8
ボルト／ビス
 10
-63.706073
 20
-54.88293
  0
VERTEX
  8
ボルト／ビス
 10
-63.624413
 20
-54.88373
  0
VERTEX
  8
ボルト／ビス
 10
-63.542732
 20
-54.88293
  0
VERTEX
  8
ボルト／ビス
 10
-63.461833
 20
-54.88053
  0
VERTEX
  8
ボルト／ビス
 10
-63.382513
 20
-54.876558
  0
VERTEX
  8
ボルト／ビス
 10
-63.305512
 20
-54.871058
  0
VERTEX
  8
ボルト／ビス
 10
-63.23159
 20
-54.864058
  0
VERTEX
  8
ボルト／ビス
 10
-63.161432
 20
-54.855657
  0
VERTEX
  8
ボルト／ビス
 10
-63.09576
 20
-54.845903
  0
VERTEX
  8
ボルト／ビス
 10
-63.03516
 20
-54.83493
  0
VERTEX
  8
ボルト／ビス
 10
-62.980232
 20
-54.822803
  0
VERTEX
  8
ボルト／ビス
 10
-62.931513
 20
-54.809657
  0
VERTEX
  8
ボルト／ビス
 10
-62.88949
 20
-54.79563
  0
VERTEX
  8
ボルト／ビス
 10
-62.854512
 20
-54.780858
  0
VERTEX
  8
ボルト／ビス
 10
-62.826962
 20
-54.765457
  0
VERTEX
  8
ボルト／ビス
 10
-62.80709
 20
-54.749578
  0
VERTEX
  8
ボルト／ビス
 10
-62.795072
 20
-54.733403
  0
VERTEX
  8
ボルト／ビス
 10
-62.79109
 20
-54.717077
  0
SEQEND
  0
LINE
  8
ボルト／ビス
  6
CONTINUOUS
 62
    64
 10
-64.45773
 20
-54.717077
 11
-64.624403
 21
-54.274338
  0
LINE
  8
ボルト／ビス
  6
CONTINUOUS
 62
    64
 10
-62.795072
 20
-54.733403
 11
-62.624413
 21
-54.274338
  0
LINE
  8
ボルト／ビス
  6
CONTINUOUS
 62
    64
 10
-62.624413
 20
-54.050403
 11
-62.624413
 21
-54.274338
  0
LINE
  8
ボルト／ビス
  6
CONTINUOUS
 62
    64
 10
-64.624403
 20
-54.050403
 11
-64.624403
 21
-54.274338
  0
ARC
  8
ボルト／ビス
  6
CONTINUOUS
 62
    64
 10
-63.624407
 20
-54.607084
 40
0.033333
 50
9.840875
 51
170.159125
  0
LINE
  8
ボルト／ビス
  6
CONTINUOUS
 62
    64
 10
-63.6926
 20
-54.805177
 11
-64.01723
 21
-54.864058
  0
LINE
  8
ボルト／ビス
  6
CONTINUOUS
 62
    64
 10
-63.556213
 20
-54.805177
 11
-63.23159
 21
-54.864058
  0
LINE
  8
ボルト／ビス
  6
CONTINUOUS
 62
    64
 10
-63.65726
 20
-54.601378
 11
-63.6926
 21
-54.805177
  0
LINE
  8
ボルト／ビス
  6
CONTINUOUS
 62
    64
 10
-63.591553
 20
-54.601378
 11
-63.556213
 21
-54.805177
  0
LINE
  8
ボルト／ビス
  6
CONTINUOUS
 62
    64
 10
-64.624403
 20
-54.050403
 11
-62.624413
 21
-54.050403
  0
LINE
  8
ボルト／ビス
  6
CONTINUOUS
 62
    64
 10
-64.291072
 20
-51.217098
 11
-64.124403
 21
-51.050422
  0
LINE
  8
ボルト／ビス
  6
CONTINUOUS
 62
    64
 10
-63.124413
 20
-51.050422
 11
-62.957733
 21
-51.217098
  0
LINE
  8
ボルト／ビス
  6
CONTINUOUS
 62
    64
 10
-63.124413
 20
-54.050403
 11
-63.124413
 21
-51.050422
  0
LINE
  8
ボルト／ビス
  6
CONTINUOUS
 62
    64
 10
-63.124413
 20
-51.050422
 11
-64.124403
 21
-51.050422
  0
LINE
  8
ボルト／ビス
  6
CONTINUOUS
 62
    64
 10
-64.124403
 20
-54.050403
 11
-64.124403
 21
-51.050422
  0
LINE
  8
ボルト／ビス
  6
CONTINUOUS
 62
    64
 10
-64.291072
 20
-54.050403
 11
-64.291072
 21
-51.217098
  0
LINE
  8
ボルト／ビス
  6
CONTINUOUS
 62
    64
 10
-64.291072
 20
-51.217098
 11
-62.957733
 21
-51.217098
  0
LINE
  8
ボルト／ビス
  6
CONTINUOUS
 62
    64
 10
-62.957733
 20
-54.050403
 11
-62.957733
 21
-51.217098
  0
LINE
  8
ボルト／ビス
  6
CONTINUOUS
 62
    64
 10
-63.624413
 20
-56.353323
 11
-63.624413
 21
-50.46475
  0
ENDBLK
  0
BLOCK
  2
*GRP_0028
 70
    65
 10
0.0
 20
0.0
  0
POLYLINE
  8
ボルト／ビス
  6
CONTINUOUS
 62
    64
 66
     1
  0
VERTEX
  8
ボルト／ビス
 10
-91.458463
 20
-54.717077
  0
VERTEX
  8
ボルト／ビス
 10
-91.45446
 20
-54.733403
  0
VERTEX
  8
ボルト／ビス
 10
-91.44246
 20
-54.749578
  0
VERTEX
  8
ボルト／ビス
 10
-91.42259
 20
-54.765457
  0
VERTEX
  8
ボルト／ビス
 10
-91.395032
 20
-54.780858
  0
VERTEX
  8
ボルト／ビス
 10
-91.360062
 20
-54.79563
  0
VERTEX
  8
ボルト／ビス
 10
-91.318033
 20
-54.809657
  0
VERTEX
  8
ボルト／ビス
 10
-91.26931
 20
-54.822803
  0
VERTEX
  8
ボルト／ビス
 10
-91.21439
 20
-54.83493
  0
VERTEX
  8
ボルト／ビス
 10
-91.15379
 20
-54.845903
  0
VERTEX
  8
ボルト／ビス
 10
-91.08811
 20
-54.855657
  0
VERTEX
  8
ボルト／ビス
 10
-91.01796
 20
-54.864058
  0
VERTEX
  8
ボルト／ビス
 10
-90.94405
 20
-54.871058
  0
VERTEX
  8
ボルト／ビス
 10
-90.867033
 20
-54.876558
  0
VERTEX
  8
ボルト／ビス
 10
-90.78772
 20
-54.88053
  0
VERTEX
  8
ボルト／ビス
 10
-90.70681
 20
-54.88293
  0
VERTEX
  8
ボルト／ビス
 10
-90.62515
 20
-54.88373
  0
VERTEX
  8
ボルト／ビス
 10
-90.54347
 20
-54.88293
  0
VERTEX
  8
ボルト／ビス
 10
-90.46257
 20
-54.88053
  0
VERTEX
  8
ボルト／ビス
 10
-90.38325
 20
-54.876558
  0
VERTEX
  8
ボルト／ビス
 10
-90.30625
 20
-54.871058
  0
VERTEX
  8
ボルト／ビス
 10
-90.23232
 20
-54.864058
  0
VERTEX
  8
ボルト／ビス
 10
-90.16217
 20
-54.855657
  0
VERTEX
  8
ボルト／ビス
 10
-90.096493
 20
-54.845903
  0
VERTEX
  8
ボルト／ビス
 10
-90.035893
 20
-54.83493
  0
VERTEX
  8
ボルト／ビス
 10
-89.98097
 20
-54.822803
  0
VERTEX
  8
ボルト／ビス
 10
-89.93225
 20
-54.809657
  0
VERTEX
  8
ボルト／ビス
 10
-89.890222
 20
-54.79563
  0
VERTEX
  8
ボルト／ビス
 10
-89.85525
 20
-54.780858
  0
VERTEX
  8
ボルト／ビス
 10
-89.827693
 20
-54.765457
  0
VERTEX
  8
ボルト／ビス
 10
-89.80782
 20
-54.749578
  0
VERTEX
  8
ボルト／ビス
 10
-89.79581
 20
-54.733403
  0
VERTEX
  8
ボルト／ビス
 10
-89.791823
 20
-54.717077
  0
SEQEND
  0
LINE
  8
ボルト／ビス
  6
CONTINUOUS
 62
    64
 10
-91.458463
 20
-54.717077
 11
-91.625133
 21
-54.274338
  0
LINE
  8
ボルト／ビス
  6
CONTINUOUS
 62
    64
 10
-89.79581
 20
-54.733403
 11
-89.62515
 21
-54.274338
  0
LINE
  8
ボルト／ビス
  6
CONTINUOUS
 62
    64
 10
-89.62515
 20
-54.050403
 11
-89.62515
 21
-54.274338
  0
LINE
  8
ボルト／ビス
  6
CONTINUOUS
 62
    64
 10
-91.625133
 20
-54.050403
 11
-91.625133
 21
-54.274338
  0
ARC
  8
ボルト／ビス
  6
CONTINUOUS
 62
    64
 10
-90.625143
 20
-54.607084
 40
0.033333
 50
9.840875
 51
170.159125
  0
LINE
  8
ボルト／ビス
  6
CONTINUOUS
 62
    64
 10
-90.693332
 20
-54.805177
 11
-91.01796
 21
-54.864058
  0
LINE
  8
ボルト／ビス
  6
CONTINUOUS
 62
    64
 10
-90.55695
 20
-54.805177
 11
-90.23232
 21
-54.864058
  0
LINE
  8
ボルト／ビス
  6
CONTINUOUS
 62
    64
 10
-90.657993
 20
-54.601378
 11
-90.693332
 21
-54.805177
  0
LINE
  8
ボルト／ビス
  6
CONTINUOUS
 62
    64
 10
-90.59229
 20
-54.601378
 11
-90.55695
 21
-54.805177
  0
LINE
  8
ボルト／ビス
  6
CONTINUOUS
 62
    64
 10
-91.625133
 20
-54.050403
 11
-89.62515
 21
-54.050403
  0
LINE
  8
ボルト／ビス
  6
CONTINUOUS
 62
    64
 10
-91.29181
 20
-51.217098
 11
-91.125133
 21
-51.050422
  0
LINE
  8
ボルト／ビス
  6
CONTINUOUS
 62
    64
 10
-90.12515
 20
-51.050422
 11
-89.95847
 21
-51.217098
  0
LINE
  8
ボルト／ビス
  6
CONTINUOUS
 62
    64
 10
-90.12515
 20
-54.050403
 11
-90.12515
 21
-51.050422
  0
LINE
  8
ボルト／ビス
  6
CONTINUOUS
 62
    64
 10
-90.12515
 20
-51.050422
 11
-91.125133
 21
-51.050422
  0
LINE
  8
ボルト／ビス
  6
CONTINUOUS
 62
    64
 10
-91.125133
 20
-54.050403
 11
-91.125133
 21
-51.050422
  0
LINE
  8
ボルト／ビス
  6
CONTINUOUS
 62
    64
 10
-91.29181
 20
-54.050403
 11
-91.29181
 21
-51.217098
  0
LINE
  8
ボルト／ビス
  6
CONTINUOUS
 62
    64
 10
-91.29181
 20
-51.217098
 11
-89.95847
 21
-51.217098
  0
LINE
  8
ボルト／ビス
  6
CONTINUOUS
 62
    64
 10
-89.95847
 20
-54.050403
 11
-89.95847
 21
-51.217098
  0
LINE
  8
ボルト／ビス
  6
CONTINUOUS
 62
    64
 10
-90.62515
 20
-56.353323
 11
-90.62515
 21
-50.46475
  0
ENDBLK
  0
BLOCK
  2
*GRP_0029
 70
    65
 10
0.0
 20
0.0
  0
LINE
  8
ボルト／ビス
  6
CONTINUOUS
 62
    64
 10
-83.34213
 20
-66.735293
 11
-83.190362
 21
-67.152268
  0
ARC
  8
ボルト／ビス
  6
CONTINUOUS
 62
    64
 10
-81.977409
 20
-66.526804
 40
1.364723
 50
152.722034
 51
180.0
  0
LINE
  8
ボルト／ビス
  6
CONTINUOUS
 62
    64
 10
-83.34213
 20
-62.56554
 11
-83.190362
 21
-62.148565
  0
ARC
  8
ボルト／ビス
  6
CONTINUOUS
 62
    64
 10
-81.977409
 20
-62.774026
 40
1.364723
 50
180.0
 51
207.277966
  0
ARC
  8
ボルト／ビス
  6
CONTINUOUS
 62
    64
 10
-78.110888
 20
-64.650415
 40
5.231244
 50
166.165046
 51
193.834954
  0
LINE
  8
ボルト／ビス
  6
CONTINUOUS
 62
    64
 10
-81.625462
 20
-67.152268
 11
-83.190362
 21
-67.152268
  0
LINE
  8
ボルト／ビス
  6
CONTINUOUS
 62
    64
 10
-81.625462
 20
-62.148565
 11
-83.190362
 21
-62.148565
  0
LINE
  8
ボルト／ビス
  6
CONTINUOUS
 62
    64
 10
-83.34213
 20
-62.56554
 11
-83.34213
 21
-66.735293
  0
LINE
  8
ボルト／ビス
  6
CONTINUOUS
 62
    64
 10
-83.190362
 20
-63.39949
 11
-81.625462
 21
-63.39949
  0
LINE
  8
ボルト／ビス
  6
CONTINUOUS
 62
    64
 10
-83.190362
 20
-65.901343
 11
-81.625462
 21
-65.901343
  0
LINE
  8
ボルト／ビス
  6
CONTINUOUS
 62
    64
 10
-81.625462
 20
-62.148565
 11
-81.625462
 21
-67.152268
  0
LINE
  8
ボルト／ビス
  6
CONTINUOUS
 62
    64
 10
-81.025462
 20
-67.567083
 11
-80.69213
 21
-67.567083
  0
LINE
  8
ボルト／ビス
  6
CONTINUOUS
 62
    64
 10
-81.025462
 20
-61.73375
 11
-80.69213
 21
-61.73375
  0
LINE
  8
ボルト／ビス
  6
CONTINUOUS
 62
    64
 10
-81.025462
 20
-67.567083
 11
-81.025462
 21
-61.73375
  0
LINE
  8
ボルト／ビス
  6
CONTINUOUS
 62
    64
 10
-80.69213
 20
-67.567083
 11
-80.69213
 21
-61.73375
  0
LINE
  8
ボルト／ビス
  6
CONTINUOUS
 62
    64
 10
-81.625462
 20
-64.650415
 11
-81.025462
 21
-64.650415
  0
LINE
  8
ボルト／ビス
  6
CONTINUOUS
 62
    64
 10
-81.625462
 20
-62.017083
 11
-81.025462
 21
-62.017083
  0
LINE
  8
ボルト／ビス
  6
CONTINUOUS
 62
    64
 10
-81.625462
 20
-67.28375
 11
-81.025462
 21
-67.28375
  0
LINE
  8
ボルト／ビス
  6
CONTINUOUS
 62
    64
 10
-81.625462
 20
-62.017083
 11
-81.625462
 21
-67.28375
  0
LINE
  8
ボルト／ビス
  6
CONTINUOUS
 62
    64
 10
-85.008795
 20
-64.650415
 11
-71.625462
 21
-64.650415
  0
LINE
  8
ボルト／ビス
  6
CONTINUOUS
 62
    64
 10
-73.29213
 20
-63.58375
 11
-73.29213
 21
-65.717083
  0
LINE
  8
ボルト／ビス
  6
CONTINUOUS
 62
    64
 10
-73.69213
 20
-63.317083
 11
-73.29213
 21
-63.58375
  0
LINE
  8
ボルト／ビス
  6
CONTINUOUS
 62
    64
 10
-73.69213
 20
-65.98375
 11
-73.29213
 21
-65.717083
  0
LINE
  8
ボルト／ビス
  6
CONTINUOUS
 62
    64
 10
-73.29213
 20
-63.58375
 11
-73.29213
 21
-65.717083
  0
LINE
  8
ボルト／ビス
  6
CONTINUOUS
 62
    64
 10
-73.69213
 20
-63.317083
 11
-73.69213
 21
-65.98375
  0
LINE
  8
ボルト／ビス
  6
CONTINUOUS
 62
    64
 10
-80.69213
 20
-63.317083
 11
-73.69213
 21
-63.317083
  0
LINE
  8
ボルト／ビス
  6
CONTINUOUS
 62
    64
 10
-80.69213
 20
-65.98375
 11
-73.69213
 21
-65.98375
  0
LINE
  8
ボルト／ビス
  6
CONTINUOUS
 62
    64
 10
-80.69213
 20
-63.58375
 11
-73.29213
 21
-63.58375
  0
LINE
  8
ボルト／ビス
  6
CONTINUOUS
 62
    64
 10
-80.69213
 20
-65.717083
 11
-73.29213
 21
-65.717083
  0
ENDBLK
  0
BLOCK
  2
*GRP_0030
 70
    65
 10
0.0
 20
0.0
  0
LINE
  8
ボルト／ビス
  6
CONTINUOUS
 62
    64
 10
-75.908795
 20
-66.73529
 11
-76.06056
 21
-67.152265
  0
ARC
  8
ボルト／ビス
  6
CONTINUOUS
 62
    64
 10
-77.273519
 20
-66.526803
 40
1.364723
 50
0.0
 51
27.277966
  0
LINE
  8
ボルト／ビス
  6
CONTINUOUS
 62
    64
 10
-75.908795
 20
-62.565538
 11
-76.06056
 21
-62.148563
  0
ARC
  8
ボルト／ビス
  6
CONTINUOUS
 62
    64
 10
-77.273519
 20
-62.774025
 40
1.364723
 50
332.722034
 51
360.0
  0
ARC
  8
ボルト／ビス
  6
CONTINUOUS
 62
    64
 10
-81.14004
 20
-64.650414
 40
5.231244
 50
346.165046
 51
373.834954
  0
LINE
  8
ボルト／ビス
  6
CONTINUOUS
 62
    64
 10
-77.625462
 20
-67.152265
 11
-76.06056
 21
-67.152265
  0
LINE
  8
ボルト／ビス
  6
CONTINUOUS
 62
    64
 10
-77.625462
 20
-62.148563
 11
-76.06056
 21
-62.148563
  0
LINE
  8
ボルト／ビス
  6
CONTINUOUS
 62
    64
 10
-75.908795
 20
-62.565538
 11
-75.908795
 21
-66.73529
  0
LINE
  8
ボルト／ビス
  6
CONTINUOUS
 62
    64
 10
-76.06056
 20
-63.399488
 11
-77.625462
 21
-63.399488
  0
LINE
  8
ボルト／ビス
  6
CONTINUOUS
 62
    64
 10
-76.06056
 20
-65.90134
 11
-77.625462
 21
-65.90134
  0
LINE
  8
ボルト／ビス
  6
CONTINUOUS
 62
    64
 10
-77.625462
 20
-62.148563
 11
-77.625462
 21
-67.152265
  0
LINE
  8
ボルト／ビス
  6
CONTINUOUS
 62
    64
 10
-78.225462
 20
-67.56708
 11
-78.558795
 21
-67.56708
  0
LINE
  8
ボルト／ビス
  6
CONTINUOUS
 62
    64
 10
-78.225462
 20
-61.733748
 11
-78.558795
 21
-61.733748
  0
LINE
  8
ボルト／ビス
  6
CONTINUOUS
 62
    64
 10
-78.225462
 20
-67.56708
 11
-78.225462
 21
-61.733748
  0
LINE
  8
ボルト／ビス
  6
CONTINUOUS
 62
    64
 10
-78.558795
 20
-67.56708
 11
-78.558795
 21
-61.733748
  0
LINE
  8
ボルト／ビス
  6
CONTINUOUS
 62
    64
 10
-77.625462
 20
-64.650413
 11
-78.225462
 21
-64.650413
  0
LINE
  8
ボルト／ビス
  6
CONTINUOUS
 62
    64
 10
-77.625462
 20
-62.01708
 11
-78.225462
 21
-62.01708
  0
LINE
  8
ボルト／ビス
  6
CONTINUOUS
 62
    64
 10
-77.625462
 20
-67.283748
 11
-78.225462
 21
-67.283748
  0
LINE
  8
ボルト／ビス
  6
CONTINUOUS
 62
    64
 10
-77.625462
 20
-62.01708
 11
-77.625462
 21
-67.283748
  0
ENDBLK
  0
BLOCK
  2
*GRP_0031
 70
    65
 10
0.0
 20
0.0
  0
LINE
  8
ボルト／ビス
  6
CONTINUOUS
 62
    64
 10
-80.524603
 20
-30.817062
 11
-80.873985
 21
-30.847627
  0
ARC
  8
ボルト／ビス
  6
CONTINUOUS
 62
    64
 10
-80.824608
 20
-31.412152
 40
0.566667
 50
94.999989
 51
180.0
  0
LINE
  8
ボルト／ビス
  6
CONTINUOUS
 62
    64
 10
-81.391267
 20
-31.412145
 11
-81.391267
 21
-31.983727
  0
LINE
  8
ボルト／ビス
  6
CONTINUOUS
 62
    64
 10
-80.524603
 20
-33.150395
 11
-80.873985
 21
-33.119827
  0
ARC
  8
ボルト／ビス
  6
CONTINUOUS
 62
    64
 10
-80.824608
 20
-32.555329
 40
0.566667
 50
180.0
 51
265.000011
  0
LINE
  8
ボルト／ビス
  6
CONTINUOUS
 62
    64
 10
-81.391267
 20
-32.555313
 11
-81.391267
 21
-31.983727
  0
LINE
  8
ボルト／ビス
  6
CONTINUOUS
 62
    64
 10
-81.262968
 20
-31.184845
 11
-81.343685
 21
-31.184845
  0
LINE
  8
ボルト／ビス
  6
CONTINUOUS
 62
    64
 10
-81.046267
 20
-31.750395
 11
-81.046267
 21
-31.983727
  0
LINE
  8
ボルト／ビス
  6
CONTINUOUS
 62
    64
 10
-81.262968
 20
-31.617062
 11
-81.262968
 21
-31.184845
  0
LINE
  8
ボルト／ビス
  6
CONTINUOUS
 62
    64
 10
-81.046267
 20
-31.750395
 11
-81.129635
 21
-31.750395
  0
ARC
  8
ボルト／ビス
  6
CONTINUOUS
 62
    64
 10
-81.129639
 20
-31.617074
 40
0.133333
 50
180.0
 51
270.0
  0
LINE
  8
ボルト／ビス
  6
CONTINUOUS
 62
    64
 10
-81.262968
 20
-32.782612
 11
-81.343685
 21
-32.782612
  0
LINE
  8
ボルト／ビス
  6
CONTINUOUS
 62
    64
 10
-81.046267
 20
-32.217062
 11
-81.046267
 21
-31.983727
  0
LINE
  8
ボルト／ビス
  6
CONTINUOUS
 62
    64
 10
-81.262968
 20
-32.350395
 11
-81.262968
 21
-32.782612
  0
LINE
  8
ボルト／ビス
  6
CONTINUOUS
 62
    64
 10
-81.046267
 20
-32.217062
 11
-81.129635
 21
-32.217062
  0
ARC
  8
ボルト／ビス
  6
CONTINUOUS
 62
    64
 10
-81.129639
 20
-32.350407
 40
0.133333
 50
90.0
 51
180.0
  0
LINE
  8
ボルト／ビス
  6
CONTINUOUS
 62
    64
 10
-80.524603
 20
-30.817062
 11
-80.524603
 21
-33.150395
  0
LINE
  8
ボルト／ビス
  6
CONTINUOUS
 62
    64
 10
-76.691267
 20
-31.317062
 11
-76.524603
 21
-31.483727
  0
LINE
  8
ボルト／ビス
  6
CONTINUOUS
 62
    64
 10
-76.691267
 20
-32.650395
 11
-76.524603
 21
-32.483727
  0
LINE
  8
ボルト／ビス
  6
CONTINUOUS
 62
    64
 10
-76.691267
 20
-31.317062
 11
-76.691267
 21
-32.650395
  0
LINE
  8
ボルト／ビス
  6
CONTINUOUS
 62
    64
 10
-76.524603
 20
-31.483727
 11
-76.524603
 21
-32.483727
  0
LINE
  8
ボルト／ビス
  6
CONTINUOUS
 62
    64
 10
-80.524603
 20
-31.483727
 11
-76.524603
 21
-31.483727
  0
LINE
  8
ボルト／ビス
  6
CONTINUOUS
 62
    64
 10
-80.524603
 20
-32.483727
 11
-76.524603
 21
-32.483727
  0
LINE
  8
ボルト／ビス
  6
CONTINUOUS
 62
    64
 10
-80.524603
 20
-32.650395
 11
-76.691267
 21
-32.650395
  0
LINE
  8
ボルト／ビス
  6
CONTINUOUS
 62
    64
 10
-80.524603
 20
-31.317062
 11
-76.691267
 21
-31.317062
  0
LINE
  8
ボルト／ビス
  6
DASHDOT
 62
    64
 10
-82.391267
 20
-31.983727
 11
-75.524603
 21
-31.983727
  0
ENDBLK
  0
BLOCK
  2
*GRP_0032
 70
    65
 10
0.0
 20
0.0
  0
LINE
  8
ボルト／ビス
  6
CONTINUOUS
 62
    64
 10
-76.024668
 20
-26.31707
 11
-75.291335
 21
-27.21707
  0
LINE
  8
ボルト／ビス
  6
CONTINUOUS
 62
    64
 10
-73.224668
 20
-26.31707
 11
-73.958003
 21
-27.21707
  0
LINE
  8
ボルト／ビス
  6
CONTINUOUS
 62
    64
 10
-73.224668
 20
-26.31707
 11
-76.024668
 21
-26.31707
  0
LINE
  8
ボルト／ビス
  6
CONTINUOUS
 62
    64
 10
-74.624668
 20
-31.062702
 11
-74.624668
 21
-24.911045
  0
LINE
  8
ボルト／ビス
  6
CONTINUOUS
 62
    64
 10
-73.958003
 20
-27.21707
 11
-75.291335
 21
-27.21707
  0
LINE
  8
ボルト／ビス
  6
CONTINUOUS
 62
    64
 10
-73.958003
 20
-30.150403
 11
-74.124668
 21
-30.31707
  0
LINE
  8
ボルト／ビス
  6
CONTINUOUS
 62
    64
 10
-75.291335
 20
-30.150403
 11
-75.124668
 21
-30.31707
  0
LINE
  8
ボルト／ビス
  6
CONTINUOUS
 62
    64
 10
-75.291335
 20
-30.150403
 11
-73.958003
 21
-30.150403
  0
LINE
  8
ボルト／ビス
  6
CONTINUOUS
 62
    64
 10
-74.124668
 20
-30.31707
 11
-75.124668
 21
-30.31707
  0
LINE
  8
ボルト／ビス
  6
CONTINUOUS
 62
    64
 10
-73.958003
 20
-27.21707
 11
-73.958003
 21
-30.150403
  0
LINE
  8
ボルト／ビス
  6
CONTINUOUS
 62
    64
 10
-75.291335
 20
-27.21707
 11
-75.291335
 21
-30.150403
  0
LINE
  8
ボルト／ビス
  6
CONTINUOUS
 62
    64
 10
-75.124668
 20
-27.21707
 11
-75.124668
 21
-30.31707
  0
LINE
  8
ボルト／ビス
  6
CONTINUOUS
 62
    64
 10
-74.124668
 20
-27.21707
 11
-74.124668
 21
-30.31707
  0
ENDBLK
  0
BLOCK
  2
*GRP_0033
 70
    65
 10
0.0
 20
0.0
  0
LINE
  8
ボルト／ビス
  6
CONTINUOUS
 62
    64
 10
72.444808
 20
-30.817062
 11
72.79419
 21
-30.847627
  0
ARC
  8
ボルト／ビス
  6
CONTINUOUS
 62
    64
 10
72.74481
 20
-31.412152
 40
0.566667
 50
0.0
 51
85.000011
  0
LINE
  8
ボルト／ビス
  6
CONTINUOUS
 62
    64
 10
73.311472
 20
-31.412145
 11
73.311472
 21
-31.983727
  0
LINE
  8
ボルト／ビス
  6
CONTINUOUS
 62
    64
 10
72.444808
 20
-33.150395
 11
72.79419
 21
-33.119827
  0
ARC
  8
ボルト／ビス
  6
CONTINUOUS
 62
    64
 10
72.74481
 20
-32.555329
 40
0.566667
 50
274.999989
 51
360.0
  0
LINE
  8
ボルト／ビス
  6
CONTINUOUS
 62
    64
 10
73.311472
 20
-32.555313
 11
73.311472
 21
-31.983727
  0
LINE
  8
ボルト／ビス
  6
CONTINUOUS
 62
    64
 10
73.183172
 20
-31.184845
 11
73.26389
 21
-31.184845
  0
LINE
  8
ボルト／ビス
  6
CONTINUOUS
 62
    64
 10
72.966473
 20
-31.750395
 11
72.966473
 21
-31.983727
  0
LINE
  8
ボルト／ビス
  6
CONTINUOUS
 62
    64
 10
73.183172
 20
-31.617062
 11
73.183172
 21
-31.184845
  0
LINE
  8
ボルト／ビス
  6
CONTINUOUS
 62
    64
 10
72.966473
 20
-31.750395
 11
73.04984
 21
-31.750395
  0
ARC
  8
ボルト／ビス
  6
CONTINUOUS
 62
    64
 10
73.049842
 20
-31.617074
 40
0.133333
 50
270.0
 51
360.0
  0
LINE
  8
ボルト／ビス
  6
CONTINUOUS
 62
    64
 10
73.183172
 20
-32.782612
 11
73.26389
 21
-32.782612
  0
LINE
  8
ボルト／ビス
  6
CONTINUOUS
 62
    64
 10
72.966473
 20
-32.217062
 11
72.966473
 21
-31.983727
  0
LINE
  8
ボルト／ビス
  6
CONTINUOUS
 62
    64
 10
73.183172
 20
-32.350395
 11
73.183172
 21
-32.782612
  0
LINE
  8
ボルト／ビス
  6
CONTINUOUS
 62
    64
 10
72.966473
 20
-32.217062
 11
73.04984
 21
-32.217062
  0
ARC
  8
ボルト／ビス
  6
CONTINUOUS
 62
    64
 10
73.049842
 20
-32.350407
 40
0.133333
 50
0.0
 51
90.0
  0
LINE
  8
ボルト／ビス
  6
CONTINUOUS
 62
    64
 10
72.444808
 20
-30.817062
 11
72.444808
 21
-33.150395
  0
LINE
  8
ボルト／ビス
  6
CONTINUOUS
 62
    64
 10
68.611472
 20
-31.317062
 11
68.444808
 21
-31.483727
  0
LINE
  8
ボルト／ビス
  6
CONTINUOUS
 62
    64
 10
68.611472
 20
-32.650395
 11
68.444808
 21
-32.483727
  0
LINE
  8
ボルト／ビス
  6
CONTINUOUS
 62
    64
 10
68.611472
 20
-31.317062
 11
68.611472
 21
-32.650395
  0
LINE
  8
ボルト／ビス
  6
CONTINUOUS
 62
    64
 10
68.444808
 20
-31.483727
 11
68.444808
 21
-32.483727
  0
LINE
  8
ボルト／ビス
  6
CONTINUOUS
 62
    64
 10
72.444808
 20
-31.483727
 11
68.444808
 21
-31.483727
  0
LINE
  8
ボルト／ビス
  6
CONTINUOUS
 62
    64
 10
72.444808
 20
-32.483727
 11
68.444808
 21
-32.483727
  0
LINE
  8
ボルト／ビス
  6
CONTINUOUS
 62
    64
 10
72.444808
 20
-32.650395
 11
68.611472
 21
-32.650395
  0
LINE
  8
ボルト／ビス
  6
CONTINUOUS
 62
    64
 10
72.444808
 20
-31.317062
 11
68.611472
 21
-31.317062
  0
LINE
  8
ボルト／ビス
  6
DASHDOT
 62
    64
 10
74.311472
 20
-31.983727
 11
67.444808
 21
-31.983727
  0
ENDBLK
  0
BLOCK
  2
*GRP_0034
 70
    65
 10
0.0
 20
0.0
  0
LINE
  8
ボルト／ビス
  6
CONTINUOUS
 62
    64
 10
67.944873
 20
-26.31707
 11
67.21154
 21
-27.21707
  0
LINE
  8
ボルト／ビス
  6
CONTINUOUS
 62
    64
 10
65.144873
 20
-26.31707
 11
65.878207
 21
-27.21707
  0
LINE
  8
ボルト／ビス
  6
CONTINUOUS
 62
    64
 10
65.144873
 20
-26.31707
 11
67.944873
 21
-26.31707
  0
LINE
  8
ボルト／ビス
  6
CONTINUOUS
 62
    64
 10
66.544873
 20
-31.062702
 11
66.544873
 21
-24.911045
  0
LINE
  8
ボルト／ビス
  6
CONTINUOUS
 62
    64
 10
65.878207
 20
-27.21707
 11
67.21154
 21
-27.21707
  0
LINE
  8
ボルト／ビス
  6
CONTINUOUS
 62
    64
 10
65.878207
 20
-30.150403
 11
66.044873
 21
-30.31707
  0
LINE
  8
ボルト／ビス
  6
CONTINUOUS
 62
    64
 10
67.21154
 20
-30.150403
 11
67.044873
 21
-30.31707
  0
LINE
  8
ボルト／ビス
  6
CONTINUOUS
 62
    64
 10
67.21154
 20
-30.150403
 11
65.878207
 21
-30.150403
  0
LINE
  8
ボルト／ビス
  6
CONTINUOUS
 62
    64
 10
66.044873
 20
-30.31707
 11
67.044873
 21
-30.31707
  0
LINE
  8
ボルト／ビス
  6
CONTINUOUS
 62
    64
 10
65.878207
 20
-27.21707
 11
65.878207
 21
-30.150403
  0
LINE
  8
ボルト／ビス
  6
CONTINUOUS
 62
    64
 10
67.21154
 20
-27.21707
 11
67.21154
 21
-30.150403
  0
LINE
  8
ボルト／ビス
  6
CONTINUOUS
 62
    64
 10
67.044873
 20
-27.21707
 11
67.044873
 21
-30.31707
  0
LINE
  8
ボルト／ビス
  6
CONTINUOUS
 62
    64
 10
66.044873
 20
-27.21707
 11
66.044873
 21
-30.31707
  0
ENDBLK
  0
BLOCK
  2
*GRP_0035
 70
    65
 10
0.0
 20
0.0
  0
INSERT
  2
*GRP_0104
  8
補助線
  6
DOT
 62
    64
 10
0.0
 20
0.0
  0
CIRCLE
  8
ボルト／ビス
  6
DOT
 62
    64
 10
-12.439898
 20
-34.650413
 40
1.166668
  0
LINE
  8
ボルト／ビス
  6
DOT
 62
    64
 10
-12.25323
 20
-34.27708
 11
-12.25323
 21
-34.011295
  0
LINE
  8
ボルト／ビス
  6
DOT
 62
    64
 10
-12.066565
 20
-34.463745
 11
-11.800798
 21
-34.463745
  0
ARC
  8
ボルト／ビス
  6
DOT
 62
    64
 10
-12.066566
 20
-34.277075
 40
0.186667
 50
180.0
 51
270.0
  0
LINE
  8
ボルト／ビス
  6
DOT
 62
    64
 10
-11.800798
 20
-34.463745
 11
-11.800798
 21
-34.650413
  0
LINE
  8
ボルト／ビス
  6
DOT
 62
    64
 10
-12.25323
 20
-34.011295
 11
-12.439898
 21
-34.011295
  0
LINE
  8
ボルト／ビス
  6
DOT
 62
    64
 10
-12.25323
 20
-35.023745
 11
-12.25323
 21
-35.289513
  0
LINE
  8
ボルト／ビス
  6
DOT
 62
    64
 10
-12.066565
 20
-34.83708
 11
-11.800798
 21
-34.83708
  0
ARC
  8
ボルト／ビス
  6
DOT
 62
    64
 10
-12.066566
 20
-35.023741
 40
0.186667
 50
90.0
 51
180.0
  0
LINE
  8
ボルト／ビス
  6
DOT
 62
    64
 10
-11.800798
 20
-34.83708
 11
-11.800798
 21
-34.650413
  0
LINE
  8
ボルト／ビス
  6
DOT
 62
    64
 10
-12.25323
 20
-35.289513
 11
-12.439898
 21
-35.289513
  0
LINE
  8
ボルト／ビス
  6
DOT
 62
    64
 10
-12.626565
 20
-35.023745
 11
-12.626565
 21
-35.289513
  0
LINE
  8
ボルト／ビス
  6
DOT
 62
    64
 10
-12.81323
 20
-34.83708
 11
-13.078997
 21
-34.83708
  0
ARC
  8
ボルト／ビス
  6
DOT
 62
    64
 10
-12.813232
 20
-35.023741
 40
0.186667
 50
0.0
 51
90.0
  0
LINE
  8
ボルト／ビス
  6
DOT
 62
    64
 10
-13.078997
 20
-34.83708
 11
-13.078997
 21
-34.650413
  0
LINE
  8
ボルト／ビス
  6
DOT
 62
    64
 10
-12.626565
 20
-35.289513
 11
-12.439898
 21
-35.289513
  0
LINE
  8
ボルト／ビス
  6
DOT
 62
    64
 10
-12.626565
 20
-34.27708
 11
-12.626565
 21
-34.011295
  0
LINE
  8
ボルト／ビス
  6
DOT
 62
    64
 10
-12.81323
 20
-34.463745
 11
-13.078997
 21
-34.463745
  0
ARC
  8
ボルト／ビス
  6
DOT
 62
    64
 10
-12.813232
 20
-34.277075
 40
0.186667
 50
270.0
 51
360.0
  0
LINE
  8
ボルト／ビス
  6
DOT
 62
    64
 10
-13.078997
 20
-34.463745
 11
-13.078997
 21
-34.650413
  0
LINE
  8
ボルト／ビス
  6
DOT
 62
    64
 10
-12.626565
 20
-34.011295
 11
-12.439898
 21
-34.011295
  0
ENDBLK
  0
BLOCK
  2
*GRP_0036
 70
    65
 10
0.0
 20
0.0
  0
INSERT
  2
*GRP_0105
  8
補助線
  6
DOT
 62
    64
 10
0.0
 20
0.0
  0
CIRCLE
  8
ボルト／ビス
  6
DOT
 62
    64
 10
4.360102
 20
-34.650413
 40
1.166668
  0
LINE
  8
ボルト／ビス
  6
DOT
 62
    64
 10
4.173435
 20
-34.27708
 11
4.173435
 21
-34.011295
  0
LINE
  8
ボルト／ビス
  6
DOT
 62
    64
 10
3.98677
 20
-34.463745
 11
3.721003
 21
-34.463745
  0
ARC
  8
ボルト／ビス
  6
DOT
 62
    64
 10
3.98677
 20
-34.277075
 40
0.186667
 50
270.0
 51
360.0
  0
LINE
  8
ボルト／ビス
  6
DOT
 62
    64
 10
3.721003
 20
-34.463745
 11
3.721003
 21
-34.650413
  0
LINE
  8
ボルト／ビス
  6
DOT
 62
    64
 10
4.173435
 20
-34.011295
 11
4.360102
 21
-34.011295
  0
LINE
  8
ボルト／ビス
  6
DOT
 62
    64
 10
4.173435
 20
-35.023745
 11
4.173435
 21
-35.289513
  0
LINE
  8
ボルト／ビス
  6
DOT
 62
    64
 10
3.98677
 20
-34.83708
 11
3.721003
 21
-34.83708
  0
ARC
  8
ボルト／ビス
  6
DOT
 62
    64
 10
3.98677
 20
-35.023741
 40
0.186667
 50
0.0
 51
90.0
  0
LINE
  8
ボルト／ビス
  6
DOT
 62
    64
 10
3.721003
 20
-34.83708
 11
3.721003
 21
-34.650413
  0
LINE
  8
ボルト／ビス
  6
DOT
 62
    64
 10
4.173435
 20
-35.289513
 11
4.360102
 21
-35.289513
  0
LINE
  8
ボルト／ビス
  6
DOT
 62
    64
 10
4.54677
 20
-35.023745
 11
4.54677
 21
-35.289513
  0
LINE
  8
ボルト／ビス
  6
DOT
 62
    64
 10
4.733435
 20
-34.83708
 11
4.999202
 21
-34.83708
  0
ARC
  8
ボルト／ビス
  6
DOT
 62
    64
 10
4.733437
 20
-35.023741
 40
0.186667
 50
90.0
 51
180.0
  0
LINE
  8
ボルト／ビス
  6
DOT
 62
    64
 10
4.999202
 20
-34.83708
 11
4.999202
 21
-34.650413
  0
LINE
  8
ボルト／ビス
  6
DOT
 62
    64
 10
4.54677
 20
-35.289513
 11
4.360102
 21
-35.289513
  0
LINE
  8
ボルト／ビス
  6
DOT
 62
    64
 10
4.54677
 20
-34.27708
 11
4.54677
 21
-34.011295
  0
LINE
  8
ボルト／ビス
  6
DOT
 62
    64
 10
4.733435
 20
-34.463745
 11
4.999202
 21
-34.463745
  0
ARC
  8
ボルト／ビス
  6
DOT
 62
    64
 10
4.733437
 20
-34.277075
 40
0.186667
 50
180.0
 51
270.0
  0
LINE
  8
ボルト／ビス
  6
DOT
 62
    64
 10
4.999202
 20
-34.463745
 11
4.999202
 21
-34.650413
  0
LINE
  8
ボルト／ビス
  6
DOT
 62
    64
 10
4.54677
 20
-34.011295
 11
4.360102
 21
-34.011295
  0
ENDBLK
  0
BLOCK
  2
*GRP_0037
 70
    65
 10
0.0
 20
0.0
  0
INSERT
  2
*GRP_0106
  8
補助線
  6
CONTINUOUS
 62
    64
 10
0.0
 20
0.0
  0
CIRCLE
  8
ボルト／ビス
  6
CONTINUOUS
 62
    64
 10
-18.039898
 20
-34.650413
 40
1.166668
  0
LINE
  8
ボルト／ビス
  6
CONTINUOUS
 62
    64
 10
-17.85323
 20
-34.27708
 11
-17.85323
 21
-34.011308
  0
LINE
  8
ボルト／ビス
  6
CONTINUOUS
 62
    64
 10
-17.666565
 20
-34.463745
 11
-17.400792
 21
-34.463745
  0
ARC
  8
ボルト／ビス
  6
CONTINUOUS
 62
    64
 10
-17.666567
 20
-34.277079
 40
0.186667
 50
180.0
 51
270.0
  0
LINE
  8
ボルト／ビス
  6
CONTINUOUS
 62
    64
 10
-17.400792
 20
-34.463745
 11
-17.400792
 21
-34.650413
  0
LINE
  8
ボルト／ビス
  6
CONTINUOUS
 62
    64
 10
-17.85323
 20
-34.011308
 11
-18.039898
 21
-34.011308
  0
LINE
  8
ボルト／ビス
  6
CONTINUOUS
 62
    64
 10
-17.85323
 20
-35.023745
 11
-17.85323
 21
-35.289517
  0
LINE
  8
ボルト／ビス
  6
CONTINUOUS
 62
    64
 10
-17.666565
 20
-34.83708
 11
-17.400792
 21
-34.83708
  0
ARC
  8
ボルト／ビス
  6
CONTINUOUS
 62
    64
 10
-17.666567
 20
-35.023745
 40
0.186667
 50
90.0
 51
180.0
  0
LINE
  8
ボルト／ビス
  6
CONTINUOUS
 62
    64
 10
-17.400792
 20
-34.83708
 11
-17.400792
 21
-34.650413
  0
LINE
  8
ボルト／ビス
  6
CONTINUOUS
 62
    64
 10
-17.85323
 20
-35.289517
 11
-18.039898
 21
-35.289517
  0
LINE
  8
ボルト／ビス
  6
CONTINUOUS
 62
    64
 10
-18.226565
 20
-35.023745
 11
-18.226565
 21
-35.289517
  0
LINE
  8
ボルト／ビス
  6
CONTINUOUS
 62
    64
 10
-18.41323
 20
-34.83708
 11
-18.679003
 21
-34.83708
  0
ARC
  8
ボルト／ビス
  6
CONTINUOUS
 62
    64
 10
-18.413234
 20
-35.023745
 40
0.186667
 50
0.0
 51
90.0
  0
LINE
  8
ボルト／ビス
  6
CONTINUOUS
 62
    64
 10
-18.679003
 20
-34.83708
 11
-18.679003
 21
-34.650413
  0
LINE
  8
ボルト／ビス
  6
CONTINUOUS
 62
    64
 10
-18.226565
 20
-35.289517
 11
-18.039898
 21
-35.289517
  0
LINE
  8
ボルト／ビス
  6
CONTINUOUS
 62
    64
 10
-18.226565
 20
-34.27708
 11
-18.226565
 21
-34.011308
  0
LINE
  8
ボルト／ビス
  6
CONTINUOUS
 62
    64
 10
-18.41323
 20
-34.463745
 11
-18.679003
 21
-34.463745
  0
ARC
  8
ボルト／ビス
  6
CONTINUOUS
 62
    64
 10
-18.413234
 20
-34.277079
 40
0.186667
 50
270.0
 51
360.0
  0
LINE
  8
ボルト／ビス
  6
CONTINUOUS
 62
    64
 10
-18.679003
 20
-34.463745
 11
-18.679003
 21
-34.650413
  0
LINE
  8
ボルト／ビス
  6
CONTINUOUS
 62
    64
 10
-18.226565
 20
-34.011308
 11
-18.039898
 21
-34.011308
  0
ENDBLK
  0
BLOCK
  2
*GRP_0038
 70
    65
 10
0.0
 20
0.0
  0
INSERT
  2
*GRP_0107
  8
補助線
  6
CONTINUOUS
 62
    64
 10
0.0
 20
0.0
  0
CIRCLE
  8
ボルト／ビス
  6
CONTINUOUS
 62
    64
 10
9.960102
 20
-34.650413
 40
1.166668
  0
LINE
  8
ボルト／ビス
  6
CONTINUOUS
 62
    64
 10
9.773435
 20
-34.27708
 11
9.773435
 21
-34.011308
  0
LINE
  8
ボルト／ビス
  6
CONTINUOUS
 62
    64
 10
9.58677
 20
-34.463745
 11
9.320997
 21
-34.463745
  0
ARC
  8
ボルト／ビス
  6
CONTINUOUS
 62
    64
 10
9.586767
 20
-34.277079
 40
0.186667
 50
270.0
 51
360.0
  0
LINE
  8
ボルト／ビス
  6
CONTINUOUS
 62
    64
 10
9.320997
 20
-34.463745
 11
9.320997
 21
-34.650413
  0
LINE
  8
ボルト／ビス
  6
CONTINUOUS
 62
    64
 10
9.773435
 20
-34.011308
 11
9.960102
 21
-34.011308
  0
LINE
  8
ボルト／ビス
  6
CONTINUOUS
 62
    64
 10
9.773435
 20
-35.023745
 11
9.773435
 21
-35.289517
  0
LINE
  8
ボルト／ビス
  6
CONTINUOUS
 62
    64
 10
9.58677
 20
-34.83708
 11
9.320997
 21
-34.83708
  0
ARC
  8
ボルト／ビス
  6
CONTINUOUS
 62
    64
 10
9.586767
 20
-35.023745
 40
0.186667
 50
0.0
 51
90.0
  0
LINE
  8
ボルト／ビス
  6
CONTINUOUS
 62
    64
 10
9.320997
 20
-34.83708
 11
9.320997
 21
-34.650413
  0
LINE
  8
ボルト／ビス
  6
CONTINUOUS
 62
    64
 10
9.773435
 20
-35.289517
 11
9.960102
 21
-35.289517
  0
LINE
  8
ボルト／ビス
  6
CONTINUOUS
 62
    64
 10
10.14677
 20
-35.023745
 11
10.14677
 21
-35.289517
  0
LINE
  8
ボルト／ビス
  6
CONTINUOUS
 62
    64
 10
10.333435
 20
-34.83708
 11
10.599208
 21
-34.83708
  0
ARC
  8
ボルト／ビス
  6
CONTINUOUS
 62
    64
 10
10.333433
 20
-35.023745
 40
0.186667
 50
90.0
 51
180.0
  0
LINE
  8
ボルト／ビス
  6
CONTINUOUS
 62
    64
 10
10.599208
 20
-34.83708
 11
10.599208
 21
-34.650413
  0
LINE
  8
ボルト／ビス
  6
CONTINUOUS
 62
    64
 10
10.14677
 20
-35.289517
 11
9.960102
 21
-35.289517
  0
LINE
  8
ボルト／ビス
  6
CONTINUOUS
 62
    64
 10
10.14677
 20
-34.27708
 11
10.14677
 21
-34.011308
  0
LINE
  8
ボルト／ビス
  6
CONTINUOUS
 62
    64
 10
10.333435
 20
-34.463745
 11
10.599208
 21
-34.463745
  0
ARC
  8
ボルト／ビス
  6
CONTINUOUS
 62
    64
 10
10.333433
 20
-34.277079
 40
0.186667
 50
180.0
 51
270.0
  0
LINE
  8
ボルト／ビス
  6
CONTINUOUS
 62
    64
 10
10.599208
 20
-34.463745
 11
10.599208
 21
-34.650413
  0
LINE
  8
ボルト／ビス
  6
CONTINUOUS
 62
    64
 10
10.14677
 20
-34.011308
 11
9.960102
 21
-34.011308
  0
ENDBLK
  0
BLOCK
  2
*GRP_0039
 70
    65
 10
0.0
 20
0.0
  0
INSERT
  2
*GRP_0108
  8
補助線
  6
CONTINUOUS
 62
    64
 10
0.0
 20
0.0
  0
CIRCLE
  8
ボルト／ビス
  6
CONTINUOUS
 62
    64
 10
-12.4399
 20
-34.650413
 40
1.166668
  0
LINE
  8
ボルト／ビス
  6
CONTINUOUS
 62
    64
 10
-12.253233
 20
-34.27708
 11
-12.253233
 21
-34.011308
  0
LINE
  8
ボルト／ビス
  6
CONTINUOUS
 62
    64
 10
-12.066568
 20
-34.463745
 11
-11.800795
 21
-34.463745
  0
ARC
  8
ボルト／ビス
  6
CONTINUOUS
 62
    64
 10
-12.06657
 20
-34.277079
 40
0.186667
 50
180.0
 51
270.0
  0
LINE
  8
ボルト／ビス
  6
CONTINUOUS
 62
    64
 10
-11.800795
 20
-34.463745
 11
-11.800795
 21
-34.650413
  0
LINE
  8
ボルト／ビス
  6
CONTINUOUS
 62
    64
 10
-12.253233
 20
-34.011308
 11
-12.4399
 21
-34.011308
  0
LINE
  8
ボルト／ビス
  6
CONTINUOUS
 62
    64
 10
-12.253233
 20
-35.023745
 11
-12.253233
 21
-35.289517
  0
LINE
  8
ボルト／ビス
  6
CONTINUOUS
 62
    64
 10
-12.066568
 20
-34.83708
 11
-11.800795
 21
-34.83708
  0
ARC
  8
ボルト／ビス
  6
CONTINUOUS
 62
    64
 10
-12.06657
 20
-35.023745
 40
0.186667
 50
90.0
 51
180.0
  0
LINE
  8
ボルト／ビス
  6
CONTINUOUS
 62
    64
 10
-11.800795
 20
-34.83708
 11
-11.800795
 21
-34.650413
  0
LINE
  8
ボルト／ビス
  6
CONTINUOUS
 62
    64
 10
-12.253233
 20
-35.289517
 11
-12.4399
 21
-35.289517
  0
LINE
  8
ボルト／ビス
  6
CONTINUOUS
 62
    64
 10
-12.626567
 20
-35.023745
 11
-12.626567
 21
-35.289517
  0
LINE
  8
ボルト／ビス
  6
CONTINUOUS
 62
    64
 10
-12.813232
 20
-34.83708
 11
-13.079005
 21
-34.83708
  0
ARC
  8
ボルト／ビス
  6
CONTINUOUS
 62
    64
 10
-12.813236
 20
-35.023745
 40
0.186667
 50
0.0
 51
90.0
  0
LINE
  8
ボルト／ビス
  6
CONTINUOUS
 62
    64
 10
-13.079005
 20
-34.83708
 11
-13.079005
 21
-34.650413
  0
LINE
  8
ボルト／ビス
  6
CONTINUOUS
 62
    64
 10
-12.626567
 20
-35.289517
 11
-12.4399
 21
-35.289517
  0
LINE
  8
ボルト／ビス
  6
CONTINUOUS
 62
    64
 10
-12.626567
 20
-34.27708
 11
-12.626567
 21
-34.011308
  0
LINE
  8
ボルト／ビス
  6
CONTINUOUS
 62
    64
 10
-12.813232
 20
-34.463745
 11
-13.079005
 21
-34.463745
  0
ARC
  8
ボルト／ビス
  6
CONTINUOUS
 62
    64
 10
-12.813236
 20
-34.277079
 40
0.186667
 50
270.0
 51
360.0
  0
LINE
  8
ボルト／ビス
  6
CONTINUOUS
 62
    64
 10
-13.079005
 20
-34.463745
 11
-13.079005
 21
-34.650413
  0
LINE
  8
ボルト／ビス
  6
CONTINUOUS
 62
    64
 10
-12.626567
 20
-34.011308
 11
-12.4399
 21
-34.011308
  0
ENDBLK
  0
BLOCK
  2
*GRP_0040
 70
    65
 10
0.0
 20
0.0
  0
INSERT
  2
*GRP_0109
  8
補助線
  6
CONTINUOUS
 62
    64
 10
0.0
 20
0.0
  0
CIRCLE
  8
ボルト／ビス
  6
CONTINUOUS
 62
    64
 10
4.360105
 20
-34.650413
 40
1.166668
  0
LINE
  8
ボルト／ビス
  6
CONTINUOUS
 62
    64
 10
4.546773
 20
-34.27708
 11
4.546773
 21
-34.011308
  0
LINE
  8
ボルト／ビス
  6
CONTINUOUS
 62
    64
 10
4.733438
 20
-34.463745
 11
4.99921
 21
-34.463745
  0
ARC
  8
ボルト／ビス
  6
CONTINUOUS
 62
    64
 10
4.733435
 20
-34.277079
 40
0.186667
 50
180.0
 51
270.0
  0
LINE
  8
ボルト／ビス
  6
CONTINUOUS
 62
    64
 10
4.99921
 20
-34.463745
 11
4.99921
 21
-34.650413
  0
LINE
  8
ボルト／ビス
  6
CONTINUOUS
 62
    64
 10
4.546773
 20
-34.011308
 11
4.360105
 21
-34.011308
  0
LINE
  8
ボルト／ビス
  6
CONTINUOUS
 62
    64
 10
4.546773
 20
-35.023745
 11
4.546773
 21
-35.289517
  0
LINE
  8
ボルト／ビス
  6
CONTINUOUS
 62
    64
 10
4.733438
 20
-34.83708
 11
4.99921
 21
-34.83708
  0
ARC
  8
ボルト／ビス
  6
CONTINUOUS
 62
    64
 10
4.733435
 20
-35.023745
 40
0.186667
 50
90.0
 51
180.0
  0
LINE
  8
ボルト／ビス
  6
CONTINUOUS
 62
    64
 10
4.99921
 20
-34.83708
 11
4.99921
 21
-34.650413
  0
LINE
  8
ボルト／ビス
  6
CONTINUOUS
 62
    64
 10
4.546773
 20
-35.289517
 11
4.360105
 21
-35.289517
  0
LINE
  8
ボルト／ビス
  6
CONTINUOUS
 62
    64
 10
4.173438
 20
-35.023745
 11
4.173438
 21
-35.289517
  0
LINE
  8
ボルト／ビス
  6
CONTINUOUS
 62
    64
 10
3.986773
 20
-34.83708
 11
3.721
 21
-34.83708
  0
ARC
  8
ボルト／ビス
  6
CONTINUOUS
 62
    64
 10
3.986769
 20
-35.023745
 40
0.186667
 50
0.0
 51
90.0
  0
LINE
  8
ボルト／ビス
  6
CONTINUOUS
 62
    64
 10
3.721
 20
-34.83708
 11
3.721
 21
-34.650413
  0
LINE
  8
ボルト／ビス
  6
CONTINUOUS
 62
    64
 10
4.173438
 20
-35.289517
 11
4.360105
 21
-35.289517
  0
LINE
  8
ボルト／ビス
  6
CONTINUOUS
 62
    64
 10
4.173438
 20
-34.27708
 11
4.173438
 21
-34.011308
  0
LINE
  8
ボルト／ビス
  6
CONTINUOUS
 62
    64
 10
3.986773
 20
-34.463745
 11
3.721
 21
-34.463745
  0
ARC
  8
ボルト／ビス
  6
CONTINUOUS
 62
    64
 10
3.986769
 20
-34.277079
 40
0.186667
 50
270.0
 51
360.0
  0
LINE
  8
ボルト／ビス
  6
CONTINUOUS
 62
    64
 10
3.721
 20
-34.463745
 11
3.721
 21
-34.650413
  0
LINE
  8
ボルト／ビス
  6
CONTINUOUS
 62
    64
 10
4.173438
 20
-34.011308
 11
4.360105
 21
-34.011308
  0
ENDBLK
  0
BLOCK
  2
*GRP_0041
 70
    65
 10
0.0
 20
0.0
  0
LINE
  8
ボルト／ビス
  6
CONTINUOUS
 62
    64
 10
-2.87323
 20
-25.783745
 11
-2.903798
 21
-25.434363
  0
ARC
  8
ボルト／ビス
  6
CONTINUOUS
 62
    64
 10
-3.468309
 20
-25.483745
 40
0.566667
 50
4.999989
 51
90.0
  0
LINE
  8
ボルト／ビス
  6
CONTINUOUS
 62
    64
 10
-3.468315
 20
-24.917077
 11
-4.039898
 21
-24.917077
  0
LINE
  8
ボルト／ビス
  6
CONTINUOUS
 62
    64
 10
-5.206565
 20
-25.783745
 11
-5.175997
 21
-25.434363
  0
ARC
  8
ボルト／ビス
  6
CONTINUOUS
 62
    64
 10
-4.611486
 20
-25.483745
 40
0.566667
 50
90.0
 51
175.000011
  0
LINE
  8
ボルト／ビス
  6
CONTINUOUS
 62
    64
 10
-4.61148
 20
-24.917077
 11
-4.039898
 21
-24.917077
  0
LINE
  8
ボルト／ビス
  6
CONTINUOUS
 62
    64
 10
-3.241015
 20
-25.045377
 11
-3.241015
 21
-24.964663
  0
LINE
  8
ボルト／ビス
  6
CONTINUOUS
 62
    64
 10
-3.806565
 20
-25.262078
 11
-4.039898
 21
-25.262078
  0
LINE
  8
ボルト／ビス
  6
CONTINUOUS
 62
    64
 10
-3.67323
 20
-25.045377
 11
-3.241015
 21
-25.045377
  0
LINE
  8
ボルト／ビス
  6
CONTINUOUS
 62
    64
 10
-3.806565
 20
-25.262078
 11
-3.806565
 21
-25.178712
  0
ARC
  8
ボルト／ビス
  6
CONTINUOUS
 62
    64
 10
-3.673231
 20
-25.178713
 40
0.133333
 50
90.0
 51
180.0
  0
LINE
  8
ボルト／ビス
  6
CONTINUOUS
 62
    64
 10
-4.83878
 20
-25.045377
 11
-4.83878
 21
-24.964663
  0
LINE
  8
ボルト／ビス
  6
CONTINUOUS
 62
    64
 10
-4.27323
 20
-25.262078
 11
-4.039898
 21
-25.262078
  0
LINE
  8
ボルト／ビス
  6
CONTINUOUS
 62
    64
 10
-4.406565
 20
-25.045377
 11
-4.83878
 21
-25.045377
  0
LINE
  8
ボルト／ビス
  6
CONTINUOUS
 62
    64
 10
-4.27323
 20
-25.262078
 11
-4.27323
 21
-25.178712
  0
ARC
  8
ボルト／ビス
  6
CONTINUOUS
 62
    64
 10
-4.406564
 20
-25.178713
 40
0.133333
 50
0.0
 51
90.0
  0
LINE
  8
ボルト／ビス
  6
CONTINUOUS
 62
    64
 10
-2.87323
 20
-25.783745
 11
-5.206565
 21
-25.783745
  0
LINE
  8
ボルト／ビス
  6
CONTINUOUS
 62
    64
 10
-3.37323
 20
-28.950413
 11
-3.539898
 21
-29.117077
  0
LINE
  8
ボルト／ビス
  6
CONTINUOUS
 62
    64
 10
-4.706565
 20
-28.950413
 11
-4.539898
 21
-29.117077
  0
LINE
  8
ボルト／ビス
  6
CONTINUOUS
 62
    64
 10
-3.37323
 20
-28.950413
 11
-4.706565
 21
-28.950413
  0
LINE
  8
ボルト／ビス
  6
CONTINUOUS
 62
    64
 10
-3.539898
 20
-29.117077
 11
-4.539898
 21
-29.117077
  0
LINE
  8
ボルト／ビス
  6
CONTINUOUS
 62
    64
 10
-4.039898
 20
-24.259945
 11
-4.039898
 21
-29.642028
  0
LINE
  8
ボルト／ビス
  6
CONTINUOUS
 62
    64
 10
-3.37323
 20
-25.783745
 11
-3.37323
 21
-28.950413
  0
LINE
  8
ボルト／ビス
  6
CONTINUOUS
 62
    64
 10
-4.706565
 20
-25.783745
 11
-4.706565
 21
-28.950413
  0
LINE
  8
ボルト／ビス
  6
CONTINUOUS
 62
    64
 10
-4.539898
 20
-25.783745
 11
-4.539898
 21
-29.117077
  0
LINE
  8
ボルト／ビス
  6
CONTINUOUS
 62
    64
 10
-3.539898
 20
-25.783745
 11
-3.539898
 21
-29.117077
  0
ENDBLK
  0
BLOCK
  2
*GRP_0042
 70
    65
 10
0.0
 20
0.0
  0
INSERT
  2
*GRP_0110
  8
補助線
  6
CONTINUOUS
 62
    64
 10
0.0
 20
0.0
  0
CIRCLE
  8
ボルト／ビス
  6
CONTINUOUS
 62
    64
 10
-18.03989
 20
-98.623858
 40
1.166668
  0
LINE
  8
ボルト／ビス
  6
CONTINUOUS
 62
    64
 10
-17.853222
 20
-98.250525
 11
-17.853222
 21
-97.984753
  0
LINE
  8
ボルト／ビス
  6
CONTINUOUS
 62
    64
 10
-17.666558
 20
-98.43719
 11
-17.400785
 21
-98.43719
  0
ARC
  8
ボルト／ビス
  6
CONTINUOUS
 62
    64
 10
-17.66656
 20
-98.250524
 40
0.186667
 50
180.0
 51
270.0
  0
LINE
  8
ボルト／ビス
  6
CONTINUOUS
 62
    64
 10
-17.400785
 20
-98.43719
 11
-17.400785
 21
-98.623858
  0
LINE
  8
ボルト／ビス
  6
CONTINUOUS
 62
    64
 10
-17.853222
 20
-97.984753
 11
-18.03989
 21
-97.984753
  0
LINE
  8
ボルト／ビス
  6
CONTINUOUS
 62
    64
 10
-17.853222
 20
-98.99719
 11
-17.853222
 21
-99.262962
  0
LINE
  8
ボルト／ビス
  6
CONTINUOUS
 62
    64
 10
-17.666558
 20
-98.810525
 11
-17.400785
 21
-98.810525
  0
ARC
  8
ボルト／ビス
  6
CONTINUOUS
 62
    64
 10
-17.66656
 20
-98.997191
 40
0.186667
 50
90.0
 51
180.0
  0
LINE
  8
ボルト／ビス
  6
CONTINUOUS
 62
    64
 10
-17.400785
 20
-98.810525
 11
-17.400785
 21
-98.623858
  0
LINE
  8
ボルト／ビス
  6
CONTINUOUS
 62
    64
 10
-17.853222
 20
-99.262962
 11
-18.03989
 21
-99.262962
  0
LINE
  8
ボルト／ビス
  6
CONTINUOUS
 62
    64
 10
-18.226558
 20
-98.99719
 11
-18.226558
 21
-99.262962
  0
LINE
  8
ボルト／ビス
  6
CONTINUOUS
 62
    64
 10
-18.413223
 20
-98.810525
 11
-18.678995
 21
-98.810525
  0
ARC
  8
ボルト／ビス
  6
CONTINUOUS
 62
    64
 10
-18.413226
 20
-98.997191
 40
0.186667
 50
0.0
 51
90.0
  0
LINE
  8
ボルト／ビス
  6
CONTINUOUS
 62
    64
 10
-18.678995
 20
-98.810525
 11
-18.678995
 21
-98.623858
  0
LINE
  8
ボルト／ビス
  6
CONTINUOUS
 62
    64
 10
-18.226558
 20
-99.262962
 11
-18.03989
 21
-99.262962
  0
LINE
  8
ボルト／ビス
  6
CONTINUOUS
 62
    64
 10
-18.226558
 20
-98.250525
 11
-18.226558
 21
-97.984753
  0
LINE
  8
ボルト／ビス
  6
CONTINUOUS
 62
    64
 10
-18.413223
 20
-98.43719
 11
-18.678995
 21
-98.43719
  0
ARC
  8
ボルト／ビス
  6
CONTINUOUS
 62
    64
 10
-18.413226
 20
-98.250524
 40
0.186667
 50
270.0
 51
360.0
  0
LINE
  8
ボルト／ビス
  6
CONTINUOUS
 62
    64
 10
-18.678995
 20
-98.43719
 11
-18.678995
 21
-98.623858
  0
LINE
  8
ボルト／ビス
  6
CONTINUOUS
 62
    64
 10
-18.226558
 20
-97.984753
 11
-18.03989
 21
-97.984753
  0
ENDBLK
  0
BLOCK
  2
*GRP_0043
 70
    65
 10
0.0
 20
0.0
  0
INSERT
  2
*GRP_0111
  8
補助線
  6
CONTINUOUS
 62
    64
 10
0.0
 20
0.0
  0
CIRCLE
  8
ボルト／ビス
  6
CONTINUOUS
 62
    64
 10
9.96011
 20
-98.623858
 40
1.166668
  0
LINE
  8
ボルト／ビス
  6
CONTINUOUS
 62
    64
 10
9.773443
 20
-98.250525
 11
9.773443
 21
-97.984753
  0
LINE
  8
ボルト／ビス
  6
CONTINUOUS
 62
    64
 10
9.586778
 20
-98.43719
 11
9.321005
 21
-98.43719
  0
ARC
  8
ボルト／ビス
  6
CONTINUOUS
 62
    64
 10
9.586774
 20
-98.250524
 40
0.186667
 50
270.0
 51
360.0
  0
LINE
  8
ボルト／ビス
  6
CONTINUOUS
 62
    64
 10
9.321005
 20
-98.43719
 11
9.321005
 21
-98.623858
  0
LINE
  8
ボルト／ビス
  6
CONTINUOUS
 62
    64
 10
9.773443
 20
-97.984753
 11
9.96011
 21
-97.984753
  0
LINE
  8
ボルト／ビス
  6
CONTINUOUS
 62
    64
 10
9.773443
 20
-98.99719
 11
9.773443
 21
-99.262962
  0
LINE
  8
ボルト／ビス
  6
CONTINUOUS
 62
    64
 10
9.586778
 20
-98.810525
 11
9.321005
 21
-98.810525
  0
ARC
  8
ボルト／ビス
  6
CONTINUOUS
 62
    64
 10
9.586774
 20
-98.997191
 40
0.186667
 50
0.0
 51
90.0
  0
LINE
  8
ボルト／ビス
  6
CONTINUOUS
 62
    64
 10
9.321005
 20
-98.810525
 11
9.321005
 21
-98.623858
  0
LINE
  8
ボルト／ビス
  6
CONTINUOUS
 62
    64
 10
9.773443
 20
-99.262962
 11
9.96011
 21
-99.262962
  0
LINE
  8
ボルト／ビス
  6
CONTINUOUS
 62
    64
 10
10.146777
 20
-98.99719
 11
10.146777
 21
-99.262962
  0
LINE
  8
ボルト／ビス
  6
CONTINUOUS
 62
    64
 10
10.333442
 20
-98.810525
 11
10.599215
 21
-98.810525
  0
ARC
  8
ボルト／ビス
  6
CONTINUOUS
 62
    64
 10
10.333441
 20
-98.997191
 40
0.186667
 50
90.0
 51
180.0
  0
LINE
  8
ボルト／ビス
  6
CONTINUOUS
 62
    64
 10
10.599215
 20
-98.810525
 11
10.599215
 21
-98.623858
  0
LINE
  8
ボルト／ビス
  6
CONTINUOUS
 62
    64
 10
10.146777
 20
-99.262962
 11
9.96011
 21
-99.262962
  0
LINE
  8
ボルト／ビス
  6
CONTINUOUS
 62
    64
 10
10.146777
 20
-98.250525
 11
10.146777
 21
-97.984753
  0
LINE
  8
ボルト／ビス
  6
CONTINUOUS
 62
    64
 10
10.333442
 20
-98.43719
 11
10.599215
 21
-98.43719
  0
ARC
  8
ボルト／ビス
  6
CONTINUOUS
 62
    64
 10
10.333441
 20
-98.250524
 40
0.186667
 50
180.0
 51
270.0
  0
LINE
  8
ボルト／ビス
  6
CONTINUOUS
 62
    64
 10
10.599215
 20
-98.43719
 11
10.599215
 21
-98.623858
  0
LINE
  8
ボルト／ビス
  6
CONTINUOUS
 62
    64
 10
10.146777
 20
-97.984753
 11
9.96011
 21
-97.984753
  0
ENDBLK
  0
BLOCK
  2
*GRP_0044
 70
    65
 10
0.0
 20
0.0
  0
INSERT
  2
*GRP_0112
  8
補助線
  6
CONTINUOUS
 62
    64
 10
0.0
 20
0.0
  0
CIRCLE
  8
ボルト／ビス
  6
CONTINUOUS
 62
    64
 10
-12.439893
 20
-98.623858
 40
1.166668
  0
LINE
  8
ボルト／ビス
  6
CONTINUOUS
 62
    64
 10
-12.253225
 20
-98.250525
 11
-12.253225
 21
-97.984753
  0
LINE
  8
ボルト／ビス
  6
CONTINUOUS
 62
    64
 10
-12.06656
 20
-98.43719
 11
-11.800788
 21
-98.43719
  0
ARC
  8
ボルト／ビス
  6
CONTINUOUS
 62
    64
 10
-12.066562
 20
-98.250524
 40
0.186667
 50
180.0
 51
270.0
  0
LINE
  8
ボルト／ビス
  6
CONTINUOUS
 62
    64
 10
-11.800788
 20
-98.43719
 11
-11.800788
 21
-98.623858
  0
LINE
  8
ボルト／ビス
  6
CONTINUOUS
 62
    64
 10
-12.253225
 20
-97.984753
 11
-12.439893
 21
-97.984753
  0
LINE
  8
ボルト／ビス
  6
CONTINUOUS
 62
    64
 10
-12.253225
 20
-98.99719
 11
-12.253225
 21
-99.262962
  0
LINE
  8
ボルト／ビス
  6
CONTINUOUS
 62
    64
 10
-12.06656
 20
-98.810525
 11
-11.800788
 21
-98.810525
  0
ARC
  8
ボルト／ビス
  6
CONTINUOUS
 62
    64
 10
-12.066562
 20
-98.997191
 40
0.186667
 50
90.0
 51
180.0
  0
LINE
  8
ボルト／ビス
  6
CONTINUOUS
 62
    64
 10
-11.800788
 20
-98.810525
 11
-11.800788
 21
-98.623858
  0
LINE
  8
ボルト／ビス
  6
CONTINUOUS
 62
    64
 10
-12.253225
 20
-99.262962
 11
-12.439893
 21
-99.262962
  0
LINE
  8
ボルト／ビス
  6
CONTINUOUS
 62
    64
 10
-12.62656
 20
-98.99719
 11
-12.62656
 21
-99.262962
  0
LINE
  8
ボルト／ビス
  6
CONTINUOUS
 62
    64
 10
-12.813225
 20
-98.810525
 11
-13.078997
 21
-98.810525
  0
ARC
  8
ボルト／ビス
  6
CONTINUOUS
 62
    64
 10
-12.813229
 20
-98.997191
 40
0.186667
 50
0.0
 51
90.0
  0
LINE
  8
ボルト／ビス
  6
CONTINUOUS
 62
    64
 10
-13.078997
 20
-98.810525
 11
-13.078997
 21
-98.623858
  0
LINE
  8
ボルト／ビス
  6
CONTINUOUS
 62
    64
 10
-12.62656
 20
-99.262962
 11
-12.439893
 21
-99.262962
  0
LINE
  8
ボルト／ビス
  6
CONTINUOUS
 62
    64
 10
-12.62656
 20
-98.250525
 11
-12.62656
 21
-97.984753
  0
LINE
  8
ボルト／ビス
  6
CONTINUOUS
 62
    64
 10
-12.813225
 20
-98.43719
 11
-13.078997
 21
-98.43719
  0
ARC
  8
ボルト／ビス
  6
CONTINUOUS
 62
    64
 10
-12.813229
 20
-98.250524
 40
0.186667
 50
270.0
 51
360.0
  0
LINE
  8
ボルト／ビス
  6
CONTINUOUS
 62
    64
 10
-13.078997
 20
-98.43719
 11
-13.078997
 21
-98.623858
  0
LINE
  8
ボルト／ビス
  6
CONTINUOUS
 62
    64
 10
-12.62656
 20
-97.984753
 11
-12.439893
 21
-97.984753
  0
ENDBLK
  0
BLOCK
  2
*GRP_0045
 70
    65
 10
0.0
 20
0.0
  0
INSERT
  2
*GRP_0113
  8
補助線
  6
CONTINUOUS
 62
    64
 10
0.0
 20
0.0
  0
CIRCLE
  8
ボルト／ビス
  6
CONTINUOUS
 62
    64
 10
4.360112
 20
-98.623858
 40
1.166668
  0
LINE
  8
ボルト／ビス
  6
CONTINUOUS
 62
    64
 10
4.54678
 20
-98.250525
 11
4.54678
 21
-97.984753
  0
LINE
  8
ボルト／ビス
  6
CONTINUOUS
 62
    64
 10
4.733445
 20
-98.43719
 11
4.999217
 21
-98.43719
  0
ARC
  8
ボルト／ビス
  6
CONTINUOUS
 62
    64
 10
4.733443
 20
-98.250524
 40
0.186667
 50
180.0
 51
270.0
  0
LINE
  8
ボルト／ビス
  6
CONTINUOUS
 62
    64
 10
4.999217
 20
-98.43719
 11
4.999217
 21
-98.623858
  0
LINE
  8
ボルト／ビス
  6
CONTINUOUS
 62
    64
 10
4.54678
 20
-97.984753
 11
4.360112
 21
-97.984753
  0
LINE
  8
ボルト／ビス
  6
CONTINUOUS
 62
    64
 10
4.54678
 20
-98.99719
 11
4.54678
 21
-99.262962
  0
LINE
  8
ボルト／ビス
  6
CONTINUOUS
 62
    64
 10
4.733445
 20
-98.810525
 11
4.999217
 21
-98.810525
  0
ARC
  8
ボルト／ビス
  6
CONTINUOUS
 62
    64
 10
4.733443
 20
-98.997191
 40
0.186667
 50
90.0
 51
180.0
  0
LINE
  8
ボルト／ビス
  6
CONTINUOUS
 62
    64
 10
4.999217
 20
-98.810525
 11
4.999217
 21
-98.623858
  0
LINE
  8
ボルト／ビス
  6
CONTINUOUS
 62
    64
 10
4.54678
 20
-99.262962
 11
4.360112
 21
-99.262962
  0
LINE
  8
ボルト／ビス
  6
CONTINUOUS
 62
    64
 10
4.173445
 20
-98.99719
 11
4.173445
 21
-99.262962
  0
LINE
  8
ボルト／ビス
  6
CONTINUOUS
 62
    64
 10
3.98678
 20
-98.810525
 11
3.721008
 21
-98.810525
  0
ARC
  8
ボルト／ビス
  6
CONTINUOUS
 62
    64
 10
3.986776
 20
-98.997191
 40
0.186667
 50
0.0
 51
90.0
  0
LINE
  8
ボルト／ビス
  6
CONTINUOUS
 62
    64
 10
3.721008
 20
-98.810525
 11
3.721008
 21
-98.623858
  0
LINE
  8
ボルト／ビス
  6
CONTINUOUS
 62
    64
 10
4.173445
 20
-99.262962
 11
4.360112
 21
-99.262962
  0
LINE
  8
ボルト／ビス
  6
CONTINUOUS
 62
    64
 10
4.173445
 20
-98.250525
 11
4.173445
 21
-97.984753
  0
LINE
  8
ボルト／ビス
  6
CONTINUOUS
 62
    64
 10
3.98678
 20
-98.43719
 11
3.721008
 21
-98.43719
  0
ARC
  8
ボルト／ビス
  6
CONTINUOUS
 62
    64
 10
3.986776
 20
-98.250524
 40
0.186667
 50
270.0
 51
360.0
  0
LINE
  8
ボルト／ビス
  6
CONTINUOUS
 62
    64
 10
3.721008
 20
-98.43719
 11
3.721008
 21
-98.623858
  0
LINE
  8
ボルト／ビス
  6
CONTINUOUS
 62
    64
 10
4.173445
 20
-97.984753
 11
4.360112
 21
-97.984753
  0
ENDBLK
  0
BLOCK
  2
*GRP_0046
 70
    65
 10
0.0
 20
0.0
  0
LINE
  8
ボルト／ビス
  6
CONTINUOUS
 62
    64
 10
-2.873222
 20
-89.75719
 11
-2.90379
 21
-89.407808
  0
ARC
  8
ボルト／ビス
  6
CONTINUOUS
 62
    64
 10
-3.468301
 20
-89.457191
 40
0.566667
 50
4.999989
 51
90.0
  0
LINE
  8
ボルト／ビス
  6
CONTINUOUS
 62
    64
 10
-3.468307
 20
-88.890523
 11
-4.03989
 21
-88.890523
  0
LINE
  8
ボルト／ビス
  6
CONTINUOUS
 62
    64
 10
-5.206557
 20
-89.75719
 11
-5.17599
 21
-89.407808
  0
ARC
  8
ボルト／ビス
  6
CONTINUOUS
 62
    64
 10
-4.611479
 20
-89.457191
 40
0.566667
 50
90.0
 51
175.000011
  0
LINE
  8
ボルト／ビス
  6
CONTINUOUS
 62
    64
 10
-4.611473
 20
-88.890523
 11
-4.03989
 21
-88.890523
  0
LINE
  8
ボルト／ビス
  6
CONTINUOUS
 62
    64
 10
-3.241007
 20
-89.018822
 11
-3.241007
 21
-88.938108
  0
LINE
  8
ボルト／ビス
  6
CONTINUOUS
 62
    64
 10
-3.806557
 20
-89.235523
 11
-4.03989
 21
-89.235523
  0
LINE
  8
ボルト／ビス
  6
CONTINUOUS
 62
    64
 10
-3.673222
 20
-89.018822
 11
-3.241007
 21
-89.018822
  0
LINE
  8
ボルト／ビス
  6
CONTINUOUS
 62
    64
 10
-3.806557
 20
-89.235523
 11
-3.806557
 21
-89.152157
  0
ARC
  8
ボルト／ビス
  6
CONTINUOUS
 62
    64
 10
-3.673223
 20
-89.152159
 40
0.133333
 50
90.0
 51
180.0
  0
LINE
  8
ボルト／ビス
  6
CONTINUOUS
 62
    64
 10
-4.838772
 20
-89.018822
 11
-4.838772
 21
-88.938108
  0
LINE
  8
ボルト／ビス
  6
CONTINUOUS
 62
    64
 10
-4.273222
 20
-89.235523
 11
-4.03989
 21
-89.235523
  0
LINE
  8
ボルト／ビス
  6
CONTINUOUS
 62
    64
 10
-4.406557
 20
-89.018822
 11
-4.838772
 21
-89.018822
  0
LINE
  8
ボルト／ビス
  6
CONTINUOUS
 62
    64
 10
-4.273222
 20
-89.235523
 11
-4.273222
 21
-89.152157
  0
ARC
  8
ボルト／ビス
  6
CONTINUOUS
 62
    64
 10
-4.406557
 20
-89.152159
 40
0.133333
 50
0.0
 51
90.0
  0
LINE
  8
ボルト／ビス
  6
CONTINUOUS
 62
    64
 10
-2.873222
 20
-89.75719
 11
-5.206557
 21
-89.75719
  0
LINE
  8
ボルト／ビス
  6
CONTINUOUS
 62
    64
 10
-3.373222
 20
-92.923858
 11
-3.53989
 21
-93.090523
  0
LINE
  8
ボルト／ビス
  6
CONTINUOUS
 62
    64
 10
-4.706557
 20
-92.923858
 11
-4.53989
 21
-93.090523
  0
LINE
  8
ボルト／ビス
  6
CONTINUOUS
 62
    64
 10
-3.373222
 20
-92.923858
 11
-4.706557
 21
-92.923858
  0
LINE
  8
ボルト／ビス
  6
CONTINUOUS
 62
    64
 10
-3.53989
 20
-93.090523
 11
-4.53989
 21
-93.090523
  0
LINE
  8
ボルト／ビス
  6
CONTINUOUS
 62
    64
 10
-4.03989
 20
-88.23339
 11
-4.03989
 21
-93.615473
  0
LINE
  8
ボルト／ビス
  6
CONTINUOUS
 62
    64
 10
-3.373222
 20
-89.75719
 11
-3.373222
 21
-92.923858
  0
LINE
  8
ボルト／ビス
  6
CONTINUOUS
 62
    64
 10
-4.706557
 20
-89.75719
 11
-4.706557
 21
-92.923858
  0
LINE
  8
ボルト／ビス
  6
CONTINUOUS
 62
    64
 10
-4.53989
 20
-89.75719
 11
-4.53989
 21
-93.090523
  0
LINE
  8
ボルト／ビス
  6
CONTINUOUS
 62
    64
 10
-3.53989
 20
-89.75719
 11
-3.53989
 21
-93.090523
  0
ENDBLK
  0
BLOCK
  2
*DIM_0047
 70
    65
 10
0.0
 20
0.0
  0
LINE
  8
寸法
  6
BYBLOCK
 62
     0
 10
-67.958003
 20
5.81462
 11
-67.958003
 21
73.26614
  0
LINE
  8
寸法
  6
BYBLOCK
 62
     0
 10
-97.95845
 20
-46.98377
 11
-97.95845
 21
73.26614
  0
LINE
  8
寸法
  6
BYBLOCK
 62
     0
 10
-67.958003
 20
73.26614
 11
-97.95845
 21
73.26614
  0
POINT
  8
寸法
 62
     0
 10
-67.958003
 20
73.26614
  0
POINT
  8
寸法
 62
     0
 10
-97.95845
 20
73.26614
  0
TEXT
  7
TextStyle03
  8
寸法
  6
CONTINUOUS
 62
     0
 10
-85.1
 20
73.65
  1
90
 40
4.0
 72
     5
 11
-80.85
 21
73.65
  0
ENDBLK
  0
BLOCK
  2
*DIM_0048
 70
    65
 10
0.0
 20
0.0
  0
LINE
  8
寸法
  6
BYBLOCK
 62
     0
 10
89.878655
 20
-46.98377
 11
89.878655
 21
73.26614
  0
LINE
  8
寸法
  6
BYBLOCK
 62
     0
 10
59.879188
 20
73.26614
 11
89.878655
 21
73.26614
  0
POINT
  8
寸法
 62
     0
 10
59.879188
 20
73.26614
  0
POINT
  8
寸法
 62
     0
 10
89.878655
 20
73.26614
  0
TEXT
  7
TextStyle03
  8
寸法
  6
CONTINUOUS
 62
     0
 10
72.75
 20
73.65
  1
90
 40
4.0
 72
     5
 11
77.0
 21
73.65
  0
ENDBLK
  0
BLOCK
  2
*DIM_0049
 70
    65
 10
0.0
 20
0.0
  0
LINE
  8
寸法
  6
BYBLOCK
 62
     0
 10
-97.95845
 20
65.333515
 11
-97.95845
 21
65.934655
  0
LINE
  8
寸法
  6
BYBLOCK
 62
     0
 10
-57.958512
 20
-38.650432
 11
-57.958512
 21
65.934655
  0
LINE
  8
寸法
  6
BYBLOCK
 62
     0
 10
-97.95845
 20
65.934655
 11
-57.958512
 21
65.934655
  0
POINT
  8
寸法
 62
     0
 10
-97.95845
 20
65.934655
  0
POINT
  8
寸法
 62
     0
 10
-57.958512
 20
65.934655
  0
TEXT
  7
TextStyle03
  8
寸法
  6
CONTINUOUS
 62
     0
 10
-81.225
 20
66.325
  1
120
 40
4.0
 72
     5
 11
-74.725
 21
66.325
  0
ENDBLK
  0
BLOCK
  2
*DIM_0050
 70
    65
 10
0.0
 20
0.0
  0
LINE
  8
寸法
  6
BYBLOCK
 62
     0
 10
89.878655
 20
-38.650432
 11
89.878655
 21
65.934655
  0
LINE
  8
寸法
  6
BYBLOCK
 62
     0
 10
49.878717
 20
65.934655
 11
89.878655
 21
65.934655
  0
POINT
  8
寸法
 62
     0
 10
89.878655
 20
65.934655
  0
TEXT
  7
TextStyle03
  8
寸法
  6
CONTINUOUS
 62
     0
 10
66.625
 20
66.325
  1
120
 40
4.0
 72
     5
 11
73.125
 21
66.325
  0
ENDBLK
  0
BLOCK
  2
*DIM_0051
 70
    65
 10
0.0
 20
0.0
  0
LINE
  8
寸法
  6
BYBLOCK
 62
     0
 10
-67.958003
 20
58.10483
 11
-57.958512
 21
58.10483
  0
POINT
  8
寸法
 62
     0
 10
-67.958003
 20
58.10483
  0
POINT
  8
寸法
 62
     0
 10
-57.958512
 20
58.10483
  0
TEXT
  7
TextStyle03
  8
寸法
  6
CONTINUOUS
 62
     0
 10
-65.1
 20
58.475
  1
30
 40
4.0
 72
     5
 11
-60.85
 21
58.475
  0
ENDBLK
  0
BLOCK
  2
*DIM_0052
 70
    65
 10
0.0
 20
0.0
  0
LINE
  8
寸法
  6
BYBLOCK
 62
     0
 10
59.878207
 20
58.10483
 11
49.878717
 21
58.10483
  0
POINT
  8
寸法
 62
     0
 10
59.878207
 20
58.10483
  0
POINT
  8
寸法
 62
     0
 10
49.878717
 20
58.10483
  0
TEXT
  7
TextStyle03
  8
寸法
  6
CONTINUOUS
 62
     0
 10
52.75
 20
58.475
  1
30
 40
4.0
 72
     5
 11
57.0
 21
58.475
  0
ENDBLK
  0
BLOCK
  2
*DIM_0053
 70
    65
 10
0.0
 20
0.0
  0
LINE
  8
寸法
  6
BYBLOCK
 62
     0
 10
90.878655
 20
-52.983748
 11
156.10824
 21
-52.983748
  0
LINE
  8
寸法
  6
BYBLOCK
 62
     0
 10
156.10824
 20
-47.98377
 11
156.10824
 21
-52.983748
  0
POINT
  8
寸法
 62
     0
 10
156.10824
 20
-52.983748
  0
TEXT
  7
TextStyle03
  8
寸法
  6
CONTINUOUS
 62
     0
 10
155.725
 20
-52.6
  1
15
 40
4.0
 50
90.0
 72
     5
 11
155.725
 21
-48.35
  0
ENDBLK
  0
BLOCK
  2
*DIM_0054
 70
    65
 10
0.0
 20
0.0
  0
LINE
  8
寸法
  6
BYBLOCK
 62
     0
 10
91.878663
 20
-57.983748
 11
156.10824
 21
-57.983748
  0
LINE
  8
寸法
  6
BYBLOCK
 62
     0
 10
156.10824
 20
-52.983748
 11
156.10824
 21
-57.983748
  0
POINT
  8
寸法
 62
     0
 10
156.10824
 20
-57.983748
  0
TEXT
  7
TextStyle03
  8
寸法
  6
CONTINUOUS
 62
     0
 10
155.725
 20
-57.6
  1
15
 40
4.0
 50
90.0
 72
     5
 11
155.725
 21
-53.35
  0
ENDBLK
  0
BLOCK
  2
*GRP_0055
 70
    65
 10
0.0
 20
0.0
  0
POLYLINE
  8
寸法
  6
BYBLOCK
 62
     0
 66
     1
  0
VERTEX
  8
寸法
 10
-107.44188
 20
-57.420525
  0
VERTEX
  8
寸法
 10
-104.843803
 20
-58.920525
  0
VERTEX
  8
寸法
 10
-106.343803
 20
-56.322447
  0
SEQEND
  0
POLYLINE
  8
寸法
  6
BYBLOCK
 62
     0
 66
     1
  0
VERTEX
  8
寸法
 10
-104.843803
 20
-58.920525
  0
VERTEX
  8
寸法
 10
-113.882045
 20
-49.882283
  0
VERTEX
  8
寸法
 10
-116.803557
 20
-49.882283
  0
SEQEND
  0
ENDBLK
  0
BLOCK
  2
*DIM_0056
 70
    65
 10
0.0
 20
0.0
  0
LINE
  8
寸法
  6
BYBLOCK
 62
     0
 10
92.878655
 20
-47.98377
 11
156.10824
 21
-47.98377
  0
LINE
  8
寸法
  6
BYBLOCK
 62
     0
 10
81.110035
 20
-32.817085
 11
156.10824
 21
-32.817085
  0
LINE
  8
寸法
  6
BYBLOCK
 62
     0
 10
156.10824
 20
-47.98377
 11
156.10824
 21
-32.817085
  0
POINT
  8
寸法
 62
     0
 10
156.10824
 20
-47.98377
  0
POINT
  8
寸法
 62
     0
 10
156.10824
 20
-32.817085
  0
TEXT
  7
TextStyle03
  8
寸法
  6
CONTINUOUS
 62
     0
 10
155.725
 20
-44.775
  1
45.5
 40
4.0
 50
90.0
 72
     5
 11
155.725
 21
-36.025
  0
ENDBLK
  0
BLOCK
  2
*DIM_0057
 70
    65
 10
0.0
 20
0.0
  0
LINE
  8
寸法
  6
CONTINUOUS
 10
-84.423153
 20
-16.483727
 11
-84.423153
 21
58.10483
  0
LINE
  8
寸法
  6
CONTINUOUS
 10
-67.958003
 20
58.10483
 11
-84.423153
 21
58.10483
  0
POINT
  8
寸法
 10
-67.958003
 20
58.10483
  0
POINT
  8
寸法
 10
-84.423153
 20
58.10483
  0
TEXT
  7
TextStyle03
  8
寸法
  6
CONTINUOUS
 10
-80.575
 20
58.475
  1
49.4
 40
4.0
 72
     5
 11
-71.825
 21
58.475
  0
ENDBLK
  0
BLOCK
  2
*DIM_0058
 70
    65
 10
0.0
 20
0.0
  0
LINE
  8
寸法
  6
CONTINUOUS
 10
-97.95845
 20
-42.98377
 11
-97.95845
 21
58.10483
  0
LINE
  8
寸法
  6
CONTINUOUS
 10
-84.423153
 20
58.10483
 11
-97.95845
 21
58.10483
  0
POINT
  8
寸法
 10
-97.95845
 20
58.10483
  0
TEXT
  7
TextStyle03
  8
寸法
  6
CONTINUOUS
 10
-95.575
 20
58.475
  1
40.6
 40
4.0
 72
     5
 11
-86.825
 21
58.475
  0
ENDBLK
  0
BLOCK
  2
*DIM_0059
 70
    65
 10
0.0
 20
0.0
  0
LINE
  8
寸法
  6
CONTINUOUS
 10
76.343357
 20
-16.483727
 11
76.343357
 21
58.10483
  0
LINE
  8
寸法
  6
CONTINUOUS
 10
59.878207
 20
58.10483
 11
76.343357
 21
58.10483
  0
POINT
  8
寸法
 10
59.878207
 20
58.10483
  0
POINT
  8
寸法
 10
76.343357
 20
58.10483
  0
TEXT
  7
TextStyle03
  8
寸法
  6
CONTINUOUS
 10
63.725
 20
58.475
  1
49.4
 40
4.0
 72
     5
 11
72.475
 21
58.475
  0
ENDBLK
  0
BLOCK
  2
*DIM_0060
 70
    65
 10
0.0
 20
0.0
  0
LINE
  8
寸法
  6
CONTINUOUS
 10
89.878655
 20
-42.98377
 11
89.878655
 21
58.10483
  0
LINE
  8
寸法
  6
CONTINUOUS
 10
76.343357
 20
58.10483
 11
89.878655
 21
58.10483
  0
POINT
  8
寸法
 10
89.878655
 20
58.10483
  0
TEXT
  7
TextStyle03
  8
寸法
  6
CONTINUOUS
 10
78.725
 20
58.475
  1
40.6
 40
4.0
 72
     5
 11
87.475
 21
58.475
  0
ENDBLK
  0
BLOCK
  2
*DIM_0061
 70
    65
 10
0.0
 20
0.0
  0
LINE
  8
寸法
  6
CONTINUOUS
 10
94.87865
 20
-57.983742
 11
162.620457
 21
-57.983742
  0
LINE
  8
寸法
  6
CONTINUOUS
 10
80.343362
 20
-19.817065
 11
162.620457
 21
-19.817065
  0
LINE
  8
寸法
  6
CONTINUOUS
 10
162.620457
 20
-57.983742
 11
162.620457
 21
-19.817065
  0
POINT
  8
寸法
 10
162.620457
 20
-57.983742
  0
POINT
  8
寸法
 10
162.620457
 20
-19.817065
  0
TEXT
  7
TextStyle03
  8
寸法
  6
CONTINUOUS
 10
162.25
 20
-44.4
  1
114.5
 40
4.0
 50
90.0
 72
     5
 11
162.25
 21
-33.4
  0
ENDBLK
  0
BLOCK
  2
*DIM_0062
 70
    65
 10
0.0
 20
0.0
  0
LINE
  8
寸法
  6
CONTINUOUS
 10
79.623465
 20
-19.817062
 11
156.10824
 21
-19.817062
  0
LINE
  8
寸法
  6
CONTINUOUS
 10
156.10824
 20
-32.817085
 11
156.10824
 21
-19.817062
  0
POINT
  8
寸法
 10
156.10824
 20
-32.817085
  0
POINT
  8
寸法
 10
156.10824
 20
-19.817062
  0
TEXT
  7
TextStyle03
  8
寸法
  6
CONTINUOUS
 10
155.725
 20
-28.45
  1
39
 40
4.0
 50
90.0
 72
     5
 11
155.725
 21
-24.2
  0
ENDBLK
  0
BLOCK
  2
*DIM_0063
 70
    65
 10
0.0
 20
0.0
  0
LINE
  8
寸法
  6
BYBLOCK
 62
     0
 10
63.212203
 20
-105.390905
 11
63.212203
 21
-119.018448
  0
LINE
  8
寸法
  6
BYBLOCK
 62
     0
 10
51.545537
 20
-119.018448
 11
63.212203
 21
-119.018448
  0
POINT
  8
寸法
 62
     0
 10
63.212203
 20
-119.018448
  0
TEXT
  7
TextStyle03
  8
寸法
  6
CONTINUOUS
 62
     0
 10
55.78125
 20
-118.6
  1
35
 40
3.0
 72
     5
 11
58.96875
 21
-118.6
  0
ENDBLK
  0
BLOCK
  2
*DIM_0064
 70
    65
 10
0.0
 20
0.0
  0
LINE
  8
寸法
  6
BYBLOCK
 62
     0
 10
113.212242
 20
-105.390905
 11
113.212242
 21
-119.018448
  0
LINE
  8
寸法
  6
BYBLOCK
 62
     0
 10
63.212203
 20
-119.018448
 11
113.212242
 21
-119.018448
  0
POINT
  8
寸法
 62
     0
 10
113.212242
 20
-119.018448
  0
TEXT
  7
TextStyle03
  8
寸法
  6
CONTINUOUS
 62
     0
 10
85.7625
 20
-118.6
  1
150
 40
3.0
 72
     5
 11
90.6375
 21
-118.6
  0
ENDBLK
  0
BLOCK
  2
*DIM_0065
 70
    65
 10
0.0
 20
0.0
  0
LINE
  8
寸法
  6
BYBLOCK
 62
     0
 10
116.545572
 20
-105.390905
 11
116.545572
 21
-119.018448
  0
LINE
  8
寸法
  6
BYBLOCK
 62
     0
 10
113.212242
 20
-119.018448
 11
116.545572
 21
-119.018448
  0
POINT
  8
寸法
 62
     0
 10
116.545572
 20
-119.018448
  0
TEXT
  7
TextStyle03
  8
寸法
  6
CONTINUOUS
 62
     0
 10
113.28125
 20
-121.975
  1
10
 40
3.0
 72
     5
 11
116.46875
 21
-121.975
  0
ENDBLK
  0
BLOCK
  2
*DIM_0066
 70
    65
 10
0.0
 20
0.0
  0
LINE
  8
寸法
  6
BYBLOCK
 62
     0
 10
-59.625332
 20
-105.390905
 11
-59.625332
 21
-119.018448
  0
LINE
  8
寸法
  6
BYBLOCK
 62
     0
 10
-71.291997
 20
-105.390905
 11
-71.291997
 21
-119.018448
  0
LINE
  8
寸法
  6
BYBLOCK
 62
     0
 10
-59.625332
 20
-119.018448
 11
-71.291997
 21
-119.018448
  0
POINT
  8
寸法
 62
     0
 10
-71.291997
 20
-119.018448
  0
TEXT
  7
TextStyle03
  8
寸法
  6
CONTINUOUS
 62
     0
 10
-67.06875
 20
-118.6
  1
35
 40
3.0
 72
     5
 11
-63.88125
 21
-118.6
  0
ENDBLK
  0
BLOCK
  2
*DIM_0067
 70
    65
 10
0.0
 20
0.0
  0
LINE
  8
寸法
  6
BYBLOCK
 62
     0
 10
-71.291997
 20
-105.390905
 11
-71.291997
 21
-119.018448
  0
LINE
  8
寸法
  6
BYBLOCK
 62
     0
 10
-121.292037
 20
-105.390905
 11
-121.292037
 21
-119.018448
  0
LINE
  8
寸法
  6
BYBLOCK
 62
     0
 10
-71.291997
 20
-119.018448
 11
-121.292037
 21
-119.018448
  0
POINT
  8
寸法
 62
     0
 10
-121.292037
 20
-119.018448
  0
TEXT
  7
TextStyle03
  8
寸法
  6
CONTINUOUS
 62
     0
 10
-98.7375
 20
-118.6
  1
150
 40
3.0
 72
     5
 11
-93.8625
 21
-118.6
  0
ENDBLK
  0
BLOCK
  2
*DIM_0068
 70
    65
 10
0.0
 20
0.0
  0
LINE
  8
寸法
  6
BYBLOCK
 62
     0
 10
-121.292037
 20
-105.390905
 11
-121.292037
 21
-119.018448
  0
LINE
  8
寸法
  6
BYBLOCK
 62
     0
 10
-124.625368
 20
-105.390905
 11
-124.625368
 21
-119.018448
  0
LINE
  8
寸法
  6
BYBLOCK
 62
     0
 10
-121.292037
 20
-119.018448
 11
-124.625368
 21
-119.018448
  0
POINT
  8
寸法
 62
     0
 10
-124.625368
 20
-119.018448
  0
TEXT
  7
TextStyle03
  8
寸法
  6
CONTINUOUS
 62
     0
 10
-124.56875
 20
-121.975
  1
10
 40
3.0
 72
     5
 11
-121.38125
 21
-121.975
  0
ENDBLK
  0
BLOCK
  2
*GRP_0069
 70
    65
 10
0.0
 20
0.0
  0
POLYLINE
  8
寸法
  6
CONTINUOUS
 66
     1
  0
VERTEX
  8
寸法
 10
119.622475
 20
-76.695687
  0
VERTEX
  8
寸法
 10
128.270988
 20
-68.047178
  0
VERTEX
  8
寸法
 10
133.873617
 20
-68.047178
  0
SEQEND
  0
ENDBLK
  0
BLOCK
  2
*DIM_0070
 70
    65
 10
0.0
 20
0.0
  0
LINE
  8
寸法
  6
CONTINUOUS
 10
116.545572
 20
-104.408353
 11
116.545572
 21
-119.018448
  0
LINE
  8
寸法
  6
CONTINUOUS
 10
123.212118
 20
-85.616308
 11
123.212118
 21
-119.018448
  0
LINE
  8
寸法
  6
CONTINUOUS
 10
116.545572
 20
-119.018448
 11
123.212118
 21
-119.018448
  0
POINT
  8
寸法
 10
116.545572
 20
-119.018448
  0
POINT
  8
寸法
 10
123.212118
 20
-119.018448
  0
TEXT
  7
TextStyle03
  8
寸法
  6
CONTINUOUS
 10
118.28125
 20
-118.65
  1
20
 40
3.0
 72
     5
 11
121.46875
 21
-118.65
  0
ENDBLK
  0
BLOCK
  2
*DIM_0071
 70
    65
 10
0.0
 20
0.0
  0
LINE
  8
寸法
  6
CONTINUOUS
 10
51.545537
 20
-104.08583
 11
51.545537
 21
-119.018448
  0
LINE
  8
寸法
  6
CONTINUOUS
 10
49.878717
 20
-55.483223
 11
49.878717
 21
-119.018448
  0
LINE
  8
寸法
  6
CONTINUOUS
 10
51.545537
 20
-119.018448
 11
49.878717
 21
-119.018448
  0
POINT
  8
寸法
 10
51.545537
 20
-119.018448
  0
POINT
  8
寸法
 10
49.878717
 20
-119.018448
  0
TEXT
  7
TextStyle03
  8
寸法
  6
CONTINUOUS
 10
49.95
 20
-118.65
  1
5
 40
3.0
 72
     5
 11
51.45
 21
-118.65
  0
ENDBLK
  0
BLOCK
  2
*DIM_0072
 70
    65
 10
0.0
 20
0.0
  0
LINE
  8
寸法
  6
CONTINUOUS
 10
-59.625332
 20
-102.49423
 11
-59.625332
 21
-119.018448
  0
LINE
  8
寸法
  6
CONTINUOUS
 10
-57.958512
 20
-56.147015
 11
-57.958512
 21
-119.018448
  0
LINE
  8
寸法
  6
CONTINUOUS
 10
-59.625332
 20
-119.018448
 11
-57.958512
 21
-119.018448
  0
POINT
  8
寸法
 10
-59.625332
 20
-119.018448
  0
POINT
  8
寸法
 10
-57.958512
 20
-119.018448
  0
TEXT
  7
TextStyle03
  8
寸法
  6
CONTINUOUS
 10
-59.55
 20
-118.65
  1
5
 40
3.0
 72
     5
 11
-58.05
 21
-118.65
  0
ENDBLK
  0
BLOCK
  2
*DIM_0073
 70
    65
 10
0.0
 20
0.0
  0
LINE
  8
寸法
  6
CONTINUOUS
 10
-124.625368
 20
-104.51543
 11
-124.625368
 21
-119.018448
  0
LINE
  8
寸法
  6
CONTINUOUS
 10
-131.291913
 20
-85.300547
 11
-131.291913
 21
-119.018448
  0
LINE
  8
寸法
  6
CONTINUOUS
 10
-124.625368
 20
-119.018448
 11
-131.291913
 21
-119.018448
  0
POINT
  8
寸法
 10
-124.625368
 20
-119.018448
  0
POINT
  8
寸法
 10
-131.291913
 20
-119.018448
  0
TEXT
  7
TextStyle03
  8
寸法
  6
CONTINUOUS
 10
-129.56875
 20
-118.65
  1
20
 40
3.0
 72
     5
 11
-126.38125
 21
-118.65
  0
ENDBLK
  0
BLOCK
  2
*DIM_0074
 70
    65
 10
0.0
 20
0.0
  0
LINE
  8
寸法
  6
CONTINUOUS
 10
-171.164485
 20
113.691803
 11
-173.940708
 21
113.691803
  0
LINE
  8
寸法
  6
CONTINUOUS
 10
-171.164485
 20
107.691803
 11
-173.940708
 21
107.691803
  0
LINE
  8
寸法
  6
CONTINUOUS
 10
-173.940708
 20
113.691803
 11
-173.940708
 21
107.691803
  0
POINT
  8
寸法
 10
-173.940708
 20
113.691803
  0
POINT
  8
寸法
 10
-173.940708
 20
107.691803
  0
TEXT
  7
TextStyle03
  8
寸法
  6
CONTINUOUS
 10
-174.3
 20
108.2125
  1
600
 40
3.0
 50
90.0
 72
     5
 11
-174.3
 21
113.0875
  0
ENDBLK
  0
BLOCK
  2
*DIM_0075
 70
    65
 10
0.0
 20
0.0
  0
LINE
  8
寸法
  6
CONTINUOUS
 10
-171.164485
 20
92.08594
 11
-173.940708
 21
92.08594
  0
LINE
  8
寸法
  6
CONTINUOUS
 10
-171.164485
 20
83.08594
 11
-173.940708
 21
83.08594
  0
LINE
  8
寸法
  6
CONTINUOUS
 10
-173.940708
 20
92.08594
 11
-173.940708
 21
83.08594
  0
POINT
  8
寸法
 10
-173.940708
 20
92.08594
  0
POINT
  8
寸法
 10
-173.940708
 20
83.08594
  0
TEXT
  7
TextStyle03
  8
寸法
  6
CONTINUOUS
 10
-174.3
 20
85.1125
  1
900
 40
3.0
 50
90.0
 72
     5
 11
-174.3
 21
89.9875
  0
ENDBLK
  0
BLOCK
  2
*DIM_0076
 70
    65
 10
0.0
 20
0.0
  0
LINE
  8
寸法
  6
CONTINUOUS
 10
-171.164485
 20
66.287893
 11
-173.940708
 21
66.287893
  0
LINE
  8
寸法
  6
CONTINUOUS
 10
-171.164485
 20
53.287893
 11
-173.940708
 21
53.287893
  0
LINE
  8
寸法
  6
CONTINUOUS
 10
-173.940708
 20
66.287893
 11
-173.940708
 21
53.287893
  0
POINT
  8
寸法
 10
-173.940708
 20
66.287893
  0
POINT
  8
寸法
 10
-173.940708
 20
53.287893
  0
TEXT
  7
TextStyle03
  8
寸法
  6
CONTINUOUS
 10
-174.3
 20
56.49375
  1
1300
 40
3.0
 50
90.0
 72
     5
 11
-174.3
 21
63.05625
  0
ENDBLK
  0
BLOCK
  2
*GRP_0077
 70
    65
 10
0.0
 20
0.0
  0
POLYLINE
  8
寸法
  6
CONTINUOUS
 66
     1
  0
VERTEX
  8
寸法
 10
-159.119258
 20
109.440243
  0
VERTEX
  8
寸法
 10
-156.164485
 20
108.921283
  0
VERTEX
  8
寸法
 10
-158.463912
 20
110.8481
  0
SEQEND
  0
LINE
  8
寸法
  6
CONTINUOUS
 10
-156.164485
 20
108.921283
 11
-161.008947
 21
111.17633
  0
ENDBLK
  0
BLOCK
  2
*GRP_0078
 70
    65
 10
0.0
 20
0.0
  0
POLYLINE
  8
寸法
  6
CONTINUOUS
 66
     1
  0
VERTEX
  8
寸法
 10
-149.119258
 20
109.440243
  0
VERTEX
  8
寸法
 10
-146.164485
 20
108.921283
  0
VERTEX
  8
寸法
 10
-148.463912
 20
110.8481
  0
SEQEND
  0
LINE
  8
寸法
  6
CONTINUOUS
 10
-146.164485
 20
108.921283
 11
-151.008947
 21
111.17633
  0
ENDBLK
  0
BLOCK
  2
*GRP_0079
 70
    65
 10
0.0
 20
0.0
  0
POLYLINE
  8
寸法
  6
CONTINUOUS
 66
     1
  0
VERTEX
  8
寸法
 10
-139.119258
 20
109.440243
  0
VERTEX
  8
寸法
 10
-136.164485
 20
108.921283
  0
VERTEX
  8
寸法
 10
-138.463912
 20
110.8481
  0
SEQEND
  0
LINE
  8
寸法
  6
CONTINUOUS
 10
-136.164485
 20
108.921283
 11
-141.008947
 21
111.17633
  0
ENDBLK
  0
BLOCK
  2
*GRP_0080
 70
    65
 10
0.0
 20
0.0
  0
POLYLINE
  8
寸法
  6
CONTINUOUS
 66
     1
  0
VERTEX
  8
寸法
 10
-159.119258
 20
87.02819
  0
VERTEX
  8
寸法
 10
-156.164485
 20
86.50923
  0
VERTEX
  8
寸法
 10
-158.463912
 20
88.436047
  0
SEQEND
  0
LINE
  8
寸法
  6
CONTINUOUS
 10
-156.164485
 20
86.50923
 11
-161.008947
 21
88.764278
  0
ENDBLK
  0
BLOCK
  2
*GRP_0081
 70
    65
 10
0.0
 20
0.0
  0
POLYLINE
  8
寸法
  6
CONTINUOUS
 66
     1
  0
VERTEX
  8
寸法
 10
-149.119258
 20
87.02819
  0
VERTEX
  8
寸法
 10
-146.164485
 20
86.50923
  0
VERTEX
  8
寸法
 10
-148.463912
 20
88.436047
  0
SEQEND
  0
LINE
  8
寸法
  6
CONTINUOUS
 10
-146.164485
 20
86.50923
 11
-151.008947
 21
88.764278
  0
ENDBLK
  0
BLOCK
  2
*GRP_0082
 70
    65
 10
0.0
 20
0.0
  0
POLYLINE
  8
寸法
  6
CONTINUOUS
 66
     1
  0
VERTEX
  8
寸法
 10
-139.119258
 20
87.02819
  0
VERTEX
  8
寸法
 10
-136.164485
 20
86.50923
  0
VERTEX
  8
寸法
 10
-138.463912
 20
88.436047
  0
SEQEND
  0
LINE
  8
寸法
  6
CONTINUOUS
 10
-136.164485
 20
86.50923
 11
-141.008947
 21
88.764278
  0
ENDBLK
  0
BLOCK
  2
*GRP_0083
 70
    65
 10
0.0
 20
0.0
  0
POLYLINE
  8
寸法
  6
CONTINUOUS
 66
     1
  0
VERTEX
  8
寸法
 10
-159.119258
 20
58.489103
  0
VERTEX
  8
寸法
 10
-156.164485
 20
57.970142
  0
VERTEX
  8
寸法
 10
-158.463912
 20
59.89696
  0
SEQEND
  0
LINE
  8
寸法
  6
CONTINUOUS
 10
-156.164485
 20
57.970142
 11
-161.008947
 21
60.22519
  0
ENDBLK
  0
BLOCK
  2
*GRP_0084
 70
    65
 10
0.0
 20
0.0
  0
POLYLINE
  8
寸法
  6
CONTINUOUS
 66
     1
  0
VERTEX
  8
寸法
 10
-149.119258
 20
58.489103
  0
VERTEX
  8
寸法
 10
-146.164485
 20
57.970142
  0
VERTEX
  8
寸法
 10
-148.463912
 20
59.89696
  0
SEQEND
  0
LINE
  8
寸法
  6
CONTINUOUS
 10
-146.164485
 20
57.970142
 11
-151.008947
 21
60.22519
  0
ENDBLK
  0
BLOCK
  2
*GRP_0085
 70
    65
 10
0.0
 20
0.0
  0
POLYLINE
  8
寸法
  6
CONTINUOUS
 66
     1
  0
VERTEX
  8
寸法
 10
-139.119258
 20
58.489103
  0
VERTEX
  8
寸法
 10
-136.164485
 20
57.970142
  0
VERTEX
  8
寸法
 10
-138.463912
 20
59.89696
  0
SEQEND
  0
LINE
  8
寸法
  6
CONTINUOUS
 10
-136.164485
 20
57.970142
 11
-141.008947
 21
60.22519
  0
ENDBLK
  0
BLOCK
  2
*DIM_0086
 70
    65
 10
0.0
 20
0.0
  0
LINE
  8
寸法
  6
CONTINUOUS
 10
8.460102
 20
-43.31708
 11
8.460102
 21
-60.326113
  0
LINE
  8
寸法
  6
CONTINUOUS
 10
5.52677
 20
-57.983748
 11
5.52677
 21
-60.326113
  0
LINE
  8
寸法
  6
CONTINUOUS
 10
8.460102
 20
-60.326113
 11
5.52677
 21
-60.326113
  0
POINT
  8
寸法
 10
8.460102
 20
-60.326113
  0
POINT
  8
寸法
 10
5.52677
 20
-60.326113
  0
TEXT
  7
TextStyle03
  8
寸法
  6
CONTINUOUS
 10
9.5875
 20
-59.925
  1
8.8
 40
3.0
 72
     5
 11
14.4625
 21
-59.925
  0
ENDBLK
  0
BLOCK
  2
*DIM_0087
 70
    65
 10
0.0
 20
0.0
  0
LINE
  8
寸法
  6
CONTINUOUS
 10
-13.606573
 20
-57.983748
 11
-13.606573
 21
-60.326113
  0
LINE
  8
寸法
  6
CONTINUOUS
 10
5.52677
 20
-60.326113
 11
-13.606573
 21
-60.326113
  0
POINT
  8
寸法
 10
-13.606573
 20
-60.326113
  0
TEXT
  7
TextStyle03
  8
寸法
  6
CONTINUOUS
 10
-7.33125
 20
-59.925
  1
57.4
 40
3.0
 72
     5
 11
-0.76875
 21
-59.925
  0
ENDBLK
  0
BLOCK
  2
*DIM_0088
 70
    65
 10
0.0
 20
0.0
  0
LINE
  8
寸法
  6
CONTINUOUS
 10
-16.539898
 20
-43.31708
 11
-16.539898
 21
-60.326113
  0
LINE
  8
寸法
  6
CONTINUOUS
 10
-13.606573
 20
-60.326113
 11
-16.539898
 21
-60.326113
  0
POINT
  8
寸法
 10
-16.539898
 20
-60.326113
  0
TEXT
  7
TextStyle03
  8
寸法
  6
CONTINUOUS
 10
-22.5625
 20
-59.925
  1
8.8
 40
3.0
 72
     5
 11
-17.6875
 21
-59.925
  0
ENDBLK
  0
BLOCK
  2
*DIM_0089
 70
    65
 10
0.0
 20
0.0
  0
LINE
  8
寸法
  6
CONTINUOUS
 10
8.460102
 20
-43.31708
 11
8.460102
 21
-66.277557
  0
LINE
  8
寸法
  6
CONTINUOUS
 10
-16.539898
 20
-43.31708
 11
-16.539898
 21
-66.277557
  0
LINE
  8
寸法
  6
CONTINUOUS
 10
8.460102
 20
-66.277557
 11
-16.539898
 21
-66.277557
  0
POINT
  8
寸法
 10
8.460102
 20
-66.277557
  0
POINT
  8
寸法
 10
-16.539898
 20
-66.277557
  0
TEXT
  7
TextStyle03
  8
寸法
  6
CONTINUOUS
 10
-5.61875
 20
-65.875
  1
75
 40
3.0
 72
     5
 11
-2.43125
 21
-65.875
  0
ENDBLK
  0
BLOCK
  2
*DIM_0090
 70
    65
 10
0.0
 20
0.0
  0
LINE
  8
寸法
  6
CONTINUOUS
 10
8.46011
 20
-107.290525
 11
8.46011
 21
-110.344182
  0
LINE
  8
寸法
  6
CONTINUOUS
 10
-16.53989
 20
-107.290525
 11
-16.53989
 21
-110.344182
  0
LINE
  8
寸法
  6
CONTINUOUS
 10
8.46011
 20
-110.344182
 11
-16.53989
 21
-110.344182
  0
POINT
  8
寸法
 10
8.46011
 20
-110.344182
  0
POINT
  8
寸法
 10
-16.53989
 20
-110.344182
  0
TEXT
  7
TextStyle03
  8
寸法
  6
CONTINUOUS
 10
-5.61875
 20
-109.95
  1
75
 40
3.0
 72
     5
 11
-2.43125
 21
-109.95
  0
ENDBLK
  0
BLOCK
  2
*GRP_0091
 70
    65
 10
0.0
 20
0.0
  0
POLYLINE
  8
寸法
  6
CONTINUOUS
 66
     1
  0
VERTEX
  8
寸法
 10
11.914785
 20
-99.4402
  0
VERTEX
  8
寸法
 10
15.061262
 20
-107.19242
  0
VERTEX
  8
寸法
 10
17.750885
 20
-107.19242
  0
SEQEND
  0
ENDBLK
  0
BLOCK
  2
*GRP_0092
 70
    65
 10
0.0
 20
0.0
  0
LINE
  8
別途部材
  6
CONTINUOUS
 10
-84.423153
 20
-21.483727
 11
-83.923153
 21
-21.483727
  0
LINE
  8
別途部材
  6
CONTINUOUS
 10
-84.423153
 20
-20.817062
 11
-84.423153
 21
-21.483727
  0
ARC
  8
別途部材
  6
CONTINUOUS
 10
-83.423158
 20
-20.817065
 40
1.0
 50
90.0
 51
180.0
  0
LINE
  8
別途部材
  6
CONTINUOUS
 10
-83.923153
 20
-20.817062
 11
-83.923153
 21
-21.483727
  0
ARC
  8
別途部材
  6
CONTINUOUS
 10
-83.423158
 20
-20.817065
 40
0.5
 50
90.0
 51
180.0
  0
LINE
  8
別途部材
  6
CONTINUOUS
 10
-83.423153
 20
-20.317062
 11
-82.857935
 21
-20.317062
  0
LINE
  8
別途部材
  6
CONTINUOUS
 10
-62.089818
 20
-20.883727
 11
-62.089818
 21
-20.483727
  0
LINE
  8
別途部材
  6
CONTINUOUS
 10
-59.423153
 20
-20.150395
 11
-59.423153
 21
-20.883727
  0
ARC
  8
別途部材
  6
CONTINUOUS
 10
-59.756491
 20
-20.150399
 40
0.333333
 50
0.0
 51
90.0
  0
LINE
  8
別途部材
  6
CONTINUOUS
 10
-59.423153
 20
-20.883727
 11
-62.089818
 21
-20.883727
  0
LINE
  8
別途部材
  6
CONTINUOUS
 10
-83.423153
 20
-19.817062
 11
-59.756485
 21
-19.817062
  0
LINE
  8
別途部材
  6
CONTINUOUS
 10
-68.691267
 20
-20.483727
 11
-62.089818
 21
-20.483727
  0
ARC
  8
別途部材
  6
CONTINUOUS
 10
-68.691277
 20
-21.483735
 40
1.0
 50
90.0
 51
180.0
  0
LINE
  8
別途部材
  6
CONTINUOUS
 10
-69.791267
 20
-24.150395
 11
-69.691267
 21
-24.050395
  0
LINE
  8
別途部材
  6
CONTINUOUS
 10
-69.791267
 20
-24.150395
 11
-69.691267
 21
-24.250395
  0
LINE
  8
別途部材
  6
CONTINUOUS
 10
-69.691267
 20
-21.483727
 11
-69.691267
 21
-24.050395
  0
LINE
  8
別途部材
  6
CONTINUOUS
 10
-69.691267
 20
-24.250395
 11
-69.691267
 21
-26.317062
  0
LINE
  8
別途部材
  6
CONTINUOUS
 10
-82.757935
 20
-31.983727
 11
-82.857935
 21
-31.883727
  0
LINE
  8
別途部材
  6
CONTINUOUS
 10
-82.757935
 20
-31.983727
 11
-82.857935
 21
-32.083727
  0
LINE
  8
別途部材
  6
CONTINUOUS
 10
-82.857935
 20
-20.317062
 11
-82.857935
 21
-31.883727
  0
LINE
  8
別途部材
  6
CONTINUOUS
 10
-82.857935
 20
-32.083727
 11
-82.857935
 21
-36.483727
  0
LINE
  8
別途部材
  6
CONTINUOUS
 10
-80.024603
 20
-27.983727
 11
-80.024603
 21
-33.650395
  0
LINE
  8
別途部材
  6
CONTINUOUS
 10
-80.524603
 20
-33.650395
 11
-80.024603
 21
-33.650395
  0
LINE
  8
別途部材
  6
CONTINUOUS
 10
-82.857935
 20
-36.483727
 11
-82.357935
 21
-36.483727
  0
LINE
  8
別途部材
  6
CONTINUOUS
 10
-80.024603
 20
-27.983727
 11
-82.357935
 21
-27.983727
  0
LINE
  8
別途部材
  6
CONTINUOUS
 10
-80.524603
 20
-28.483727
 11
-82.357935
 21
-28.483727
  0
LINE
  8
別途部材
  6
CONTINUOUS
 10
-82.357935
 20
-28.483727
 11
-82.357935
 21
-36.483727
  0
LINE
  8
別途部材
  6
CONTINUOUS
 10
-82.357935
 20
-26.317062
 11
-82.357935
 21
-27.983727
  0
LINE
  8
別途部材
  6
CONTINUOUS
 10
-80.424603
 20
-31.983727
 11
-80.524603
 21
-31.883727
  0
LINE
  8
別途部材
  6
CONTINUOUS
 10
-80.424603
 20
-31.983727
 11
-80.524603
 21
-32.083727
  0
LINE
  8
別途部材
  6
CONTINUOUS
 10
-80.524603
 20
-28.483727
 11
-80.524603
 21
-31.883727
  0
LINE
  8
別途部材
  6
CONTINUOUS
 10
-80.524603
 20
-32.083727
 11
-80.524603
 21
-33.650395
  0
LINE
  8
別途部材
  6
DOT
 10
-82.857935
 20
-30.317062
 11
-82.357935
 21
-30.317062
  0
LINE
  8
別途部材
  6
DOT
 10
-82.857935
 20
-33.650395
 11
-82.357935
 21
-33.650395
  0
LINE
  8
別途部材
  6
CONTINUOUS
 10
-82.357935
 20
-20.317062
 11
-70.191267
 21
-20.317062
  0
LINE
  8
別途部材
  6
DOT
 10
-82.732935
 20
-30.317062
 11
-82.732935
 21
-33.650395
  0
LINE
  8
別途部材
  6
DOT
 10
-82.607935
 20
-30.317062
 11
-82.607935
 21
-33.650395
  0
LINE
  8
別途部材
  6
DOT
 10
-82.482935
 20
-30.317062
 11
-82.482935
 21
-33.650395
  0
LINE
  8
別途部材
  6
CONTINUOUS
 10
-70.191267
 20
-20.317062
 11
-70.191267
 21
-25.817062
  0
LINE
  8
別途部材
  6
CONTINUOUS
 10
-82.357935
 20
-20.317062
 11
-82.357935
 21
-25.817062
  0
LINE
  8
別途部材
  6
CONTINUOUS
 10
-70.191267
 20
-25.817062
 11
-82.357935
 21
-25.817062
  0
LINE
  8
別途部材
  6
CONTINUOUS
 10
-77.441267
 20
-26.217062
 11
-77.341267
 21
-26.317062
  0
LINE
  8
別途部材
  6
CONTINUOUS
 10
-77.441267
 20
-26.217062
 11
-77.541267
 21
-26.317062
  0
LINE
  8
別途部材
  6
CONTINUOUS
 10
-73.274603
 20
-26.217062
 11
-73.174603
 21
-26.317062
  0
LINE
  8
別途部材
  6
CONTINUOUS
 10
-73.274603
 20
-26.217062
 11
-73.374603
 21
-26.317062
  0
LINE
  8
別途部材
  6
CONTINUOUS
 10
-77.341267
 20
-26.317062
 11
-73.374603
 21
-26.317062
  0
LINE
  8
別途部材
  6
CONTINUOUS
 10
-69.691267
 20
-26.317062
 11
-73.174603
 21
-26.317062
  0
LINE
  8
別途部材
  6
CONTINUOUS
 10
-82.357935
 20
-26.317062
 11
-77.541267
 21
-26.317062
  0
ENDBLK
  0
BLOCK
  2
*GRP_0093
 70
    65
 10
0.0
 20
0.0
  0
LINE
  8
別途部材
  6
CONTINUOUS
 10
76.343357
 20
-21.483727
 11
75.843357
 21
-21.483727
  0
LINE
  8
別途部材
  6
CONTINUOUS
 10
76.343357
 20
-20.817062
 11
76.343357
 21
-21.483727
  0
ARC
  8
別途部材
  6
CONTINUOUS
 10
75.34336
 20
-20.817065
 40
1.0
 50
0.0
 51
90.0
  0
LINE
  8
別途部材
  6
CONTINUOUS
 10
75.843357
 20
-20.817062
 11
75.843357
 21
-21.483727
  0
ARC
  8
別途部材
  6
CONTINUOUS
 10
75.34336
 20
-20.817065
 40
0.5
 50
0.0
 51
90.0
  0
LINE
  8
別途部材
  6
CONTINUOUS
 10
75.343357
 20
-20.317062
 11
74.77814
 21
-20.317062
  0
LINE
  8
別途部材
  6
CONTINUOUS
 10
54.010023
 20
-20.883727
 11
54.010023
 21
-20.483727
  0
LINE
  8
別途部材
  6
CONTINUOUS
 10
51.343357
 20
-20.150395
 11
51.343357
 21
-20.883727
  0
ARC
  8
別途部材
  6
CONTINUOUS
 10
51.676693
 20
-20.150399
 40
0.333333
 50
90.0
 51
180.0
  0
LINE
  8
別途部材
  6
CONTINUOUS
 10
51.343357
 20
-20.883727
 11
54.010023
 21
-20.883727
  0
LINE
  8
別途部材
  6
CONTINUOUS
 10
75.343357
 20
-19.817062
 11
51.67669
 21
-19.817062
  0
LINE
  8
別途部材
  6
CONTINUOUS
 10
60.611472
 20
-20.483727
 11
54.010023
 21
-20.483727
  0
ARC
  8
別途部材
  6
CONTINUOUS
 10
60.611479
 20
-21.483735
 40
1.0
 50
0.0
 51
90.0
  0
LINE
  8
別途部材
  6
CONTINUOUS
 10
61.711472
 20
-24.150395
 11
61.611472
 21
-24.050395
  0
LINE
  8
別途部材
  6
CONTINUOUS
 10
61.711472
 20
-24.150395
 11
61.611472
 21
-24.250395
  0
LINE
  8
別途部材
  6
CONTINUOUS
 10
61.611472
 20
-21.483727
 11
61.611472
 21
-24.050395
  0
LINE
  8
別途部材
  6
CONTINUOUS
 10
61.611472
 20
-24.250395
 11
61.611472
 21
-26.317062
  0
LINE
  8
別途部材
  6
CONTINUOUS
 10
74.67814
 20
-31.983727
 11
74.77814
 21
-31.883727
  0
LINE
  8
別途部材
  6
CONTINUOUS
 10
74.67814
 20
-31.983727
 11
74.77814
 21
-32.083727
  0
LINE
  8
別途部材
  6
CONTINUOUS
 10
74.77814
 20
-20.317062
 11
74.77814
 21
-31.883727
  0
LINE
  8
別途部材
  6
CONTINUOUS
 10
74.77814
 20
-32.083727
 11
74.77814
 21
-36.483727
  0
LINE
  8
別途部材
  6
CONTINUOUS
 10
71.944808
 20
-27.983727
 11
71.944808
 21
-33.650395
  0
LINE
  8
別途部材
  6
CONTINUOUS
 10
72.444808
 20
-33.650395
 11
71.944808
 21
-33.650395
  0
LINE
  8
別途部材
  6
CONTINUOUS
 10
74.77814
 20
-36.483727
 11
74.27814
 21
-36.483727
  0
LINE
  8
別途部材
  6
CONTINUOUS
 10
71.944808
 20
-27.983727
 11
74.27814
 21
-27.983727
  0
LINE
  8
別途部材
  6
CONTINUOUS
 10
72.444808
 20
-28.483727
 11
74.27814
 21
-28.483727
  0
LINE
  8
別途部材
  6
CONTINUOUS
 10
74.27814
 20
-28.483727
 11
74.27814
 21
-36.483727
  0
LINE
  8
別途部材
  6
CONTINUOUS
 10
74.27814
 20
-26.317062
 11
74.27814
 21
-27.983727
  0
LINE
  8
別途部材
  6
CONTINUOUS
 10
72.344808
 20
-31.983727
 11
72.444808
 21
-31.883727
  0
LINE
  8
別途部材
  6
CONTINUOUS
 10
72.344808
 20
-31.983727
 11
72.444808
 21
-32.083727
  0
LINE
  8
別途部材
  6
CONTINUOUS
 10
72.444808
 20
-28.483727
 11
72.444808
 21
-31.883727
  0
LINE
  8
別途部材
  6
CONTINUOUS
 10
72.444808
 20
-32.083727
 11
72.444808
 21
-33.650395
  0
LINE
  8
別途部材
  6
DOT
 10
74.77814
 20
-30.317062
 11
74.27814
 21
-30.317062
  0
LINE
  8
別途部材
  6
DOT
 10
74.77814
 20
-33.650395
 11
74.27814
 21
-33.650395
  0
LINE
  8
別途部材
  6
CONTINUOUS
 10
74.27814
 20
-20.317062
 11
62.111472
 21
-20.317062
  0
LINE
  8
別途部材
  6
DOT
 10
74.65314
 20
-30.317062
 11
74.65314
 21
-33.650395
  0
LINE
  8
別途部材
  6
DOT
 10
74.52814
 20
-30.317062
 11
74.52814
 21
-33.650395
  0
LINE
  8
別途部材
  6
DOT
 10
74.40314
 20
-30.317062
 11
74.40314
 21
-33.650395
  0
LINE
  8
別途部材
  6
CONTINUOUS
 10
62.111472
 20
-20.317062
 11
62.111472
 21
-25.817062
  0
LINE
  8
別途部材
  6
CONTINUOUS
 10
74.27814
 20
-20.317062
 11
74.27814
 21
-25.817062
  0
LINE
  8
別途部材
  6
CONTINUOUS
 10
62.111472
 20
-25.817062
 11
74.27814
 21
-25.817062
  0
LINE
  8
別途部材
  6
CONTINUOUS
 10
69.361472
 20
-26.217062
 11
69.261472
 21
-26.317062
  0
LINE
  8
別途部材
  6
CONTINUOUS
 10
69.361472
 20
-26.217062
 11
69.461472
 21
-26.317062
  0
LINE
  8
別途部材
  6
CONTINUOUS
 10
65.194808
 20
-26.217062
 11
65.094808
 21
-26.317062
  0
LINE
  8
別途部材
  6
CONTINUOUS
 10
65.194808
 20
-26.217062
 11
65.294808
 21
-26.317062
  0
LINE
  8
別途部材
  6
CONTINUOUS
 10
69.261472
 20
-26.317062
 11
65.294808
 21
-26.317062
  0
LINE
  8
別途部材
  6
CONTINUOUS
 10
61.611472
 20
-26.317062
 11
65.094808
 21
-26.317062
  0
LINE
  8
別途部材
  6
CONTINUOUS
 10
74.27814
 20
-26.317062
 11
69.461472
 21
-26.317062
  0
ENDBLK
  0
BLOCK
  2
*GRP_0094
 70
    65
 10
0.0
 20
0.0
  0
LINE
  8
ボルト／ビス
  6
CONTINUOUS
 62
    64
 10
84.879
 20
-65.849907
 11
84.879
 21
-89.096807
  0
LINE
  8
ボルト／ビス
  6
CONTINUOUS
 62
    64
 10
83.712383
 20
-68.486132
 11
83.948057
 21
-68.25029
  0
LINE
  8
ボルト／ビス
  6
CONTINUOUS
 62
    64
 10
83.712383
 20
-68.486132
 11
83.712383
 21
-70.583615
  0
LINE
  8
ボルト／ビス
  6
CONTINUOUS
 62
    64
 10
83.712383
 20
-68.486132
 11
83.476707
 21
-68.25029
  0
LINE
  8
ボルト／ビス
  6
CONTINUOUS
 62
    64
 10
83.781415
 20
-66.583698
 11
83.781415
 21
-68.25029
  0
LINE
  8
ボルト／ビス
  6
CONTINUOUS
 62
    64
 10
82.212365
 20
-70.583615
 11
82.212365
 21
-71.41699
  0
LINE
  8
ボルト／ビス
  6
CONTINUOUS
 62
    64
 10
83.54564
 20
-78.250332
 11
83.781415
 21
-78.014657
  0
LINE
  8
ボルト／ビス
  6
CONTINUOUS
 62
    64
 10
83.781415
 20
-71.917083
 11
83.781415
 21
-78.014657
  0
LINE
  8
ボルト／ビス
  6
CONTINUOUS
 62
    64
 10
83.54564
 20
-81.383432
 11
82.251575
 21
-86.213098
  0
LINE
  8
ボルト／ビス
  6
CONTINUOUS
 62
    64
 10
83.54564
 20
-71.917083
 11
83.54564
 21
-81.383432
  0
LINE
  8
ボルト／ビス
  6
CONTINUOUS
 62
    64
 10
83.712383
 20
-68.486132
 11
83.948057
 21
-68.25029
  0
LINE
  8
ボルト／ビス
  6
CONTINUOUS
 62
    64
 10
86.025465
 20
-68.486132
 11
86.26114
 21
-68.25029
  0
LINE
  8
ボルト／ビス
  6
CONTINUOUS
 62
    64
 10
86.025465
 20
-68.486132
 11
86.025465
 21
-70.583615
  0
LINE
  8
ボルト／ビス
  6
CONTINUOUS
 62
    64
 10
86.025465
 20
-68.486132
 11
85.78979
 21
-68.25029
  0
LINE
  8
ボルト／ビス
  6
CONTINUOUS
 62
    64
 10
85.97664
 20
-66.583698
 11
85.97664
 21
-68.25029
  0
LINE
  8
ボルト／ビス
  6
CONTINUOUS
 62
    64
 10
87.545732
 20
-70.583615
 11
87.545732
 21
-71.41699
  0
LINE
  8
ボルト／ビス
  6
CONTINUOUS
 62
    64
 10
86.212325
 20
-78.250332
 11
85.97664
 21
-78.014657
  0
LINE
  8
ボルト／ビス
  6
CONTINUOUS
 62
    64
 10
85.97664
 20
-71.917083
 11
85.97664
 21
-78.014657
  0
LINE
  8
ボルト／ビス
  6
CONTINUOUS
 62
    64
 10
86.212325
 20
-81.383432
 11
87.506425
 21
-86.213098
  0
LINE
  8
ボルト／ビス
  6
CONTINUOUS
 62
    64
 10
86.212325
 20
-71.917083
 11
86.212325
 21
-81.383432
  0
LINE
  8
ボルト／ビス
  6
CONTINUOUS
 62
    64
 10
86.212325
 20
-66.819373
 11
85.97664
 21
-66.583698
  0
LINE
  8
ボルト／ビス
  6
CONTINUOUS
 62
    64
 10
86.212325
 20
-68.25029
 11
86.212325
 21
-66.819373
  0
LINE
  8
ボルト／ビス
  6
CONTINUOUS
 62
    64
 10
85.97664
 20
-66.583698
 11
83.781415
 21
-66.583698
  0
LINE
  8
ボルト／ビス
  6
CONTINUOUS
 62
    64
 10
83.781415
 20
-66.583698
 11
83.54564
 21
-66.819373
  0
LINE
  8
ボルト／ビス
  6
CONTINUOUS
 62
    64
 10
86.212325
 20
-66.819373
 11
83.54564
 21
-66.819373
  0
LINE
  8
ボルト／ビス
  6
CONTINUOUS
 62
    64
 10
83.54564
 20
-68.25029
 11
83.54564
 21
-66.819373
  0
LINE
  8
ボルト／ビス
  6
CONTINUOUS
 62
    64
 10
81.945708
 20
-68.486132
 11
82.181382
 21
-68.25029
  0
LINE
  8
ボルト／ビス
  6
CONTINUOUS
 62
    64
 10
81.945708
 20
-68.486132
 11
81.945708
 21
-70.583615
  0
LINE
  8
ボルト／ビス
  6
CONTINUOUS
 62
    64
 10
82.181382
 20
-68.25029
 11
87.576615
 21
-68.25029
  0
LINE
  8
ボルト／ビス
  6
CONTINUOUS
 62
    64
 10
87.81229
 20
-68.486132
 11
87.576615
 21
-68.25029
  0
LINE
  8
ボルト／ビス
  6
CONTINUOUS
 62
    64
 10
87.81229
 20
-68.486132
 11
87.81229
 21
-70.583615
  0
LINE
  8
ボルト／ビス
  6
CONTINUOUS
 62
    64
 10
81.945708
 20
-70.583615
 11
87.81229
 21
-70.583615
  0
LINE
  8
ボルト／ビス
  6
CONTINUOUS
 62
    64
 10
88.129058
 20
-71.41699
 11
88.129058
 21
-71.917083
  0
LINE
  8
ボルト／ビス
  6
CONTINUOUS
 62
    64
 10
88.129058
 20
-71.41699
 11
81.629
 21
-71.41699
  0
LINE
  8
ボルト／ビス
  6
CONTINUOUS
 62
    64
 10
81.629
 20
-71.41699
 11
81.629
 21
-71.917083
  0
LINE
  8
ボルト／ビス
  6
CONTINUOUS
 62
    64
 10
88.129058
 20
-71.917083
 11
81.629
 21
-71.917083
  0
LINE
  8
ボルト／ビス
  6
CONTINUOUS
 62
    64
 10
84.879
 20
-81.602923
 11
86.20764
 21
-86.561147
  0
LINE
  8
ボルト／ビス
  6
CONTINUOUS
 62
    64
 10
87.506425
 20
-86.213098
 11
86.20764
 21
-86.561147
  0
LINE
  8
ボルト／ビス
  6
CONTINUOUS
 62
    64
 10
84.879
 20
-81.602923
 11
83.55045
 21
-86.561147
  0
LINE
  8
ボルト／ビス
  6
CONTINUOUS
 62
    64
 10
82.251575
 20
-86.213098
 11
83.55045
 21
-86.561147
  0
LINE
  8
ボルト／ビス
  6
CONTINUOUS
 62
    64
 10
83.54564
 20
-87.250282
 11
83.97564
 21
-84.811582
  0
LINE
  8
ボルト／ビス
  6
CONTINUOUS
 62
    64
 10
86.212325
 20
-87.250282
 11
85.782358
 21
-84.811582
  0
LINE
  8
ボルト／ビス
  6
CONTINUOUS
 62
    64
 10
83.54564
 20
-87.250282
 11
86.212325
 21
-87.250282
  0
LINE
  8
ボルト／ビス
  6
CONTINUOUS
 62
    64
 10
83.97564
 20
-84.811582
 11
85.782358
 21
-84.811582
  0
ENDBLK
  0
BLOCK
  2
*GRP_0095
 70
    65
 10
0.0
 20
0.0
  0
LINE
  8
ボルト／ビス
  6
CONTINUOUS
 62
    64
 10
-92.958795
 20
-65.849907
 11
-92.958795
 21
-89.096807
  0
LINE
  8
ボルト／ビス
  6
CONTINUOUS
 62
    64
 10
-94.125413
 20
-68.486132
 11
-93.889737
 21
-68.25029
  0
LINE
  8
ボルト／ビス
  6
CONTINUOUS
 62
    64
 10
-94.125413
 20
-68.486132
 11
-94.125413
 21
-70.583615
  0
LINE
  8
ボルト／ビス
  6
CONTINUOUS
 62
    64
 10
-94.125413
 20
-68.486132
 11
-94.361088
 21
-68.25029
  0
LINE
  8
ボルト／ビス
  6
CONTINUOUS
 62
    64
 10
-94.05638
 20
-66.583698
 11
-94.05638
 21
-68.25029
  0
LINE
  8
ボルト／ビス
  6
CONTINUOUS
 62
    64
 10
-95.62543
 20
-70.583615
 11
-95.62543
 21
-71.41699
  0
LINE
  8
ボルト／ビス
  6
CONTINUOUS
 62
    64
 10
-94.292155
 20
-78.250332
 11
-94.05638
 21
-78.014657
  0
LINE
  8
ボルト／ビス
  6
CONTINUOUS
 62
    64
 10
-94.05638
 20
-71.917083
 11
-94.05638
 21
-78.014657
  0
LINE
  8
ボルト／ビス
  6
CONTINUOUS
 62
    64
 10
-94.292155
 20
-81.383432
 11
-95.58622
 21
-86.213098
  0
LINE
  8
ボルト／ビス
  6
CONTINUOUS
 62
    64
 10
-94.292155
 20
-71.917083
 11
-94.292155
 21
-81.383432
  0
LINE
  8
ボルト／ビス
  6
CONTINUOUS
 62
    64
 10
-94.125413
 20
-68.486132
 11
-93.889737
 21
-68.25029
  0
LINE
  8
ボルト／ビス
  6
CONTINUOUS
 62
    64
 10
-91.81233
 20
-68.486132
 11
-91.576655
 21
-68.25029
  0
LINE
  8
ボルト／ビス
  6
CONTINUOUS
 62
    64
 10
-91.81233
 20
-68.486132
 11
-91.81233
 21
-70.583615
  0
LINE
  8
ボルト／ビス
  6
CONTINUOUS
 62
    64
 10
-91.81233
 20
-68.486132
 11
-92.048005
 21
-68.25029
  0
LINE
  8
ボルト／ビス
  6
CONTINUOUS
 62
    64
 10
-91.861155
 20
-66.583698
 11
-91.861155
 21
-68.25029
  0
LINE
  8
ボルト／ビス
  6
CONTINUOUS
 62
    64
 10
-90.292062
 20
-70.583615
 11
-90.292062
 21
-71.41699
  0
LINE
  8
ボルト／ビス
  6
CONTINUOUS
 62
    64
 10
-91.62547
 20
-78.250332
 11
-91.861155
 21
-78.014657
  0
LINE
  8
ボルト／ビス
  6
CONTINUOUS
 62
    64
 10
-91.861155
 20
-71.917083
 11
-91.861155
 21
-78.014657
  0
LINE
  8
ボルト／ビス
  6
CONTINUOUS
 62
    64
 10
-91.62547
 20
-81.383432
 11
-90.33137
 21
-86.213098
  0
LINE
  8
ボルト／ビス
  6
CONTINUOUS
 62
    64
 10
-91.62547
 20
-71.917083
 11
-91.62547
 21
-81.383432
  0
LINE
  8
ボルト／ビス
  6
CONTINUOUS
 62
    64
 10
-91.62547
 20
-66.819373
 11
-91.861155
 21
-66.583698
  0
LINE
  8
ボルト／ビス
  6
CONTINUOUS
 62
    64
 10
-91.62547
 20
-68.25029
 11
-91.62547
 21
-66.819373
  0
LINE
  8
ボルト／ビス
  6
CONTINUOUS
 62
    64
 10
-91.861155
 20
-66.583698
 11
-94.05638
 21
-66.583698
  0
LINE
  8
ボルト／ビス
  6
CONTINUOUS
 62
    64
 10
-94.05638
 20
-66.583698
 11
-94.292155
 21
-66.819373
  0
LINE
  8
ボルト／ビス
  6
CONTINUOUS
 62
    64
 10
-91.62547
 20
-66.819373
 11
-94.292155
 21
-66.819373
  0
LINE
  8
ボルト／ビス
  6
CONTINUOUS
 62
    64
 10
-94.292155
 20
-68.25029
 11
-94.292155
 21
-66.819373
  0
LINE
  8
ボルト／ビス
  6
CONTINUOUS
 62
    64
 10
-95.892087
 20
-68.486132
 11
-95.656412
 21
-68.25029
  0
LINE
  8
ボルト／ビス
  6
CONTINUOUS
 62
    64
 10
-95.892087
 20
-68.486132
 11
-95.892087
 21
-70.583615
  0
LINE
  8
ボルト／ビス
  6
CONTINUOUS
 62
    64
 10
-95.656412
 20
-68.25029
 11
-90.26118
 21
-68.25029
  0
LINE
  8
ボルト／ビス
  6
CONTINUOUS
 62
    64
 10
-90.025505
 20
-68.486132
 11
-90.26118
 21
-68.25029
  0
LINE
  8
ボルト／ビス
  6
CONTINUOUS
 62
    64
 10
-90.025505
 20
-68.486132
 11
-90.025505
 21
-70.583615
  0
LINE
  8
ボルト／ビス
  6
CONTINUOUS
 62
    64
 10
-95.892087
 20
-70.583615
 11
-90.025505
 21
-70.583615
  0
LINE
  8
ボルト／ビス
  6
CONTINUOUS
 62
    64
 10
-89.708738
 20
-71.41699
 11
-89.708738
 21
-71.917083
  0
LINE
  8
ボルト／ビス
  6
CONTINUOUS
 62
    64
 10
-89.708738
 20
-71.41699
 11
-96.208795
 21
-71.41699
  0
LINE
  8
ボルト／ビス
  6
CONTINUOUS
 62
    64
 10
-96.208795
 20
-71.41699
 11
-96.208795
 21
-71.917083
  0
LINE
  8
ボルト／ビス
  6
CONTINUOUS
 62
    64
 10
-89.708738
 20
-71.917083
 11
-96.208795
 21
-71.917083
  0
LINE
  8
ボルト／ビス
  6
CONTINUOUS
 62
    64
 10
-92.958795
 20
-81.602923
 11
-91.630155
 21
-86.561147
  0
LINE
  8
ボルト／ビス
  6
CONTINUOUS
 62
    64
 10
-90.33137
 20
-86.213098
 11
-91.630155
 21
-86.561147
  0
LINE
  8
ボルト／ビス
  6
CONTINUOUS
 62
    64
 10
-92.958795
 20
-81.602923
 11
-94.287345
 21
-86.561147
  0
LINE
  8
ボルト／ビス
  6
CONTINUOUS
 62
    64
 10
-95.58622
 20
-86.213098
 11
-94.287345
 21
-86.561147
  0
LINE
  8
ボルト／ビス
  6
CONTINUOUS
 62
    64
 10
-94.292155
 20
-87.250282
 11
-93.862155
 21
-84.811582
  0
LINE
  8
ボルト／ビス
  6
CONTINUOUS
 62
    64
 10
-91.62547
 20
-87.250282
 11
-92.055437
 21
-84.811582
  0
LINE
  8
ボルト／ビス
  6
CONTINUOUS
 62
    64
 10
-94.292155
 20
-87.250282
 11
-91.62547
 21
-87.250282
  0
LINE
  8
ボルト／ビス
  6
CONTINUOUS
 62
    64
 10
-93.862155
 20
-84.811582
 11
-92.055437
 21
-84.811582
  0
ENDBLK
  0
BLOCK
  2
*GRP_0096
 70
    65
 10
0.0
 20
0.0
  0
LINE
  8
曲げ物
  6
CONTINUOUS
 10
-79.357935
 20
-29.483745
 11
-68.625118
 21
-29.483745
  0
LINE
  8
曲げ物
  6
CONTINUOUS
 10
-68.625118
 20
-28.817077
 11
-68.625118
 21
-29.483745
  0
LINE
  8
曲げ物
  6
CONTINUOUS
 10
-79.357935
 20
-29.483745
 11
-79.357935
 21
-33.483745
  0
LINE
  8
曲げ物
  6
CONTINUOUS
 10
-79.357935
 20
-33.483745
 11
-80.024603
 21
-33.483745
  0
ARC
  8
曲げ物
  6
CONTINUOUS
 10
-79.357934
 20
-29.483753
 40
0.666667
 50
90.0
 51
180.0
  0
LINE
  8
曲げ物
  6
CONTINUOUS
 10
-68.625118
 20
-28.817077
 11
-79.357935
 21
-28.817077
  0
LINE
  8
曲げ物
  6
CONTINUOUS
 10
-80.024603
 20
-33.483745
 11
-80.024603
 21
-29.483745
  0
ENDBLK
  0
BLOCK
  2
*GRP_0097
 70
    65
 10
0.0
 20
0.0
  0
LINE
  8
曲げ物
  6
CONTINUOUS
 10
71.27814
 20
-29.483745
 11
60.545322
 21
-29.483745
  0
LINE
  8
曲げ物
  6
CONTINUOUS
 10
60.545322
 20
-28.817077
 11
60.545322
 21
-29.483745
  0
LINE
  8
曲げ物
  6
CONTINUOUS
 10
71.27814
 20
-29.483745
 11
71.27814
 21
-33.483745
  0
LINE
  8
曲げ物
  6
CONTINUOUS
 10
71.27814
 20
-33.483745
 11
71.944808
 21
-33.483745
  0
ARC
  8
曲げ物
  6
CONTINUOUS
 10
71.278137
 20
-29.483753
 40
0.666667
 50
0.0
 51
90.0
  0
LINE
  8
曲げ物
  6
CONTINUOUS
 10
60.545322
 20
-28.817077
 11
71.27814
 21
-28.817077
  0
LINE
  8
曲げ物
  6
CONTINUOUS
 10
71.944808
 20
-33.483745
 11
71.944808
 21
-29.483745
  0
ENDBLK
  0
BLOCK
  2
*GRP_0098
 70
    65
 10
0.0
 20
0.0
  0
ARC
  8
St
  6
CONTINUOUS
 62
   127
 10
70.478999
 20
-54.050413
 40
1.066667
 50
360.0
 51
450.0
  0
LINE
  8
St
  6
CONTINUOUS
 62
   127
 10
84.212023
 20
-52.983748
 11
54.212315
 21
-52.983748
  0
LINE
  8
St
  6
CONTINUOUS
 62
   127
 10
84.212023
 20
-54.050413
 11
54.212315
 21
-54.050413
  0
LINE
  8
St
  6
CONTINUOUS
 62
   127
 10
54.212315
 20
-52.983748
 11
54.212315
 21
-54.050413
  0
LINE
  8
St
  6
CONTINUOUS
 10
56.814245
 20
-52.983748
 11
57.88091
 21
-54.050413
  0
LINE
  8
St
  6
CONTINUOUS
 10
56.578543
 20
-52.983748
 11
57.645207
 21
-54.050413
  0
LINE
  8
St
  6
CONTINUOUS
 10
77.890035
 20
-52.983748
 11
78.9567
 21
-54.050413
  0
LINE
  8
St
  6
CONTINUOUS
 10
77.654333
 20
-52.983748
 11
78.720997
 21
-54.050413
  0
LINE
  8
St
  6
CONTINUOUS
 62
   127
 10
71.545667
 20
-69.650413
 11
70.479003
 21
-69.650413
  0
LINE
  8
St
  6
CONTINUOUS
 62
   127
 10
70.479003
 20
-54.050413
 11
70.479003
 21
-69.650413
  0
LINE
  8
St
  6
CONTINUOUS
 62
   127
 10
71.545667
 20
-54.050413
 11
71.545667
 21
-69.650413
  0
LINE
  8
St
  6
CONTINUOUS
 10
84.212023
 20
-52.983748
 11
84.212023
 21
-54.050413
  0
LINE
  8
St
  6
CONTINUOUS
 10
56.294755
 20
-52.983735
 11
56.294755
 21
-54.050403
  0
LINE
  8
St
  6
CONTINUOUS
 10
54.794755
 20
-52.983735
 11
54.794755
 21
-54.050403
  0
LINE
  8
St
  6
CONTINUOUS
 10
54.794755
 20
-53.250403
 11
56.294755
 21
-53.250403
  0
LINE
  8
St
  6
CONTINUOUS
 10
54.794755
 20
-53.517068
 11
56.294755
 21
-53.517068
  0
LINE
  8
St
  6
CONTINUOUS
 10
54.794755
 20
-53.783735
 11
56.294755
 21
-53.783735
  0
LINE
  8
St
  6
CONTINUOUS
 10
55.544755
 20
-55.06736
 11
55.544755
 21
-51.909815
  0
LINE
  8
St
  6
CONTINUOUS
 10
83.295355
 20
-52.983735
 11
83.295355
 21
-54.050403
  0
LINE
  8
St
  6
CONTINUOUS
 10
81.795355
 20
-52.983735
 11
81.795355
 21
-54.050403
  0
LINE
  8
St
  6
CONTINUOUS
 10
81.795355
 20
-53.250403
 11
83.295355
 21
-53.250403
  0
LINE
  8
St
  6
CONTINUOUS
 10
81.795355
 20
-53.517068
 11
83.295355
 21
-53.517068
  0
LINE
  8
St
  6
CONTINUOUS
 10
81.795355
 20
-53.783735
 11
83.295355
 21
-53.783735
  0
LINE
  8
St
  6
CONTINUOUS
 10
82.545355
 20
-55.06736
 11
82.545355
 21
-51.909815
  0
LINE
  8
St
  6
CONTINUOUS
 10
70.479003
 20
-66.317083
 11
71.545667
 21
-66.317083
  0
LINE
  8
St
  6
CONTINUOUS
 10
70.479003
 20
-62.983748
 11
71.545667
 21
-62.983748
  0
LINE
  8
St
  6
CONTINUOUS
 10
70.74567
 20
-62.983748
 11
70.74567
 21
-66.317083
  0
LINE
  8
St
  6
CONTINUOUS
 10
71.012335
 20
-62.983748
 11
71.012335
 21
-66.317083
  0
LINE
  8
St
  6
CONTINUOUS
 10
71.279003
 20
-62.983748
 11
71.279003
 21
-66.317083
  0
LINE
  8
St
  6
CONTINUOUS
 10
69.501577
 20
-64.650415
 11
72.481405
 21
-64.650415
  0
ENDBLK
  0
BLOCK
  2
*GRP_0099
 70
    65
 10
0.0
 20
0.0
  0
ARC
  8
St
  6
CONTINUOUS
 62
   127
 10
-78.558797
 20
-54.050413
 40
1.066667
 50
90.0
 51
180.0
  0
LINE
  8
St
  6
CONTINUOUS
 62
   127
 10
-92.291817
 20
-52.983748
 11
-62.29211
 21
-52.983748
  0
LINE
  8
St
  6
CONTINUOUS
 62
   127
 10
-92.291817
 20
-54.050413
 11
-62.29211
 21
-54.050413
  0
LINE
  8
St
  6
CONTINUOUS
 62
   127
 10
-62.29211
 20
-52.983748
 11
-62.29211
 21
-54.050413
  0
LINE
  8
St
  6
CONTINUOUS
 10
-64.89404
 20
-52.983748
 11
-65.960705
 21
-54.050413
  0
LINE
  8
St
  6
CONTINUOUS
 10
-64.658338
 20
-52.983748
 11
-65.725003
 21
-54.050413
  0
LINE
  8
St
  6
CONTINUOUS
 10
-85.96983
 20
-52.983748
 11
-87.036495
 21
-54.050413
  0
LINE
  8
St
  6
CONTINUOUS
 10
-85.734127
 20
-52.983748
 11
-86.800792
 21
-54.050413
  0
LINE
  8
St
  6
CONTINUOUS
 62
   127
 10
-79.625462
 20
-69.650413
 11
-78.558798
 21
-69.650413
  0
LINE
  8
St
  6
CONTINUOUS
 62
   127
 10
-78.558798
 20
-54.050413
 11
-78.558798
 21
-69.650413
  0
LINE
  8
St
  6
CONTINUOUS
 62
   127
 10
-79.625462
 20
-54.050413
 11
-79.625462
 21
-69.650413
  0
LINE
  8
St
  6
CONTINUOUS
 10
-92.291817
 20
-52.983748
 11
-92.291817
 21
-54.050413
  0
LINE
  8
St
  6
CONTINUOUS
 10
-64.37455
 20
-52.983735
 11
-64.37455
 21
-54.050403
  0
LINE
  8
St
  6
CONTINUOUS
 10
-62.87455
 20
-52.983735
 11
-62.87455
 21
-54.050403
  0
LINE
  8
St
  6
CONTINUOUS
 10
-62.87455
 20
-53.250403
 11
-64.37455
 21
-53.250403
  0
LINE
  8
St
  6
CONTINUOUS
 10
-62.87455
 20
-53.517068
 11
-64.37455
 21
-53.517068
  0
LINE
  8
St
  6
CONTINUOUS
 10
-62.87455
 20
-53.783735
 11
-64.37455
 21
-53.783735
  0
LINE
  8
St
  6
CONTINUOUS
 10
-63.62455
 20
-55.06736
 11
-63.62455
 21
-51.909815
  0
LINE
  8
St
  6
CONTINUOUS
 10
-91.37515
 20
-52.983735
 11
-91.37515
 21
-54.050403
  0
LINE
  8
St
  6
CONTINUOUS
 10
-89.87515
 20
-52.983735
 11
-89.87515
 21
-54.050403
  0
LINE
  8
St
  6
CONTINUOUS
 10
-89.87515
 20
-53.250403
 11
-91.37515
 21
-53.250403
  0
LINE
  8
St
  6
CONTINUOUS
 10
-89.87515
 20
-53.517068
 11
-91.37515
 21
-53.517068
  0
LINE
  8
St
  6
CONTINUOUS
 10
-89.87515
 20
-53.783735
 11
-91.37515
 21
-53.783735
  0
LINE
  8
St
  6
CONTINUOUS
 10
-90.62515
 20
-55.06736
 11
-90.62515
 21
-51.909815
  0
LINE
  8
St
  6
CONTINUOUS
 10
-78.558798
 20
-66.317083
 11
-79.625462
 21
-66.317083
  0
LINE
  8
St
  6
CONTINUOUS
 10
-78.558798
 20
-62.983748
 11
-79.625462
 21
-62.983748
  0
LINE
  8
St
  6
CONTINUOUS
 10
-78.825465
 20
-62.983748
 11
-78.825465
 21
-66.317083
  0
LINE
  8
St
  6
CONTINUOUS
 10
-79.09213
 20
-62.983748
 11
-79.09213
 21
-66.317083
  0
LINE
  8
St
  6
CONTINUOUS
 10
-79.358798
 20
-62.983748
 11
-79.358798
 21
-66.317083
  0
LINE
  8
St
  6
CONTINUOUS
 10
-77.581373
 20
-64.650415
 11
-80.5612
 21
-64.650415
  0
ENDBLK
  0
BLOCK
  2
*GRP_0100
 70
    65
 10
0.0
 20
0.0
  0
ARC
  8
St
  6
CONTINUOUS
 62
   127
 10
72.61234
 20
-71.91708
 40
1.066667
 50
180.0
 51
270.0
  0
LINE
  8
St
  6
CONTINUOUS
 10
100.759538
 20
-71.91708
 11
101.826202
 21
-72.983748
  0
LINE
  8
St
  6
CONTINUOUS
 10
100.995242
 20
-71.91708
 11
102.061908
 21
-72.983748
  0
LINE
  8
St
  6
CONTINUOUS
 62
   127
 10
72.612335
 20
-71.91708
 11
104.879
 21
-71.91708
  0
LINE
  8
St
  6
CONTINUOUS
 10
104.879
 20
-71.91708
 11
104.879
 21
-72.983748
  0
LINE
  8
St
  6
CONTINUOUS
 62
   127
 10
72.612335
 20
-72.983748
 11
104.879
 21
-72.983748
  0
LINE
  8
St
  6
CONTINUOUS
 10
79.677345
 20
-72.983748
 11
78.61068
 21
-71.91708
  0
LINE
  8
St
  6
CONTINUOUS
 10
79.91305
 20
-72.983748
 11
78.846385
 21
-71.91708
  0
LINE
  8
St
  6
CONTINUOUS
 10
72.612335
 20
-61.56764
 11
71.545667
 21
-60.50097
  0
LINE
  8
St
  6
CONTINUOUS
 10
72.612335
 20
-61.331935
 11
71.545667
 21
-60.265265
  0
LINE
  8
St
  6
CONTINUOUS
 10
72.612335
 20
-59.650413
 11
71.545667
 21
-59.650413
  0
LINE
  8
St
  6
CONTINUOUS
 62
   127
 10
71.545667
 20
-71.91708
 11
71.545667
 21
-59.650413
  0
LINE
  8
St
  6
CONTINUOUS
 62
   127
 10
72.612335
 20
-71.91708
 11
72.612335
 21
-59.650413
  0
LINE
  8
St
  6
DOT
 10
69.92996
 20
-64.650413
 11
74.146207
 21
-64.650413
  0
LINE
  8
St
  6
DOT
 62
   127
 10
88.800733
 20
-73.848875
 11
88.800733
 21
-73.848873
  0
LINE
  8
St
  6
DOT
 10
81.545667
 20
-71.91708
 11
81.545667
 21
-72.983748
  0
LINE
  8
St
  6
DOT
 10
88.212333
 20
-71.91708
 11
88.212333
 21
-72.983748
  0
LINE
  8
St
  6
DOT
 10
93.212333
 20
-71.91708
 11
93.212333
 21
-72.983748
  0
LINE
  8
St
  6
DOT
 10
96.545667
 20
-71.91708
 11
96.545667
 21
-72.983748
  0
LINE
  8
St
  6
DOT
 10
84.879
 20
-70.562435
 11
84.879
 21
-74.388635
  0
LINE
  8
St
  6
DOT
 62
   127
 10
88.212333
 20
-72.183748
 11
81.545667
 21
-72.183748
  0
LINE
  8
St
  6
DOT
 62
   127
 10
88.212333
 20
-72.450413
 11
81.545667
 21
-72.450413
  0
LINE
  8
St
  6
DOT
 62
   127
 10
88.212333
 20
-72.71708
 11
81.545667
 21
-72.71708
  0
LINE
  8
St
  6
DOT
 10
93.212333
 20
-72.183748
 11
96.545667
 21
-72.183748
  0
LINE
  8
St
  6
DOT
 10
93.212333
 20
-72.450413
 11
96.545667
 21
-72.450413
  0
LINE
  8
St
  6
DOT
 10
93.212333
 20
-72.71708
 11
96.545667
 21
-72.71708
  0
LINE
  8
St
  6
DOT
 10
94.879
 20
-70.562435
 11
94.879
 21
-74.388635
  0
LINE
  8
St
  6
DOT
 10
71.545667
 20
-71.91708
 11
72.612335
 21
-71.91708
  0
LINE
  8
St
  6
DOT
 10
71.545667
 20
-61.317077
 11
72.612335
 21
-61.317077
  0
LINE
  8
St
  6
DOT
 10
72.612335
 20
-65.650413
 11
71.545667
 21
-65.650413
  0
LINE
  8
St
  6
DOT
 10
72.612335
 20
-63.650413
 11
71.545667
 21
-63.650413
  0
LINE
  8
St
  6
DOT
 62
   127
 10
72.345667
 20
-71.91708
 11
72.345667
 21
-61.317077
  0
LINE
  8
St
  6
DOT
 62
   127
 10
72.079003
 20
-71.91708
 11
72.079003
 21
-61.317077
  0
LINE
  8
St
  6
DOT
 62
   127
 10
71.812335
 20
-71.91708
 11
71.812335
 21
-61.317077
  0
ENDBLK
  0
BLOCK
  2
*GRP_0101
 70
    65
 10
0.0
 20
0.0
  0
ARC
  8
St
  6
CONTINUOUS
 62
   127
 10
-80.692137
 20
-71.91708
 40
1.066667
 50
-90.0
 51
0.0
  0
LINE
  8
St
  6
CONTINUOUS
 10
-108.839333
 20
-71.91708
 11
-109.905998
 21
-72.983748
  0
LINE
  8
St
  6
CONTINUOUS
 10
-109.075037
 20
-71.91708
 11
-110.141702
 21
-72.983748
  0
LINE
  8
St
  6
CONTINUOUS
 62
   127
 10
-80.69213
 20
-71.91708
 11
-112.958795
 21
-71.91708
  0
LINE
  8
St
  6
CONTINUOUS
 10
-112.958795
 20
-71.91708
 11
-112.958795
 21
-72.983748
  0
LINE
  8
St
  6
CONTINUOUS
 62
   127
 10
-80.69213
 20
-72.983748
 11
-112.958795
 21
-72.983748
  0
LINE
  8
St
  6
CONTINUOUS
 10
-87.75714
 20
-72.983748
 11
-86.690475
 21
-71.91708
  0
LINE
  8
St
  6
CONTINUOUS
 10
-87.992845
 20
-72.983748
 11
-86.92618
 21
-71.91708
  0
LINE
  8
St
  6
CONTINUOUS
 10
-80.69213
 20
-61.56764
 11
-79.625462
 21
-60.50097
  0
LINE
  8
St
  6
CONTINUOUS
 10
-80.69213
 20
-61.331935
 11
-79.625462
 21
-60.265265
  0
LINE
  8
St
  6
CONTINUOUS
 10
-80.69213
 20
-59.650413
 11
-79.625462
 21
-59.650413
  0
LINE
  8
St
  6
CONTINUOUS
 62
   127
 10
-79.625462
 20
-71.91708
 11
-79.625462
 21
-59.650413
  0
LINE
  8
St
  6
CONTINUOUS
 62
   127
 10
-80.69213
 20
-71.91708
 11
-80.69213
 21
-59.650413
  0
LINE
  8
St
  6
DOT
 10
-78.009755
 20
-64.650413
 11
-82.226002
 21
-64.650413
  0
LINE
  8
St
  6
DOT
 62
   127
 10
-96.880527
 20
-73.848875
 11
-96.880527
 21
-73.848873
  0
LINE
  8
St
  6
DOT
 10
-89.625462
 20
-71.91708
 11
-89.625462
 21
-72.983748
  0
LINE
  8
St
  6
DOT
 10
-96.292127
 20
-71.91708
 11
-96.292127
 21
-72.983748
  0
LINE
  8
St
  6
DOT
 10
-101.292127
 20
-71.91708
 11
-101.292127
 21
-72.983748
  0
LINE
  8
St
  6
DOT
 10
-104.625462
 20
-71.91708
 11
-104.625462
 21
-72.983748
  0
LINE
  8
St
  6
DOT
 10
-92.958795
 20
-70.562435
 11
-92.958795
 21
-74.388635
  0
LINE
  8
St
  6
DOT
 62
   127
 10
-96.292127
 20
-72.183748
 11
-89.625462
 21
-72.183748
  0
LINE
  8
St
  6
DOT
 62
   127
 10
-96.292127
 20
-72.450413
 11
-89.625462
 21
-72.450413
  0
LINE
  8
St
  6
DOT
 62
   127
 10
-96.292127
 20
-72.71708
 11
-89.625462
 21
-72.71708
  0
LINE
  8
St
  6
DOT
 10
-101.292127
 20
-72.183748
 11
-104.625462
 21
-72.183748
  0
LINE
  8
St
  6
DOT
 10
-101.292127
 20
-72.450413
 11
-104.625462
 21
-72.450413
  0
LINE
  8
St
  6
DOT
 10
-101.292127
 20
-72.71708
 11
-104.625462
 21
-72.71708
  0
LINE
  8
St
  6
DOT
 10
-102.958795
 20
-70.562435
 11
-102.958795
 21
-74.388635
  0
LINE
  8
St
  6
DOT
 10
-79.625462
 20
-71.91708
 11
-80.69213
 21
-71.91708
  0
LINE
  8
St
  6
DOT
 10
-79.625462
 20
-61.317077
 11
-80.69213
 21
-61.317077
  0
LINE
  8
St
  6
DOT
 10
-80.69213
 20
-65.650413
 11
-79.625462
 21
-65.650413
  0
LINE
  8
St
  6
DOT
 10
-80.69213
 20
-63.650413
 11
-79.625462
 21
-63.650413
  0
LINE
  8
St
  6
DOT
 62
   127
 10
-80.425462
 20
-71.91708
 11
-80.425462
 21
-61.317077
  0
LINE
  8
St
  6
DOT
 62
   127
 10
-80.158798
 20
-71.91708
 11
-80.158798
 21
-61.317077
  0
LINE
  8
St
  6
DOT
 62
   127
 10
-79.89213
 20
-71.91708
 11
-79.89213
 21
-61.317077
  0
ENDBLK
  0
BLOCK
  2
*GRP_0102
 70
    65
 10
0.0
 20
0.0
  0
ARC
  8
投影線02
  6
CONTINUOUS
 62
   127
 10
2.826743
 20
-34.017081
 40
0.533333
 50
0.0
 51
90.0
  0
LINE
  8
投影線02
  6
CONTINUOUS
 62
   127
 10
-4.039905
 20
-34.017072
 11
2.826763
 21
-34.017072
  0
LINE
  8
投影線02
  6
CONTINUOUS
 62
   127
 10
-4.039905
 20
-33.483748
 11
2.826763
 21
-33.483748
  0
ARC
  8
投影線02
  6
CONTINUOUS
 62
   127
 10
-10.906583
 20
-34.017081
 40
0.533333
 50
90.0
 51
180.0
  0
LINE
  8
投影線02
  6
CONTINUOUS
 62
   127
 10
-4.039905
 20
-34.017072
 11
-10.906573
 21
-34.017072
  0
LINE
  8
投影線02
  6
CONTINUOUS
 62
   127
 10
-4.039905
 20
-33.483748
 11
-10.906573
 21
-33.483748
  0
LINE
  8
投影線02
  6
CONTINUOUS
 62
   127
 10
2.826763
 20
-37.317072
 11
2.826763
 21
-34.017072
  0
LINE
  8
投影線02
  6
CONTINUOUS
 62
   127
 10
3.360095
 20
-37.317072
 11
3.360095
 21
-34.017072
  0
LINE
  8
投影線02
  6
CONTINUOUS
 62
   127
 10
-11.439905
 20
-37.317072
 11
-11.439905
 21
-34.017072
  0
LINE
  8
投影線02
  6
CONTINUOUS
 62
   127
 10
-10.906573
 20
-37.317072
 11
-10.906573
 21
-34.017072
  0
LINE
  8
投影線02
  6
CONTINUOUS
 62
   127
 10
-11.439905
 20
-36.444565
 11
-10.906573
 21
-35.91123
  0
LINE
  8
投影線02
  6
CONTINUOUS
 62
   127
 10
-9.012413
 20
-34.017072
 11
-8.479087
 21
-33.483748
  0
LINE
  8
投影線02
  6
CONTINUOUS
 62
   127
 10
-11.439905
 20
-36.680265
 11
-10.906573
 21
-36.14693
  0
LINE
  8
投影線02
  6
CONTINUOUS
 62
   127
 10
-8.776713
 20
-34.017072
 11
-8.243387
 21
-33.483748
  0
LINE
  8
投影線02
  6
CONTINUOUS
 62
   127
 10
2.826763
 20
-36.444565
 11
3.360095
 21
-35.91123
  0
LINE
  8
投影線02
  6
CONTINUOUS
 62
   127
 10
2.826763
 20
-36.680265
 11
3.360095
 21
-36.14693
  0
LINE
  8
投影線02
  6
CONTINUOUS
 62
   127
 10
-0.716987
 20
-34.017072
 11
-0.183655
 21
-33.483748
  0
LINE
  8
投影線02
  6
CONTINUOUS
 62
   127
 10
-0.481287
 20
-34.017072
 11
0.052045
 21
-33.483748
  0
LINE
  8
投影線02
  6
CONTINUOUS
 62
   127
 10
-11.439905
 20
-37.317072
 11
-10.906573
 21
-37.317072
  0
LINE
  8
投影線02
  6
CONTINUOUS
 62
   127
 10
2.826763
 20
-37.317072
 11
3.360095
 21
-37.317072
  0
ENDBLK
  0
BLOCK
  2
*GRP_0103
 70
    65
 10
0.0
 20
0.0
  0
ARC
  8
St
  6
CONTINUOUS
 10
2.82677
 20
-97.990528
 40
0.533333
 50
0.0
 51
90.0
  0
LINE
  8
St
  6
CONTINUOUS
 10
-4.03989
 20
-97.990525
 11
2.826775
 21
-97.990525
  0
LINE
  8
St
  6
CONTINUOUS
 10
-4.03989
 20
-97.457193
 11
2.826775
 21
-97.457193
  0
ARC
  8
St
  6
CONTINUOUS
 10
-10.906556
 20
-97.990528
 40
0.533333
 50
90.0
 51
180.0
  0
LINE
  8
St
  6
CONTINUOUS
 10
-4.03989
 20
-97.990525
 11
-10.906555
 21
-97.990525
  0
LINE
  8
St
  6
CONTINUOUS
 10
-4.03989
 20
-97.457193
 11
-10.906555
 21
-97.457193
  0
LINE
  8
St
  6
CONTINUOUS
 10
2.826775
 20
-101.290525
 11
2.826775
 21
-97.990525
  0
LINE
  8
St
  6
CONTINUOUS
 10
3.360108
 20
-101.290525
 11
3.360108
 21
-97.990525
  0
LINE
  8
St
  6
CONTINUOUS
 10
-11.439887
 20
-101.290525
 11
-11.439887
 21
-97.990525
  0
LINE
  8
St
  6
CONTINUOUS
 10
-10.906555
 20
-101.290525
 11
-10.906555
 21
-97.990525
  0
LINE
  8
St
  6
CONTINUOUS
 10
-11.439887
 20
-101.290525
 11
-10.906555
 21
-101.290525
  0
LINE
  8
St
  6
CONTINUOUS
 10
2.826775
 20
-101.290525
 11
3.360108
 21
-101.290525
  0
LINE
  8
St
  6
CONTINUOUS
 10
-11.439887
 20
-100.41801
 11
-10.906555
 21
-99.884677
  0
LINE
  8
St
  6
CONTINUOUS
 10
-9.012403
 20
-97.990525
 11
-8.47907
 21
-97.457193
  0
LINE
  8
St
  6
CONTINUOUS
 10
-11.439887
 20
-100.65371
 11
-10.906555
 21
-100.120377
  0
LINE
  8
St
  6
CONTINUOUS
 10
-8.776703
 20
-97.990525
 11
-8.24337
 21
-97.457193
  0
LINE
  8
St
  6
CONTINUOUS
 10
2.826775
 20
-100.41801
 11
3.360108
 21
-99.884677
  0
LINE
  8
St
  6
CONTINUOUS
 10
2.826775
 20
-100.65371
 11
3.360108
 21
-100.120377
  0
LINE
  8
St
  6
CONTINUOUS
 10
-0.71697
 20
-97.990525
 11
-0.183637
 21
-97.457193
  0
LINE
  8
St
  6
CONTINUOUS
 10
-0.48127
 20
-97.990525
 11
0.052062
 21
-97.457193
  0
ENDBLK
  0
BLOCK
  2
*GRP_0104
 70
    65
 10
0.0
 20
0.0
  0
LINE
  8
補助線
  6
DOT
 62
    64
 10
-10.706565
 20
-34.650413
 11
-14.17323
 21
-34.650413
  0
LINE
  8
補助線
  6
DOT
 62
    64
 10
-12.439898
 20
-32.91708
 11
-12.439898
 21
-36.383745
  0
ENDBLK
  0
BLOCK
  2
*GRP_0105
 70
    65
 10
0.0
 20
0.0
  0
LINE
  8
補助線
  6
DOT
 62
    64
 10
2.62677
 20
-34.650413
 11
6.093435
 21
-34.650413
  0
LINE
  8
補助線
  6
DOT
 62
    64
 10
4.360102
 20
-32.91708
 11
4.360102
 21
-36.383745
  0
ENDBLK
  0
BLOCK
  2
*GRP_0106
 70
    65
 10
0.0
 20
0.0
  0
LINE
  8
補助線
  6
BYBLOCK
 62
    64
 10
-16.306565
 20
-34.650413
 11
-19.77323
 21
-34.650413
  0
LINE
  8
補助線
  6
BYBLOCK
 62
    64
 10
-18.039898
 20
-32.91708
 11
-18.039898
 21
-36.383745
  0
ENDBLK
  0
BLOCK
  2
*GRP_0107
 70
    65
 10
0.0
 20
0.0
  0
LINE
  8
補助線
  6
BYBLOCK
 62
    64
 10
8.22677
 20
-34.650413
 11
11.693435
 21
-34.650413
  0
LINE
  8
補助線
  6
BYBLOCK
 62
    64
 10
9.960102
 20
-32.91708
 11
9.960102
 21
-36.383745
  0
ENDBLK
  0
BLOCK
  2
*GRP_0108
 70
    65
 10
0.0
 20
0.0
  0
LINE
  8
補助線
  6
BYBLOCK
 62
    64
 10
-10.706567
 20
-34.650413
 11
-14.173232
 21
-34.650413
  0
LINE
  8
補助線
  6
BYBLOCK
 62
    64
 10
-12.4399
 20
-32.91708
 11
-12.4399
 21
-36.383745
  0
ENDBLK
  0
BLOCK
  2
*GRP_0109
 70
    65
 10
0.0
 20
0.0
  0
LINE
  8
補助線
  6
BYBLOCK
 62
    64
 10
6.093438
 20
-34.650413
 11
2.626772
 21
-34.650413
  0
LINE
  8
補助線
  6
BYBLOCK
 62
    64
 10
4.360105
 20
-32.91708
 11
4.360105
 21
-36.383745
  0
ENDBLK
  0
BLOCK
  2
*GRP_0110
 70
    65
 10
0.0
 20
0.0
  0
LINE
  8
補助線
  6
BYBLOCK
 62
    64
 10
-16.306557
 20
-98.623858
 11
-19.773222
 21
-98.623858
  0
LINE
  8
補助線
  6
BYBLOCK
 62
    64
 10
-18.03989
 20
-96.890525
 11
-18.03989
 21
-100.35719
  0
ENDBLK
  0
BLOCK
  2
*GRP_0111
 70
    65
 10
0.0
 20
0.0
  0
LINE
  8
補助線
  6
BYBLOCK
 62
    64
 10
8.226778
 20
-98.623858
 11
11.693442
 21
-98.623858
  0
LINE
  8
補助線
  6
BYBLOCK
 62
    64
 10
9.96011
 20
-96.890525
 11
9.96011
 21
-100.35719
  0
ENDBLK
  0
BLOCK
  2
*GRP_0112
 70
    65
 10
0.0
 20
0.0
  0
LINE
  8
補助線
  6
BYBLOCK
 62
    64
 10
-10.70656
 20
-98.623858
 11
-14.173225
 21
-98.623858
  0
LINE
  8
補助線
  6
BYBLOCK
 62
    64
 10
-12.439893
 20
-96.890525
 11
-12.439893
 21
-100.35719
  0
ENDBLK
  0
BLOCK
  2
*GRP_0113
 70
    65
 10
0.0
 20
0.0
  0
LINE
  8
補助線
  6
BYBLOCK
 62
    64
 10
6.093445
 20
-98.623858
 11
2.62678
 21
-98.623858
  0
LINE
  8
補助線
  6
BYBLOCK
 62
    64
 10
4.360112
 20
-96.890525
 11
4.360112
 21
-100.35719
  0
ENDBLK
  0
BLOCK
  2
*GRP_0114
 70
    65
 10
0.0
 20
0.0
  0
LINE
  8
ボルト／ビス
  6
CONTINUOUS
 62
    64
 10
37.14441
 20
-49.817123
 11
37.14441
 21
-51.150447
  0
LINE
  8
ボルト／ビス
  6
CONTINUOUS
 62
    64
 10
39.04446
 20
-49.817123
 11
39.211085
 21
-49.98378
  0
LINE
  8
ボルト／ビス
  6
CONTINUOUS
 62
    64
 10
39.04446
 20
-51.150447
 11
39.211085
 21
-50.983748
  0
LINE
  8
ボルト／ビス
  6
CONTINUOUS
 62
    64
 10
39.211085
 20
-49.98378
 11
39.211085
 21
-50.983748
  0
LINE
  8
ボルト／ビス
  6
CONTINUOUS
 62
    64
 10
39.04446
 20
-49.817123
 11
39.04446
 21
-51.150447
  0
LINE
  8
ボルト／ビス
  6
CONTINUOUS
 62
    64
 10
37.14441
 20
-49.98378
 11
39.211085
 21
-49.98378
  0
LINE
  8
ボルト／ビス
  6
CONTINUOUS
 62
    64
 10
37.14441
 20
-50.983748
 11
39.211085
 21
-50.983748
  0
LINE
  8
ボルト／ビス
  6
CONTINUOUS
 62
    64
 10
37.14441
 20
-51.150447
 11
39.04446
 21
-51.150447
  0
LINE
  8
ボルト／ビス
  6
CONTINUOUS
 62
    64
 10
37.14441
 20
-49.817123
 11
39.04446
 21
-49.817123
  0
LINE
  8
ボルト／ビス
  6
CONTINUOUS
 62
    64
 10
35.54441
 20
-50.48378
 11
40.211085
 21
-50.48378
  0
LINE
  8
ボルト／ビス
  6
CONTINUOUS
 62
    64
 10
36.54441
 20
-49.483748
 11
37.14441
 21
-49.817123
  0
LINE
  8
ボルト／ビス
  6
CONTINUOUS
 62
    64
 10
36.54441
 20
-49.483748
 11
36.54441
 21
-51.48378
  0
LINE
  8
ボルト／ビス
  6
CONTINUOUS
 62
    64
 10
36.54441
 20
-51.48378
 11
37.14441
 21
-51.150447
  0
ENDBLK
  0
BLOCK
  2
*GRP_0115
 70
    65
 10
0.0
 20
0.0
  0
ARC
  8
St
  6
CONTINUOUS
 62
   127
 10
37.044437
 20
-48.483765
 40
0.5
 50
90.0
 51
180.0
  0
LINE
  8
St
  6
CONTINUOUS
 62
   127
 10
36.54441
 20
-52.98378
 11
37.077793
 21
-52.98378
  0
LINE
  8
St
  6
CONTINUOUS
 62
   127
 10
37.077793
 20
-52.98378
 11
37.077793
 21
-48.517115
  0
LINE
  8
St
  6
CONTINUOUS
 62
   127
 10
36.54441
 20
-52.98378
 11
36.54441
 21
-47.98378
  0
ARC
  8
St
  6
CONTINUOUS
 62
   127
 10
48.178282
 20
-48.483765
 40
0.5
 50
0.0
 51
90.0
  0
LINE
  8
St
  6
CONTINUOUS
 62
   127
 10
48.678257
 20
-51.98378
 11
48.678257
 21
-47.98378
  0
LINE
  8
St
  6
CONTINUOUS
 62
   127
 10
48.678257
 20
-51.98378
 11
48.144958
 21
-51.98378
  0
LINE
  8
St
  6
CONTINUOUS
 62
   127
 10
48.144958
 20
-51.98378
 11
48.144958
 21
-48.517115
  0
LINE
  8
St
  6
CONTINUOUS
 10
37.077793
 20
-48.517115
 11
48.144958
 21
-48.517115
  0
LINE
  8
St
  6
CONTINUOUS
 62
   127
 10
36.54441
 20
-47.98378
 11
48.678257
 21
-47.98378
  0
ENDBLK
  0
BLOCK
  2
*GRP_0116
 70
    65
 10
0.0
 20
0.0
  0
LINE
  8
寸法
  6
CONTINUOUS
 10
40.20946
 20
-40.469013
 11
49.537413
 21
-46.55282
  0
ENDBLK
  0
BLOCK
  2
*GRP_0117
 70
    65
 10
0.0
 20
0.0
  0
LINE
  8
ボルト／ビス
  6
CONTINUOUS
 62
    64
 10
49.945385
 20
-45.117093
 11
49.945385
 21
-43.78376
  0
LINE
  8
ボルト／ビス
  6
CONTINUOUS
 62
    64
 10
49.345385
 20
-45.450425
 11
49.945385
 21
-45.117093
  0
LINE
  8
ボルト／ビス
  6
CONTINUOUS
 62
    64
 10
49.345385
 20
-45.450425
 11
49.345385
 21
-43.450425
  0
LINE
  8
ボルト／ビス
  6
CONTINUOUS
 62
    64
 10
49.345385
 20
-43.450425
 11
49.945385
 21
-43.78376
  0
LINE
  8
ボルト／ビス
  6
CONTINUOUS
 62
    64
 10
48.850875
 20
-44.450425
 11
52.305062
 21
-44.450425
  0
LINE
  8
ボルト／ビス
  6
CONTINUOUS
 62
    64
 10
51.845385
 20
-45.117093
 11
52.012053
 21
-44.950425
  0
LINE
  8
ボルト／ビス
  6
CONTINUOUS
 62
    64
 10
51.845385
 20
-43.78376
 11
52.012053
 21
-43.950425
  0
LINE
  8
ボルト／ビス
  6
CONTINUOUS
 62
    64
 10
52.012053
 20
-44.950425
 11
52.012053
 21
-43.950425
  0
LINE
  8
ボルト／ビス
  6
CONTINUOUS
 62
    64
 10
51.845385
 20
-45.117093
 11
51.845385
 21
-43.78376
  0
LINE
  8
ボルト／ビス
  6
CONTINUOUS
 62
    64
 10
49.945385
 20
-44.950425
 11
52.012053
 21
-44.950425
  0
LINE
  8
ボルト／ビス
  6
CONTINUOUS
 62
    64
 10
49.945385
 20
-43.950425
 11
52.012053
 21
-43.950425
  0
LINE
  8
ボルト／ビス
  6
CONTINUOUS
 62
    64
 10
49.945385
 20
-43.78376
 11
51.845385
 21
-43.78376
  0
LINE
  8
ボルト／ビス
  6
CONTINUOUS
 62
    64
 10
49.945385
 20
-45.117093
 11
51.845385
 21
-45.117093
  0
ENDBLK
  0
BLOCK
  2
*GRP_0118
 70
    65
 10
0.0
 20
0.0
  0
LINE
  8
曲げ物
  6
CONTINUOUS
 10
53.678717
 20
-37.783757
 11
53.678717
 21
-41.11709
  0
LINE
  8
曲げ物
  6
CONTINUOUS
 10
53.678717
 20
-41.11709
 11
53.145385
 21
-41.11709
  0
LINE
  8
曲げ物
  6
CONTINUOUS
 10
53.145385
 20
-38.31709
 11
53.145385
 21
-41.11709
  0
LINE
  8
曲げ物
  6
CONTINUOUS
 10
49.345385
 20
-37.783757
 11
53.678717
 21
-37.783757
  0
LINE
  8
曲げ物
  6
CONTINUOUS
 10
49.878717
 20
-38.31709
 11
53.145385
 21
-38.31709
  0
LINE
  8
曲げ物
  6
CONTINUOUS
 62
   111
 10
37.177793
 20
-48.51708
 11
37.711125
 21
-48.51708
  0
LINE
  8
曲げ物
  6
CONTINUOUS
 62
   111
 10
49.345385
 20
-52.450415
 11
37.711125
 21
-52.450415
  0
LINE
  8
曲げ物
  6
CONTINUOUS
 62
   111
 10
37.711125
 20
-48.51708
 11
37.711125
 21
-52.450415
  0
LINE
  8
曲げ物
  6
CONTINUOUS
 62
   111
 10
49.878717
 20
-52.983748
 11
37.177793
 21
-52.983748
  0
LINE
  8
曲げ物
  6
CONTINUOUS
 62
   111
 10
37.177793
 20
-48.51708
 11
37.177793
 21
-52.983748
  0
LINE
  8
曲げ物
  6
CONTINUOUS
 62
   111
 10
49.345385
 20
-37.783757
 11
49.345385
 21
-52.450415
  0
LINE
  8
曲げ物
  6
CONTINUOUS
 62
   111
 10
49.878717
 20
-38.31709
 11
49.878717
 21
-52.983748
  0
ENDBLK
  0
BLOCK
  2
*GRP_0119
 70
    65
 10
0.0
 20
0.0
  0
LINE
  8
ボルト／ビス
  6
CONTINUOUS
 62
    64
 10
-45.224205
 20
-49.817123
 11
-45.224205
 21
-51.150447
  0
LINE
  8
ボルト／ビス
  6
CONTINUOUS
 62
    64
 10
-47.124255
 20
-49.817123
 11
-47.29088
 21
-49.98378
  0
LINE
  8
ボルト／ビス
  6
CONTINUOUS
 62
    64
 10
-47.124255
 20
-51.150447
 11
-47.29088
 21
-50.983748
  0
LINE
  8
ボルト／ビス
  6
CONTINUOUS
 62
    64
 10
-47.29088
 20
-49.98378
 11
-47.29088
 21
-50.983748
  0
LINE
  8
ボルト／ビス
  6
CONTINUOUS
 62
    64
 10
-47.124255
 20
-49.817123
 11
-47.124255
 21
-51.150447
  0
LINE
  8
ボルト／ビス
  6
CONTINUOUS
 62
    64
 10
-45.224205
 20
-49.98378
 11
-47.29088
 21
-49.98378
  0
LINE
  8
ボルト／ビス
  6
CONTINUOUS
 62
    64
 10
-45.224205
 20
-50.983748
 11
-47.29088
 21
-50.983748
  0
LINE
  8
ボルト／ビス
  6
CONTINUOUS
 62
    64
 10
-45.224205
 20
-51.150447
 11
-47.124255
 21
-51.150447
  0
LINE
  8
ボルト／ビス
  6
CONTINUOUS
 62
    64
 10
-45.224205
 20
-49.817123
 11
-47.124255
 21
-49.817123
  0
LINE
  8
ボルト／ビス
  6
CONTINUOUS
 62
    64
 10
-43.624205
 20
-50.48378
 11
-48.29088
 21
-50.48378
  0
LINE
  8
ボルト／ビス
  6
CONTINUOUS
 62
    64
 10
-44.624205
 20
-49.483748
 11
-45.224205
 21
-49.817123
  0
LINE
  8
ボルト／ビス
  6
CONTINUOUS
 62
    64
 10
-44.624205
 20
-49.483748
 11
-44.624205
 21
-51.48378
  0
LINE
  8
ボルト／ビス
  6
CONTINUOUS
 62
    64
 10
-44.624205
 20
-51.48378
 11
-45.224205
 21
-51.150447
  0
ENDBLK
  0
BLOCK
  2
*GRP_0120
 70
    65
 10
0.0
 20
0.0
  0
LINE
  8
ボルト／ビス
  6
CONTINUOUS
 62
    64
 10
-58.02518
 20
-45.117093
 11
-58.02518
 21
-43.78376
  0
LINE
  8
ボルト／ビス
  6
CONTINUOUS
 62
    64
 10
-57.42518
 20
-45.450425
 11
-58.02518
 21
-45.117093
  0
LINE
  8
ボルト／ビス
  6
CONTINUOUS
 62
    64
 10
-57.42518
 20
-45.450425
 11
-57.42518
 21
-43.450425
  0
LINE
  8
ボルト／ビス
  6
CONTINUOUS
 62
    64
 10
-57.42518
 20
-43.450425
 11
-58.02518
 21
-43.78376
  0
LINE
  8
ボルト／ビス
  6
CONTINUOUS
 62
    64
 10
-56.93067
 20
-44.450425
 11
-60.384857
 21
-44.450425
  0
LINE
  8
ボルト／ビス
  6
CONTINUOUS
 62
    64
 10
-59.92518
 20
-45.117093
 11
-60.091848
 21
-44.950425
  0
LINE
  8
ボルト／ビス
  6
CONTINUOUS
 62
    64
 10
-59.92518
 20
-43.78376
 11
-60.091848
 21
-43.950425
  0
LINE
  8
ボルト／ビス
  6
CONTINUOUS
 62
    64
 10
-60.091848
 20
-44.950425
 11
-60.091848
 21
-43.950425
  0
LINE
  8
ボルト／ビス
  6
CONTINUOUS
 62
    64
 10
-59.92518
 20
-45.117093
 11
-59.92518
 21
-43.78376
  0
LINE
  8
ボルト／ビス
  6
CONTINUOUS
 62
    64
 10
-58.02518
 20
-44.950425
 11
-60.091848
 21
-44.950425
  0
LINE
  8
ボルト／ビス
  6
CONTINUOUS
 62
    64
 10
-58.02518
 20
-43.950425
 11
-60.091848
 21
-43.950425
  0
LINE
  8
ボルト／ビス
  6
CONTINUOUS
 62
    64
 10
-58.02518
 20
-43.78376
 11
-59.92518
 21
-43.78376
  0
LINE
  8
ボルト／ビス
  6
CONTINUOUS
 62
    64
 10
-58.02518
 20
-45.117093
 11
-59.92518
 21
-45.117093
  0
ENDBLK
  0
BLOCK
  2
*GRP_0121
 70
    65
 10
0.0
 20
0.0
  0
LINE
  8
ボルト／ビス
  6
CONTINUOUS
 62
    64
 10
-13.539898
 20
-45.117093
 11
-13.539898
 21
-43.78376
  0
LINE
  8
ボルト／ビス
  6
CONTINUOUS
 62
    64
 10
-14.139898
 20
-45.450425
 11
-13.539898
 21
-45.117093
  0
LINE
  8
ボルト／ビス
  6
CONTINUOUS
 62
    64
 10
-14.139898
 20
-45.450425
 11
-14.139898
 21
-43.450425
  0
LINE
  8
ボルト／ビス
  6
CONTINUOUS
 62
    64
 10
-14.139898
 20
-43.450425
 11
-13.539898
 21
-43.78376
  0
LINE
  8
ボルト／ビス
  6
CONTINUOUS
 62
    64
 10
-14.634407
 20
-44.450425
 11
-11.18022
 21
-44.450425
  0
LINE
  8
ボルト／ビス
  6
CONTINUOUS
 62
    64
 10
-11.639898
 20
-45.117093
 11
-11.47323
 21
-44.950425
  0
LINE
  8
ボルト／ビス
  6
CONTINUOUS
 62
    64
 10
-11.639898
 20
-43.78376
 11
-11.47323
 21
-43.950425
  0
LINE
  8
ボルト／ビス
  6
CONTINUOUS
 62
    64
 10
-11.47323
 20
-44.950425
 11
-11.47323
 21
-43.950425
  0
LINE
  8
ボルト／ビス
  6
CONTINUOUS
 62
    64
 10
-11.639898
 20
-45.117093
 11
-11.639898
 21
-43.78376
  0
LINE
  8
ボルト／ビス
  6
CONTINUOUS
 62
    64
 10
-13.539898
 20
-44.950425
 11
-11.47323
 21
-44.950425
  0
LINE
  8
ボルト／ビス
  6
CONTINUOUS
 62
    64
 10
-13.539898
 20
-43.950425
 11
-11.47323
 21
-43.950425
  0
LINE
  8
ボルト／ビス
  6
CONTINUOUS
 62
    64
 10
-13.539898
 20
-43.78376
 11
-11.639898
 21
-43.78376
  0
LINE
  8
ボルト／ビス
  6
CONTINUOUS
 62
    64
 10
-13.539898
 20
-45.117093
 11
-11.639898
 21
-45.117093
  0
ENDBLK
  0
BLOCK
  2
*GRP_0122
 70
    65
 10
0.0
 20
0.0
  0
LINE
  8
曲げ物
  6
CONTINUOUS
 10
-61.758512
 20
-37.783757
 11
-61.758512
 21
-41.11709
  0
LINE
  8
曲げ物
  6
CONTINUOUS
 10
-61.758512
 20
-41.11709
 11
-61.22518
 21
-41.11709
  0
LINE
  8
曲げ物
  6
CONTINUOUS
 10
-61.22518
 20
-38.31709
 11
-61.22518
 21
-41.11709
  0
LINE
  8
曲げ物
  6
CONTINUOUS
 10
-57.42518
 20
-37.783757
 11
-61.758512
 21
-37.783757
  0
LINE
  8
曲げ物
  6
CONTINUOUS
 10
-57.958512
 20
-38.31709
 11
-61.22518
 21
-38.31709
  0
LINE
  8
曲げ物
  6
CONTINUOUS
 62
   111
 10
-45.257588
 20
-48.51708
 11
-45.79092
 21
-48.51708
  0
LINE
  8
曲げ物
  6
CONTINUOUS
 62
   111
 10
-57.42518
 20
-52.450415
 11
-45.79092
 21
-52.450415
  0
LINE
  8
曲げ物
  6
CONTINUOUS
 62
   111
 10
-45.79092
 20
-48.51708
 11
-45.79092
 21
-52.450415
  0
LINE
  8
曲げ物
  6
CONTINUOUS
 62
   111
 10
-57.958512
 20
-52.983748
 11
-45.257588
 21
-52.983748
  0
LINE
  8
曲げ物
  6
CONTINUOUS
 62
   111
 10
-45.257588
 20
-48.51708
 11
-45.257588
 21
-52.983748
  0
LINE
  8
曲げ物
  6
CONTINUOUS
 62
   111
 10
-57.42518
 20
-37.783757
 11
-57.42518
 21
-52.450415
  0
LINE
  8
曲げ物
  6
CONTINUOUS
 62
   111
 10
-57.958512
 20
-38.31709
 11
-57.958512
 21
-52.983748
  0
ENDBLK
  0
BLOCK
  2
*GRP_0123
 70
    65
 10
0.0
 20
0.0
  0
ARC
  8
St
  6
CONTINUOUS
 62
   127
 10
-45.124232
 20
-48.483765
 40
0.5
 50
0.0
 51
90.0
  0
LINE
  8
St
  6
CONTINUOUS
 62
   127
 10
-44.624205
 20
-52.98378
 11
-45.157588
 21
-52.98378
  0
LINE
  8
St
  6
CONTINUOUS
 62
   127
 10
-45.157588
 20
-52.98378
 11
-45.157588
 21
-48.517115
  0
LINE
  8
St
  6
CONTINUOUS
 62
   127
 10
-44.624205
 20
-52.98378
 11
-44.624205
 21
-47.98378
  0
ARC
  8
St
  6
CONTINUOUS
 62
   127
 10
-56.258077
 20
-48.483765
 40
0.5
 50
90.0
 51
180.0
  0
LINE
  8
St
  6
CONTINUOUS
 62
   127
 10
-56.758053
 20
-51.98378
 11
-56.758053
 21
-47.98378
  0
LINE
  8
St
  6
CONTINUOUS
 62
   127
 10
-56.758053
 20
-51.98378
 11
-56.224752
 21
-51.98378
  0
LINE
  8
St
  6
CONTINUOUS
 62
   127
 10
-56.224752
 20
-51.98378
 11
-56.224752
 21
-48.517115
  0
LINE
  8
St
  6
CONTINUOUS
 10
-45.157588
 20
-48.517115
 11
-56.224752
 21
-48.517115
  0
LINE
  8
St
  6
CONTINUOUS
 62
   127
 10
-44.624205
 20
-47.98378
 11
-56.758053
 21
-47.98378
  0
ENDBLK
  0
BLOCK
  2
*GRP_0124
 70
    65
 10
0.0
 20
0.0
  0
POLYLINE
  8
寸法
  6
CONTINUOUS
 66
     1
  0
VERTEX
  8
寸法
 10
-59.01416
 20
-50.582193
  0
VERTEX
  8
寸法
 10
-53.738142
 20
-59.506295
  0
VERTEX
  8
寸法
 10
-50.363388
 20
-59.506295
  0
SEQEND
  0
ENDBLK
  0
BLOCK
  2
*GRP_0125
 70
    65
 10
0.0
 20
0.0
  0
LINE
  8
ボルト／ビス
  6
CONTINUOUS
 62
    64
 10
-28.407078
 20
-49.817123
 11
-28.407078
 21
-51.150447
  0
LINE
  8
ボルト／ビス
  6
CONTINUOUS
 62
    64
 10
-26.507028
 20
-49.817123
 11
-26.340402
 21
-49.98378
  0
LINE
  8
ボルト／ビス
  6
CONTINUOUS
 62
    64
 10
-26.507028
 20
-51.150447
 11
-26.340402
 21
-50.983748
  0
LINE
  8
ボルト／ビス
  6
CONTINUOUS
 62
    64
 10
-26.340402
 20
-49.98378
 11
-26.340402
 21
-50.983748
  0
LINE
  8
ボルト／ビス
  6
CONTINUOUS
 62
    64
 10
-26.507028
 20
-49.817123
 11
-26.507028
 21
-51.150447
  0
LINE
  8
ボルト／ビス
  6
CONTINUOUS
 62
    64
 10
-28.407078
 20
-49.98378
 11
-26.340402
 21
-49.98378
  0
LINE
  8
ボルト／ビス
  6
CONTINUOUS
 62
    64
 10
-28.407078
 20
-50.983748
 11
-26.340402
 21
-50.983748
  0
LINE
  8
ボルト／ビス
  6
CONTINUOUS
 62
    64
 10
-28.407078
 20
-51.150447
 11
-26.507028
 21
-51.150447
  0
LINE
  8
ボルト／ビス
  6
CONTINUOUS
 62
    64
 10
-28.407078
 20
-49.817123
 11
-26.507028
 21
-49.817123
  0
LINE
  8
ボルト／ビス
  6
CONTINUOUS
 62
    64
 10
-30.007078
 20
-50.48378
 11
-25.340402
 21
-50.48378
  0
LINE
  8
ボルト／ビス
  6
CONTINUOUS
 62
    64
 10
-29.007078
 20
-49.483748
 11
-28.407078
 21
-49.817123
  0
LINE
  8
ボルト／ビス
  6
CONTINUOUS
 62
    64
 10
-29.007078
 20
-49.483748
 11
-29.007078
 21
-51.48378
  0
LINE
  8
ボルト／ビス
  6
CONTINUOUS
 62
    64
 10
-29.007078
 20
-51.48378
 11
-28.407078
 21
-51.150447
  0
ENDBLK
  0
BLOCK
  2
*GRP_0126
 70
    65
 10
0.0
 20
0.0
  0
ARC
  8
St
  6
CONTINUOUS
 62
   127
 10
-28.507052
 20
-48.483765
 40
0.5
 50
90.0
 51
180.0
  0
LINE
  8
St
  6
CONTINUOUS
 62
   127
 10
-29.007078
 20
-52.98378
 11
-28.473695
 21
-52.98378
  0
LINE
  8
St
  6
CONTINUOUS
 62
   127
 10
-28.473695
 20
-52.98378
 11
-28.473695
 21
-48.517115
  0
LINE
  8
St
  6
CONTINUOUS
 62
   127
 10
-29.007078
 20
-52.98378
 11
-29.007078
 21
-47.98378
  0
ARC
  8
St
  6
CONTINUOUS
 62
   127
 10
-17.373206
 20
-48.483765
 40
0.5
 50
0.0
 51
90.0
  0
LINE
  8
St
  6
CONTINUOUS
 62
   127
 10
-16.87323
 20
-51.98378
 11
-16.87323
 21
-47.98378
  0
LINE
  8
St
  6
CONTINUOUS
 62
   127
 10
-16.87323
 20
-51.98378
 11
-17.40653
 21
-51.98378
  0
LINE
  8
St
  6
CONTINUOUS
 62
   127
 10
-17.40653
 20
-51.98378
 11
-17.40653
 21
-48.517115
  0
LINE
  8
St
  6
CONTINUOUS
 10
-28.473695
 20
-48.517115
 11
-17.40653
 21
-48.517115
  0
LINE
  8
St
  6
CONTINUOUS
 62
   127
 10
-29.007078
 20
-47.98378
 11
-16.87323
 21
-47.98378
  0
ENDBLK
  0
BLOCK
  2
*GRP_0127
 70
    65
 10
0.0
 20
0.0
  0
LINE
  8
曲げ物
  6
CONTINUOUS
 62
   111
 10
-14.139898
 20
-52.450415
 11
-14.139898
 21
-39.650415
  0
LINE
  8
曲げ物
  6
CONTINUOUS
 10
-14.139898
 20
-39.650415
 11
-13.606565
 21
-39.650415
  0
LINE
  8
曲げ物
  6
CONTINUOUS
 62
   111
 10
-13.606565
 20
-52.983748
 11
-13.606565
 21
-39.650415
  0
LINE
  8
曲げ物
  6
CONTINUOUS
 62
   111
 10
-28.373695
 20
-48.51708
 11
-27.840362
 21
-48.51708
  0
LINE
  8
曲げ物
  6
CONTINUOUS
 62
   111
 10
-27.840362
 20
-48.51708
 11
-27.840362
 21
-52.450415
  0
LINE
  8
曲げ物
  6
CONTINUOUS
 62
   111
 10
-28.373695
 20
-48.51708
 11
-28.373695
 21
-52.983748
  0
LINE
  8
曲げ物
  6
CONTINUOUS
 62
   111
 10
-13.606565
 20
-52.983748
 11
-28.373695
 21
-52.983748
  0
LINE
  8
曲げ物
  6
CONTINUOUS
 62
   111
 10
-14.139898
 20
-52.450415
 11
-27.840362
 21
-52.450415
  0
ENDBLK
  0
BLOCK
  2
*GRP_0128
 70
    65
 10
0.0
 20
0.0
  0
LINE
  8
ボルト／ビス
  6
CONTINUOUS
 62
    64
 10
5.460102
 20
-45.117093
 11
5.460102
 21
-43.78376
  0
LINE
  8
ボルト／ビス
  6
CONTINUOUS
 62
    64
 10
6.060102
 20
-45.450425
 11
5.460102
 21
-45.117093
  0
LINE
  8
ボルト／ビス
  6
CONTINUOUS
 62
    64
 10
6.060102
 20
-45.450425
 11
6.060102
 21
-43.450425
  0
LINE
  8
ボルト／ビス
  6
CONTINUOUS
 62
    64
 10
6.060102
 20
-43.450425
 11
5.460102
 21
-43.78376
  0
LINE
  8
ボルト／ビス
  6
CONTINUOUS
 62
    64
 10
6.554613
 20
-44.450425
 11
3.100425
 21
-44.450425
  0
LINE
  8
ボルト／ビス
  6
CONTINUOUS
 62
    64
 10
3.560102
 20
-45.117093
 11
3.393435
 21
-44.950425
  0
LINE
  8
ボルト／ビス
  6
CONTINUOUS
 62
    64
 10
3.560102
 20
-43.78376
 11
3.393435
 21
-43.950425
  0
LINE
  8
ボルト／ビス
  6
CONTINUOUS
 62
    64
 10
3.393435
 20
-44.950425
 11
3.393435
 21
-43.950425
  0
LINE
  8
ボルト／ビス
  6
CONTINUOUS
 62
    64
 10
3.560102
 20
-45.117093
 11
3.560102
 21
-43.78376
  0
LINE
  8
ボルト／ビス
  6
CONTINUOUS
 62
    64
 10
5.460102
 20
-44.950425
 11
3.393435
 21
-44.950425
  0
LINE
  8
ボルト／ビス
  6
CONTINUOUS
 62
    64
 10
5.460102
 20
-43.950425
 11
3.393435
 21
-43.950425
  0
LINE
  8
ボルト／ビス
  6
CONTINUOUS
 62
    64
 10
5.460102
 20
-43.78376
 11
3.560102
 21
-43.78376
  0
LINE
  8
ボルト／ビス
  6
CONTINUOUS
 62
    64
 10
5.460102
 20
-45.117093
 11
3.560102
 21
-45.117093
  0
ENDBLK
  0
BLOCK
  2
*GRP_0129
 70
    65
 10
0.0
 20
0.0
  0
LINE
  8
ボルト／ビス
  6
CONTINUOUS
 62
    64
 10
20.327283
 20
-49.817123
 11
20.327283
 21
-51.150447
  0
LINE
  8
ボルト／ビス
  6
CONTINUOUS
 62
    64
 10
18.427232
 20
-49.817123
 11
18.260607
 21
-49.98378
  0
LINE
  8
ボルト／ビス
  6
CONTINUOUS
 62
    64
 10
18.427232
 20
-51.150447
 11
18.260607
 21
-50.983748
  0
LINE
  8
ボルト／ビス
  6
CONTINUOUS
 62
    64
 10
18.260607
 20
-49.98378
 11
18.260607
 21
-50.983748
  0
LINE
  8
ボルト／ビス
  6
CONTINUOUS
 62
    64
 10
18.427232
 20
-49.817123
 11
18.427232
 21
-51.150447
  0
LINE
  8
ボルト／ビス
  6
CONTINUOUS
 62
    64
 10
20.327283
 20
-49.98378
 11
18.260607
 21
-49.98378
  0
LINE
  8
ボルト／ビス
  6
CONTINUOUS
 62
    64
 10
20.327283
 20
-50.983748
 11
18.260607
 21
-50.983748
  0
LINE
  8
ボルト／ビス
  6
CONTINUOUS
 62
    64
 10
20.327283
 20
-51.150447
 11
18.427232
 21
-51.150447
  0
LINE
  8
ボルト／ビス
  6
CONTINUOUS
 62
    64
 10
20.327283
 20
-49.817123
 11
18.427232
 21
-49.817123
  0
LINE
  8
ボルト／ビス
  6
CONTINUOUS
 62
    64
 10
21.927283
 20
-50.48378
 11
17.260607
 21
-50.48378
  0
LINE
  8
ボルト／ビス
  6
CONTINUOUS
 62
    64
 10
20.927283
 20
-49.483748
 11
20.327283
 21
-49.817123
  0
LINE
  8
ボルト／ビス
  6
CONTINUOUS
 62
    64
 10
20.927283
 20
-49.483748
 11
20.927283
 21
-51.48378
  0
LINE
  8
ボルト／ビス
  6
CONTINUOUS
 62
    64
 10
20.927283
 20
-51.48378
 11
20.327283
 21
-51.150447
  0
ENDBLK
  0
BLOCK
  2
*GRP_0130
 70
    65
 10
0.0
 20
0.0
  0
LINE
  8
曲げ物
  6
CONTINUOUS
 62
   111
 10
6.060102
 20
-52.450415
 11
6.060102
 21
-39.650415
  0
LINE
  8
曲げ物
  6
CONTINUOUS
 10
6.060102
 20
-39.650415
 11
5.52677
 21
-39.650415
  0
LINE
  8
曲げ物
  6
CONTINUOUS
 62
   111
 10
5.52677
 20
-52.983748
 11
5.52677
 21
-39.650415
  0
LINE
  8
曲げ物
  6
CONTINUOUS
 62
   111
 10
20.2939
 20
-48.51708
 11
19.760568
 21
-48.51708
  0
LINE
  8
曲げ物
  6
CONTINUOUS
 62
   111
 10
19.760568
 20
-48.51708
 11
19.760568
 21
-52.450415
  0
LINE
  8
曲げ物
  6
CONTINUOUS
 62
   111
 10
20.2939
 20
-48.51708
 11
20.2939
 21
-52.983748
  0
LINE
  8
曲げ物
  6
CONTINUOUS
 62
   111
 10
5.52677
 20
-52.983748
 11
20.2939
 21
-52.983748
  0
LINE
  8
曲げ物
  6
CONTINUOUS
 62
   111
 10
6.060102
 20
-52.450415
 11
19.760568
 21
-52.450415
  0
ENDBLK
  0
BLOCK
  2
*GRP_0131
 70
    65
 10
0.0
 20
0.0
  0
ARC
  8
St
  6
CONTINUOUS
 62
   127
 10
20.427257
 20
-48.483765
 40
0.5
 50
0.0
 51
90.0
  0
LINE
  8
St
  6
CONTINUOUS
 62
   127
 10
20.927283
 20
-52.98378
 11
20.3939
 21
-52.98378
  0
LINE
  8
St
  6
CONTINUOUS
 62
   127
 10
20.3939
 20
-52.98378
 11
20.3939
 21
-48.517115
  0
LINE
  8
St
  6
CONTINUOUS
 62
   127
 10
20.927283
 20
-52.98378
 11
20.927283
 21
-47.98378
  0
ARC
  8
St
  6
CONTINUOUS
 62
   127
 10
9.293411
 20
-48.483765
 40
0.5
 50
90.0
 51
180.0
  0
LINE
  8
St
  6
CONTINUOUS
 62
   127
 10
8.793435
 20
-51.98378
 11
8.793435
 21
-47.98378
  0
LINE
  8
St
  6
CONTINUOUS
 62
   127
 10
8.793435
 20
-51.98378
 11
9.326735
 21
-51.98378
  0
LINE
  8
St
  6
CONTINUOUS
 62
   127
 10
9.326735
 20
-51.98378
 11
9.326735
 21
-48.517115
  0
LINE
  8
St
  6
CONTINUOUS
 10
20.3939
 20
-48.517115
 11
9.326735
 21
-48.517115
  0
LINE
  8
St
  6
CONTINUOUS
 62
   127
 10
20.927283
 20
-47.98378
 11
8.793435
 21
-47.98378
  0
ENDBLK
  0
BLOCK
  2
*GRP_0132
 70
    65
 10
0.0
 20
0.0
  0
POLYLINE
  8
寸法
  6
CONTINUOUS
 66
     1
  0
VERTEX
  8
寸法
 10
22.582955
 20
-50.655502
  0
VERTEX
  8
寸法
 10
18.697992
 20
-58.932335
  0
VERTEX
  8
寸法
 10
21.801783
 20
-58.932335
  0
SEQEND
  0
ENDBLK
  0
BLOCK
  2
*DIM_0133
 70
    65
 10
0.0
 20
0.0
  0
LINE
  8
寸法
  6
CONTINUOUS
 10
-57.958512
 20
-33.31709
 11
-57.958512
 21
65.934655
  0
LINE
  8
寸法
  6
CONTINUOUS
 10
-44.624205
 20
-42.98378
 11
-44.624205
 21
65.934655
  0
LINE
  8
寸法
  6
CONTINUOUS
 10
-57.958512
 20
65.934655
 11
-44.624205
 21
65.934655
  0
POINT
  8
寸法
 10
-57.958512
 20
65.934655
  0
POINT
  8
寸法
 10
-44.624205
 20
65.934655
  0
TEXT
  7
TextStyle03
  8
寸法
  6
CONTINUOUS
 10
-53.425
 20
66.3
  1
40
 40
4.0
 72
     5
 11
-49.175
 21
66.3
  0
ENDBLK
  0
BLOCK
  2
*DIM_0134
 70
    65
 10
0.0
 20
0.0
  0
LINE
  8
寸法
  6
CONTINUOUS
 10
49.878717
 20
-33.31709
 11
49.878717
 21
65.934655
  0
LINE
  8
寸法
  6
CONTINUOUS
 10
36.54441
 20
65.934655
 11
49.878717
 21
65.934655
  0
POINT
  8
寸法
 10
49.878717
 20
65.934655
  0
TEXT
  7
TextStyle03
  8
寸法
  6
CONTINUOUS
 10
41.075
 20
66.3
  1
40
 40
4.0
 72
     5
 11
45.325
 21
66.3
  0
ENDBLK
  0
BLOCK
  2
*DIM_0135
 70
    65
 10
0.0
 20
0.0
  0
LINE
  8
寸法
  6
CONTINUOUS
 10
36.54441
 20
-42.98378
 11
36.54441
 21
65.934655
  0
LINE
  8
寸法
  6
CONTINUOUS
 10
-44.624205
 20
65.934655
 11
36.54441
 21
65.934655
  0
POINT
  8
寸法
 10
36.54441
 20
65.934655
  0
TEXT
  7
TextStyle03
  8
寸法
  6
CONTINUOUS
 10
-12.8
 20
66.3
  1
呼称寸法
 40
4.0
 72
     5
 11
4.7
 21
66.3
  0
ENDBLK
  0
BLOCK
  2
*DIM_0136
 70
    65
 10
0.0
 20
0.0
  0
LINE
  8
寸法
  6
CONTINUOUS
 10
59.879188
 20
9.81462
 11
59.879188
 21
73.26614
  0
LINE
  8
寸法
  6
CONTINUOUS
 10
-67.958003
 20
73.26614
 11
59.879188
 21
73.26614
  0
POINT
  8
寸法
 10
59.879188
 20
73.26614
  0
TEXT
  7
TextStyle03
  8
寸法
  6
CONTINUOUS
 10
-12.8
 20
73.625
  1
外形寸法
 40
4.0
 72
     5
 11
4.7
 21
73.625
  0
ENDBLK
  0
ENDSEC
  0
SECTION
  2
ENTITIES
  0
POLYLINE
  8
通り芯
  6
CONTINUOUS
 66
     1
 70
     1
  0
VERTEX
  8
通り芯
 10
-210.0
 20
-148.5
  0
VERTEX
  8
通り芯
 10
210.0
 20
-148.5
  0
VERTEX
  8
通り芯
 10
210.0
 20
148.5
  0
VERTEX
  8
通り芯
 10
-210.0
 20
148.5
  0
SEQEND
  0
LINE
  8
通り芯
  6
CONTINUOUS
 10
-79.274693
 20
-27.31707
 11
-79.274693
 21
-27.98372
  0
LINE
  8
通り芯
  6
CONTINUOUS
 10
-79.274702
 20
-27.31707
 11
-79.274685
 21
-27.98372
  0
INSERT
  2
*GRP_0002
  8
型材
  6
DOT
 10
0.0
 20
0.0
  0
INSERT
  2
*GRP_0003
  8
型材
  6
DOT
 10
0.0
 20
0.0
  0
INSERT
  2
*GRP_0001
  8
型材断面
  6
CONTINUOUS
 10
0.0
 20
0.0
  0
INSERT
  2
*GRP_0004
  8
型材断面
  6
CONTINUOUS
 10
0.0
 20
0.0
  0
INSERT
  2
*GRP_0005
  8
型材断面
  6
CONTINUOUS
 10
0.0
 20
0.0
  0
LINE
  8
型材断面
  6
CONTINUOUS
 10
94.700645
 20
-70.515532
 11
94.700645
 21
-70.51553
  0
INSERT
  2
*GRP_0006
  8
型材断面
  6
CONTINUOUS
 10
0.0
 20
0.0
  0
INSERT
  2
*GRP_0007
  8
型材断面
  6
CONTINUOUS
 10
0.0
 20
0.0
  0
LINE
  8
型材断面
  6
CONTINUOUS
 10
94.700645
 20
-73.848865
 11
94.700645
 21
-73.848862
  0
LINE
  8
型材断面
  6
CONTINUOUS
 10
94.700645
 20
-73.848865
 11
94.700645
 21
-73.848862
  0
LINE
  8
型材断面
  6
CONTINUOUS
 10
63.212203
 20
-76.31708
 11
113.212242
 21
-76.31708
  0
LINE
  8
型材断面
  6
CONTINUOUS
 10
113.21224
 20
-72.983748
 11
63.212203
 21
-72.983748
  0
ARC
  8
型材断面
  6
CONTINUOUS
 10
113.212238
 20
-76.317081
 40
3.333333
 50
0.0
 51
90.0
  0
LINE
  8
型材断面
  6
CONTINUOUS
 10
113.201483
 20
-80.731975
 11
108.786587
 21
-76.31708
  0
LINE
  8
型材断面
  6
CONTINUOUS
 10
113.201483
 20
-83.088998
 11
106.429563
 21
-76.31708
  0
LINE
  8
型材断面
  6
CONTINUOUS
 10
113.201483
 20
-85.44602
 11
104.072543
 21
-76.31708
  0
LINE
  8
型材断面
  6
CONTINUOUS
 10
-102.78044
 20
-70.515532
 11
-102.78044
 21
-70.51553
  0
LINE
  8
型材断面
  6
CONTINUOUS
 10
-63.625332
 20
-52.983742
 11
-63.625332
 21
-91.057572
  0
LINE
  8
型材断面
  6
CONTINUOUS
 10
-63.291997
 20
-52.983742
 11
-63.291997
 21
-91.057572
  0
LINE
  8
型材断面
  6
CONTINUOUS
 10
-102.78044
 20
-73.848865
 11
-102.78044
 21
-73.848862
  0
LINE
  8
型材断面
  6
CONTINUOUS
 10
-102.78044
 20
-73.848865
 11
-102.78044
 21
-73.848862
  0
LINE
  8
型材断面
  6
CONTINUOUS
 10
-71.291997
 20
-76.31708
 11
-121.292037
 21
-76.31708
  0
LINE
  8
型材断面
  6
CONTINUOUS
 10
-121.292035
 20
-72.983748
 11
-71.291997
 21
-72.983748
  0
ARC
  8
型材断面
  6
CONTINUOUS
 10
-121.292035
 20
-76.317081
 40
3.333333
 50
90.0
 51
180.0
  0
LINE
  8
型材断面
  6
CONTINUOUS
 10
-121.281278
 20
-80.731975
 11
-116.866382
 21
-76.31708
  0
LINE
  8
型材断面
  6
CONTINUOUS
 10
-121.281278
 20
-83.088998
 11
-114.509357
 21
-76.31708
  0
LINE
  8
型材断面
  6
CONTINUOUS
 10
-121.281278
 20
-85.44602
 11
-112.152337
 21
-76.31708
  0
LINE
  8
型材断面
  6
DASHDOT
 10
59.878207
 20
4.81462
 11
59.878207
 21
-24.317083
  0
LINE
  8
型材断面
  6
DASHDOT
 10
-67.958003
 20
4.81462
 11
-67.958003
 21
-24.317083
  0
LINE
  8
型材断面
  6
DOT
 10
-68.625135
 20
-43.011965
 11
-67.958528
 21
-42.898965
  0
LINE
  8
型材断面
  6
DOT
 10
-67.958528
 20
-40.317112
 11
-68.625135
 21
-40.317112
  0
LINE
  8
型材断面
  6
DOT
 10
-66.458593
 20
-40.317112
 11
-65.29186
 21
-40.317112
  0
LINE
  8
型材断面
  6
DOT
 10
-65.29186
 20
-40.317112
 11
-65.29186
 21
-42.447002
  0
LINE
  8
型材断面
  6
DOT
 10
-68.458482
 20
-42.983715
 11
-68.458482
 21
-40.317112
  0
LINE
  8
型材断面
  6
DOT
 10
-68.29183
 20
-42.955465
 11
-68.29183
 21
-40.317112
  0
LINE
  8
型材断面
  6
DOT
 10
-68.12518
 20
-42.927215
 11
-68.12518
 21
-40.317112
  0
INSERT
  2
*HAT_0007
  8
型材断面
 10
0.0
 20
0.0
  0
LINE
  8
型材断面
  6
DOT
 10
60.54534
 20
-43.011965
 11
59.878732
 21
-42.898965
  0
LINE
  8
型材断面
  6
DOT
 10
59.878732
 20
-40.317112
 11
60.54534
 21
-40.317112
  0
LINE
  8
型材断面
  6
DOT
 10
58.378797
 20
-40.317112
 11
57.212065
 21
-40.317112
  0
LINE
  8
型材断面
  6
DOT
 10
57.212065
 20
-40.317112
 11
57.212065
 21
-42.447002
  0
LINE
  8
型材断面
  6
DOT
 10
60.378687
 20
-42.983715
 11
60.378687
 21
-40.317112
  0
LINE
  8
型材断面
  6
DOT
 10
60.212035
 20
-42.955465
 11
60.212035
 21
-40.317112
  0
LINE
  8
型材断面
  6
DOT
 10
60.045385
 20
-42.927215
 11
60.045385
 21
-40.317112
  0
INSERT
  2
*HAT_0008
  8
型材断面
 10
0.0
 20
0.0
  0
LINE
  8
型材断面
  6
CONTINUOUS
 10
-59.557967
 20
-19.817062
 11
51.478173
 21
-19.817062
  0
LINE
  8
型材断面
  6
CONTINUOUS
 10
51.343357
 20
-20.883727
 11
-59.423153
 21
-20.883727
  0
LINE
  8
型材断面
  6
CONTINUOUS
 62
    47
 10
-124.625368
 20
-76.31708
 11
-124.625368
 21
-101.71088
  0
LINE
  8
型材断面
  6
CONTINUOUS
 62
    47
 10
-121.292037
 20
-76.31708
 11
-121.292037
 21
-101.71088
  0
LINE
  8
型材断面
  6
CONTINUOUS
 10
-71.291997
 20
-53.517062
 11
-71.291997
 21
-101.71088
  0
LINE
  8
型材断面
  6
CONTINUOUS
 10
-74.49016
 20
-76.31708
 11
-99.88396
 21
-101.71088
  0
LINE
  8
型材断面
  6
CONTINUOUS
 10
-72.133137
 20
-76.31708
 11
-97.526937
 21
-101.71088
  0
LINE
  8
型材断面
  6
CONTINUOUS
 10
-76.847182
 20
-76.31708
 11
-102.240988
 21
-101.71088
  0
LINE
  8
型材断面
  6
CONTINUOUS
 10
-63.625332
 20
-52.983742
 11
-63.625332
 21
-101.71088
  0
LINE
  8
型材断面
  6
CONTINUOUS
 10
-63.291997
 20
-52.983742
 11
-63.291997
 21
-101.71088
  0
LINE
  8
型材断面
  6
CONTINUOUS
 10
-59.625332
 20
-52.983742
 11
-59.625332
 21
-101.71088
  0
LINE
  8
型材断面
  6
CONTINUOUS
 10
-59.958665
 20
-52.983742
 11
-59.958665
 21
-101.71088
  0
LINE
  8
型材断面
  6
CONTINUOUS
 10
-59.625332
 20
-52.983742
 11
-59.625332
 21
-101.71088
  0
LINE
  8
型材断面
  6
CONTINUOUS
 10
-59.958665
 20
-52.983742
 11
-59.958665
 21
-101.71088
  0
LINE
  8
型材断面
  6
CONTINUOUS
 10
55.212203
 20
-52.983742
 11
55.212203
 21
-101.71088
  0
LINE
  8
型材断面
  6
CONTINUOUS
 10
55.545537
 20
-52.983742
 11
55.545537
 21
-101.71088
  0
LINE
  8
型材断面
  6
CONTINUOUS
 10
51.545537
 20
-52.983742
 11
51.545537
 21
-101.71088
  0
LINE
  8
型材断面
  6
CONTINUOUS
 10
51.87887
 20
-52.983742
 11
51.87887
 21
-101.71088
  0
LINE
  8
型材断面
  6
CONTINUOUS
 10
63.212203
 20
-53.517062
 11
63.212203
 21
-101.71088
  0
LINE
  8
型材断面
  6
CONTINUOUS
 10
64.053342
 20
-76.31708
 11
89.447142
 21
-101.71088
  0
LINE
  8
型材断面
  6
CONTINUOUS
 10
68.767388
 20
-76.31708
 11
94.161192
 21
-101.71088
  0
LINE
  8
型材断面
  6
CONTINUOUS
 10
66.410365
 20
-76.31708
 11
91.804165
 21
-101.71088
  0
LINE
  8
型材断面
  6
CONTINUOUS
 62
    47
 10
113.212242
 20
-76.31708
 11
113.212242
 21
-101.71088
  0
LINE
  8
型材断面
  6
CONTINUOUS
 62
    47
 10
116.545572
 20
-76.31708
 11
116.545572
 21
-101.71088
  0
LINE
  8
型材断面
  6
CONTINUOUS
 10
-126.164485
 20
113.691803
 11
-166.164485
 21
113.691803
  0
LINE
  8
型材断面
  6
CONTINUOUS
 10
-126.164485
 20
107.691803
 11
-166.164485
 21
107.691803
  0
LINE
  8
型材断面
  6
CONTINUOUS
 10
-166.164485
 20
107.691803
 11
-166.164485
 21
113.691803
  0
LINE
  8
型材断面
  6
CONTINUOUS
 10
-156.164485
 20
107.691803
 11
-156.164485
 21
113.691803
  0
LINE
  8
型材断面
  6
CONTINUOUS
 10
-146.164485
 20
107.691803
 11
-146.164485
 21
113.691803
  0
LINE
  8
型材断面
  6
CONTINUOUS
 10
-136.164485
 20
107.691803
 11
-136.164485
 21
113.691803
  0
LINE
  8
型材断面
  6
CONTINUOUS
 10
-126.164485
 20
107.691803
 11
-126.164485
 21
113.691803
  0
POLYLINE
  8
型材断面
  6
CONTINUOUS
 66
     1
 70
     1
  0
VERTEX
  8
型材断面
 10
-138.26302
 20
118.541477
  0
VERTEX
  8
型材断面
 10
-157.074095
 20
118.541477
  0
VERTEX
  8
型材断面
 10
-157.074095
 20
114.40304
  0
VERTEX
  8
型材断面
 10
-138.26302
 20
114.40304
  0
SEQEND
  0
POLYLINE
  8
型材断面
  6
CONTINUOUS
 66
     1
 70
     1
  0
VERTEX
  8
型材断面
 10
-138.26302
 20
107.03985
  0
VERTEX
  8
型材断面
 10
-157.074095
 20
107.03985
  0
VERTEX
  8
型材断面
 10
-157.074095
 20
102.901412
  0
VERTEX
  8
型材断面
 10
-138.26302
 20
102.901412
  0
SEQEND
  0
LINE
  8
型材断面
  6
CONTINUOUS
 10
-126.164485
 20
92.08594
 11
-166.164485
 21
92.08594
  0
LINE
  8
型材断面
  6
CONTINUOUS
 10
-126.164485
 20
83.08594
 11
-166.164485
 21
83.08594
  0
LINE
  8
型材断面
  6
CONTINUOUS
 10
-166.164485
 20
83.08594
 11
-166.164485
 21
92.08594
  0
LINE
  8
型材断面
  6
CONTINUOUS
 10
-156.164485
 20
83.08594
 11
-156.164485
 21
92.08594
  0
LINE
  8
型材断面
  6
CONTINUOUS
 10
-146.164485
 20
83.08594
 11
-146.164485
 21
92.08594
  0
LINE
  8
型材断面
  6
CONTINUOUS
 10
-136.164485
 20
83.08594
 11
-136.164485
 21
92.08594
  0
LINE
  8
型材断面
  6
CONTINUOUS
 10
-126.164485
 20
83.08594
 11
-126.164485
 21
92.08594
  0
LINE
  8
型材断面
  6
CONTINUOUS
 10
-126.164485
 20
83.08594
 11
-166.164485
 21
83.08594
  0
POLYLINE
  8
型材断面
  6
CONTINUOUS
 66
     1
 70
     1
  0
VERTEX
  8
型材断面
 10
-138.26302
 20
96.971448
  0
VERTEX
  8
型材断面
 10
-157.074095
 20
96.971448
  0
VERTEX
  8
型材断面
 10
-157.074095
 20
92.83301
  0
VERTEX
  8
型材断面
 10
-138.26302
 20
92.83301
  0
SEQEND
  0
POLYLINE
  8
型材断面
  6
CONTINUOUS
 66
     1
 70
     1
  0
VERTEX
  8
型材断面
 10
-138.26302
 20
82.406302
  0
VERTEX
  8
型材断面
 10
-157.074095
 20
82.406302
  0
VERTEX
  8
型材断面
 10
-157.074095
 20
78.267865
  0
VERTEX
  8
型材断面
 10
-138.26302
 20
78.267865
  0
SEQEND
  0
LINE
  8
型材断面
  6
CONTINUOUS
 10
-126.164485
 20
66.287893
 11
-166.164485
 21
66.287893
  0
LINE
  8
型材断面
  6
CONTINUOUS
 10
-126.164485
 20
53.287893
 11
-166.164485
 21
53.287893
  0
LINE
  8
型材断面
  6
CONTINUOUS
 10
-166.164485
 20
53.287893
 11
-166.164485
 21
66.287893
  0
LINE
  8
型材断面
  6
CONTINUOUS
 10
-156.164485
 20
53.287893
 11
-156.164485
 21
66.287893
  0
LINE
  8
型材断面
  6
CONTINUOUS
 10
-146.164485
 20
53.287893
 11
-146.164485
 21
66.287893
  0
LINE
  8
型材断面
  6
CONTINUOUS
 10
-136.164485
 20
53.287893
 11
-136.164485
 21
66.287893
  0
LINE
  8
型材断面
  6
CONTINUOUS
 10
-126.164485
 20
53.287893
 11
-126.164485
 21
66.287893
  0
POLYLINE
  8
型材断面
  6
CONTINUOUS
 66
     1
 70
     1
  0
VERTEX
  8
型材断面
 10
-138.26302
 20
71.119657
  0
VERTEX
  8
型材断面
 10
-157.074095
 20
71.119657
  0
VERTEX
  8
型材断面
 10
-157.074095
 20
66.98122
  0
VERTEX
  8
型材断面
 10
-138.26302
 20
66.98122
  0
SEQEND
  0
POLYLINE
  8
型材断面
  6
CONTINUOUS
 66
     1
 70
     1
  0
VERTEX
  8
型材断面
 10
-138.26302
 20
52.634315
  0
VERTEX
  8
型材断面
 10
-157.074095
 20
52.634315
  0
VERTEX
  8
型材断面
 10
-157.074095
 20
48.495877
  0
VERTEX
  8
型材断面
 10
-138.26302
 20
48.495877
  0
SEQEND
  0
LINE
  8
型材断面
  6
CONTINUOUS
 10
-177.608665
 20
122.091343
 11
-136.74915
 21
122.091343
  0
LINE
  8
型材断面
  6
CONTINUOUS
 10
-177.608665
 20
121.591343
 11
-136.74915
 21
121.591343
  0
POLYLINE
  8
型材断面
  6
DOT
 66
     1
 70
     1
  0
VERTEX
  8
型材断面
 10
-121.78043
 20
128.561775
  0
VERTEX
  8
型材断面
 10
-180.902437
 20
128.561775
  0
VERTEX
  8
型材断面
 10
-180.902437
 20
43.31962
  0
VERTEX
  8
型材断面
 10
-121.78043
 20
43.31962
  0
SEQEND
  0
INSERT
  2
*GRP_0008
  8
型材断面
  6
DASHDOT
 62
    47
 10
0.0
 20
0.0
  0
INSERT
  2
*GRP_0009
  8
型材断面
  6
CONTINUOUS
 10
0.0
 20
0.0
  0
INSERT
  2
*GRP_0010
  8
型材断面
  6
DOT
 10
0.0
 20
0.0
  0
LINE
  8
型材断面
  6
CONTINUOUS
 10
-67.958528
 20
-38.31709
 11
-16.539898
 21
-38.31709
  0
LINE
  8
型材断面
  6
CONTINUOUS
 10
-67.958528
 20
-35.983757
 11
-13.606573
 21
-35.983757
  0
LINE
  8
型材断面
  6
CONTINUOUS
 10
59.878732
 20
-38.31709
 11
8.460102
 21
-38.31709
  0
LINE
  8
型材断面
  6
CONTINUOUS
 10
59.878732
 20
-35.983757
 11
5.526778
 21
-35.983757
  0
LINE
  8
型材断面
  6
CONTINUOUS
 10
12.62677
 20
-31.983748
 11
52.212073
 21
-31.983748
  0
LINE
  8
型材断面
  6
CONTINUOUS
 10
-20.70667
 20
-31.983748
 11
-60.291972
 21
-31.983748
  0
INSERT
  2
*GRP_0011
  8
型材断面
  6
CONTINUOUS
 10
0.0
 20
0.0
  0
INSERT
  2
*GRP_0012
  8
型材断面
  6
CONTINUOUS
 10
0.0
 20
0.0
  0
INSERT
  2
*GRP_0013
  8
型材断面
  6
DOT
 10
0.0
 20
0.0
  0
LINE
  8
型材断面
  6
CONTINUOUS
 10
-27.373222
 20
-99.957193
 11
19.293445
 21
-99.957193
  0
LINE
  8
型材断面
  6
CONTINUOUS
 10
-27.373222
 20
-102.290525
 11
19.293445
 21
-102.290525
  0
LINE
  8
型材断面
  6
CONTINUOUS
 10
-27.373222
 20
-84.857162
 11
19.293445
 21
-84.857162
  0
LINE
  8
型材断面
  6
CONTINUOUS
 10
-27.373222
 20
-83.790498
 11
19.293445
 21
-83.790498
  0
INSERT
  2
*GRP_0014
  8
型材断面
  6
CONTINUOUS
 10
0.0
 20
0.0
  0
LINE
  8
型材断面
  6
DOT
 10
139.487875
 20
8.932198
 11
138.821268
 21
9.045197
  0
LINE
  8
型材断面
  6
DOT
 10
138.821268
 20
11.62705
 11
139.487875
 21
11.62705
  0
LINE
  8
型材断面
  6
DOT
 10
137.321333
 20
11.62705
 11
136.1546
 21
11.62705
  0
LINE
  8
型材断面
  6
DOT
 10
136.1546
 20
11.62705
 11
136.1546
 21
9.49716
  0
LINE
  8
型材断面
  6
DOT
 10
139.321222
 20
8.960448
 11
139.321222
 21
11.62705
  0
LINE
  8
型材断面
  6
DOT
 10
139.15457
 20
8.988697
 11
139.15457
 21
11.62705
  0
LINE
  8
型材断面
  6
DOT
 10
138.98792
 20
9.016948
 11
138.98792
 21
11.62705
  0
INSERT
  2
*HAT_0009
  8
型材断面
 10
0.0
 20
0.0
  0
LINE
  8
型材断面
  6
CONTINUOUS
 10
138.6546
 20
18.627052
 11
138.6546
 21
13.627073
  0
LINE
  8
型材断面
  6
CONTINUOUS
 10
131.154608
 20
19.960415
 11
108.375555
 21
19.960415
  0
LINE
  8
型材断面
  6
CONTINUOUS
 10
138.6546
 20
15.960405
 11
108.375555
 21
15.960405
  0
LINE
  8
型材断面
  6
DOT
 10
138.6546
 20
14.29375
 11
108.375555
 21
14.29375
  0
LINE
  8
型材断面
  6
CONTINUOUS
 10
138.6546
 20
13.627073
 11
108.375555
 21
13.627073
  0
LINE
  8
型材断面
  6
CONTINUOUS
 10
128.821253
 20
-1.039585
 11
108.375555
 21
-1.039585
  0
LINE
  8
型材断面
  6
DASHDOT
 10
138.820743
 20
18.627052
 11
138.820743
 21
26.293645
  0
LINE
  8
ガラス
  6
CONTINUOUS
 10
-62.624677
 20
-25.717077
 11
-62.624677
 21
-27.717077
  0
LINE
  8
ガラス
  6
CONTINUOUS
 10
-64.624677
 20
-27.717077
 11
-62.624677
 21
-25.717077
  0
LINE
  8
ガラス
  6
CONTINUOUS
 10
-64.624677
 20
-25.717077
 11
-62.624677
 21
-27.717077
  0
LINE
  8
ガラス
  6
CONTINUOUS
 10
-64.624677
 20
-29.983745
 11
-64.624677
 21
-23.717077
  0
LINE
  8
ガラス
  6
CONTINUOUS
 10
54.545847
 20
-25.717077
 11
54.545847
 21
-27.717077
  0
LINE
  8
ガラス
  6
CONTINUOUS
 10
56.545847
 20
-27.717077
 11
54.545847
 21
-25.717077
  0
LINE
  8
ガラス
  6
CONTINUOUS
 10
56.545847
 20
-25.717077
 11
54.545847
 21
-27.717077
  0
LINE
  8
ガラス
  6
CONTINUOUS
 10
56.545847
 20
-29.983745
 11
56.545847
 21
-23.717077
  0
LINE
  8
ガラス
  6
CONTINUOUS
 10
3.293445
 20
-25.717068
 11
3.293445
 21
-27.717068
  0
LINE
  8
ガラス
  6
CONTINUOUS
 10
1.293445
 20
-27.717068
 11
3.293445
 21
-25.717068
  0
LINE
  8
ガラス
  6
CONTINUOUS
 10
1.293445
 20
-25.717068
 11
3.293445
 21
-27.717068
  0
LINE
  8
ガラス
  6
CONTINUOUS
 10
1.293445
 20
-29.983735
 11
1.293445
 21
-23.717068
  0
LINE
  8
ガラス
  6
CONTINUOUS
 10
-11.37324
 20
-25.717068
 11
-11.37324
 21
-27.717068
  0
LINE
  8
ガラス
  6
CONTINUOUS
 10
-9.37324
 20
-27.717068
 11
-11.37324
 21
-25.717068
  0
LINE
  8
ガラス
  6
CONTINUOUS
 10
-9.37324
 20
-25.717068
 11
-11.37324
 21
-27.717068
  0
LINE
  8
ガラス
  6
CONTINUOUS
 10
-9.37324
 20
-29.983735
 11
-9.37324
 21
-23.717068
  0
LINE
  8
ガラス
  6
CONTINUOUS
 10
56.545847
 20
-29.817077
 11
1.293445
 21
-29.817077
  0
LINE
  8
ガラス
  6
CONTINUOUS
 10
-9.37324
 20
-29.817077
 11
-64.624677
 21
-29.817077
  0
LINE
  8
ガラス
  6
CONTINUOUS
 10
56.545847
 20
-29.983745
 11
1.293445
 21
-29.983745
  0
LINE
  8
ガラス
  6
CONTINUOUS
 10
-9.37324
 20
-29.983745
 11
-64.624677
 21
-29.983745
  0
LINE
  8
ガラス
  6
CONTINUOUS
 10
56.545847
 20
-27.883745
 11
1.293445
 21
-27.883745
  0
LINE
  8
ガラス
  6
CONTINUOUS
 10
-9.37324
 20
-27.883745
 11
-64.624677
 21
-27.883745
  0
LINE
  8
ガラス
  6
CONTINUOUS
 10
56.545847
 20
-27.717077
 11
1.293445
 21
-27.717077
  0
LINE
  8
ガラス
  6
CONTINUOUS
 10
-9.37324
 20
-27.717077
 11
-64.624677
 21
-27.717077
  0
LINE
  8
ガラス
  6
CONTINUOUS
 10
56.545847
 20
-25.717077
 11
1.293445
 21
-25.717077
  0
LINE
  8
ガラス
  6
CONTINUOUS
 10
-9.37324
 20
-25.717077
 11
-64.624677
 21
-25.717077
  0
LINE
  8
ガラス
  6
CONTINUOUS
 10
56.545847
 20
-25.55041
 11
1.293445
 21
-25.55041
  0
LINE
  8
ガラス
  6
CONTINUOUS
 10
-9.37324
 20
-25.55041
 11
-64.624677
 21
-25.55041
  0
LINE
  8
ガラス
  6
CONTINUOUS
 10
56.545847
 20
-23.883745
 11
1.293445
 21
-23.883745
  0
LINE
  8
ガラス
  6
CONTINUOUS
 10
-9.37324
 20
-23.883745
 11
-64.624677
 21
-23.883745
  0
LINE
  8
ガラス
  6
CONTINUOUS
 10
56.545847
 20
-23.717077
 11
1.293445
 21
-23.717077
  0
LINE
  8
ガラス
  6
CONTINUOUS
 10
-9.37324
 20
-23.717077
 11
-64.624677
 21
-23.717077
  0
LINE
  8
ガラス
  6
CONTINUOUS
 10
3.293453
 20
-89.690513
 11
3.293453
 21
-91.690513
  0
LINE
  8
ガラス
  6
CONTINUOUS
 10
1.293453
 20
-91.690513
 11
3.293453
 21
-89.690513
  0
LINE
  8
ガラス
  6
CONTINUOUS
 10
1.293453
 20
-89.690513
 11
3.293453
 21
-91.690513
  0
LINE
  8
ガラス
  6
CONTINUOUS
 10
1.293453
 20
-93.95718
 11
1.293453
 21
-87.690513
  0
LINE
  8
ガラス
  6
CONTINUOUS
 10
-11.373232
 20
-89.690513
 11
-11.373232
 21
-91.690513
  0
LINE
  8
ガラス
  6
CONTINUOUS
 10
-9.373232
 20
-91.690513
 11
-11.373232
 21
-89.690513
  0
LINE
  8
ガラス
  6
CONTINUOUS
 10
-9.373232
 20
-89.690513
 11
-11.373232
 21
-91.690513
  0
LINE
  8
ガラス
  6
CONTINUOUS
 10
-9.373232
 20
-93.95718
 11
-9.373232
 21
-87.690513
  0
LINE
  8
ガラス
  6
CONTINUOUS
 10
-27.373222
 20
-93.95718
 11
-9.373232
 21
-93.95718
  0
LINE
  8
ガラス
  6
CONTINUOUS
 10
-27.373222
 20
-93.790513
 11
-9.373232
 21
-93.790513
  0
LINE
  8
ガラス
  6
CONTINUOUS
 10
-27.373222
 20
-91.690513
 11
-9.373232
 21
-91.690513
  0
LINE
  8
ガラス
  6
CONTINUOUS
 10
-27.373222
 20
-91.85718
 11
-9.373232
 21
-91.85718
  0
LINE
  8
ガラス
  6
CONTINUOUS
 10
-27.373222
 20
-89.690513
 11
-9.373232
 21
-89.690513
  0
LINE
  8
ガラス
  6
CONTINUOUS
 10
-27.373222
 20
-89.523845
 11
-9.373232
 21
-89.523845
  0
LINE
  8
ガラス
  6
CONTINUOUS
 10
-27.373222
 20
-87.690513
 11
-9.373232
 21
-87.690513
  0
LINE
  8
ガラス
  6
CONTINUOUS
 10
-27.373222
 20
-87.85718
 11
-9.373232
 21
-87.85718
  0
LINE
  8
ガラス
  6
CONTINUOUS
 10
19.293442
 20
-93.95718
 11
1.293453
 21
-93.95718
  0
LINE
  8
ガラス
  6
CONTINUOUS
 10
19.293442
 20
-93.790513
 11
1.293453
 21
-93.790513
  0
LINE
  8
ガラス
  6
CONTINUOUS
 10
19.293442
 20
-91.690513
 11
1.293453
 21
-91.690513
  0
LINE
  8
ガラス
  6
CONTINUOUS
 10
19.293442
 20
-91.85718
 11
1.293453
 21
-91.85718
  0
LINE
  8
ガラス
  6
CONTINUOUS
 10
19.293442
 20
-89.690513
 11
1.293453
 21
-89.690513
  0
LINE
  8
ガラス
  6
CONTINUOUS
 10
19.293442
 20
-89.523845
 11
1.293453
 21
-89.523845
  0
LINE
  8
ガラス
  6
CONTINUOUS
 10
19.293442
 20
-87.690513
 11
1.293453
 21
-87.690513
  0
LINE
  8
ガラス
  6
CONTINUOUS
 10
19.293442
 20
-87.85718
 11
1.293453
 21
-87.85718
  0
INSERT
  2
*GRP_0015
  8
ゴム等
  6
CONTINUOUS
 10
0.0
 20
0.0
  0
INSERT
  2
*GRP_0016
  8
ゴム等
  6
CONTINUOUS
 10
0.0
 20
0.0
  0
INSERT
  2
*GRP_0017
  8
ゴム等
  6
CONTINUOUS
 10
0.0
 20
0.0
  0
INSERT
  2
*GRP_0018
  8
ゴム等
  6
CONTINUOUS
 10
0.0
 20
0.0
  0
INSERT
  2
*GRP_0019
  8
ゴム等
  6
CONTINUOUS
 10
0.0
 20
0.0
  0
INSERT
  2
*GRP_0020
  8
ゴム等
  6
CONTINUOUS
 10
0.0
 20
0.0
  0
INSERT
  2
*GRP_0021
  8
ボルト／ビス
  6
CONTINUOUS
 62
    64
 10
0.0
 20
0.0
  0
INSERT
  2
*GRP_0022
  8
ボルト／ビス
  6
CONTINUOUS
 62
    64
 10
0.0
 20
0.0
  0
INSERT
  2
*GRP_0023
  8
ボルト／ビス
  6
CONTINUOUS
 62
    64
 10
0.0
 20
0.0
  0
INSERT
  2
*GRP_0024
  8
ボルト／ビス
  6
CONTINUOUS
 62
    64
 10
0.0
 20
0.0
  0
INSERT
  2
*GRP_0025
  8
ボルト／ビス
  6
CONTINUOUS
 62
    64
 10
0.0
 20
0.0
  0
INSERT
  2
*GRP_0026
  8
ボルト／ビス
  6
CONTINUOUS
 62
    64
 10
0.0
 20
0.0
  0
INSERT
  2
*GRP_0027
  8
ボルト／ビス
  6
CONTINUOUS
 62
    64
 10
0.0
 20
0.0
  0
INSERT
  2
*GRP_0028
  8
ボルト／ビス
  6
CONTINUOUS
 62
    64
 10
0.0
 20
0.0
  0
INSERT
  2
*GRP_0029
  8
ボルト／ビス
  6
CONTINUOUS
 62
    64
 10
0.0
 20
0.0
  0
INSERT
  2
*GRP_0030
  8
ボルト／ビス
  6
CONTINUOUS
 62
    64
 10
0.0
 20
0.0
  0
INSERT
  2
*GRP_0031
  8
ボルト／ビス
  6
CONTINUOUS
 10
0.0
 20
0.0
  0
INSERT
  2
*GRP_0032
  8
ボルト／ビス
  6
CONTINUOUS
 62
    64
 10
0.0
 20
0.0
  0
INSERT
  2
*GRP_0033
  8
ボルト／ビス
  6
CONTINUOUS
 10
0.0
 20
0.0
  0
INSERT
  2
*GRP_0034
  8
ボルト／ビス
  6
CONTINUOUS
 62
    64
 10
0.0
 20
0.0
  0
INSERT
  2
*GRP_0035
  8
ボルト／ビス
  6
DOT
 62
    64
 10
0.0
 20
0.0
  0
INSERT
  2
*GRP_0036
  8
ボルト／ビス
  6
DOT
 62
    64
 10
0.0
 20
0.0
  0
INSERT
  2
*GRP_0037
  8
ボルト／ビス
  6
CONTINUOUS
 62
    64
 10
0.0
 20
0.0
  0
INSERT
  2
*GRP_0038
  8
ボルト／ビス
  6
CONTINUOUS
 62
    64
 10
0.0
 20
0.0
  0
INSERT
  2
*GRP_0039
  8
ボルト／ビス
  6
CONTINUOUS
 62
    64
 10
0.0
 20
0.0
  0
INSERT
  2
*GRP_0040
  8
ボルト／ビス
  6
CONTINUOUS
 62
    64
 10
0.0
 20
0.0
  0
INSERT
  2
*GRP_0041
  8
ボルト／ビス
  6
CONTINUOUS
 62
    64
 10
0.0
 20
0.0
  0
INSERT
  2
*GRP_0042
  8
ボルト／ビス
  6
CONTINUOUS
 62
    64
 10
0.0
 20
0.0
  0
INSERT
  2
*GRP_0043
  8
ボルト／ビス
  6
CONTINUOUS
 62
    64
 10
0.0
 20
0.0
  0
INSERT
  2
*GRP_0044
  8
ボルト／ビス
  6
CONTINUOUS
 62
    64
 10
0.0
 20
0.0
  0
INSERT
  2
*GRP_0045
  8
ボルト／ビス
  6
CONTINUOUS
 62
    64
 10
0.0
 20
0.0
  0
INSERT
  2
*GRP_0046
  8
ボルト／ビス
  6
CONTINUOUS
 62
    64
 10
0.0
 20
0.0
  0
INSERT
  2
*GRP_0114
  8
ボルト／ビス
  6
CONTINUOUS
 10
0.0
 20
0.0
  0
INSERT
  2
*GRP_0117
  8
ボルト／ビス
  6
CONTINUOUS
 62
    64
 10
0.0
 20
0.0
  0
INSERT
  2
*GRP_0119
  8
ボルト／ビス
  6
CONTINUOUS
 10
0.0
 20
0.0
  0
INSERT
  2
*GRP_0120
  8
ボルト／ビス
  6
CONTINUOUS
 62
    64
 10
0.0
 20
0.0
  0
INSERT
  2
*GRP_0121
  8
ボルト／ビス
  6
CONTINUOUS
 62
    64
 10
0.0
 20
0.0
  0
INSERT
  2
*GRP_0125
  8
ボルト／ビス
  6
CONTINUOUS
 10
0.0
 20
0.0
  0
INSERT
  2
*GRP_0128
  8
ボルト／ビス
  6
CONTINUOUS
 62
    64
 10
0.0
 20
0.0
  0
INSERT
  2
*GRP_0129
  8
ボルト／ビス
  6
CONTINUOUS
 10
0.0
 20
0.0
  0
TEXT
  7
TextStyle03
  8
文字
  6
CONTINUOUS
 10
100.75
 20
63.05
  1
耐火仕様
 40
5.0
 72
     5
 11
122.625
 21
63.05
  0
TEXT
  7
TextStyle03
  8
文字
  6
CONTINUOUS
 10
142.9
 20
65.15
  1
＝Ｓt
 40
3.0
 72
     5
 11
151.15
 21
65.15
  0
TEXT
  7
TextStyle03
  8
文字
  6
CONTINUOUS
 10
142.9
 20
58.075
  1
＝ＳＵＳ
 40
3.0
 72
     5
 11
156.025
 21
58.075
  0
TEXT
  7
TextStyle03
  8
文字
  6
CONTINUOUS
 10
142.9
 20
51.35
  1
＝ＡＬ
 40
3.0
 72
     5
 11
152.65
 21
51.35
  0
TEXT
  7
TextStyle03
  8
文字
  6
CONTINUOUS
 10
53.275
 20
100.15
  1
ＮＳコード：ＮＳＦＫＺ
 40
5.0
 72
     5
 11
114.525
 21
100.15
  0
TEXT
  7
TextStyle03
  8
文字
  6
CONTINUOUS
 10
53.55
 20
126.675
  1
シリーズ：ＴＦ２ＦＫ
 40
5.0
 72
     5
 11
109.175
 21
126.675
  0
TEXT
  7
TextStyle03
  8
文字
  6
CONTINUOUS
 10
53.55
 20
121.05
  1
　　　　　（固定）
 40
5.0
 72
     5
 11
103.55
 21
121.05
  0
TEXT
  7
TextStyle03
  8
文字
  6
CONTINUOUS
 10
53.55
 20
115.425
  1

 40
5.0
 41
1.125
  0
TEXT
  7
TextStyle03
  8
文字
  6
CONTINUOUS
 10
53.55
 20
109.8
  1
図面名　：全体納まり断面図　落下防止網仕様
 40
5.0
 72
     5
 11
171.05
 21
109.8
  0
TEXT
  7
TextStyle03
  8
文字
  6
CONTINUOUS
 10
-131.4
 20
-51.125
  1
規格水切
 40
3.0
 72
     5
 11
-118.275
 21
-51.125
  0
TEXT
  7
TextStyle03
  8
文字
  6
CONTINUOUS
 10
134.95
 20
-67.6
  1
排水パイプ(オプション)
 40
3.0
 72
     5
 11
171.8875
 21
-67.6
  0
TEXT
  7
TextStyle03
  8
文字
  6
CONTINUOUS
 10
134.95
 20
-70.975
  1
□10×10×1 L=60
 40
3.0
 72
     5
 11
161.7625
 21
-70.975
  0
TEXT
  7
TextStyle03
  8
文字
  6
CONTINUOUS
 10
-155.75
 20
115.0
  1
可動装置側
 40
3.0
 72
     5
 11
-139.25
 21
115.0
  0
TEXT
  7
TextStyle03
  8
文字
  6
CONTINUOUS
 10
-155.75
 20
103.5
  1
可動装置側
 40
3.0
 72
     5
 11
-139.25
 21
103.5
  0
TEXT
  7
TextStyle03
  8
文字
  6
CONTINUOUS
 10
-155.75
 20
93.425
  1
可動装置側
 40
3.0
 72
     5
 11
-139.25
 21
93.425
  0
TEXT
  7
TextStyle03
  8
文字
  6
CONTINUOUS
 10
-155.75
 20
78.875
  1
可動装置側
 40
3.0
 72
     5
 11
-139.25
 21
78.875
  0
TEXT
  7
TextStyle03
  8
文字
  6
CONTINUOUS
 10
-155.75
 20
67.6
  1
可動装置側
 40
3.0
 72
     5
 11
-139.25
 21
67.6
  0
TEXT
  7
TextStyle03
  8
文字
  6
CONTINUOUS
 10
-155.75
 20
49.125
  1
可動装置側
 40
3.0
 72
     5
 11
-139.25
 21
49.125
  0
TEXT
  7
TextStyle03
  8
文字
  6
CONTINUOUS
 10
-164.175
 20
110.1
  1
小
 40
3.0
 72
     5
 11
-161.175
 21
110.1
  0
TEXT
  7
TextStyle03
  8
文字
  6
CONTINUOUS
 10
-154.175
 20
110.1
  1
小
 40
3.0
 72
     5
 11
-151.175
 21
110.1
  0
TEXT
  7
TextStyle03
  8
文字
  6
CONTINUOUS
 10
-144.175
 20
110.1
  1
小
 40
3.0
 72
     5
 11
-141.175
 21
110.1
  0
TEXT
  7
TextStyle03
  8
文字
  6
CONTINUOUS
 10
-164.175
 20
87.675
  1
小
 40
3.0
 72
     5
 11
-161.175
 21
87.675
  0
TEXT
  7
TextStyle03
  8
文字
  6
CONTINUOUS
 10
-154.175
 20
87.675
  1
小
 40
3.0
 72
     5
 11
-151.175
 21
87.675
  0
TEXT
  7
TextStyle03
  8
文字
  6
CONTINUOUS
 10
-144.175
 20
87.675
  1
小
 40
3.0
 72
     5
 11
-141.175
 21
87.675
  0
TEXT
  7
TextStyle03
  8
文字
  6
CONTINUOUS
 10
-176.325
 20
123.025
  1
Ｌ型タイプ 中桟フレーム
 40
3.0
 72
     5
 11
-137.8875
 21
123.025
  0
TEXT
  7
TextStyle03
  8
文字
  6
CONTINUOUS
 10
-164.175
 20
59.15
  1
大
 40
3.0
 72
     5
 11
-161.175
 21
59.15
  0
TEXT
  7
TextStyle03
  8
文字
  6
CONTINUOUS
 10
-154.175
 20
59.15
  1
大
 40
3.0
 72
     5
 11
-151.175
 21
59.15
  0
TEXT
  7
TextStyle03
  8
文字
  6
CONTINUOUS
 10
-144.175
 20
59.15
  1
大
 40
3.0
 72
     5
 11
-141.175
 21
59.15
  0
TEXT
  7
TextStyle03
  8
文字
  6
CONTINUOUS
 10
-18.25
 20
-70.375
  1
中桟フレーム（大）
 40
3.0
 72
     5
 11
11.75
 21
-70.375
  0
TEXT
  7
TextStyle03
  8
文字
  6
CONTINUOUS
 10
-17.975
 20
-114.2
  1
中桟フレーム（小）
 40
3.0
 72
     5
 11
12.025
 21
-114.2
  0
TEXT
  7
TextStyle03
  8
文字
  6
CONTINUOUS
 10
-20.825
 20
-120.45
  1
※中桟はＬ型のみ使用
 40
3.0
 72
     5
 11
12.55
 21
-120.45
  0
TEXT
  7
TextStyle03
  8
文字
  6
CONTINUOUS
 10
17.975
 20
-108.725
  1
SUS-1.5t　2B
 40
3.0
 72
     5
 11
38.0375
 21
-108.725
  0
TEXT
  7
TextStyle03
  8
文字
  6
CONTINUOUS
 10
17.975
 20
-112.1
  1
ジョイント
 40
3.0
 72
     5
 11
34.475
 21
-112.1
  0
POLYLINE
  8
文字
  6
CONTINUOUS
 66
     1
 70
     1
  0
VERTEX
  8
文字
 10
173.20328
 20
38.115387
  0
VERTEX
  8
文字
 10
103.626925
 20
38.115387
  0
VERTEX
  8
文字
 10
103.626925
 20
-10.327963
  0
VERTEX
  8
文字
 10
173.20328
 20
-10.327963
  0
SEQEND
  0
TEXT
  7
TextStyle03
  8
文字
  6
CONTINUOUS
 10
105.8
 20
32.75
  1
中桟フレーム（大）端部断面
 40
3.0
 72
     5
 11
149.3
 21
32.75
  0
TEXT
  7
TextStyle03
  8
文字
  6
CONTINUOUS
 10
16.575
 20
-41.95
  1
St-1.6t
 40
3.0
 72
     5
 11
28.2
 21
-41.95
  0
TEXT
  7
TextStyle03
  8
文字
  6
CONTINUOUS
 10
16.575
 20
-45.325
  1
(ｶﾞﾙﾊﾞﾘｳﾑ鋼板)
 40
3.0
 72
     5
 11
40.0125
 21
-45.325
  0
TEXT
  7
TextStyle03
  8
文字
  6
CONTINUOUS
 10
-49.65
 20
-60.625
  1
耐火材：
 40
3.0
 72
     5
 11
-36.525
 21
-60.625
  0
TEXT
  7
TextStyle03
  8
文字
  6
CONTINUOUS
 10
-49.65
 20
-64.0
  1
St-1.6t(ｱﾛｲ鋼板)
 40
3.0
 72
     5
 11
-22.8375
 21
-64.0
  0
TEXT
  7
TextStyle03
  8
文字
  6
CONTINUOUS
 10
22.25
 20
-60.05
  1
落下防止網
 40
3.0
 72
     5
 11
38.75
 21
-60.05
  0
TEXT
  7
TextStyle03
  8
文字
  6
CONTINUOUS
 10
22.25
 20
-63.425
  1
(溶融亜鉛メッキ)
 40
3.0
 72
     5
 11
49.0625
 21
-63.425
  0
TEXT
  7
TextStyle03
  8
文字
  6
CONTINUOUS
 10
22.25
 20
-66.8
  1
φ-4　P＝100
 40
3.0
 72
     5
 11
42.3125
 21
-66.8
  0
INSERT
  2
*DIM_0047
  8
寸法
  6
CONTINUOUS
 10
0.0
 20
0.0
  0
INSERT
  2
*DIM_0048
  8
寸法
  6
CONTINUOUS
 10
0.0
 20
0.0
  0
INSERT
  2
*DIM_0049
  8
寸法
  6
CONTINUOUS
 10
0.0
 20
0.0
  0
INSERT
  2
*DIM_0050
  8
寸法
  6
CONTINUOUS
 10
0.0
 20
0.0
  0
INSERT
  2
*DIM_0051
  8
寸法
  6
CONTINUOUS
 10
0.0
 20
0.0
  0
INSERT
  2
*DIM_0052
  8
寸法
  6
CONTINUOUS
 10
0.0
 20
0.0
  0
INSERT
  2
*DIM_0053
  8
寸法
  6
CONTINUOUS
 10
0.0
 20
0.0
  0
INSERT
  2
*DIM_0054
  8
寸法
  6
CONTINUOUS
 10
0.0
 20
0.0
  0
INSERT
  2
*GRP_0055
  8
寸法
  6
CONTINUOUS
 10
0.0
 20
0.0
  0
INSERT
  2
*DIM_0056
  8
寸法
  6
CONTINUOUS
 10
0.0
 20
0.0
  0
INSERT
  2
*DIM_0057
  8
寸法
  6
CONTINUOUS
 10
0.0
 20
0.0
  0
INSERT
  2
*DIM_0058
  8
寸法
  6
CONTINUOUS
 10
0.0
 20
0.0
  0
INSERT
  2
*DIM_0059
  8
寸法
  6
CONTINUOUS
 10
0.0
 20
0.0
  0
INSERT
  2
*DIM_0060
  8
寸法
  6
CONTINUOUS
 10
0.0
 20
0.0
  0
INSERT
  2
*DIM_0061
  8
寸法
  6
CONTINUOUS
 10
0.0
 20
0.0
  0
INSERT
  2
*DIM_0062
  8
寸法
  6
CONTINUOUS
 10
0.0
 20
0.0
  0
INSERT
  2
*DIM_0063
  8
寸法
  6
CONTINUOUS
 10
0.0
 20
0.0
  0
INSERT
  2
*DIM_0064
  8
寸法
  6
CONTINUOUS
 10
0.0
 20
0.0
  0
INSERT
  2
*DIM_0065
  8
寸法
  6
CONTINUOUS
 10
0.0
 20
0.0
  0
INSERT
  2
*DIM_0066
  8
寸法
  6
CONTINUOUS
 10
0.0
 20
0.0
  0
INSERT
  2
*DIM_0067
  8
寸法
  6
CONTINUOUS
 10
0.0
 20
0.0
  0
INSERT
  2
*DIM_0068
  8
寸法
  6
CONTINUOUS
 10
0.0
 20
0.0
  0
INSERT
  2
*GRP_0069
  8
寸法
  6
CONTINUOUS
 10
0.0
 20
0.0
  0
INSERT
  2
*DIM_0070
  8
寸法
  6
CONTINUOUS
 10
0.0
 20
0.0
  0
INSERT
  2
*DIM_0071
  8
寸法
  6
CONTINUOUS
 10
0.0
 20
0.0
  0
INSERT
  2
*DIM_0072
  8
寸法
  6
CONTINUOUS
 10
0.0
 20
0.0
  0
INSERT
  2
*DIM_0073
  8
寸法
  6
CONTINUOUS
 10
0.0
 20
0.0
  0
INSERT
  2
*DIM_0074
  8
寸法
  6
CONTINUOUS
 10
0.0
 20
0.0
  0
INSERT
  2
*DIM_0075
  8
寸法
  6
CONTINUOUS
 10
0.0
 20
0.0
  0
INSERT
  2
*DIM_0076
  8
寸法
  6
CONTINUOUS
 10
0.0
 20
0.0
  0
INSERT
  2
*GRP_0077
  8
寸法
  6
CONTINUOUS
 10
0.0
 20
0.0
  0
INSERT
  2
*GRP_0078
  8
寸法
  6
CONTINUOUS
 10
0.0
 20
0.0
  0
INSERT
  2
*GRP_0079
  8
寸法
  6
CONTINUOUS
 10
0.0
 20
0.0
  0
INSERT
  2
*GRP_0080
  8
寸法
  6
CONTINUOUS
 10
0.0
 20
0.0
  0
INSERT
  2
*GRP_0081
  8
寸法
  6
CONTINUOUS
 10
0.0
 20
0.0
  0
INSERT
  2
*GRP_0082
  8
寸法
  6
CONTINUOUS
 10
0.0
 20
0.0
  0
INSERT
  2
*GRP_0083
  8
寸法
  6
CONTINUOUS
 10
0.0
 20
0.0
  0
INSERT
  2
*GRP_0084
  8
寸法
  6
CONTINUOUS
 10
0.0
 20
0.0
  0
INSERT
  2
*GRP_0085
  8
寸法
  6
CONTINUOUS
 10
0.0
 20
0.0
  0
INSERT
  2
*DIM_0086
  8
寸法
  6
CONTINUOUS
 10
0.0
 20
0.0
  0
INSERT
  2
*DIM_0087
  8
寸法
  6
CONTINUOUS
 10
0.0
 20
0.0
  0
INSERT
  2
*DIM_0088
  8
寸法
  6
CONTINUOUS
 10
0.0
 20
0.0
  0
INSERT
  2
*DIM_0089
  8
寸法
  6
CONTINUOUS
 10
0.0
 20
0.0
  0
INSERT
  2
*DIM_0090
  8
寸法
  6
CONTINUOUS
 10
0.0
 20
0.0
  0
INSERT
  2
*GRP_0091
  8
寸法
  6
CONTINUOUS
 10
0.0
 20
0.0
  0
INSERT
  2
*GRP_0116
  8
寸法
  6
CONTINUOUS
 10
0.0
 20
0.0
  0
POLYLINE
  8
寸法
  6
CONTINUOUS
 66
     1
  0
VERTEX
  8
寸法
 10
43.034087
 20
-48.26118
  0
VERTEX
  8
寸法
 10
40.20946
 20
-40.469013
  0
VERTEX
  8
寸法
 10
28.774898
 20
-40.469013
  0
SEQEND
  0
INSERT
  2
*GRP_0124
  8
寸法
  6
CONTINUOUS
 10
0.0
 20
0.0
  0
INSERT
  2
*GRP_0132
  8
寸法
  6
CONTINUOUS
 10
0.0
 20
0.0
  0
INSERT
  2
*DIM_0133
  8
寸法
  6
CONTINUOUS
 10
0.0
 20
0.0
  0
INSERT
  2
*DIM_0134
  8
寸法
  6
CONTINUOUS
 10
0.0
 20
0.0
  0
INSERT
  2
*DIM_0135
  8
寸法
  6
CONTINUOUS
 10
0.0
 20
0.0
  0
INSERT
  2
*DIM_0136
  8
寸法
  6
CONTINUOUS
 10
0.0
 20
0.0
  0
INSERT
  2
*HAT_0010
  8
ﾊｯﾁﾝｸﾞ
 10
0.0
 20
0.0
  0
INSERT
  2
*HAT_0011
  8
ﾊｯﾁﾝｸﾞ
 10
0.0
 20
0.0
  0
INSERT
  2
*HAT_0012
  8
ﾊｯﾁﾝｸﾞ
 10
0.0
 20
0.0
  0
INSERT
  2
*HAT_0013
  8
ﾊｯﾁﾝｸﾞ
 10
0.0
 20
0.0
  0
INSERT
  2
*HAT_0014
  8
ﾊｯﾁﾝｸﾞ
 10
0.0
 20
0.0
  0
INSERT
  2
*HAT_0015
  8
ﾊｯﾁﾝｸﾞ
 10
0.0
 20
0.0
  0
INSERT
  2
*GRP_0092
  8
別途部材
  6
CONTINUOUS
 10
0.0
 20
0.0
  0
INSERT
  2
*GRP_0093
  8
別途部材
  6
CONTINUOUS
 10
0.0
 20
0.0
  0
INSERT
  2
*GRP_0094
  8
別途部材
  6
CONTINUOUS
 10
0.0
 20
0.0
  0
INSERT
  2
*GRP_0095
  8
別途部材
  6
CONTINUOUS
 10
0.0
 20
0.0
  0
CIRCLE
  8
別途部材
  6
CONTINUOUS
 62
    96
 10
43.21154
 20
-51.783748
 40
0.666667
  0
LINE
  8
別途部材
  6
CONTINUOUS
 10
43.878207
 20
-51.117083
 11
43.878207
 21
-49.783757
  0
LINE
  8
別途部材
  6
CONTINUOUS
 62
    96
 10
43.878207
 20
-51.117083
 11
29.877743
 21
-51.117083
  0
LINE
  8
別途部材
  6
CONTINUOUS
 62
    96
 10
43.878207
 20
-49.783757
 11
29.877743
 21
-49.783757
  0
CIRCLE
  8
別途部材
  6
CONTINUOUS
 62
    96
 10
-51.291335
 20
-51.783748
 40
0.666667
  0
LINE
  8
別途部材
  6
CONTINUOUS
 10
-51.958003
 20
-51.117083
 11
-51.958003
 21
-49.783757
  0
LINE
  8
別途部材
  6
CONTINUOUS
 62
    96
 10
-51.958003
 20
-51.117083
 11
-37.957538
 21
-51.117083
  0
LINE
  8
別途部材
  6
CONTINUOUS
 62
    96
 10
-51.958003
 20
-49.783757
 11
-37.957538
 21
-49.783757
  0
CIRCLE
  8
別途部材
  6
CONTINUOUS
 62
    96
 10
-22.339948
 20
-51.783748
 40
0.666667
  0
LINE
  8
別途部材
  6
CONTINUOUS
 10
-21.67328
 20
-51.117083
 11
-21.67328
 21
-49.783757
  0
LINE
  8
別途部材
  6
CONTINUOUS
 62
    96
 10
-21.67328
 20
-49.783757
 11
-35.673745
 21
-49.783757
  0
LINE
  8
別途部材
  6
CONTINUOUS
 62
    96
 10
-21.67328
 20
-51.117083
 11
-35.673745
 21
-51.117083
  0
CIRCLE
  8
別途部材
  6
CONTINUOUS
 62
    96
 10
14.260153
 20
-51.783748
 40
0.666667
  0
LINE
  8
別途部材
  6
CONTINUOUS
 10
13.593485
 20
-51.117083
 11
13.593485
 21
-49.783757
  0
LINE
  8
別途部材
  6
CONTINUOUS
 62
    96
 10
13.593485
 20
-49.783757
 11
27.59395
 21
-49.783757
  0
LINE
  8
別途部材
  6
CONTINUOUS
 62
    96
 10
13.593485
 20
-51.117083
 11
27.59395
 21
-51.117083
  0
INSERT
  2
*GRP_0096
  8
曲げ物
  6
DASHDOT
 10
0.0
 20
0.0
  0
INSERT
  2
*GRP_0097
  8
曲げ物
  6
DASHDOT
 10
0.0
 20
0.0
  0
INSERT
  2
*GRP_0118
  8
曲げ物
  6
CONTINUOUS
 10
0.0
 20
0.0
  0
INSERT
  2
*GRP_0122
  8
曲げ物
  6
CONTINUOUS
 10
0.0
 20
0.0
  0
INSERT
  2
*GRP_0127
  8
曲げ物
  6
CONTINUOUS
 10
0.0
 20
0.0
  0
INSERT
  2
*GRP_0130
  8
曲げ物
  6
CONTINUOUS
 10
0.0
 20
0.0
  0
POLYLINE
  8
St
  6
CONTINUOUS
 66
     1
 70
     1
  0
VERTEX
  8
St
 10
123.988443
 20
69.11004
  0
VERTEX
  8
St
 10
98.746667
 20
69.11004
  0
VERTEX
  8
St
 10
98.746667
 20
61.30905
  0
VERTEX
  8
St
 10
123.988443
 20
61.30905
  0
SEQEND
  0
LINE
  8
St
  6
CONTINUOUS
 10
132.683845
 20
64.815508
 11
136.417178
 21
68.54884
  0
LINE
  8
St
  6
CONTINUOUS
 10
133.626655
 20
64.815508
 11
137.359987
 21
68.54884
  0
LINE
  8
St
  6
CONTINUOUS
 10
129.43372
 20
68.54884
 11
140.18794
 21
68.54884
  0
LINE
  8
St
  6
CONTINUOUS
 10
129.43372
 20
64.815508
 11
140.18794
 21
64.815508
  0
LINE
  8
St
  6
CONTINUOUS
 10
132.683845
 20
57.711035
 11
136.417178
 21
61.444368
  0
LINE
  8
St
  6
CONTINUOUS
 10
129.43372
 20
61.444368
 11
140.18794
 21
61.444368
  0
LINE
  8
St
  6
CONTINUOUS
 10
129.43372
 20
57.711035
 11
140.18794
 21
57.711035
  0
LINE
  8
St
  6
CONTINUOUS
 10
129.43372
 20
54.869247
 11
140.18794
 21
54.869247
  0
LINE
  8
St
  6
CONTINUOUS
 10
129.43372
 20
51.135915
 11
140.18794
 21
51.135915
  0
LINE
  8
St
  6
CONTINUOUS
 10
111.54553
 20
-71.91708
 11
111.54553
 21
-72.983748
  0
INSERT
  2
*GRP_0098
  8
St
  6
CONTINUOUS
 10
0.0
 20
0.0
  0
LINE
  8
St
  6
CONTINUOUS
 10
59.3454
 20
-46.375185
 11
59.3454
 21
-44.408518
  0
LINE
  8
St
  6
CONTINUOUS
 10
59.3454
 20
-44.408518
 11
59.878732
 21
-44.408518
  0
LINE
  8
St
  6
CONTINUOUS
 10
56.545395
 20
-51.78379
 11
56.545395
 21
-52.317123
  0
LINE
  8
St
  6
CONTINUOUS
 10
51.078708
 20
-46.908518
 11
51.078708
 21
-51.78379
  0
LINE
  8
St
  6
CONTINUOUS
 10
56.545395
 20
-51.78379
 11
51.078708
 21
-51.78379
  0
LINE
  8
St
  6
CONTINUOUS
 10
59.3454
 20
-46.375185
 11
51.078708
 21
-46.375185
  0
ARC
  8
St
  6
CONTINUOUS
 10
51.078707
 20
-46.908518
 40
0.533333
 50
90.0
 51
180.0
  0
LINE
  8
St
  6
CONTINUOUS
 10
50.545375
 20
-51.78379
 11
50.545375
 21
-46.908518
  0
LINE
  8
St
  6
CONTINUOUS
 10
51.078708
 20
-52.317123
 11
56.545395
 21
-52.317123
  0
ARC
  8
St
  6
CONTINUOUS
 10
51.078707
 20
-51.783789
 40
0.533333
 50
180.0
 51
270.0
  0
LINE
  8
St
  6
CONTINUOUS
 10
59.3454
 20
-46.908518
 11
51.078708
 21
-46.908518
  0
LINE
  8
St
  6
CONTINUOUS
 10
59.878732
 20
-46.375185
 11
59.878732
 21
-44.408518
  0
ARC
  8
St
  6
CONTINUOUS
 10
59.345398
 20
-46.375184
 40
0.533333
 50
270.0
 51
360.0
  0
LINE
  8
St
  6
CONTINUOUS
 10
-119.625325
 20
-71.91708
 11
-119.625325
 21
-72.983748
  0
INSERT
  2
*GRP_0099
  8
St
  6
CONTINUOUS
 10
0.0
 20
0.0
  0
LINE
  8
St
  6
CONTINUOUS
 10
-67.425195
 20
-46.375185
 11
-67.425195
 21
-44.408518
  0
LINE
  8
St
  6
CONTINUOUS
 10
-67.425195
 20
-44.408518
 11
-67.958528
 21
-44.408518
  0
LINE
  8
St
  6
CONTINUOUS
 10
-64.62519
 20
-51.78379
 11
-64.62519
 21
-52.317123
  0
LINE
  8
St
  6
CONTINUOUS
 10
-59.158503
 20
-46.908518
 11
-59.158503
 21
-51.78379
  0
LINE
  8
St
  6
CONTINUOUS
 10
-64.62519
 20
-51.78379
 11
-59.158503
 21
-51.78379
  0
LINE
  8
St
  6
CONTINUOUS
 10
-67.425195
 20
-46.375185
 11
-59.158503
 21
-46.375185
  0
ARC
  8
St
  6
CONTINUOUS
 10
-59.158505
 20
-46.908518
 40
0.533333
 50
0.0
 51
90.0
  0
LINE
  8
St
  6
CONTINUOUS
 10
-58.62517
 20
-51.78379
 11
-58.62517
 21
-46.908518
  0
LINE
  8
St
  6
CONTINUOUS
 10
-59.158503
 20
-52.317123
 11
-64.62519
 21
-52.317123
  0
ARC
  8
St
  6
CONTINUOUS
 10
-59.158505
 20
-51.783789
 40
0.533333
 50
270.0
 51
360.0
  0
LINE
  8
St
  6
CONTINUOUS
 10
-67.425195
 20
-46.908518
 11
-59.158503
 21
-46.908518
  0
LINE
  8
St
  6
CONTINUOUS
 10
-67.958528
 20
-46.375185
 11
-67.958528
 21
-44.408518
  0
ARC
  8
St
  6
CONTINUOUS
 10
-67.425195
 20
-46.375184
 40
0.533333
 50
180.0
 51
270.0
  0
LINE
  8
St
  6
CONTINUOUS
 10
-64.993725
 20
-46.375185
 11
-65.527057
 21
-46.908518
  0
LINE
  8
St
  6
CONTINUOUS
 10
-64.758025
 20
-46.375185
 11
-65.291357
 21
-46.908518
  0
LINE
  8
St
  6
CONTINUOUS
 10
-58.62517
 20
-49.383807
 11
-59.158503
 21
-49.91714
  0
LINE
  8
St
  6
CONTINUOUS
 10
-61.025152
 20
-51.78379
 11
-61.558485
 21
-52.317123
  0
LINE
  8
St
  6
CONTINUOUS
 10
-58.62517
 20
-49.619507
 11
-59.158503
 21
-50.15284
  0
LINE
  8
St
  6
CONTINUOUS
 10
-60.789452
 20
-51.78379
 11
-61.322785
 21
-52.317123
  0
LINE
  8
St
  6
CONTINUOUS
 10
56.91393
 20
-46.375185
 11
57.447263
 21
-46.908518
  0
LINE
  8
St
  6
CONTINUOUS
 10
56.67823
 20
-46.375185
 11
57.211563
 21
-46.908518
  0
LINE
  8
St
  6
CONTINUOUS
 10
50.545375
 20
-49.383807
 11
51.078708
 21
-49.91714
  0
LINE
  8
St
  6
CONTINUOUS
 10
52.945357
 20
-51.78379
 11
53.47869
 21
-52.317123
  0
LINE
  8
St
  6
CONTINUOUS
 10
50.545375
 20
-49.619507
 11
51.078708
 21
-50.15284
  0
LINE
  8
St
  6
CONTINUOUS
 10
52.709657
 20
-51.78379
 11
53.24299
 21
-52.317123
  0
INSERT
  2
*GRP_0100
  8
St
  6
DOT
 10
0.0
 20
0.0
  0
INSERT
  2
*GRP_0101
  8
St
  6
DOT
 10
0.0
 20
0.0
  0
INSERT
  2
*GRP_0102
  8
St
  6
DASHDOT
 62
   127
 10
0.0
 20
0.0
  0
LINE
  8
St
  6
CONTINUOUS
 10
12.62677
 20
-31.983748
 11
5.52677
 21
-31.983748
  0
LINE
  8
St
  6
CONTINUOUS
 10
-13.606565
 20
-31.983748
 11
-20.706565
 21
-31.983748
  0
LINE
  8
St
  6
DOT
 10
5.52677
 20
-31.983748
 11
-13.66995
 21
-31.983748
  0
LINE
  8
St
  6
CONTINUOUS
 10
12.62677
 20
-31.983748
 11
12.62677
 21
-35.983745
  0
LINE
  8
St
  6
DOT
 10
12.62677
 20
-35.983745
 11
12.62677
 21
-37.650413
  0
LINE
  8
St
  6
CONTINUOUS
 10
-20.706565
 20
-31.983748
 11
-20.706565
 21
-35.983745
  0
LINE
  8
St
  6
DOT
 10
-20.706565
 20
-35.983745
 11
-20.706565
 21
-37.650413
  0
LINE
  8
St
  6
DOT
 10
12.62677
 20
-37.650413
 11
-20.706565
 21
-37.650413
  0
LINE
  8
St
  6
DOT
 10
-4.039912
 20
-37.317077
 11
59.878732
 21
-37.317077
  0
LINE
  8
St
  6
DOT
 10
-4.039898
 20
-34.017077
 11
59.878732
 21
-34.017077
  0
LINE
  8
St
  6
DOT
 10
-4.039898
 20
-33.483745
 11
59.878732
 21
-33.483745
  0
LINE
  8
St
  6
DOT
 10
-4.039898
 20
-37.317077
 11
-67.958528
 21
-37.317077
  0
LINE
  8
St
  6
DOT
 10
-4.039898
 20
-34.017077
 11
-67.958528
 21
-34.017077
  0
LINE
  8
St
  6
DOT
 10
-4.039898
 20
-33.483745
 11
-67.958528
 21
-33.483745
  0
LINE
  8
St
  6
CONTINUOUS
 10
12.626778
 20
-95.957193
 11
5.526778
 21
-95.957193
  0
LINE
  8
St
  6
CONTINUOUS
 10
-13.606557
 20
-95.957193
 11
-20.706557
 21
-95.957193
  0
LINE
  8
St
  6
DOT
 10
5.526778
 20
-95.957193
 11
-13.669942
 21
-95.957193
  0
LINE
  8
St
  6
CONTINUOUS
 10
12.626778
 20
-95.957193
 11
12.626778
 21
-99.95719
  0
LINE
  8
St
  6
DOT
 10
12.626778
 20
-99.95719
 11
12.626778
 21
-101.623858
  0
LINE
  8
St
  6
CONTINUOUS
 10
-20.706557
 20
-95.957193
 11
-20.706557
 21
-99.95719
  0
LINE
  8
St
  6
DOT
 10
-20.706557
 20
-99.95719
 11
-20.706557
 21
-101.623858
  0
LINE
  8
St
  6
DOT
 10
12.626778
 20
-101.623858
 11
-20.706557
 21
-101.623858
  0
INSERT
  2
*GRP_0103
  8
St
  6
DASHDOT
 10
0.0
 20
0.0
  0
LINE
  8
St
  6
DOT
 10
-4.03989
 20
-97.457193
 11
19.293438
 21
-97.457193
  0
LINE
  8
St
  6
DOT
 10
-4.03989
 20
-97.457193
 11
-27.37323
 21
-97.457193
  0
LINE
  8
St
  6
DOT
 10
-4.03989
 20
-97.990525
 11
19.293438
 21
-97.990525
  0
LINE
  8
St
  6
DOT
 10
-4.03989
 20
-97.990525
 11
-27.37323
 21
-97.990525
  0
LINE
  8
St
  6
DOT
 10
-4.039905
 20
-101.290525
 11
19.293438
 21
-101.290525
  0
LINE
  8
St
  6
DOT
 10
-4.03989
 20
-101.290525
 11
-27.37323
 21
-101.290525
  0
INSERT
  2
*GRP_0115
  8
St
  6
CONTINUOUS
 10
0.0
 20
0.0
  0
INSERT
  2
*GRP_0123
  8
St
  6
CONTINUOUS
 10
0.0
 20
0.0
  0
INSERT
  2
*GRP_0126
  8
St
  6
CONTINUOUS
 10
0.0
 20
0.0
  0
INSERT
  2
*GRP_0131
  8
St
  6
CONTINUOUS
 10
0.0
 20
0.0
  0
LINE
  8
その他部品等
  6
CONTINUOUS
 10
-97.958445
 20
-52.983742
 11
-97.958445
 21
-57.983742
  0
LINE
  8
その他部品等
  6
CONTINUOUS
 10
-95.426102
 20
-52.983742
 11
-95.426102
 21
-57.639205
  0
LINE
  8
その他部品等
  6
CONTINUOUS
 10
-93.491878
 20
-57.376045
 11
-95.426102
 21
-52.983742
  0
INSERT
  2
*HAT_0016
  8
その他部品等
 10
0.0
 20
0.0
  0
LINE
  8
その他部品等
  6
CONTINUOUS
 10
89.87865
 20
-52.983742
 11
89.87865
 21
-57.983742
  0
LINE
  8
その他部品等
  6
CONTINUOUS
 10
87.346307
 20
-52.983742
 11
87.346307
 21
-57.639205
  0
LINE
  8
その他部品等
  6
CONTINUOUS
 10
85.412082
 20
-57.376045
 11
87.346307
 21
-52.983742
  0
LINE
  8
その他部品等
  6
CONTINUOUS
 10
122.67879
 20
-82.518902
 11
116.545572
 21
-82.518902
  0
LINE
  8
その他部品等
  6
CONTINUOUS
 10
122.67879
 20
-79.852235
 11
116.545572
 21
-79.852235
  0
LINE
  8
その他部品等
  6
CONTINUOUS
 10
116.545572
 20
-77.18557
 11
121.51209
 21
-77.18557
  0
LINE
  8
その他部品等
  6
CONTINUOUS
 10
121.51209
 20
-77.18557
 11
121.51209
 21
-79.852235
  0
LINE
  8
その他部品等
  6
CONTINUOUS
 10
121.51209
 20
-77.18557
 11
116.545572
 21
-79.852235
  0
INSERT
  2
*HAT_0017
  8
その他部品等
 10
0.0
 20
0.0
  0
INSERT
  2
*HAT_0018
  8
その他部品等
 10
0.0
 20
0.0
  0
LINE
  8
その他部品等
  6
CONTINUOUS
 10
-130.758585
 20
-82.518902
 11
-124.625368
 21
-82.518902
  0
LINE
  8
その他部品等
  6
CONTINUOUS
 10
-130.758585
 20
-79.852235
 11
-124.625368
 21
-79.852235
  0
LINE
  8
その他部品等
  6
CONTINUOUS
 10
-124.625368
 20
-77.18557
 11
-129.591885
 21
-77.18557
  0
LINE
  8
その他部品等
  6
CONTINUOUS
 10
-129.591885
 20
-77.18557
 11
-129.591885
 21
-79.852235
  0
LINE
  8
その他部品等
  6
CONTINUOUS
 10
-129.591885
 20
-77.18557
 11
-124.625368
 21
-79.852235
  0
INSERT
  2
*HAT_0019
  8
その他部品等
 10
0.0
 20
0.0
  0
LINE
  8
その他部品等
  6
CONTINUOUS
 10
-62.756483
 20
-23.11705
 11
-61.644377
 21
-20.883727
  0
LINE
  8
その他部品等
  6
CONTINUOUS
 10
-61.644377
 20
-20.883727
 11
-61.644377
 21
-23.717077
  0
LINE
  8
その他部品等
  6
CONTINUOUS
 10
-59.423153
 20
-20.883727
 11
-59.423153
 21
-23.717077
  0
LINE
  8
その他部品等
  6
CONTINUOUS
 10
-62.756483
 20
-23.717077
 11
-62.756483
 21
-20.483727
  0
LINE
  8
その他部品等
  6
CONTINUOUS
 10
54.676687
 20
-23.11705
 11
53.564582
 21
-20.883727
  0
LINE
  8
その他部品等
  6
CONTINUOUS
 10
53.564582
 20
-20.883727
 11
53.564582
 21
-23.717077
  0
LINE
  8
その他部品等
  6
CONTINUOUS
 10
51.343357
 20
-20.883727
 11
51.343357
 21
-23.717077
  0
LINE
  8
その他部品等
  6
CONTINUOUS
 10
54.676687
 20
-23.717077
 11
54.676687
 21
-20.483727
  0
LINE
  8
その他部品等
  6
CONTINUOUS
 10
7.626743
 20
-23.717077
 11
7.626743
 21
-20.783713
  0
LINE
  8
その他部品等
  6
CONTINUOUS
 10
4.960075
 20
-23.717077
 11
4.960075
 21
-20.550378
  0
LINE
  8
その他部品等
  6
CONTINUOUS
 10
3.75212
 20
-23.717077
 11
3.75212
 21
-20.550378
  0
LINE
  8
その他部品等
  6
CONTINUOUS
 10
4.960075
 20
-20.550378
 11
3.75212
 21
-23.717077
  0
LINE
  8
その他部品等
  6
CONTINUOUS
 10
-15.706538
 20
-23.717077
 11
-15.706538
 21
-20.783713
  0
LINE
  8
その他部品等
  6
CONTINUOUS
 10
-13.03987
 20
-23.717077
 11
-13.03987
 21
-20.550378
  0
LINE
  8
その他部品等
  6
CONTINUOUS
 10
-11.831915
 20
-23.717077
 11
-11.831915
 21
-20.550378
  0
LINE
  8
その他部品等
  6
CONTINUOUS
 10
-13.03987
 20
-20.550378
 11
-11.831915
 21
-23.717077
  0
LINE
  8
その他部品等
  6
CONTINUOUS
 10
7.62675
 20
-87.690523
 11
7.62675
 21
-84.757157
  0
LINE
  8
その他部品等
  6
CONTINUOUS
 10
4.960082
 20
-87.690523
 11
4.960082
 21
-84.523823
  0
LINE
  8
その他部品等
  6
CONTINUOUS
 10
3.752127
 20
-87.690523
 11
3.752127
 21
-84.523823
  0
LINE
  8
その他部品等
  6
CONTINUOUS
 10
4.960082
 20
-84.523823
 11
3.752127
 21
-87.690523
  0
LINE
  8
その他部品等
  6
CONTINUOUS
 10
-15.70653
 20
-87.690523
 11
-15.70653
 21
-84.757157
  0
LINE
  8
その他部品等
  6
CONTINUOUS
 10
-13.039862
 20
-87.690523
 11
-13.039862
 21
-84.523823
  0
LINE
  8
その他部品等
  6
CONTINUOUS
 10
-11.831908
 20
-87.690523
 11
-11.831908
 21
-84.523823
  0
LINE
  8
その他部品等
  6
CONTINUOUS
 10
-13.039862
 20
-84.523823
 11
-11.831908
 21
-87.690523
  0
CIRCLE
  8
LAYER010
  6
CONTINUOUS
 62
     7
 10
-97.95845
 20
-47.98377
 40
0.11111
  0
CIRCLE
  8
LAYER010
  6
CONTINUOUS
 62
     7
 10
89.878655
 20
-47.98377
 40
0.11111
  0
ENDSEC
  0
EOF
