  0
SECTION
  2
HEADER
  9
$EXTMIN
 10
-210.0
 20
-148.5
  9
$EXTMAX
 10
210.0
 20
148.5
  9
$PDMODE
 70
    32
  9
$PDSIZE
 40
1.5
  9
$LTSCALE
 40
10.0
  0
ENDSEC
  0
SECTION
  2
TABLES
  0
TABLE
  2
LTYPE
 70
    15
  0
LTYPE
  2
CONTINUOUS
 70
    64
  3
実線
 72
    65
 73
     0
 40
0.0
  0
LTYPE
  2
DASHED
 70
    64
  3
破線A
 72
    65
 73
     2
 40
0.6
 49
0.4
 49
-0.2
  0
LTYPE
  2
DASHEDX2
 70
    64
  3
破線B
 72
    65
 73
     2
 40
1.3
 49
0.9
 49
-0.4
  0
LTYPE
  2
DASHDOT
 70
    64
  3
１点鎖線A
 72
    65
 73
     4
 40
0.5375
 49
0.375
 49
-0.05
 49
0.0625
 49
-0.05
  0
LTYPE
  2
DASHDOTX2
 70
    64
  3
１点鎖線B
 72
    65
 73
     4
 40
1.075
 49
0.75
 49
-0.1
 49
0.125
 49
-0.1
  0
LTYPE
  2
DIVIDE2
 70
    64
  3
２点鎖線A
 72
    65
 73
     6
 40
0.5125
 49
0.3
 49
-0.0375
 49
0.05
 49
-0.0375
 49
0.05
 49
-0.0375
  0
LTYPE
  2
DIVIDE
 70
    64
  3
２点鎖線B
 72
    65
 73
     6
 40
1.05
 49
0.55
 49
-0.1
 49
0.1
 49
-0.1
 49
0.1
 49
-0.1
  0
LTYPE
  2
DOT
 70
    64
  3
点線A
 72
    65
 73
     2
 40
0.1125
 49
0.0625
 49
-0.05
  0
LTYPE
  2
DOTX2
 70
    64
  3
点線B
 72
    65
 73
     2
 40
0.275
 49
0.15
 49
-0.125
  0
LTYPE
  2
CONTINUOUS
 70
    64
  3
実線
 72
    65
 73
     0
 40
0.0
  0
LTYPE
  2
CONTINUOUS
 70
    64
  3
実線
 72
    65
 73
     0
 40
0.0
  0
LTYPE
  2
CONTINUOUS
 70
    64
  3
実線
 72
    65
 73
     0
 40
0.0
  0
LTYPE
  2
CONTINUOUS
 70
    64
  3
実線
 72
    65
 73
     0
 40
0.0
  0
LTYPE
  2
CONTINUOUS
 70
    64
  3
実線
 72
    65
 73
     0
 40
0.0
  0
LTYPE
  2
CONTINUOUS
 70
    64
  3
実線
 72
    65
 73
     0
 40
0.0
  0
ENDTAB
  0
TABLE
  2
LAYER
 70
    35
  0
LAYER
  2
通り芯
 70
     0
 62
    15
  6
CONTINUOUS
  0
LAYER
  2
補助線
 70
     0
 62
    16
  6
DOT
  0
LAYER
  2
躯体
 70
     0
 62
    31
  6
CONTINUOUS
  0
LAYER
  2
型材
 70
     0
 62
    32
  6
CONTINUOUS
  0
LAYER
  2
型材断面
 70
     0
 62
    47
  6
CONTINUOUS
  0
LAYER
  2
ガラス
 70
     0
 62
    48
  6
CONTINUOUS
  0
LAYER
  2
ゴム等
 70
     0
 62
    63
  6
CONTINUOUS
  0
LAYER
  2
ボルト／ビス
 70
     0
 62
    64
  6
CONTINUOUS
  0
LAYER
  2
文字
 70
     0
 62
    79
  6
CONTINUOUS
  0
LAYER
  2
寸法
 70
     0
 62
    80
  6
CONTINUOUS
  0
LAYER
  2
ﾊｯﾁﾝｸﾞ
 70
     0
 62
    95
  6
CONTINUOUS
  0
LAYER
  2
別途部材
 70
     0
 62
    96
  6
CONTINUOUS
  0
LAYER
  2
曲げ物
 70
     0
 62
   111
  6
CONTINUOUS
  0
LAYER
  2
鉄骨等
 70
     0
 62
   112
  6
CONTINUOUS
  0
LAYER
  2
St
 70
     0
 62
   127
  6
CONTINUOUS
  0
LAYER
  2
その他部品等
 70
     0
 62
   128
  6
CONTINUOUS
  0
LAYER
  2
ｶﾞｽｹｯﾄ
 70
     0
 62
   143
  6
CONTINUOUS
  0
LAYER
  2
ｽｹｯﾁ
 70
     0
 62
    14
  6
CONTINUOUS
  0
LAYER
  2
0
 70
     0
 62
    17
  6
CONTINUOUS
  0
LAYER
  2
1
 70
     0
 62
    30
  6
CONTINUOUS
  0
LAYER
  2
4
 70
     0
 62
    33
  6
CONTINUOUS
  0
LAYER
  2
ﾚｲﾔ3
 70
     0
 62
    46
  6
CONTINUOUS
  0
LAYER
  2
外形線
 70
     0
 62
    49
  6
CONTINUOUS
  0
LAYER
  2
部品
 70
     0
 62
    14
  6
CONTINUOUS
  0
LAYER
  2
サッシ芯
 70
     0
 62
    17
  6
DASHDOTX2
  0
LAYER
  2
寸法線
 70
     0
 62
    62
  6
CONTINUOUS
  0
LAYER
  2
姿図外形線
 70
     0
 62
    65
  6
CONTINUOUS
  0
LAYER
  2
姿補助線
 70
     0
 62
    30
  6
CONTINUOUS
  0
LAYER
  2
透視線
 70
     0
 62
    78
  6
DOT
  0
LAYER
  2
用紙
 70
     0
 62
    81
  6
CONTINUOUS
  0
LAYER
  2
実線図枠
 70
     0
 62
    94
  6
CONTINUOUS
  0
LAYER
  2
補助図枠
 70
     0
 62
    97
  6
CONTINUOUS
  0
LAYER
  2
建具記号
 70
     0
 62
   110
  6
CONTINUOUS
  0
LAYER
  2
補助文字
 70
     0
 62
   113
  6
CONTINUOUS
  0
LAYER
  2
01
 70
     0
 62
     1
  6
CONTINUOUS
  0
ENDTAB
  0
TABLE
  2
STYLE
 70
    10
  0
STYLE
  2
STANDARD
 70
     0
 40
1.0
 41
1.0
 42
1.0
 50
0.0
 71
     0
  3
TXT
  4
BIGFONT
  0
STYLE
  2
TATE
 70
     4
 40
1.0
 41
1.0
 42
1.0
 50
0.0
 71
     0
  3
TXT
  4
BIGFONT
  0
STYLE
  2
TextStyle03
 70
     0
 40
1.0
 41
1.0
 42
1.0
 50
0.0
 71
     0
  3
MONOTXT
  4
BIGFONT
  0
STYLE
  2
TextStyle04
 70
     0
 40
1.0
 41
1.0
 42
1.0
 50
0.0
 71
     0
  3
MONOTXT
  4
BIGFONT
  0
STYLE
  2
TextStyle05
 70
     0
 40
1.0
 41
1.0
 42
1.0
 50
0.0
 71
     0
  3
MONOTXT
  4
BIGFONT
  0
STYLE
  2
TextStyle06
 70
     0
 40
1.0
 41
1.0
 42
1.0
 50
0.0
 71
     0
  3
MONOTXT
  4
BIGFONT
  0
STYLE
  2
TextStyle07
 70
     0
 40
1.0
 41
1.0
 42
1.0
 50
0.0
 71
     0
  3
MONOTXT
  4
BIGFONT
  0
STYLE
  2
TextStyle08
 70
     0
 40
1.0
 41
1.0
 42
1.0
 50
0.0
 71
     0
  3
MONOTXT
  4
BIGFONT
  0
STYLE
  2
TextStyle09
 70
     0
 40
1.0
 41
1.0
 42
1.0
 50
0.0
 71
     0
  3
MONOTXT
  4
BIGFONT
  0
STYLE
  2
TextStyle10
 70
     0
 40
1.0
 41
1.0
 42
1.0
 50
0.0
 71
     0
  3
MONOTXT
  4
BIGFONT
  0
ENDTAB
  0
ENDSEC
  0
SECTION
  2
BLOCKS
  0
BLOCK
  2
*GRP_0001
 70
    65
 10
0.0
 20
0.0
  0
LINE
  8
型材断面
  6
CONTINUOUS
 10
195.0
 20
133.5
 11
195.0
 21
-133.5
  0
LINE
  8
型材断面
  6
CONTINUOUS
 10
195.0
 20
-133.5
 11
-185.0
 21
-133.5
  0
LINE
  8
型材断面
  6
CONTINUOUS
 10
-185.0
 20
-133.5
 11
-185.0
 21
133.5
  0
LINE
  8
型材断面
  6
CONTINUOUS
 10
195.0
 20
133.5
 11
-185.0
 21
133.5
  0
LINE
  8
型材断面
  6
CONTINUOUS
 10
145.0
 20
-133.5
 11
145.0
 21
-118.5
  0
LINE
  8
型材断面
  6
CONTINUOUS
 10
195.0
 20
-118.5
 11
145.0
 21
-118.5
  0
ENDBLK
  0
BLOCK
  2
*DIM_0002
 70
    65
 10
0.0
 20
0.0
  0
LINE
  8
寸法
  6
BYBLOCK
 62
     0
 10
-116.190163
 20
-33.806682
 11
-116.190163
 21
-33.377287
  0
LINE
  8
寸法
  6
BYBLOCK
 62
     0
 10
-51.190163
 20
-33.806682
 11
-51.190163
 21
-33.377287
  0
LINE
  8
寸法
  6
BYBLOCK
 62
     0
 10
-116.190163
 20
-33.377287
 11
-51.190163
 21
-33.377287
  0
POINT
  8
寸法
 62
     0
 10
-116.190163
 20
-33.377287
  0
POINT
  8
寸法
 62
     0
 10
-51.190163
 20
-33.377287
  0
TEXT
  7
TextStyle03
  8
寸法
  6
CONTINUOUS
 62
     0
 10
-95.41875
 20
-33.0
  1
呼称寸法　1300
 40
3.0
 72
     5
 11
-71.98125
 21
-33.0
  0
ENDBLK
  0
BLOCK
  2
*DIM_0004
 70
    65
 10
0.0
 20
0.0
  0
LINE
  8
寸法
  6
BYBLOCK
 62
     0
 10
-50.190163
 20
71.71603
 11
-29.640735
 21
71.71603
  0
LINE
  8
寸法
  6
BYBLOCK
 62
     0
 10
-42.166287
 20
66.16603
 11
-29.640735
 21
66.16603
  0
LINE
  8
寸法
  6
BYBLOCK
 62
     0
 10
-29.640735
 20
71.71603
 11
-29.640735
 21
66.16603
  0
POINT
  8
寸法
 62
     0
 10
-29.640735
 20
71.71603
  0
POINT
  8
寸法
 62
     0
 10
-29.640735
 20
66.16603
  0
TEXT
  7
TextStyle03
  8
寸法
  6
CONTINUOUS
 62
     0
 10
-30.025
 20
66.4875
  1
111
 40
3.0
 50
90.0
 72
     5
 11
-30.025
 21
71.3625
  0
ENDBLK
  0
BLOCK
  2
*DIM_0005
 70
    65
 10
0.0
 20
0.0
  0
LINE
  8
寸法
  6
BYBLOCK
 62
     0
 10
-50.190163
 20
6.716025
 11
-29.640735
 21
6.716025
  0
LINE
  8
寸法
  6
BYBLOCK
 62
     0
 10
-42.166287
 20
12.266025
 11
-29.640735
 21
12.266025
  0
LINE
  8
寸法
  6
BYBLOCK
 62
     0
 10
-29.640735
 20
6.716025
 11
-29.640735
 21
12.266025
  0
POINT
  8
寸法
 62
     0
 10
-29.640735
 20
6.716025
  0
POINT
  8
寸法
 62
     0
 10
-29.640735
 20
12.266025
  0
TEXT
  7
TextStyle03
  8
寸法
  6
CONTINUOUS
 62
     0
 10
-30.025
 20
7.0375
  1
111
 40
3.0
 50
90.0
 72
     5
 11
-30.025
 21
11.9125
  0
ENDBLK
  0
BLOCK
  2
*GRP_0006
 70
    65
 10
0.0
 20
0.0
  0
POLYLINE
  8
寸法
  6
BYBLOCK
 62
     0
 66
     1
  0
VERTEX
  8
寸法
 10
-55.40376
 20
33.0
  0
VERTEX
  8
寸法
 10
-48.987258
 20
26.583497
  0
VERTEX
  8
寸法
 10
-43.08013
 20
26.583497
  0
SEQEND
  0
ENDBLK
  0
BLOCK
  2
*DIM_0007
 70
    65
 10
0.0
 20
0.0
  0
LINE
  8
寸法
  6
BYBLOCK
 62
     0
 10
-101.190163
 20
94.584462
 11
-101.190163
 21
104.94
  0
LINE
  8
寸法
  6
BYBLOCK
 62
     0
 10
-66.190163
 20
94.584462
 11
-66.190163
 21
104.94
  0
LINE
  8
寸法
  6
BYBLOCK
 62
     0
 10
-101.190163
 20
104.94
 11
-66.190163
 21
104.94
  0
POINT
  8
寸法
 62
     0
 10
-101.190163
 20
104.94
  0
POINT
  8
寸法
 62
     0
 10
-66.190163
 20
104.94
  0
TEXT
  7
TextStyle03
  8
寸法
  6
CONTINUOUS
 62
     0
 10
-86.1375
 20
105.3
  1
700
 40
3.0
 72
     5
 11
-81.2625
 21
105.3
  0
ENDBLK
  0
BLOCK
  2
*DIM_0008
 70
    65
 10
0.0
 20
0.0
  0
LINE
  8
寸法
  6
BYBLOCK
 62
     0
 10
-144.338598
 20
56.71603
 11
-154.694135
 21
56.71603
  0
LINE
  8
寸法
  6
BYBLOCK
 62
     0
 10
-144.3386
 20
21.71603
 11
-154.694138
 21
21.71603
  0
LINE
  8
寸法
  6
BYBLOCK
 62
     0
 10
-154.694135
 20
56.71603
 11
-154.694138
 21
21.71603
  0
POINT
  8
寸法
 62
     0
 10
-154.694135
 20
56.71603
  0
POINT
  8
寸法
 62
     0
 10
-154.694138
 20
21.71603
  0
TEXT
  7
TextStyle03
  8
寸法
  6
CONTINUOUS
 62
     0
 10
-155.075
 20
36.7625
  1
700
 40
3.0
 50
90.0
 72
     5
 11
-155.075
 21
41.6375
  0
ENDBLK
  0
BLOCK
  2
*DIM_0009
 70
    65
 10
0.0
 20
0.0
  0
LINE
  8
寸法
  6
CONTINUOUS
 10
-122.440163
 20
-85.478355
 11
-122.440163
 21
-33.377287
  0
LINE
  8
寸法
  6
CONTINUOUS
 10
-116.190163
 20
-33.377287
 11
-122.440163
 21
-33.377287
  0
POINT
  8
寸法
 10
-116.190163
 20
-33.377287
  0
POINT
  8
寸法
 10
-122.440163
 20
-33.377287
  0
TEXT
  7
TextStyle03
  8
寸法
  6
CONTINUOUS
 10
-121.7625
 20
-33.025
  1
125
 40
3.0
 72
     5
 11
-116.8875
 21
-33.025
  0
ENDBLK
  0
BLOCK
  2
*DIM_0010
 70
    65
 10
0.0
 20
0.0
  0
LINE
  8
寸法
  6
CONTINUOUS
 10
-44.940163
 20
-85.478355
 11
-44.940163
 21
-33.377287
  0
LINE
  8
寸法
  6
CONTINUOUS
 10
-51.190163
 20
-33.377287
 11
-44.940163
 21
-33.377287
  0
POINT
  8
寸法
 10
-51.190163
 20
-33.377287
  0
POINT
  8
寸法
 10
-44.940163
 20
-33.377287
  0
TEXT
  7
TextStyle03
  8
寸法
  6
CONTINUOUS
 10
-50.5125
 20
-33.025
  1
125
 40
3.0
 72
     5
 11
-45.6375
 21
-33.025
  0
ENDBLK
  0
BLOCK
  2
*DIM_0011
 70
    65
 10
0.0
 20
0.0
  0
LINE
  8
寸法
  6
CONTINUOUS
 10
-46.04516
 20
-96.613382
 11
-25.458962
 21
-96.613382
  0
LINE
  8
寸法
  6
CONTINUOUS
 10
-43.940163
 20
-86.478355
 11
-25.458962
 21
-86.478355
  0
LINE
  8
寸法
  6
CONTINUOUS
 10
-25.458962
 20
-96.613382
 11
-25.458962
 21
-86.478355
  0
POINT
  8
寸法
 10
-25.458962
 20
-96.613382
  0
POINT
  8
寸法
 10
-25.458962
 20
-86.478355
  0
TEXT
  7
TextStyle03
  8
寸法
  6
CONTINUOUS
 10
-25.85
 20
-95.675
  1
202.7
 40
3.0
 50
90.0
 72
     5
 11
-25.85
 21
-87.425
  0
ENDBLK
  0
BLOCK
  2
*DIM_0012
 70
    65
 10
0.0
 20
0.0
  0
LINE
  8
寸法
  6
CONTINUOUS
 10
-82.690163
 20
-47.41073
 11
-25.458962
 21
-47.41073
  0
LINE
  8
寸法
  6
CONTINUOUS
 10
-25.458962
 20
-86.478355
 11
-25.458962
 21
-47.41073
  0
POINT
  8
寸法
 10
-25.458962
 20
-47.41073
  0
TEXT
  7
TextStyle03
  8
寸法
  6
CONTINUOUS
 10
-25.85
 20
-71.075
  1
781.4
 40
3.0
 50
90.0
 72
     5
 11
-25.85
 21
-62.825
  0
ENDBLK
  0
BLOCK
  2
*DIM_0013
 70
    65
 10
0.0
 20
0.0
  0
LINE
  8
寸法
  6
CONTINUOUS
 10
-85.940163
 20
-48.66073
 11
-85.940163
 21
-42.47697
  0
LINE
  8
寸法
  6
CONTINUOUS
 10
-81.439575
 20
-48.66073
 11
-81.439575
 21
-42.47697
  0
LINE
  8
寸法
  6
CONTINUOUS
 10
-85.940163
 20
-42.47697
 11
-81.439575
 21
-42.47697
  0
POINT
  8
寸法
 10
-85.940163
 20
-42.47697
  0
POINT
  8
寸法
 10
-81.439575
 20
-42.47697
  0
TEXT
  7
TextStyle03
  8
寸法
  6
CONTINUOUS
 10
-85.29375
 20
-42.125
  1
90
 40
3.0
 72
     5
 11
-82.10625
 21
-42.125
  0
ENDBLK
  0
BLOCK
  2
*DIM_0014
 70
    65
 10
0.0
 20
0.0
  0
LINE
  8
寸法
  6
CONTINUOUS
 10
-81.690163
 20
-47.41073
 11
-72.932678
 21
-47.41073
  0
LINE
  8
寸法
  6
CONTINUOUS
 10
-80.439575
 20
-49.66073
 11
-72.932678
 21
-49.66073
  0
LINE
  8
寸法
  6
CONTINUOUS
 10
-72.932678
 20
-47.41073
 11
-72.932678
 21
-49.66073
  0
POINT
  8
寸法
 10
-72.932678
 20
-47.41073
  0
POINT
  8
寸法
 10
-72.932678
 20
-49.66073
  0
TEXT
  7
TextStyle03
  8
寸法
  6
CONTINUOUS
 10
-72.775
 20
-53.34375
  1
45
 40
3.0
 50
90.0
 72
     5
 11
-72.775
 21
-50.15625
  0
ENDBLK
  0
BLOCK
  2
*GRP_0015
 70
    65
 10
0.0
 20
0.0
  0
LINE
  8
型材断面
  6
DOT
 10
80.018025
 20
-69.925472
 11
80.071057
 21
-69.872437
  0
LINE
  8
型材断面
  6
DOT
 10
80.018025
 20
-69.996205
 11
80.018025
 21
-73.3134
  0
LINE
  8
型材断面
  6
DOT
 10
78.768025
 20
-73.313382
 11
78.768025
 21
-74.013382
  0
LINE
  8
型材断面
  6
DOT
 10
2.518025
 20
-69.996205
 11
2.518025
 21
-73.3134
  0
LINE
  8
型材断面
  6
DOT
 10
3.768025
 20
-73.313382
 11
3.768025
 21
-74.013382
  0
LINE
  8
型材断面
  6
DOT
 10
80.018025
 20
-69.996205
 11
2.518025
 21
-69.996205
  0
LINE
  8
型材断面
  6
DOT
 10
80.018025
 20
-73.3134
 11
2.518025
 21
-73.3134
  0
LINE
  8
型材断面
  6
DOT
 10
78.768025
 20
-74.013382
 11
3.768025
 21
-74.013382
  0
LINE
  8
型材断面
  6
DOT
 10
2.518025
 20
-69.925472
 11
41.268028
 21
-31.175475
  0
LINE
  8
型材断面
  6
DOT
 10
80.018025
 20
-69.925472
 11
41.268028
 21
-31.175475
  0
LINE
  8
型材断面
  6
DOT
 10
80.071057
 20
-69.872437
 11
41.268025
 21
-31.069412
  0
LINE
  8
型材断面
  6
DOT
 10
2.464992
 20
-69.872437
 11
41.268025
 21
-31.069412
  0
LINE
  8
型材断面
  6
DOT
 10
41.268025
 20
-32.342795
 11
41.268025
 21
-30.92858
  0
LINE
  8
型材断面
  6
DOT
 10
41.268025
 20
-32.342795
 11
41.268025
 21
-30.92858
  0
LINE
  8
型材断面
  6
DOT
 10
39.018025
 20
-33.17858
 11
39.088735
 21
-33.24929
  0
LINE
  8
型材断面
  6
DOT
 10
39.088735
 20
-33.24929
 11
40.361528
 21
-33.24929
  0
LINE
  8
型材断面
  6
DOT
 10
41.268025
 20
-30.92858
 11
39.018025
 21
-33.17858
  0
LINE
  8
型材断面
  6
DOT
 10
41.268025
 20
-32.342792
 11
40.361528
 21
-33.24929
  0
LINE
  8
型材断面
  6
DOT
 10
43.518613
 20
-33.17858
 11
43.447903
 21
-33.24929
  0
LINE
  8
型材断面
  6
DOT
 10
43.447903
 20
-33.24929
 11
42.17511
 21
-33.24929
  0
LINE
  8
型材断面
  6
DOT
 10
41.268025
 20
-32.342792
 11
42.174523
 21
-33.24929
  0
LINE
  8
型材断面
  6
DOT
 10
41.268025
 20
-30.92858
 11
43.51832
 21
-33.178875
  0
LINE
  8
ゴム等
  6
DOT
 10
73.2038
 20
-68.261507
 11
75.721927
 21
-68.85385
  0
LINE
  8
ゴム等
  6
DOT
 10
75.721927
 20
-68.85385
 11
78.233332
 21
-69.77309
  0
LINE
  8
ゴム等
  6
DOT
 10
4.302717
 20
-69.77309
 11
6.814122
 21
-68.85385
  0
LINE
  8
ゴム等
  6
DOT
 10
6.814122
 20
-68.85385
 11
9.33225
 21
-68.261507
  0
LINE
  8
ゴム等
  6
DOT
 10
41.268025
 20
-36.325738
 11
73.2038
 21
-68.261507
  0
LINE
  8
ゴム等
  6
DOT
 10
41.268025
 20
-34.399953
 11
75.721927
 21
-68.85385
  0
LINE
  8
ゴム等
  6
DOT
 10
41.268025
 20
-32.807787
 11
78.233332
 21
-69.77309
  0
LINE
  8
ゴム等
  6
DOT
 10
41.268025
 20
-36.325738
 11
9.33225
 21
-68.261507
  0
LINE
  8
ゴム等
  6
DOT
 10
73.2038
 20
-68.261507
 11
9.33225
 21
-68.261507
  0
LINE
  8
ゴム等
  6
DOT
 10
75.721927
 20
-68.85385
 11
6.814122
 21
-68.85385
  0
LINE
  8
ゴム等
  6
DOT
 10
41.268025
 20
-34.399953
 11
6.814122
 21
-68.85385
  0
LINE
  8
ゴム等
  6
DOT
 10
41.268025
 20
-32.807787
 11
4.302717
 21
-69.77309
  0
LINE
  8
ゴム等
  6
DOT
 10
78.233332
 20
-69.77309
 11
4.302717
 21
-69.77309
  0
ENDBLK
  0
BLOCK
  2
*GRP_0016
 70
    65
 10
0.0
 20
0.0
  0
LINE
  8
型材断面
  6
DOT
 10
69.247012
 20
-91.39267
 11
69.612655
 21
-92.388313
  0
LINE
  8
型材断面
  6
DOT
 10
69.612655
 20
-92.388313
 11
69.192655
 21
-93.295838
  0
LINE
  8
型材断面
  6
DOT
 10
69.192655
 20
-93.295838
 11
68.197012
 21
-93.66148
  0
LINE
  8
型材断面
  6
DOT
 10
25.232095
 20
-71.022667
 11
69.247012
 21
-91.39267
  0
LINE
  8
型材断面
  6
DOT
 10
24.23645
 20
-71.38831
 11
25.232095
 21
-71.022667
  0
LINE
  8
型材断面
  6
DOT
 10
24.23645
 20
-71.38831
 11
23.81645
 21
-72.295835
  0
LINE
  8
型材断面
  6
DOT
 10
24.182095
 20
-73.291478
 11
68.197012
 21
-93.66148
  0
LINE
  8
型材断面
  6
DOT
 10
23.81645
 20
-72.295835
 11
24.182095
 21
-73.291478
  0
INSERT
  2
*GRP_0019
  8
ボルト／ビス
  6
DOT
 62
    64
 10
0.0
 20
0.0
  0
INSERT
  2
*GRP_0020
  8
ボルト／ビス
  6
DOT
 62
    64
 10
0.0
 20
0.0
  0
INSERT
  2
*GRP_0021
  8
ボルト／ビス
  6
DOT
 62
    64
 10
0.0
 20
0.0
  0
ENDBLK
  0
BLOCK
  2
*GRP_0017
 70
    65
 10
0.0
 20
0.0
  0
LINE
  8
型材断面
  6
DOT
 10
24.182093
 20
-91.39267
 11
23.81645
 21
-92.388313
  0
LINE
  8
型材断面
  6
DOT
 10
23.81645
 20
-92.388313
 11
24.23645
 21
-93.295838
  0
LINE
  8
型材断面
  6
DOT
 10
24.23645
 20
-93.295838
 11
25.232093
 21
-93.66148
  0
LINE
  8
型材断面
  6
DOT
 10
68.19701
 20
-71.022667
 11
24.182093
 21
-91.39267
  0
LINE
  8
型材断面
  6
DOT
 10
69.192655
 20
-71.38831
 11
68.19701
 21
-71.022667
  0
LINE
  8
型材断面
  6
DOT
 10
69.192655
 20
-71.38831
 11
69.612655
 21
-72.295835
  0
LINE
  8
型材断面
  6
DOT
 10
69.24701
 20
-73.291478
 11
25.232093
 21
-93.66148
  0
LINE
  8
型材断面
  6
DOT
 10
69.612655
 20
-72.295835
 11
69.24701
 21
-73.291478
  0
INSERT
  2
*GRP_0022
  8
ボルト／ビス
  6
DOT
 62
    64
 10
0.0
 20
0.0
  0
INSERT
  2
*GRP_0023
  8
ボルト／ビス
  6
DOT
 62
    64
 10
0.0
 20
0.0
  0
INSERT
  2
*GRP_0024
  8
ボルト／ビス
  6
DOT
 62
    64
 10
0.0
 20
0.0
  0
ENDBLK
  0
BLOCK
  2
*DIM_0018
 70
    65
 10
0.0
 20
0.0
  0
LINE
  8
寸法
  6
BYBLOCK
 62
     0
 10
79.91171
 20
-74.01338
 11
95.885303
 21
-74.01338
  0
LINE
  8
寸法
  6
BYBLOCK
 62
     0
 10
79.911708
 20
-90.013382
 11
95.885303
 21
-90.013382
  0
LINE
  8
寸法
  6
BYBLOCK
 62
     0
 10
95.885303
 20
-74.01338
 11
95.885303
 21
-90.013382
  0
POINT
  8
寸法
 62
     0
 10
95.885303
 20
-74.01338
  0
POINT
  8
寸法
 62
     0
 10
95.885303
 20
-90.013382
  0
TEXT
  7
TextStyle03
  8
寸法
  6
CONTINUOUS
 62
     0
 10
100.325
 20
-91.4625
  1
上昇高さ320
 40
3.0
 50
90.0
 72
     5
 11
100.325
 21
-73.0875
  0
ENDBLK
  0
BLOCK
  2
*GRP_0019
 70
    65
 10
0.0
 20
0.0
  0
INSERT
  2
*GRP_0025
  8
補助線
  6
DOT
 62
    64
 10
0.0
 20
0.0
  0
LINE
  8
ボルト／ビス
  6
DOT
 62
    64
 10
25.354845
 20
-71.947905
 11
24.89484
 21
-71.98949
  0
LINE
  8
ボルト／ビス
  6
DOT
 62
    64
 10
25.354845
 20
-71.947905
 11
25.62086
 21
-72.32549
  0
LINE
  8
ボルト／ビス
  6
DOT
 62
    64
 10
24.966868
 20
-72.78624
 11
24.700852
 21
-72.408658
  0
LINE
  8
ボルト／ビス
  6
DOT
 62
    64
 10
24.966868
 20
-72.78624
 11
25.42687
 21
-72.744657
  0
CIRCLE
  8
ボルト／ビス
  6
DOT
 62
    64
 10
25.160855
 20
-72.367072
 40
0.4
  0
LINE
  8
ボルト／ビス
  6
DOT
 62
    64
 10
25.62086
 20
-72.32549
 11
25.42687
 21
-72.744657
  0
LINE
  8
ボルト／ビス
  6
DOT
 62
    64
 10
24.89484
 20
-71.98949
 11
24.700852
 21
-72.408658
  0
ENDBLK
  0
BLOCK
  2
*GRP_0020
 70
    65
 10
0.0
 20
0.0
  0
INSERT
  2
*GRP_0026
  8
補助線
  6
DOT
 62
    64
 10
0.0
 20
0.0
  0
LINE
  8
ボルト／ビス
  6
DOT
 62
    64
 10
68.46224
 20
-91.897908
 11
68.728255
 21
-92.275493
  0
LINE
  8
ボルト／ビス
  6
DOT
 62
    64
 10
68.46224
 20
-91.897908
 11
68.002235
 21
-91.939492
  0
LINE
  8
ボルト／ビス
  6
DOT
 62
    64
 10
68.07426
 20
-92.736243
 11
68.534265
 21
-92.694657
  0
LINE
  8
ボルト／ビス
  6
DOT
 62
    64
 10
68.07426
 20
-92.736243
 11
67.808245
 21
-92.358658
  0
CIRCLE
  8
ボルト／ビス
  6
DOT
 62
    64
 10
68.26825
 20
-92.317075
 40
0.4
  0
LINE
  8
ボルト／ビス
  6
DOT
 62
    64
 10
68.002235
 20
-91.939492
 11
67.808245
 21
-92.358658
  0
LINE
  8
ボルト／ビス
  6
DOT
 62
    64
 10
68.728255
 20
-92.275493
 11
68.534265
 21
-92.694657
  0
ENDBLK
  0
BLOCK
  2
*GRP_0021
 70
    65
 10
0.0
 20
0.0
  0
INSERT
  2
*GRP_0027
  8
補助線
  6
DOT
 62
    64
 10
0.0
 20
0.0
  0
LINE
  8
ボルト／ビス
  6
DOT
 62
    64
 10
46.908542
 20
-81.922908
 11
46.448538
 21
-81.96449
  0
LINE
  8
ボルト／ビス
  6
DOT
 62
    64
 10
46.908542
 20
-81.922908
 11
47.174558
 21
-82.30049
  0
LINE
  8
ボルト／ビス
  6
DOT
 62
    64
 10
46.520563
 20
-82.76124
 11
46.254548
 21
-82.383658
  0
LINE
  8
ボルト／ビス
  6
DOT
 62
    64
 10
46.520563
 20
-82.76124
 11
46.980567
 21
-82.719657
  0
CIRCLE
  8
ボルト／ビス
  6
DOT
 62
    64
 10
46.714552
 20
-82.342075
 40
0.4
  0
LINE
  8
ボルト／ビス
  6
DOT
 62
    64
 10
47.174558
 20
-82.30049
 11
46.980567
 21
-82.719657
  0
LINE
  8
ボルト／ビス
  6
DOT
 62
    64
 10
46.448538
 20
-81.96449
 11
46.254548
 21
-82.383658
  0
ENDBLK
  0
BLOCK
  2
*GRP_0022
 70
    65
 10
0.0
 20
0.0
  0
INSERT
  2
*GRP_0028
  8
補助線
  6
DOT
 62
    64
 10
0.0
 20
0.0
  0
LINE
  8
ボルト／ビス
  6
DOT
 62
    64
 10
68.07426
 20
-71.947905
 11
68.534265
 21
-71.98949
  0
LINE
  8
ボルト／ビス
  6
DOT
 62
    64
 10
68.07426
 20
-71.947905
 11
67.808245
 21
-72.32549
  0
LINE
  8
ボルト／ビス
  6
DOT
 62
    64
 10
68.462238
 20
-72.78624
 11
68.728253
 21
-72.408658
  0
LINE
  8
ボルト／ビス
  6
DOT
 62
    64
 10
68.462238
 20
-72.78624
 11
68.002235
 21
-72.744657
  0
CIRCLE
  8
ボルト／ビス
  6
DOT
 62
    64
 10
68.26825
 20
-72.367072
 40
0.4
  0
LINE
  8
ボルト／ビス
  6
DOT
 62
    64
 10
67.808245
 20
-72.32549
 11
68.002235
 21
-72.744657
  0
LINE
  8
ボルト／ビス
  6
DOT
 62
    64
 10
68.534265
 20
-71.98949
 11
68.728253
 21
-72.408658
  0
ENDBLK
  0
BLOCK
  2
*GRP_0023
 70
    65
 10
0.0
 20
0.0
  0
INSERT
  2
*GRP_0029
  8
補助線
  6
DOT
 62
    64
 10
0.0
 20
0.0
  0
LINE
  8
ボルト／ビス
  6
DOT
 62
    64
 10
24.966865
 20
-91.897908
 11
24.70085
 21
-92.275493
  0
LINE
  8
ボルト／ビス
  6
DOT
 62
    64
 10
24.966865
 20
-91.897908
 11
25.42687
 21
-91.939492
  0
LINE
  8
ボルト／ビス
  6
DOT
 62
    64
 10
25.354845
 20
-92.736243
 11
24.89484
 21
-92.694657
  0
LINE
  8
ボルト／ビス
  6
DOT
 62
    64
 10
25.354845
 20
-92.736243
 11
25.62086
 21
-92.358658
  0
CIRCLE
  8
ボルト／ビス
  6
DOT
 62
    64
 10
25.160855
 20
-92.317075
 40
0.4
  0
LINE
  8
ボルト／ビス
  6
DOT
 62
    64
 10
25.42687
 20
-91.939492
 11
25.62086
 21
-92.358658
  0
LINE
  8
ボルト／ビス
  6
DOT
 62
    64
 10
24.70085
 20
-92.275493
 11
24.89484
 21
-92.694657
  0
ENDBLK
  0
BLOCK
  2
*GRP_0024
 70
    65
 10
0.0
 20
0.0
  0
INSERT
  2
*GRP_0030
  8
補助線
  6
DOT
 62
    64
 10
0.0
 20
0.0
  0
LINE
  8
ボルト／ビス
  6
DOT
 62
    64
 10
46.520563
 20
-81.922908
 11
46.980567
 21
-81.96449
  0
LINE
  8
ボルト／ビス
  6
DOT
 62
    64
 10
46.520563
 20
-81.922908
 11
46.254548
 21
-82.30049
  0
LINE
  8
ボルト／ビス
  6
DOT
 62
    64
 10
46.908542
 20
-82.76124
 11
47.174558
 21
-82.383658
  0
LINE
  8
ボルト／ビス
  6
DOT
 62
    64
 10
46.908542
 20
-82.76124
 11
46.448538
 21
-82.719657
  0
CIRCLE
  8
ボルト／ビス
  6
DOT
 62
    64
 10
46.714552
 20
-82.342075
 40
0.4
  0
LINE
  8
ボルト／ビス
  6
DOT
 62
    64
 10
46.254548
 20
-82.30049
 11
46.448538
 21
-82.719657
  0
LINE
  8
ボルト／ビス
  6
DOT
 62
    64
 10
46.980567
 20
-81.96449
 11
47.174558
 21
-82.383658
  0
ENDBLK
  0
BLOCK
  2
*GRP_0025
 70
    65
 10
0.0
 20
0.0
  0
LINE
  8
補助線
  6
DOT
 62
    64
 10
25.274297
 20
-72.419572
 11
25.047415
 21
-72.314573
  0
LINE
  8
補助線
  6
DOT
 62
    64
 10
25.213355
 20
-72.253633
 11
25.108355
 21
-72.480512
  0
ENDBLK
  0
BLOCK
  2
*GRP_0026
 70
    65
 10
0.0
 20
0.0
  0
LINE
  8
補助線
  6
DOT
 62
    64
 10
68.15481
 20
-92.264575
 11
68.38169
 21
-92.369575
  0
LINE
  8
補助線
  6
DOT
 62
    64
 10
68.32075
 20
-92.203635
 11
68.21575
 21
-92.430515
  0
ENDBLK
  0
BLOCK
  2
*GRP_0027
 70
    65
 10
0.0
 20
0.0
  0
LINE
  8
補助線
  6
DOT
 62
    64
 10
46.827993
 20
-82.394575
 11
46.601113
 21
-82.289575
  0
LINE
  8
補助線
  6
DOT
 62
    64
 10
46.767052
 20
-82.228633
 11
46.662053
 21
-82.455515
  0
ENDBLK
  0
BLOCK
  2
*GRP_0028
 70
    65
 10
0.0
 20
0.0
  0
LINE
  8
補助線
  6
DOT
 62
    64
 10
68.154808
 20
-72.419572
 11
68.38169
 21
-72.314573
  0
LINE
  8
補助線
  6
DOT
 62
    64
 10
68.21575
 20
-72.253633
 11
68.32075
 21
-72.480512
  0
ENDBLK
  0
BLOCK
  2
*GRP_0029
 70
    65
 10
0.0
 20
0.0
  0
LINE
  8
補助線
  6
DOT
 62
    64
 10
25.274295
 20
-92.264575
 11
25.047415
 21
-92.369575
  0
LINE
  8
補助線
  6
DOT
 62
    64
 10
25.108355
 20
-92.203635
 11
25.213355
 21
-92.430515
  0
ENDBLK
  0
BLOCK
  2
*GRP_0030
 70
    65
 10
0.0
 20
0.0
  0
LINE
  8
補助線
  6
DOT
 62
    64
 10
46.601113
 20
-82.394575
 11
46.827993
 21
-82.289575
  0
LINE
  8
補助線
  6
DOT
 62
    64
 10
46.662053
 20
-82.228633
 11
46.767052
 21
-82.455515
  0
ENDBLK
  0
BLOCK
  2
*DIM_0031
 70
    65
 10
0.0
 20
0.0
  0
LINE
  8
寸法
  6
CONTINUOUS
 10
158.123323
 20
-9.354562
 11
168.054765
 21
-9.354562
  0
LINE
  8
寸法
  6
CONTINUOUS
 10
124.46179
 20
38.250025
 11
168.054765
 21
38.250025
  0
LINE
  8
寸法
  6
CONTINUOUS
 10
168.054765
 20
-9.354562
 11
168.054765
 21
38.250025
  0
POINT
  8
寸法
 10
168.054765
 20
-9.354562
  0
POINT
  8
寸法
 10
168.054765
 20
38.250025
  0
TEXT
  7
TextStyle03
  8
寸法
  6
CONTINUOUS
 10
167.675
 20
10.3
  1
952.1
 40
3.0
 50
90.0
 72
     5
 11
167.675
 21
18.55
  0
ENDBLK
  0
BLOCK
  2
*DIM_0032
 70
    65
 10
0.0
 20
0.0
  0
LINE
  8
寸法
  6
CONTINUOUS
 10
89.800258
 20
-10.354562
 11
89.800258
 21
-21.661712
  0
LINE
  8
寸法
  6
CONTINUOUS
 10
157.123323
 20
-10.354562
 11
157.123323
 21
-21.661712
  0
LINE
  8
寸法
  6
CONTINUOUS
 10
89.800258
 20
-21.661712
 11
157.123323
 21
-21.661712
  0
POINT
  8
寸法
 10
89.800258
 20
-21.661712
  0
POINT
  8
寸法
 10
157.123323
 20
-21.661712
  0
TEXT
  7
TextStyle03
  8
寸法
  6
CONTINUOUS
 10
118.48125
 20
-21.3
  1
1346.5
 40
3.0
 72
     5
 11
128.41875
 21
-21.3
  0
ENDBLK
  0
BLOCK
  2
*DIM_0033
 70
    65
 10
0.0
 20
0.0
  0
LINE
  8
寸法
  6
CONTINUOUS
 10
-85.94016
 20
42.46603
 11
-85.94016
 21
50.538253
  0
LINE
  8
寸法
  6
CONTINUOUS
 10
-81.440165
 20
42.46603
 11
-81.440165
 21
50.538253
  0
LINE
  8
寸法
  6
CONTINUOUS
 10
-85.94016
 20
50.538253
 11
-81.440165
 21
50.538253
  0
POINT
  8
寸法
 10
-85.94016
 20
50.538253
  0
POINT
  8
寸法
 10
-81.440165
 20
50.538253
  0
TEXT
  7
TextStyle03
  8
寸法
  6
CONTINUOUS
 10
-85.29375
 20
50.9
  1
90
 40
3.0
 72
     5
 11
-82.10625
 21
50.9
  0
ENDBLK
  0
ENDSEC
  0
SECTION
  2
ENTITIES
  0
POLYLINE
  8
通り芯
  6
CONTINUOUS
 66
     1
 70
     1
  0
VERTEX
  8
通り芯
 10
-210.0
 20
-148.5
  0
VERTEX
  8
通り芯
 10
210.0
 20
-148.5
  0
VERTEX
  8
通り芯
 10
210.0
 20
148.5
  0
VERTEX
  8
通り芯
 10
-210.0
 20
148.5
  0
SEQEND
  0
INSERT
  2
*GRP_0001
  8
型材断面
  6
CONTINUOUS
 10
0.0
 20
0.0
  0
LINE
  8
型材断面
  6
DASHDOT
 10
-116.190163
 20
39.216028
 11
-51.190163
 21
39.216028
  0
LINE
  8
型材断面
  6
DASHDOT
 10
-51.190163
 20
6.716028
 11
-116.190163
 21
6.716028
  0
LINE
  8
型材断面
  6
DASHDOT
 10
-51.190163
 20
71.71603
 11
-116.190163
 21
71.71603
  0
LINE
  8
型材断面
  6
CONTINUOUS
 10
-43.166287
 20
66.16603
 11
-39.280527
 21
65.271945
  0
LINE
  8
型材断面
  6
CONTINUOUS
 10
-43.166287
 20
66.16603
 11
-39.280527
 21
67.060115
  0
LINE
  8
型材断面
  6
CONTINUOUS
 10
-39.280527
 20
67.060115
 11
-39.280527
 21
65.271945
  0
LINE
  8
型材断面
  6
CONTINUOUS
 10
-43.166287
 20
12.266025
 11
-39.280527
 21
13.16011
  0
LINE
  8
型材断面
  6
CONTINUOUS
 10
-43.166287
 20
12.266025
 11
-39.280527
 21
11.37194
  0
LINE
  8
型材断面
  6
CONTINUOUS
 10
-39.280527
 20
11.37194
 11
-39.280527
 21
13.16011
  0
LINE
  8
型材断面
  6
CONTINUOUS
 10
-124.214037
 20
12.266025
 11
-128.099798
 21
13.16011
  0
LINE
  8
型材断面
  6
CONTINUOUS
 10
-124.214037
 20
12.266025
 11
-128.099798
 21
11.37194
  0
LINE
  8
型材断面
  6
CONTINUOUS
 10
-128.099798
 20
11.37194
 11
-128.099798
 21
13.16011
  0
LINE
  8
型材断面
  6
CONTINUOUS
 10
-124.214037
 20
66.16603
 11
-128.099798
 21
65.271945
  0
LINE
  8
型材断面
  6
CONTINUOUS
 10
-124.214037
 20
66.16603
 11
-128.099798
 21
67.060115
  0
LINE
  8
型材断面
  6
CONTINUOUS
 10
-128.099798
 20
67.060115
 11
-128.099798
 21
65.271945
  0
LINE
  8
型材断面
  6
CONTINUOUS
 10
-43.166287
 20
39.216028
 11
-39.280527
 21
36.972582
  0
LINE
  8
型材断面
  6
CONTINUOUS
 10
-43.166287
 20
39.216028
 11
-39.280527
 21
41.459473
  0
LINE
  8
型材断面
  6
CONTINUOUS
 10
-39.280527
 20
41.459473
 11
-39.280527
 21
36.972582
  0
LINE
  8
型材断面
  6
CONTINUOUS
 10
-83.690163
 20
79.739903
 11
-85.933608
 21
83.625663
  0
LINE
  8
型材断面
  6
CONTINUOUS
 10
-83.690163
 20
79.739903
 11
-81.446717
 21
83.625663
  0
LINE
  8
型材断面
  6
CONTINUOUS
 10
-81.446717
 20
83.625663
 11
-85.933608
 21
83.625663
  0
LINE
  8
型材断面
  6
CONTINUOUS
 10
-83.690163
 20
-1.307848
 11
-85.933608
 21
-5.193607
  0
LINE
  8
型材断面
  6
CONTINUOUS
 10
-83.690163
 20
-1.307848
 11
-81.446717
 21
-5.193607
  0
LINE
  8
型材断面
  6
CONTINUOUS
 10
-81.446717
 20
-5.193607
 11
-85.933608
 21
-5.193607
  0
LINE
  8
型材断面
  6
CONTINUOUS
 10
-124.214037
 20
39.216028
 11
-128.099798
 21
36.972582
  0
LINE
  8
型材断面
  6
CONTINUOUS
 10
-124.214037
 20
39.216028
 11
-128.099798
 21
41.459473
  0
LINE
  8
型材断面
  6
CONTINUOUS
 10
-128.099798
 20
41.459473
 11
-128.099798
 21
36.972582
  0
LINE
  8
型材断面
  6
CONTINUOUS
 10
-31.05006
 20
0.93023
 11
-33.293505
 21
-2.95553
  0
LINE
  8
型材断面
  6
CONTINUOUS
 10
-31.05006
 20
0.93023
 11
-28.806615
 21
-2.95553
  0
LINE
  8
型材断面
  6
CONTINUOUS
 10
-28.806615
 20
-2.95553
 11
-33.293505
 21
-2.95553
  0
LINE
  8
型材断面
  6
CONTINUOUS
 10
-31.05006
 20
-6.759317
 11
-30.155975
 21
-10.645078
  0
LINE
  8
型材断面
  6
CONTINUOUS
 10
-31.05006
 20
-6.759317
 11
-31.944145
 21
-10.645078
  0
LINE
  8
型材断面
  6
CONTINUOUS
 10
-31.944145
 20
-10.645078
 11
-30.155975
 21
-10.645078
  0
LINE
  8
型材断面
  6
CONTINUOUS
 10
-40.08394
 20
-4.363422
 11
12.57274
 21
-4.363422
  0
LINE
  8
型材断面
  6
CONTINUOUS
 10
-40.08394
 20
-15.563415
 11
12.57274
 21
-15.563415
  0
LINE
  8
型材断面
  6
CONTINUOUS
 10
-40.08394
 20
-22.40336
 11
12.57274
 21
-22.40336
  0
POLYLINE
  8
型材断面
  6
CONTINUOUS
 66
     1
 70
     1
  0
VERTEX
  8
型材断面
 10
-74.45302
 20
-6.001868
  0
VERTEX
  8
型材断面
 10
-93.008233
 20
-6.001868
  0
VERTEX
  8
型材断面
 10
-93.008233
 20
-10.793902
  0
VERTEX
  8
型材断面
 10
-74.45302
 20
-10.793902
  0
SEQEND
  0
POLYLINE
  8
型材断面
  6
CONTINUOUS
 66
     1
 70
     1
  0
VERTEX
  8
型材断面
 10
-74.45302
 20
89.11007
  0
VERTEX
  8
型材断面
 10
-93.008233
 20
89.11007
  0
VERTEX
  8
型材断面
 10
-93.008233
 20
84.318035
  0
VERTEX
  8
型材断面
 10
-74.45302
 20
84.318035
  0
SEQEND
  0
LINE
  8
型材断面
  6
CONTINUOUS
 10
-40.08394
 20
-29.243305
 11
12.57274
 21
-29.243305
  0
LINE
  8
型材断面
  6
DASHDOT
 10
-116.190163
 20
71.71603
 11
-116.190163
 21
-96.818555
  0
LINE
  8
型材断面
  6
DASHDOT
 10
-51.190163
 20
72.141022
 11
-51.190163
 21
-96.818555
  0
LINE
  8
型材断面
  6
DASHDOT
 10
-83.690163
 20
71.71603
 11
-83.690163
 21
-96.613382
  0
LINE
  8
型材断面
  6
CONTINUOUS
 10
-44.940168
 20
77.966022
 11
-122.440157
 21
77.966022
  0
LINE
  8
型材断面
  6
CONTINUOUS
 10
-83.690163
 20
39.216028
 11
-44.940168
 21
77.966022
  0
LINE
  8
型材断面
  6
CONTINUOUS
 10
-122.440157
 20
77.966022
 11
-44.940168
 21
0.466033
  0
LINE
  8
型材断面
  6
CONTINUOUS
 10
-83.690163
 20
39.216028
 11
-122.440157
 21
0.466033
  0
LINE
  8
型材断面
  6
CONTINUOUS
 10
-122.440157
 20
77.966022
 11
-122.440157
 21
0.466033
  0
LINE
  8
型材断面
  6
CONTINUOUS
 10
-122.440157
 20
0.466033
 11
-44.940168
 21
0.466033
  0
LINE
  8
型材断面
  6
CONTINUOUS
 10
-44.940168
 20
77.966022
 11
-44.940168
 21
0.466033
  0
LINE
  8
型材断面
  6
DOT
 10
-55.190163
 20
71.716028
 11
-55.190163
 21
6.716028
  0
LINE
  8
型材断面
  6
DOT
 10
-53.190163
 20
71.716028
 11
-53.190163
 21
6.716028
  0
LINE
  8
型材断面
  6
CONTINUOUS
 10
-44.940163
 20
-86.407622
 11
-44.88713
 21
-86.354587
  0
LINE
  8
型材断面
  6
CONTINUOUS
 10
-47.04516
 20
-96.613382
 11
-47.04516
 21
-90.758382
  0
LINE
  8
型材断面
  6
CONTINUOUS
 10
-47.04516
 20
-90.758382
 11
-47.308013
 21
-90.495532
  0
LINE
  8
型材断面
  6
CONTINUOUS
 10
-44.940163
 20
-86.478355
 11
-44.940163
 21
-89.79555
  0
LINE
  8
型材断面
  6
CONTINUOUS
 10
-46.190163
 20
-89.795532
 11
-46.190163
 21
-90.495532
  0
LINE
  8
型材断面
  6
CONTINUOUS
 10
-48.29516
 20
-96.613382
 11
-48.29516
 21
-97.118383
  0
LINE
  8
型材断面
  6
CONTINUOUS
 10
-120.335165
 20
-96.613382
 11
-120.335165
 21
-90.758382
  0
LINE
  8
型材断面
  6
CONTINUOUS
 10
-120.335165
 20
-90.758382
 11
-120.072313
 21
-90.495532
  0
LINE
  8
型材断面
  6
CONTINUOUS
 10
-122.440163
 20
-86.478355
 11
-122.440163
 21
-89.79555
  0
LINE
  8
型材断面
  6
CONTINUOUS
 10
-121.190163
 20
-89.795532
 11
-121.190163
 21
-90.495532
  0
LINE
  8
型材断面
  6
CONTINUOUS
 10
-119.085165
 20
-96.613382
 11
-119.085165
 21
-97.118383
  0
LINE
  8
型材断面
  6
CONTINUOUS
 10
-44.940163
 20
-86.478355
 11
-122.440163
 21
-86.478355
  0
LINE
  8
型材断面
  6
CONTINUOUS
 10
-44.940163
 20
-89.79555
 11
-122.440163
 21
-89.79555
  0
LINE
  8
型材断面
  6
CONTINUOUS
 10
-46.190163
 20
-90.495532
 11
-121.190163
 21
-90.495532
  0
LINE
  8
型材断面
  6
CONTINUOUS
 10
-47.04516
 20
-90.758403
 11
-120.335165
 21
-90.758403
  0
LINE
  8
型材断面
  6
CONTINUOUS
 10
-47.04516
 20
-96.613382
 11
-120.335165
 21
-96.613382
  0
LINE
  8
型材断面
  6
CONTINUOUS
 10
-48.29516
 20
-97.118383
 11
-119.085165
 21
-97.118383
  0
LINE
  8
型材断面
  6
CONTINUOUS
 10
-122.440163
 20
-86.407622
 11
-83.69016
 21
-47.657625
  0
LINE
  8
型材断面
  6
CONTINUOUS
 10
-44.940163
 20
-86.407622
 11
-83.69016
 21
-47.657625
  0
LINE
  8
型材断面
  6
CONTINUOUS
 10
-44.88713
 20
-86.354587
 11
-83.690163
 21
-47.551563
  0
LINE
  8
型材断面
  6
CONTINUOUS
 10
-122.493195
 20
-86.354587
 11
-83.690163
 21
-47.551563
  0
LINE
  8
型材断面
  6
CONTINUOUS
 10
-83.690163
 20
-48.824945
 11
-83.690163
 21
-47.41073
  0
LINE
  8
型材断面
  6
CONTINUOUS
 10
-83.690163
 20
-48.824945
 11
-83.690163
 21
-47.41073
  0
LINE
  8
型材断面
  6
CONTINUOUS
 10
-85.940163
 20
-49.66073
 11
-85.869452
 21
-49.73144
  0
LINE
  8
型材断面
  6
CONTINUOUS
 10
-85.869452
 20
-49.73144
 11
-84.59666
 21
-49.73144
  0
LINE
  8
型材断面
  6
CONTINUOUS
 10
-83.690163
 20
-47.41073
 11
-85.940163
 21
-49.66073
  0
LINE
  8
型材断面
  6
CONTINUOUS
 10
-83.690163
 20
-48.824942
 11
-84.59666
 21
-49.73144
  0
LINE
  8
型材断面
  6
CONTINUOUS
 10
-81.439575
 20
-49.66073
 11
-81.510285
 21
-49.73144
  0
LINE
  8
型材断面
  6
CONTINUOUS
 10
-81.510285
 20
-49.73144
 11
-82.783078
 21
-49.73144
  0
LINE
  8
型材断面
  6
CONTINUOUS
 10
-83.690163
 20
-48.824942
 11
-82.783665
 21
-49.73144
  0
LINE
  8
型材断面
  6
CONTINUOUS
 10
-83.690163
 20
-47.41073
 11
-81.439868
 21
-49.661025
  0
LINE
  8
型材断面
  6
CONTINUOUS
 10
80.018025
 20
-85.925472
 11
80.071057
 21
-85.872437
  0
LINE
  8
型材断面
  6
CONTINUOUS
 10
77.913027
 20
-96.131232
 11
77.913027
 21
-90.276232
  0
LINE
  8
型材断面
  6
CONTINUOUS
 10
77.913027
 20
-90.276232
 11
77.650175
 21
-90.013382
  0
LINE
  8
型材断面
  6
CONTINUOUS
 10
80.018025
 20
-85.996205
 11
80.018025
 21
-89.3134
  0
LINE
  8
型材断面
  6
CONTINUOUS
 10
78.768025
 20
-89.313382
 11
78.768025
 21
-90.013382
  0
LINE
  8
型材断面
  6
CONTINUOUS
 10
76.663027
 20
-96.131232
 11
76.663027
 21
-96.636233
  0
LINE
  8
型材断面
  6
CONTINUOUS
 10
4.623022
 20
-96.131232
 11
4.623022
 21
-90.276232
  0
LINE
  8
型材断面
  6
CONTINUOUS
 10
4.623022
 20
-90.276232
 11
4.885875
 21
-90.013382
  0
LINE
  8
型材断面
  6
CONTINUOUS
 10
2.518025
 20
-85.996205
 11
2.518025
 21
-89.3134
  0
LINE
  8
型材断面
  6
CONTINUOUS
 10
3.768025
 20
-89.313382
 11
3.768025
 21
-90.013382
  0
LINE
  8
型材断面
  6
CONTINUOUS
 10
5.873022
 20
-96.131232
 11
5.873022
 21
-96.636233
  0
LINE
  8
型材断面
  6
CONTINUOUS
 10
80.018025
 20
-85.996205
 11
2.518025
 21
-85.996205
  0
LINE
  8
型材断面
  6
CONTINUOUS
 10
80.018025
 20
-89.3134
 11
2.518025
 21
-89.3134
  0
LINE
  8
型材断面
  6
CONTINUOUS
 10
78.768025
 20
-90.013382
 11
3.768025
 21
-90.013382
  0
LINE
  8
型材断面
  6
CONTINUOUS
 10
77.913027
 20
-90.276253
 11
4.623022
 21
-90.276253
  0
LINE
  8
型材断面
  6
CONTINUOUS
 10
77.913027
 20
-96.131232
 11
4.623022
 21
-96.131232
  0
LINE
  8
型材断面
  6
CONTINUOUS
 10
76.663027
 20
-96.636233
 11
5.873022
 21
-96.636233
  0
LINE
  8
型材断面
  6
CONTINUOUS
 10
2.518025
 20
-85.925472
 11
41.268028
 21
-47.175475
  0
LINE
  8
型材断面
  6
CONTINUOUS
 10
80.018025
 20
-85.925472
 11
41.268028
 21
-47.175475
  0
LINE
  8
型材断面
  6
CONTINUOUS
 10
80.071057
 20
-85.872437
 11
41.268025
 21
-47.069412
  0
LINE
  8
型材断面
  6
CONTINUOUS
 10
2.464992
 20
-85.872437
 11
41.268025
 21
-47.069412
  0
LINE
  8
型材断面
  6
CONTINUOUS
 10
41.268025
 20
-48.342795
 11
41.268025
 21
-46.92858
  0
LINE
  8
型材断面
  6
CONTINUOUS
 10
41.268025
 20
-48.342795
 11
41.268025
 21
-46.92858
  0
LINE
  8
型材断面
  6
CONTINUOUS
 10
39.018025
 20
-49.17858
 11
39.088735
 21
-49.24929
  0
LINE
  8
型材断面
  6
CONTINUOUS
 10
39.088735
 20
-49.24929
 11
40.361528
 21
-49.24929
  0
LINE
  8
型材断面
  6
CONTINUOUS
 10
41.268025
 20
-46.92858
 11
39.018025
 21
-49.17858
  0
LINE
  8
型材断面
  6
CONTINUOUS
 10
41.268025
 20
-48.342792
 11
40.361528
 21
-49.24929
  0
LINE
  8
型材断面
  6
CONTINUOUS
 10
43.518613
 20
-49.17858
 11
43.447903
 21
-49.24929
  0
LINE
  8
型材断面
  6
CONTINUOUS
 10
43.447903
 20
-49.24929
 11
42.17511
 21
-49.24929
  0
LINE
  8
型材断面
  6
CONTINUOUS
 10
41.268025
 20
-48.342792
 11
42.174523
 21
-49.24929
  0
LINE
  8
型材断面
  6
CONTINUOUS
 10
41.268025
 20
-46.92858
 11
43.51832
 21
-49.178875
  0
INSERT
  2
*GRP_0015
  8
型材断面
  6
CONTINUOUS
 10
0.0
 20
0.0
  0
INSERT
  2
*GRP_0016
  8
型材断面
  6
DOT
 10
0.0
 20
0.0
  0
INSERT
  2
*GRP_0017
  8
型材断面
  6
DOT
 10
0.0
 20
0.0
  0
LINE
  8
型材断面
  6
CONTINUOUS
 10
91.7392
 20
41.512418
 11
115.670823
 21
41.512418
  0
LINE
  8
型材断面
  6
CONTINUOUS
 10
-85.095842
 20
39.216028
 11
-85.940163
 21
38.37171
  0
LINE
  8
型材断面
  6
CONTINUOUS
 10
-85.940163
 20
38.37171
 11
-85.940163
 21
36.966028
  0
LINE
  8
型材断面
  6
CONTINUOUS
 10
-85.940163
 20
36.966028
 11
-84.534485
 21
36.966028
  0
LINE
  8
型材断面
  6
CONTINUOUS
 10
-83.690163
 20
37.810347
 11
-84.534485
 21
36.966028
  0
LINE
  8
型材断面
  6
CONTINUOUS
 10
-83.690163
 20
39.216028
 11
-85.940165
 21
36.966028
  0
LINE
  8
型材断面
  6
CONTINUOUS
 10
-81.440165
 20
41.46603
 11
-82.84584
 21
41.466028
  0
LINE
  8
型材断面
  6
CONTINUOUS
 10
-83.690163
 20
40.621708
 11
-82.84584
 21
41.466028
  0
LINE
  8
型材断面
  6
CONTINUOUS
 10
-81.440165
 20
41.46603
 11
-81.440163
 21
40.060345
  0
LINE
  8
型材断面
  6
CONTINUOUS
 10
-82.284483
 20
39.216028
 11
-81.440163
 21
40.060345
  0
LINE
  8
型材断面
  6
CONTINUOUS
 10
-83.690163
 20
39.216028
 11
-81.440157
 21
41.46603
  0
LINE
  8
型材断面
  6
CONTINUOUS
 10
-83.690163
 20
37.810347
 11
-82.84584
 21
36.966028
  0
LINE
  8
型材断面
  6
CONTINUOUS
 10
-81.440163
 20
36.966028
 11
-82.84584
 21
36.966028
  0
LINE
  8
型材断面
  6
CONTINUOUS
 10
-81.440163
 20
36.966028
 11
-81.440163
 21
38.37171
  0
LINE
  8
型材断面
  6
CONTINUOUS
 10
-82.284483
 20
39.216028
 11
-81.440163
 21
38.37171
  0
LINE
  8
型材断面
  6
CONTINUOUS
 10
-85.94016
 20
41.46603
 11
-84.534485
 21
41.466028
  0
LINE
  8
型材断面
  6
CONTINUOUS
 10
-83.690163
 20
40.621708
 11
-84.534485
 21
41.466028
  0
LINE
  8
型材断面
  6
CONTINUOUS
 10
-85.94016
 20
41.46603
 11
-85.940163
 21
40.060345
  0
LINE
  8
型材断面
  6
CONTINUOUS
 10
-85.095842
 20
39.216028
 11
-85.940163
 21
40.060345
  0
LINE
  8
型材断面
  6
CONTINUOUS
 10
-83.690163
 20
39.216028
 11
-85.94016
 21
41.466022
  0
LINE
  8
型材断面
  6
CONTINUOUS
 10
-83.690163
 20
39.216028
 11
-81.44016
 21
36.966028
  0
LINE
  8
ガラス
  6
CONTINUOUS
 10
-81.876937
 20
64.175742
 11
-85.749572
 21
60.303108
  0
LINE
  8
ガラス
  6
CONTINUOUS
 10
-82.75726
 20
62.577385
 11
-84.151215
 21
61.18343
  0
LINE
  8
ガラス
  6
CONTINUOUS
 10
-83.475295
 20
63.29542
 11
-84.86925
 21
61.901465
  0
LINE
  8
ガラス
  6
CONTINUOUS
 10
-81.876937
 20
20.428475
 11
-85.749572
 21
16.55584
  0
LINE
  8
ガラス
  6
CONTINUOUS
 10
-82.75726
 20
18.830118
 11
-84.151215
 21
17.436162
  0
LINE
  8
ガラス
  6
CONTINUOUS
 10
-83.475295
 20
19.548152
 11
-84.86925
 21
18.154198
  0
LINE
  8
ガラス
  6
CONTINUOUS
 10
-61.7259
 20
41.10373
 11
-65.598535
 21
37.231095
  0
LINE
  8
ガラス
  6
CONTINUOUS
 10
-62.606222
 20
39.505372
 11
-64.000177
 21
38.111418
  0
LINE
  8
ガラス
  6
CONTINUOUS
 10
-63.324258
 20
40.223408
 11
-64.718213
 21
38.829452
  0
LINE
  8
ガラス
  6
CONTINUOUS
 10
-101.584223
 20
41.10373
 11
-105.456858
 21
37.231095
  0
LINE
  8
ガラス
  6
CONTINUOUS
 10
-102.464545
 20
39.505372
 11
-103.8585
 21
38.111418
  0
LINE
  8
ガラス
  6
CONTINUOUS
 10
-103.18258
 20
40.223408
 11
-104.576535
 21
38.829452
  0
LINE
  8
ガラス
  6
CONTINUOUS
 10
-81.876937
 20
-70.46891
 11
-85.749572
 21
-74.341545
  0
LINE
  8
ガラス
  6
CONTINUOUS
 10
-82.75726
 20
-72.067267
 11
-84.151215
 21
-73.461222
  0
LINE
  8
ガラス
  6
CONTINUOUS
 10
-83.475295
 20
-71.349233
 11
-84.86925
 21
-72.743188
  0
LINE
  8
ガラス
  6
CONTINUOUS
 10
157.123323
 20
-9.354562
 11
123.46179
 21
38.250025
  0
LINE
  8
ガラス
  6
CONTINUOUS
 10
123.46179
 20
38.250025
 11
89.800258
 21
-9.354562
  0
LINE
  8
ガラス
  6
CONTINUOUS
 10
157.123323
 20
-9.354562
 11
89.800258
 21
-9.354562
  0
LINE
  8
ゴム等
  6
CONTINUOUS
 10
-83.690163
 20
37.618917
 11
-83.690163
 21
36.02675
  0
LINE
  8
ゴム等
  6
CONTINUOUS
 10
-83.690163
 20
40.813138
 11
-83.690163
 21
42.405305
  0
LINE
  8
ゴム等
  6
CONTINUOUS
 10
-82.093052
 20
39.216028
 11
-80.500885
 21
39.216028
  0
LINE
  8
ゴム等
  6
CONTINUOUS
 10
-85.287273
 20
39.216028
 11
-86.87944
 21
39.216028
  0
LINE
  8
ゴム等
  6
CONTINUOUS
 10
-83.690163
 20
34.764178
 11
-51.756898
 21
2.830912
  0
LINE
  8
ゴム等
  6
CONTINUOUS
 10
-83.690163
 20
36.02675
 11
-49.236247
 21
1.572835
  0
LINE
  8
ゴム等
  6
CONTINUOUS
 10
-83.690163
 20
37.618917
 11
-46.72484
 21
0.653595
  0
LINE
  8
ゴム等
  6
CONTINUOUS
 10
-79.238313
 20
39.216028
 11
-47.305048
 21
7.282762
  0
LINE
  8
ゴム等
  6
CONTINUOUS
 10
-80.500885
 20
39.216028
 11
-46.04697
 21
4.762112
  0
LINE
  8
ゴム等
  6
CONTINUOUS
 10
-82.093052
 20
39.216028
 11
-45.12773
 21
2.250705
  0
LINE
  8
ゴム等
  6
CONTINUOUS
 10
-83.690163
 20
34.764178
 11
-115.623427
 21
2.830912
  0
LINE
  8
ゴム等
  6
CONTINUOUS
 10
-51.756898
 20
2.830912
 11
-115.623427
 21
2.830912
  0
LINE
  8
ゴム等
  6
CONTINUOUS
 10
-49.236247
 20
1.572835
 11
-118.144078
 21
1.572835
  0
LINE
  8
ゴム等
  6
CONTINUOUS
 10
-83.690163
 20
36.02675
 11
-118.144078
 21
1.572835
  0
LINE
  8
ゴム等
  6
CONTINUOUS
 10
-83.690163
 20
37.618917
 11
-120.655485
 21
0.653595
  0
LINE
  8
ゴム等
  6
CONTINUOUS
 10
-46.72484
 20
0.653595
 11
-120.655485
 21
0.653595
  0
LINE
  8
ゴム等
  6
CONTINUOUS
 10
-88.142012
 20
39.216028
 11
-120.075278
 21
7.282762
  0
LINE
  8
ゴム等
  6
CONTINUOUS
 10
-86.87944
 20
39.216028
 11
-121.333355
 21
4.762112
  0
LINE
  8
ゴム等
  6
CONTINUOUS
 10
-85.287273
 20
39.216028
 11
-122.252595
 21
2.250705
  0
LINE
  8
ゴム等
  6
CONTINUOUS
 10
-120.075278
 20
7.282762
 11
-120.075278
 21
71.149293
  0
LINE
  8
ゴム等
  6
CONTINUOUS
 10
-88.142012
 20
39.216028
 11
-120.075278
 21
71.149293
  0
LINE
  8
ゴム等
  6
CONTINUOUS
 10
-86.87944
 20
39.216028
 11
-121.333355
 21
73.669943
  0
LINE
  8
ゴム等
  6
CONTINUOUS
 10
-121.333355
 20
4.762112
 11
-121.333355
 21
73.669943
  0
LINE
  8
ゴム等
  6
CONTINUOUS
 10
-122.252595
 20
2.250705
 11
-122.252595
 21
76.18135
  0
LINE
  8
ゴム等
  6
CONTINUOUS
 10
-85.287273
 20
39.216028
 11
-122.252595
 21
76.18135
  0
LINE
  8
ゴム等
  6
CONTINUOUS
 10
-83.690163
 20
43.667878
 11
-115.623427
 21
75.601143
  0
LINE
  8
ゴム等
  6
CONTINUOUS
 10
-83.690163
 20
42.405305
 11
-118.144078
 21
76.85922
  0
LINE
  8
ゴム等
  6
CONTINUOUS
 10
-83.690163
 20
40.813138
 11
-120.655485
 21
77.77846
  0
LINE
  8
ゴム等
  6
CONTINUOUS
 10
-115.623427
 20
75.601143
 11
-51.756898
 21
75.601143
  0
LINE
  8
ゴム等
  6
CONTINUOUS
 10
-83.690163
 20
43.667878
 11
-51.756898
 21
75.601143
  0
LINE
  8
ゴム等
  6
CONTINUOUS
 10
-83.690163
 20
42.405305
 11
-49.236247
 21
76.85922
  0
LINE
  8
ゴム等
  6
CONTINUOUS
 10
-118.144078
 20
76.85922
 11
-49.236247
 21
76.85922
  0
LINE
  8
ゴム等
  6
CONTINUOUS
 10
-120.655485
 20
77.77846
 11
-46.72484
 21
77.77846
  0
LINE
  8
ゴム等
  6
CONTINUOUS
 10
-83.690163
 20
40.813138
 11
-46.72484
 21
77.77846
  0
LINE
  8
ゴム等
  6
CONTINUOUS
 10
-79.238313
 20
39.216028
 11
-47.305048
 21
71.149293
  0
LINE
  8
ゴム等
  6
CONTINUOUS
 10
-47.305048
 20
7.282762
 11
-47.305048
 21
71.149293
  0
LINE
  8
ゴム等
  6
CONTINUOUS
 10
-80.500885
 20
39.216028
 11
-46.04697
 21
73.669943
  0
LINE
  8
ゴム等
  6
CONTINUOUS
 10
-46.04697
 20
4.762112
 11
-46.04697
 21
73.669943
  0
LINE
  8
ゴム等
  6
CONTINUOUS
 10
-82.093052
 20
39.216028
 11
-45.12773
 21
76.18135
  0
LINE
  8
ゴム等
  6
CONTINUOUS
 10
-45.12773
 20
2.250705
 11
-45.12773
 21
76.18135
  0
LINE
  8
ゴム等
  6
CONTINUOUS
 10
-45.12773
 20
76.18135
 11
-46.04697
 21
73.669943
  0
LINE
  8
ゴム等
  6
CONTINUOUS
 10
-46.04697
 20
73.669943
 11
-47.305048
 21
71.149293
  0
LINE
  8
ゴム等
  6
CONTINUOUS
 10
-46.72484
 20
77.77846
 11
-49.236247
 21
76.85922
  0
LINE
  8
ゴム等
  6
CONTINUOUS
 10
-49.236247
 20
76.85922
 11
-51.756898
 21
75.601143
  0
LINE
  8
ゴム等
  6
CONTINUOUS
 10
-122.252595
 20
76.18135
 11
-121.333355
 21
73.669943
  0
LINE
  8
ゴム等
  6
CONTINUOUS
 10
-121.333355
 20
73.669943
 11
-120.075278
 21
71.149293
  0
LINE
  8
ゴム等
  6
CONTINUOUS
 10
-120.655485
 20
77.77846
 11
-118.144078
 21
76.85922
  0
LINE
  8
ゴム等
  6
CONTINUOUS
 10
-118.144078
 20
76.85922
 11
-115.623427
 21
75.601143
  0
LINE
  8
ゴム等
  6
CONTINUOUS
 10
-122.252595
 20
2.250705
 11
-121.333355
 21
4.762112
  0
LINE
  8
ゴム等
  6
CONTINUOUS
 10
-121.333355
 20
4.762112
 11
-120.075278
 21
7.282762
  0
LINE
  8
ゴム等
  6
CONTINUOUS
 10
-120.655485
 20
0.653595
 11
-118.144078
 21
1.572835
  0
LINE
  8
ゴム等
  6
CONTINUOUS
 10
-118.144078
 20
1.572835
 11
-115.623427
 21
2.830912
  0
LINE
  8
ゴム等
  6
CONTINUOUS
 10
-45.12773
 20
2.250705
 11
-46.04697
 21
4.762112
  0
LINE
  8
ゴム等
  6
CONTINUOUS
 10
-46.04697
 20
4.762112
 11
-47.305048
 21
7.282762
  0
LINE
  8
ゴム等
  6
CONTINUOUS
 10
-46.72484
 20
0.653595
 11
-49.236247
 21
1.572835
  0
LINE
  8
ゴム等
  6
CONTINUOUS
 10
-49.236247
 20
1.572835
 11
-51.756898
 21
2.830912
  0
LINE
  8
ゴム等
  6
CONTINUOUS
 10
-51.754388
 20
-84.743657
 11
-49.23626
 21
-85.336
  0
LINE
  8
ゴム等
  6
CONTINUOUS
 10
-49.23626
 20
-85.336
 11
-46.724855
 21
-86.25524
  0
LINE
  8
ゴム等
  6
CONTINUOUS
 10
-120.65547
 20
-86.25524
 11
-118.144065
 21
-85.336
  0
LINE
  8
ゴム等
  6
CONTINUOUS
 10
-118.144065
 20
-85.336
 11
-115.625937
 21
-84.743657
  0
LINE
  8
ゴム等
  6
CONTINUOUS
 10
-83.690163
 20
-52.807888
 11
-51.754388
 21
-84.743657
  0
LINE
  8
ゴム等
  6
CONTINUOUS
 10
-83.690163
 20
-50.882103
 11
-49.23626
 21
-85.336
  0
LINE
  8
ゴム等
  6
CONTINUOUS
 10
-83.690163
 20
-49.289937
 11
-46.724855
 21
-86.25524
  0
LINE
  8
ゴム等
  6
CONTINUOUS
 10
-83.690163
 20
-52.807888
 11
-115.625937
 21
-84.743657
  0
LINE
  8
ゴム等
  6
CONTINUOUS
 10
-51.754388
 20
-84.743657
 11
-115.625937
 21
-84.743657
  0
LINE
  8
ゴム等
  6
CONTINUOUS
 10
-49.23626
 20
-85.336
 11
-118.144065
 21
-85.336
  0
LINE
  8
ゴム等
  6
CONTINUOUS
 10
-83.690163
 20
-50.882103
 11
-118.144065
 21
-85.336
  0
LINE
  8
ゴム等
  6
CONTINUOUS
 10
-83.690163
 20
-49.289937
 11
-120.65547
 21
-86.25524
  0
LINE
  8
ゴム等
  6
CONTINUOUS
 10
-46.724855
 20
-86.25524
 11
-120.65547
 21
-86.25524
  0
LINE
  8
ゴム等
  6
CONTINUOUS
 10
73.2038
 20
-84.261507
 11
75.721927
 21
-84.85385
  0
LINE
  8
ゴム等
  6
CONTINUOUS
 10
75.721927
 20
-84.85385
 11
78.233332
 21
-85.77309
  0
LINE
  8
ゴム等
  6
CONTINUOUS
 10
4.302717
 20
-85.77309
 11
6.814122
 21
-84.85385
  0
LINE
  8
ゴム等
  6
CONTINUOUS
 10
6.814122
 20
-84.85385
 11
9.33225
 21
-84.261507
  0
LINE
  8
ゴム等
  6
CONTINUOUS
 10
41.268025
 20
-52.325738
 11
73.2038
 21
-84.261507
  0
LINE
  8
ゴム等
  6
CONTINUOUS
 10
41.268025
 20
-50.399953
 11
75.721927
 21
-84.85385
  0
LINE
  8
ゴム等
  6
CONTINUOUS
 10
41.268025
 20
-48.807787
 11
78.233332
 21
-85.77309
  0
LINE
  8
ゴム等
  6
CONTINUOUS
 10
41.268025
 20
-52.325738
 11
9.33225
 21
-84.261507
  0
LINE
  8
ゴム等
  6
CONTINUOUS
 10
73.2038
 20
-84.261507
 11
9.33225
 21
-84.261507
  0
LINE
  8
ゴム等
  6
CONTINUOUS
 10
75.721927
 20
-84.85385
 11
6.814122
 21
-84.85385
  0
LINE
  8
ゴム等
  6
CONTINUOUS
 10
41.268025
 20
-50.399953
 11
6.814122
 21
-84.85385
  0
LINE
  8
ゴム等
  6
CONTINUOUS
 10
41.268025
 20
-48.807787
 11
4.302717
 21
-85.77309
  0
LINE
  8
ゴム等
  6
CONTINUOUS
 10
78.233332
 20
-85.77309
 11
4.302717
 21
-85.77309
  0
TEXT
  7
TextStyle03
  8
文字
  6
CONTINUOUS
 10
-26.775
 20
-2.625
  1
は排水穴位置を示す
 40
3.0
 72
     5
 11
3.225
 21
-2.625
  0
TEXT
  7
TextStyle03
  8
文字
  6
CONTINUOUS
 10
-26.775
 20
-10.475
  1
はケーシング位置を示す
 40
3.0
 72
     5
 11
9.975
 21
-10.475
  0
TEXT
  7
TextStyle03
  8
文字
  6
CONTINUOUS
 10
-26.775
 20
-13.85
  1
４ヶ所中1ヶ所に設定
 40
3.0
 72
     5
 11
4.9125
 21
-13.85
  0
TEXT
  7
TextStyle03
  8
文字
  6
CONTINUOUS
 10
-42.5
 20
25.425
  1
ﾊﾞﾗﾝｽｽﾃｰ
 40
3.0
 72
     5
 11
-29.1875
 21
25.425
  0
TEXT
  7
TextStyle03
  8
文字
  6
CONTINUOUS
 10
-92.025
 20
-9.8
  1
可動装置側
 40
3.0
 72
     5
 11
-75.525
 21
-9.8
  0
TEXT
  7
TextStyle03
  8
文字
  6
CONTINUOUS
 10
-92.025
 20
85.3
  1
可動装置側
 40
3.0
 72
     5
 11
-75.525
 21
85.3
  0
TEXT
  7
TextStyle03
  8
文字
  6
CONTINUOUS
 10
-130.675
 20
98.625
  1
アンカーピッチ
 40
3.0
 72
     5
 11
-107.425
 21
98.625
  0
TEXT
  7
TextStyle03
  8
文字
  6
CONTINUOUS
 10
-147.675
 20
-4.175
  1
アンカーピッチ
 40
3.0
 50
90.0
 72
     5
 11
-147.675
 21
19.075
  0
TEXT
  7
TextStyle03
  8
文字
  6
CONTINUOUS
 10
-32.375
 20
-21.0
  1
アンカー数量　８ヶ所
 40
3.0
 72
     5
 11
1.0
 21
-21.0
  0
TEXT
  7
TextStyle03
  8
文字
  6
CONTINUOUS
 10
-32.4
 20
-27.825
  1
アームユニット数　２ヶ所
 40
3.0
 72
     5
 11
7.725
 21
-27.825
  0
TEXT
  7
TextStyle03
  8
文字
  6
CONTINUOUS
 10
65.75
 20
96.2
  1
ＮＳコード：ＮＳ４Ｇ
 40
5.0
 72
     5
 11
121.375
 21
96.2
  0
TEXT
  7
TextStyle03
  8
文字
  6
CONTINUOUS
 10
67.35
 20
119.325
  1
シリーズ：ＤＦ４
 40
5.0
 72
     5
 11
111.725
 21
119.325
  0
TEXT
  7
TextStyle03
  8
文字
  6
CONTINUOUS
 10
67.35
 20
113.7
  1
　　　　　四角錘（上下可動）1300×1300タイプ
 40
5.0
 72
     5
 11
190.475
 21
113.7
  0
TEXT
  7
TextStyle03
  8
文字
  6
CONTINUOUS
 10
67.35
 20
108.075
  1
図面名　：外観姿図
 40
5.0
 72
     5
 11
117.35
 21
108.075
  0
TEXT
  7
TextStyle03
  8
文字
  6
CONTINUOUS
 10
67.35
 20
102.45
  1
　　　　　　
 40
5.0
 72
     5
 11
100.475
 21
102.45
  0
TEXT
  7
TextStyle03
  8
文字
  6
CONTINUOUS
 10
135.6
 20
-7.0
  1
×４枚
 40
3.0
 72
     5
 11
145.35
 21
-7.0
  0
TEXT
  7
TextStyle03
  8
文字
  6
CONTINUOUS
 10
95.325
 20
42.725
  1
ガラス寸法
 40
3.0
 72
     5
 11
111.825
 21
42.725
  0
INSERT
  2
*DIM_0002
  8
寸法
  6
CONTINUOUS
 10
0.0
 20
0.0
  0
INSERT
  2
*DIM_0004
  8
寸法
  6
CONTINUOUS
 10
0.0
 20
0.0
  0
INSERT
  2
*DIM_0005
  8
寸法
  6
CONTINUOUS
 10
0.0
 20
0.0
  0
INSERT
  2
*GRP_0006
  8
寸法
  6
CONTINUOUS
 10
0.0
 20
0.0
  0
INSERT
  2
*DIM_0007
  8
寸法
  6
CONTINUOUS
 10
0.0
 20
0.0
  0
INSERT
  2
*DIM_0008
  8
寸法
  6
CONTINUOUS
 10
0.0
 20
0.0
  0
INSERT
  2
*DIM_0009
  8
寸法
  6
CONTINUOUS
 10
0.0
 20
0.0
  0
INSERT
  2
*DIM_0010
  8
寸法
  6
CONTINUOUS
 10
0.0
 20
0.0
  0
INSERT
  2
*DIM_0011
  8
寸法
  6
CONTINUOUS
 10
0.0
 20
0.0
  0
INSERT
  2
*DIM_0012
  8
寸法
  6
CONTINUOUS
 10
0.0
 20
0.0
  0
INSERT
  2
*DIM_0013
  8
寸法
  6
CONTINUOUS
 10
0.0
 20
0.0
  0
INSERT
  2
*DIM_0014
  8
寸法
  6
CONTINUOUS
 10
0.0
 20
0.0
  0
INSERT
  2
*DIM_0018
  8
寸法
  6
CONTINUOUS
 10
0.0
 20
0.0
  0
INSERT
  2
*DIM_0031
  8
寸法
  6
CONTINUOUS
 10
0.0
 20
0.0
  0
INSERT
  2
*DIM_0032
  8
寸法
  6
CONTINUOUS
 10
0.0
 20
0.0
  0
INSERT
  2
*DIM_0033
  8
寸法
  6
CONTINUOUS
 10
0.0
 20
0.0
  0
ENDSEC
  0
EOF
