  0
SECTION
  2
HEADER
  9
$EXTMIN
 10
-210.0
 20
-148.5
  9
$EXTMAX
 10
210.0
 20
148.5
  9
$PDMODE
 70
    32
  9
$PDSIZE
 40
1.5
  9
$LTSCALE
 40
10.0
  0
ENDSEC
  0
SECTION
  2
TABLES
  0
TABLE
  2
LTYPE
 70
    15
  0
LTYPE
  2
CONTINUOUS
 70
    64
  3
実線
 72
    65
 73
     0
 40
0.0
  0
LTYPE
  2
DASHED
 70
    64
  3
破線A
 72
    65
 73
     2
 40
0.6
 49
0.4
 49
-0.2
  0
LTYPE
  2
DASHEDX2
 70
    64
  3
破線B
 72
    65
 73
     2
 40
1.3
 49
0.9
 49
-0.4
  0
LTYPE
  2
DASHDOT
 70
    64
  3
１点鎖線A
 72
    65
 73
     4
 40
0.5375
 49
0.375
 49
-0.05
 49
0.0625
 49
-0.05
  0
LTYPE
  2
DASHDOTX2
 70
    64
  3
１点鎖線B
 72
    65
 73
     4
 40
1.075
 49
0.75
 49
-0.1
 49
0.125
 49
-0.1
  0
LTYPE
  2
DIVIDE2
 70
    64
  3
２点鎖線A
 72
    65
 73
     6
 40
0.5125
 49
0.3
 49
-0.0375
 49
0.05
 49
-0.0375
 49
0.05
 49
-0.0375
  0
LTYPE
  2
DIVIDE
 70
    64
  3
２点鎖線B
 72
    65
 73
     6
 40
1.05
 49
0.55
 49
-0.1
 49
0.1
 49
-0.1
 49
0.1
 49
-0.1
  0
LTYPE
  2
DOT
 70
    64
  3
点線A
 72
    65
 73
     2
 40
0.1125
 49
0.0625
 49
-0.05
  0
LTYPE
  2
DOTX2
 70
    64
  3
点線B
 72
    65
 73
     2
 40
0.275
 49
0.15
 49
-0.125
  0
LTYPE
  2
CONTINUOUS
 70
    64
  3
実線
 72
    65
 73
     0
 40
0.0
  0
LTYPE
  2
CONTINUOUS
 70
    64
  3
実線
 72
    65
 73
     0
 40
0.0
  0
LTYPE
  2
CONTINUOUS
 70
    64
  3
実線
 72
    65
 73
     0
 40
0.0
  0
LTYPE
  2
CONTINUOUS
 70
    64
  3
実線
 72
    65
 73
     0
 40
0.0
  0
LTYPE
  2
CONTINUOUS
 70
    64
  3
実線
 72
    65
 73
     0
 40
0.0
  0
LTYPE
  2
CONTINUOUS
 70
    64
  3
実線
 72
    65
 73
     0
 40
0.0
  0
ENDTAB
  0
TABLE
  2
LAYER
 70
    34
  0
LAYER
  2
通り芯
 70
     0
 62
    15
  6
CONTINUOUS
  0
LAYER
  2
補助線
 70
     0
 62
    16
  6
DOT
  0
LAYER
  2
躯体
 70
     0
 62
    31
  6
CONTINUOUS
  0
LAYER
  2
型材
 70
     0
 62
    32
  6
CONTINUOUS
  0
LAYER
  2
型材断面
 70
     0
 62
    47
  6
CONTINUOUS
  0
LAYER
  2
ガラス
 70
     0
 62
    48
  6
CONTINUOUS
  0
LAYER
  2
ゴム等
 70
     0
 62
    63
  6
CONTINUOUS
  0
LAYER
  2
ボルト／ビス
 70
     0
 62
    64
  6
CONTINUOUS
  0
LAYER
  2
文字
 70
     0
 62
    79
  6
CONTINUOUS
  0
LAYER
  2
寸法
 70
     0
 62
    80
  6
CONTINUOUS
  0
LAYER
  2
ﾊｯﾁﾝｸﾞ
 70
     0
 62
    95
  6
CONTINUOUS
  0
LAYER
  2
別途部材
 70
     0
 62
    96
  6
CONTINUOUS
  0
LAYER
  2
曲げ物
 70
     0
 62
   111
  6
CONTINUOUS
  0
LAYER
  2
鉄骨等
 70
     0
 62
   112
  6
CONTINUOUS
  0
LAYER
  2
St
 70
     0
 62
   127
  6
CONTINUOUS
  0
LAYER
  2
その他部品等
 70
     0
 62
   128
  6
CONTINUOUS
  0
LAYER
  2
ｶﾞｽｹｯﾄ
 70
     0
 62
   143
  6
CONTINUOUS
  0
LAYER
  2
ｽｹｯﾁ
 70
     0
 62
    14
  6
CONTINUOUS
  0
LAYER
  2
0
 70
     0
 62
    17
  6
CONTINUOUS
  0
LAYER
  2
1
 70
     0
 62
    30
  6
CONTINUOUS
  0
LAYER
  2
4
 70
     0
 62
    33
  6
CONTINUOUS
  0
LAYER
  2
ﾚｲﾔ3
 70
     0
 62
    46
  6
CONTINUOUS
  0
LAYER
  2
外形線
 70
     0
 62
    49
  6
CONTINUOUS
  0
LAYER
  2
部品
 70
     0
 62
    14
  6
CONTINUOUS
  0
LAYER
  2
サッシ芯
 70
     0
 62
    17
  6
DASHDOTX2
  0
LAYER
  2
寸法線
 70
     0
 62
    62
  6
CONTINUOUS
  0
LAYER
  2
姿図外形線
 70
     0
 62
    65
  6
CONTINUOUS
  0
LAYER
  2
姿補助線
 70
     0
 62
    30
  6
CONTINUOUS
  0
LAYER
  2
透視線
 70
     0
 62
    78
  6
DOT
  0
LAYER
  2
用紙
 70
     0
 62
    81
  6
CONTINUOUS
  0
LAYER
  2
実線図枠
 70
     0
 62
    94
  6
CONTINUOUS
  0
LAYER
  2
補助図枠
 70
     0
 62
    97
  6
CONTINUOUS
  0
LAYER
  2
建具記号
 70
     0
 62
   110
  6
CONTINUOUS
  0
LAYER
  2
補助文字
 70
     0
 62
   113
  6
CONTINUOUS
  0
ENDTAB
  0
TABLE
  2
STYLE
 70
    10
  0
STYLE
  2
STANDARD
 70
     0
 40
1.0
 41
1.0
 42
1.0
 50
0.0
 71
     0
  3
TXT
  4
BIGFONT
  0
STYLE
  2
TATE
 70
     4
 40
1.0
 41
1.0
 42
1.0
 50
0.0
 71
     0
  3
TXT
  4
BIGFONT
  0
STYLE
  2
TextStyle03
 70
     0
 40
1.0
 41
1.0
 42
1.0
 50
0.0
 71
     0
  3
MONOTXT
  4
BIGFONT
  0
STYLE
  2
TextStyle04
 70
     0
 40
1.0
 41
1.0
 42
1.0
 50
0.0
 71
     0
  3
MONOTXT
  4
BIGFONT
  0
STYLE
  2
TextStyle05
 70
     0
 40
1.0
 41
1.0
 42
1.0
 50
0.0
 71
     0
  3
MONOTXT
  4
BIGFONT
  0
STYLE
  2
TextStyle06
 70
     0
 40
1.0
 41
1.0
 42
1.0
 50
0.0
 71
     0
  3
MONOTXT
  4
BIGFONT
  0
STYLE
  2
TextStyle07
 70
     0
 40
1.0
 41
1.0
 42
1.0
 50
0.0
 71
     0
  3
MONOTXT
  4
BIGFONT
  0
STYLE
  2
TextStyle08
 70
     0
 40
1.0
 41
1.0
 42
1.0
 50
0.0
 71
     0
  3
MONOTXT
  4
BIGFONT
  0
STYLE
  2
TextStyle09
 70
     0
 40
1.0
 41
1.0
 42
1.0
 50
0.0
 71
     0
  3
MONOTXT
  4
BIGFONT
  0
STYLE
  2
TextStyle10
 70
     0
 40
1.0
 41
1.0
 42
1.0
 50
0.0
 71
     0
  3
MONOTXT
  4
BIGFONT
  0
ENDTAB
  0
ENDSEC
  0
SECTION
  2
BLOCKS
  0
BLOCK
  2
*GRP_0001
 70
    65
 10
0.0
 20
0.0
  0
LINE
  8
型材断面
  6
CONTINUOUS
 10
195.0
 20
133.5
 11
195.0
 21
-133.5
  0
LINE
  8
型材断面
  6
CONTINUOUS
 10
195.0
 20
-133.5
 11
-185.0
 21
-133.5
  0
LINE
  8
型材断面
  6
CONTINUOUS
 10
-185.0
 20
-133.5
 11
-185.0
 21
133.5
  0
LINE
  8
型材断面
  6
CONTINUOUS
 10
195.0
 20
133.5
 11
-185.0
 21
133.5
  0
LINE
  8
型材断面
  6
CONTINUOUS
 10
145.0
 20
-133.5
 11
145.0
 21
-118.5
  0
LINE
  8
型材断面
  6
CONTINUOUS
 10
195.0
 20
-118.5
 11
145.0
 21
-118.5
  0
ENDBLK
  0
BLOCK
  2
*DIM_0002
 70
    65
 10
0.0
 20
0.0
  0
LINE
  8
寸法
  6
CONTINUOUS
 62
     0
 10
-120.976487
 20
-28.204485
 11
-120.976487
 21
-28.702992
  0
LINE
  8
寸法
  6
CONTINUOUS
 62
     0
 10
-40.976487
 20
-28.204485
 11
-40.976487
 21
-28.702992
  0
LINE
  8
寸法
  6
CONTINUOUS
 62
     0
 10
-120.976487
 20
-28.702992
 11
-40.976487
 21
-28.702992
  0
POINT
  8
寸法
 62
     0
 10
-120.976487
 20
-28.702992
  0
POINT
  8
寸法
 62
     0
 10
-40.976487
 20
-28.702992
  0
TEXT
  7
TextStyle03
  8
寸法
  6
CONTINUOUS
 62
     0
 10
-92.69375
 20
-28.35
  1
呼称寸法　1600
 40
3.0
 72
     5
 11
-69.25625
 21
-28.35
  0
ENDBLK
  0
BLOCK
  2
*DIM_0003
 70
    65
 10
0.0
 20
0.0
  0
LINE
  8
寸法
  6
BYBLOCK
 62
     0
 10
-40.54929
 20
86.716033
 11
-19.999863
 21
86.716033
  0
LINE
  8
寸法
  6
BYBLOCK
 62
     0
 10
-32.525415
 20
81.166033
 11
-19.999863
 21
81.166033
  0
LINE
  8
寸法
  6
BYBLOCK
 62
     0
 10
-19.999863
 20
86.716033
 11
-19.999863
 21
81.166033
  0
POINT
  8
寸法
 62
     0
 10
-19.999863
 20
86.716033
  0
POINT
  8
寸法
 62
     0
 10
-19.999863
 20
81.166033
  0
TEXT
  7
TextStyle03
  8
寸法
  6
CONTINUOUS
 62
     0
 10
-20.375
 20
81.4875
  1
111
 40
3.0
 50
90.0
 72
     5
 11
-20.375
 21
86.3625
  0
ENDBLK
  0
BLOCK
  2
*GRP_0004
 70
    65
 10
0.0
 20
0.0
  0
POLYLINE
  8
寸法
  6
BYBLOCK
 62
     0
 66
     1
  0
VERTEX
  8
寸法
 10
-44.215827
 20
33.0
  0
VERTEX
  8
寸法
 10
-37.799325
 20
26.583497
  0
VERTEX
  8
寸法
 10
-31.892198
 20
26.583497
  0
SEQEND
  0
ENDBLK
  0
BLOCK
  2
*DIM_0005
 70
    65
 10
0.0
 20
0.0
  0
LINE
  8
寸法
  6
BYBLOCK
 62
     0
 10
-40.54929
 20
6.716028
 11
-19.999863
 21
6.716028
  0
LINE
  8
寸法
  6
BYBLOCK
 62
     0
 10
-32.525415
 20
12.266028
 11
-19.999863
 21
12.266028
  0
LINE
  8
寸法
  6
BYBLOCK
 62
     0
 10
-19.999863
 20
6.716028
 11
-19.999863
 21
12.266028
  0
POINT
  8
寸法
 62
     0
 10
-19.999863
 20
6.716028
  0
POINT
  8
寸法
 62
     0
 10
-19.999863
 20
12.266028
  0
TEXT
  7
TextStyle03
  8
寸法
  6
CONTINUOUS
 62
     0
 10
-20.375
 20
7.0375
  1
111
 40
3.0
 50
90.0
 72
     5
 11
-20.375
 21
11.9125
  0
ENDBLK
  0
BLOCK
  2
*DIM_0007
 70
    65
 10
0.0
 20
0.0
  0
LINE
  8
寸法
  6
BYBLOCK
 62
     0
 10
-145.571487
 20
64.21603
 11
-156.394787
 21
64.21603
  0
LINE
  8
寸法
  6
BYBLOCK
 62
     0
 10
-145.571487
 20
29.21603
 11
-156.394787
 21
29.21603
  0
LINE
  8
寸法
  6
BYBLOCK
 62
     0
 10
-156.394787
 20
64.21603
 11
-156.394787
 21
29.21603
  0
POINT
  8
寸法
 62
     0
 10
-156.394787
 20
64.21603
  0
POINT
  8
寸法
 62
     0
 10
-156.394787
 20
29.21603
  0
TEXT
  7
TextStyle03
  8
寸法
  6
CONTINUOUS
 62
     0
 10
-156.725
 20
44.2625
  1
700
 40
3.0
 50
90.0
 72
     5
 11
-156.725
 21
49.1375
  0
ENDBLK
  0
BLOCK
  2
*GRP_0008
 70
    65
 10
0.0
 20
0.0
  0
POLYLINE
  8
寸法
  6
BYBLOCK
 62
     0
 66
     1
  0
VERTEX
  8
寸法
 10
-117.902147
 20
68.35206
  0
VERTEX
  8
寸法
 10
-124.31865
 20
74.768563
  0
VERTEX
  8
寸法
 10
-130.225777
 20
74.768563
  0
SEQEND
  0
ENDBLK
  0
BLOCK
  2
*DIM_0009
 70
    65
 10
0.0
 20
0.0
  0
LINE
  8
寸法
  6
BYBLOCK
 62
     0
 10
-110.976487
 20
115.817857
 11
-110.976487
 21
123.593368
  0
LINE
  8
寸法
  6
BYBLOCK
 62
     0
 10
-80.976487
 20
115.817857
 11
-80.976487
 21
123.593368
  0
LINE
  8
寸法
  6
BYBLOCK
 62
     0
 10
-110.976487
 20
123.593368
 11
-80.976487
 21
123.593368
  0
POINT
  8
寸法
 62
     0
 10
-110.976487
 20
123.593368
  0
POINT
  8
寸法
 62
     0
 10
-80.976487
 20
123.593368
  0
TEXT
  7
TextStyle03
  8
寸法
  6
CONTINUOUS
 62
     0
 10
-98.4125
 20
123.95
  1
600
 40
3.0
 72
     5
 11
-93.5375
 21
123.95
  0
ENDBLK
  0
BLOCK
  2
*DIM_0010
 70
    65
 10
0.0
 20
0.0
  0
LINE
  8
寸法
  6
BYBLOCK
 62
     0
 10
-50.976487
 20
115.817857
 11
-50.976487
 21
123.593368
  0
LINE
  8
寸法
  6
BYBLOCK
 62
     0
 10
-80.976487
 20
123.593368
 11
-50.976487
 21
123.593368
  0
POINT
  8
寸法
 62
     0
 10
-50.976487
 20
123.593368
  0
TEXT
  7
TextStyle03
  8
寸法
  6
CONTINUOUS
 62
     0
 10
-68.4125
 20
123.95
  1
600
 40
3.0
 72
     5
 11
-63.5375
 21
123.95
  0
ENDBLK
  0
BLOCK
  2
*DIM_0011
 70
    65
 10
0.0
 20
0.0
  0
LINE
  8
寸法
  6
CONTINUOUS
 10
-127.226487
 20
-85.478355
 11
-127.226487
 21
-28.702992
  0
LINE
  8
寸法
  6
CONTINUOUS
 10
-120.976487
 20
-28.702992
 11
-127.226487
 21
-28.702992
  0
POINT
  8
寸法
 10
-120.976487
 20
-28.702992
  0
POINT
  8
寸法
 10
-127.226487
 20
-28.702992
  0
TEXT
  7
TextStyle03
  8
寸法
  6
CONTINUOUS
 10
-126.5625
 20
-28.35
  1
125
 40
3.0
 72
     5
 11
-121.6875
 21
-28.35
  0
ENDBLK
  0
BLOCK
  2
*DIM_0012
 70
    65
 10
0.0
 20
0.0
  0
LINE
  8
寸法
  6
CONTINUOUS
 10
-34.726487
 20
-85.478355
 11
-34.726487
 21
-28.702992
  0
LINE
  8
寸法
  6
CONTINUOUS
 10
-40.976487
 20
-28.702992
 11
-34.726487
 21
-28.702992
  0
POINT
  8
寸法
 10
-40.976487
 20
-28.702992
  0
POINT
  8
寸法
 10
-34.726487
 20
-28.702992
  0
TEXT
  7
TextStyle03
  8
寸法
  6
CONTINUOUS
 10
-40.3125
 20
-28.35
  1
125
 40
3.0
 72
     5
 11
-35.4375
 21
-28.35
  0
ENDBLK
  0
BLOCK
  2
*DIM_0013
 70
    65
 10
0.0
 20
0.0
  0
LINE
  8
寸法
  6
CONTINUOUS
 10
-35.831485
 20
-96.613382
 11
-14.69259
 21
-96.613382
  0
LINE
  8
寸法
  6
CONTINUOUS
 10
-33.726487
 20
-86.478355
 11
-14.69259
 21
-86.478355
  0
LINE
  8
寸法
  6
CONTINUOUS
 10
-14.69259
 20
-96.613382
 11
-14.69259
 21
-86.478355
  0
POINT
  8
寸法
 10
-14.69259
 20
-96.613382
  0
POINT
  8
寸法
 10
-14.69259
 20
-86.478355
  0
TEXT
  7
TextStyle03
  8
寸法
  6
CONTINUOUS
 10
-15.075
 20
-95.675
  1
202.7
 40
3.0
 50
90.0
 72
     5
 11
-15.075
 21
-87.425
  0
ENDBLK
  0
BLOCK
  2
*DIM_0014
 70
    65
 10
0.0
 20
0.0
  0
LINE
  8
寸法
  6
CONTINUOUS
 10
-79.976487
 20
-39.91073
 11
-14.69259
 21
-39.91073
  0
LINE
  8
寸法
  6
CONTINUOUS
 10
-14.69259
 20
-86.478355
 11
-14.69259
 21
-39.91073
  0
POINT
  8
寸法
 10
-14.69259
 20
-39.91073
  0
TEXT
  7
TextStyle03
  8
寸法
  6
CONTINUOUS
 10
-15.075
 20
-67.325
  1
931.4
 40
3.0
 50
90.0
 72
     5
 11
-15.075
 21
-59.075
  0
ENDBLK
  0
BLOCK
  2
*DIM_0015
 70
    65
 10
0.0
 20
0.0
  0
LINE
  8
寸法
  6
CONTINUOUS
 10
-83.226487
 20
-41.16073
 11
-83.226487
 21
-35.03349
  0
LINE
  8
寸法
  6
CONTINUOUS
 10
-78.7259
 20
-41.16073
 11
-78.7259
 21
-35.03349
  0
LINE
  8
寸法
  6
CONTINUOUS
 10
-83.226487
 20
-35.03349
 11
-78.7259
 21
-35.03349
  0
POINT
  8
寸法
 10
-83.226487
 20
-35.03349
  0
POINT
  8
寸法
 10
-78.7259
 20
-35.03349
  0
TEXT
  7
TextStyle03
  8
寸法
  6
CONTINUOUS
 10
-82.59375
 20
-34.675
  1
90
 40
3.0
 72
     5
 11
-79.40625
 21
-34.675
  0
ENDBLK
  0
BLOCK
  2
*DIM_0016
 70
    65
 10
0.0
 20
0.0
  0
LINE
  8
寸法
  6
CONTINUOUS
 10
-79.976487
 20
-39.91073
 11
-70.075127
 21
-39.91073
  0
LINE
  8
寸法
  6
CONTINUOUS
 10
-77.7259
 20
-42.16073
 11
-70.075127
 21
-42.16073
  0
LINE
  8
寸法
  6
CONTINUOUS
 10
-70.075127
 20
-39.91073
 11
-70.075127
 21
-42.16073
  0
POINT
  8
寸法
 10
-70.075127
 20
-39.91073
  0
POINT
  8
寸法
 10
-70.075127
 20
-42.16073
  0
TEXT
  7
TextStyle03
  8
寸法
  6
CONTINUOUS
 10
-70.25
 20
-45.86875
  1
45
 40
3.0
 50
90.0
 72
     5
 11
-70.25
 21
-42.68125
  0
ENDBLK
  0
BLOCK
  2
*GRP_0017
 70
    65
 10
0.0
 20
0.0
  0
LINE
  8
型材断面
  6
DOT
 10
107.957337
 20
-66.407622
 11
108.01037
 21
-66.354587
  0
LINE
  8
型材断面
  6
DOT
 10
107.957337
 20
-66.478355
 11
107.957337
 21
-69.79555
  0
LINE
  8
型材断面
  6
DOT
 10
106.707337
 20
-69.795532
 11
106.707337
 21
-70.495532
  0
LINE
  8
型材断面
  6
DOT
 10
15.457337
 20
-66.478355
 11
15.457337
 21
-69.79555
  0
LINE
  8
型材断面
  6
DOT
 10
16.707337
 20
-69.795532
 11
16.707337
 21
-70.495532
  0
LINE
  8
型材断面
  6
DOT
 10
106.707337
 20
-70.495532
 11
16.707337
 21
-70.495532
  0
LINE
  8
型材断面
  6
DOT
 10
107.957337
 20
-69.79555
 11
15.457337
 21
-69.79555
  0
LINE
  8
型材断面
  6
DOT
 10
107.957337
 20
-66.478355
 11
15.457337
 21
-66.478355
  0
LINE
  8
型材断面
  6
DOT
 10
15.457337
 20
-66.407622
 11
61.70734
 21
-20.157625
  0
LINE
  8
型材断面
  6
DOT
 10
107.957337
 20
-66.407622
 11
61.70734
 21
-20.157625
  0
LINE
  8
型材断面
  6
DOT
 10
108.01037
 20
-66.354587
 11
61.707337
 21
-20.051562
  0
LINE
  8
型材断面
  6
DOT
 10
15.404305
 20
-66.354587
 11
61.707337
 21
-20.051562
  0
LINE
  8
型材断面
  6
DOT
 10
61.707337
 20
-21.324945
 11
61.707337
 21
-19.91073
  0
LINE
  8
型材断面
  6
DOT
 10
61.707337
 20
-21.324945
 11
61.707337
 21
-19.91073
  0
LINE
  8
型材断面
  6
DOT
 10
59.457337
 20
-22.16073
 11
59.528047
 21
-22.23144
  0
LINE
  8
型材断面
  6
DOT
 10
59.528047
 20
-22.23144
 11
60.80084
 21
-22.23144
  0
LINE
  8
型材断面
  6
DOT
 10
61.707337
 20
-19.91073
 11
59.457337
 21
-22.16073
  0
LINE
  8
型材断面
  6
DOT
 10
61.707337
 20
-21.324942
 11
60.80084
 21
-22.23144
  0
LINE
  8
型材断面
  6
DOT
 10
63.957925
 20
-22.16073
 11
63.887215
 21
-22.23144
  0
LINE
  8
型材断面
  6
DOT
 10
63.887215
 20
-22.23144
 11
62.614423
 21
-22.23144
  0
LINE
  8
型材断面
  6
DOT
 10
61.707337
 20
-21.324942
 11
62.613835
 21
-22.23144
  0
LINE
  8
型材断面
  6
DOT
 10
61.707337
 20
-19.91073
 11
63.957633
 21
-22.161025
  0
LINE
  8
ゴム等
  6
DOT
 10
101.143112
 20
-64.743657
 11
103.66124
 21
-65.336
  0
LINE
  8
ゴム等
  6
DOT
 10
103.66124
 20
-65.336
 11
106.172645
 21
-66.25524
  0
LINE
  8
ゴム等
  6
DOT
 10
17.24203
 20
-66.25524
 11
19.753435
 21
-65.336
  0
LINE
  8
ゴム等
  6
DOT
 10
19.753435
 20
-65.336
 11
22.271563
 21
-64.743657
  0
LINE
  8
ゴム等
  6
DOT
 10
19.753435
 20
-65.336
 11
103.66124
 21
-65.336
  0
LINE
  8
ゴム等
  6
DOT
 10
17.24203
 20
-66.25524
 11
106.172645
 21
-66.25524
  0
LINE
  8
ゴム等
  6
DOT
 10
19.753435
 20
-65.336
 11
61.707337
 21
-23.382103
  0
LINE
  8
ゴム等
  6
DOT
 10
103.66124
 20
-65.336
 11
61.707337
 21
-23.382103
  0
LINE
  8
ゴム等
  6
DOT
 10
106.172645
 20
-66.25524
 11
61.707337
 21
-21.789937
  0
LINE
  8
ゴム等
  6
DOT
 10
17.24203
 20
-66.25524
 11
61.707337
 21
-21.789937
  0
LINE
  8
ゴム等
  6
DOT
 10
22.271563
 20
-64.743657
 11
61.707337
 21
-25.307888
  0
LINE
  8
ゴム等
  6
DOT
 10
22.271563
 20
-64.743657
 11
101.143112
 21
-64.743657
  0
LINE
  8
ゴム等
  6
DOT
 10
61.707337
 20
-25.307888
 11
101.143112
 21
-64.743657
  0
ENDBLK
  0
BLOCK
  2
*GRP_0018
 70
    65
 10
0.0
 20
0.0
  0
LINE
  8
補助線
  6
DOT
 62
    64
 10
99.620433
 20
-92.709322
 11
99.794123
 21
-92.889128
  0
LINE
  8
補助線
  6
DOT
 62
    64
 10
99.79718
 20
-92.71238
 11
99.617375
 21
-92.88607
  0
LINE
  8
補助線
  6
DOT
 62
    64
 10
88.225937
 20
-80.914178
 11
88.05224
 21
-80.73437
  0
LINE
  8
補助線
  6
DOT
 62
    64
 10
88.228988
 20
-80.737425
 11
88.049185
 21
-80.911122
  0
LINE
  8
補助線
  6
DOT
 62
    64
 10
76.657685
 20
-68.93928
 11
76.483987
 21
-68.75948
  0
LINE
  8
補助線
  6
DOT
 62
    64
 10
76.660737
 20
-68.762532
 11
76.480935
 21
-68.93623
  0
LINE
  8
型材断面
  6
DOT
 10
100.953693
 20
-92.29035
 11
100.935368
 21
-93.35085
  0
LINE
  8
型材断面
  6
DOT
 10
100.935368
 20
-93.35085
 11
100.216152
 21
-94.04564
  0
LINE
  8
型材断面
  6
DOT
 10
100.216152
 20
-94.04564
 11
99.155653
 21
-94.027315
  0
LINE
  8
型材断面
  6
DOT
 10
77.122458
 20
-67.621285
 11
76.061958
 21
-67.60297
  0
LINE
  8
型材断面
  6
DOT
 10
76.061958
 20
-67.60297
 11
75.34274
 21
-68.29776
  0
LINE
  8
型材断面
  6
DOT
 10
75.34274
 20
-68.29776
 11
75.324425
 21
-69.35826
  0
LINE
  8
型材断面
  6
DOT
 10
100.953693
 20
-92.29035
 11
77.122578
 21
-67.621288
  0
LINE
  8
型材断面
  6
DOT
 10
99.155653
 20
-94.027315
 11
75.324427
 21
-69.35815
  0
LINE
  8
ボルト／ビス
  6
DOT
 62
    64
 10
100.039467
 20
-92.478315
 11
100.151288
 21
-92.926458
  0
LINE
  8
ボルト／ビス
  6
DOT
 62
    64
 10
100.039467
 20
-92.478315
 11
99.59546
 21
-92.351087
  0
LINE
  8
ボルト／ビス
  6
DOT
 62
    64
 10
99.375087
 20
-93.120135
 11
99.819095
 21
-93.247362
  0
LINE
  8
ボルト／ビス
  6
DOT
 62
    64
 10
99.375087
 20
-93.120135
 11
99.263268
 21
-92.671993
  0
CIRCLE
  8
ボルト／ビス
  6
DOT
 62
    64
 10
99.707278
 20
-92.799225
 40
0.4
  0
LINE
  8
ボルト／ビス
  6
DOT
 62
    64
 10
99.59546
 20
-92.351087
 11
99.263268
 21
-92.671993
  0
LINE
  8
ボルト／ビス
  6
DOT
 62
    64
 10
100.151288
 20
-92.926458
 11
99.819095
 21
-93.247362
  0
LINE
  8
ボルト／ビス
  6
DOT
 62
    64
 10
88.47128
 20
-80.503367
 11
88.027268
 21
-80.376133
  0
LINE
  8
ボルト／ビス
  6
DOT
 62
    64
 10
88.47128
 20
-80.503367
 11
88.5831
 21
-80.951505
  0
LINE
  8
ボルト／ビス
  6
DOT
 62
    64
 10
87.806895
 20
-81.14518
 11
87.695077
 21
-80.69704
  0
LINE
  8
ボルト／ビス
  6
DOT
 62
    64
 10
87.806895
 20
-81.14518
 11
88.250905
 21
-81.272412
  0
CIRCLE
  8
ボルト／ビス
  6
DOT
 62
    64
 10
88.139085
 20
-80.824273
 40
0.4
  0
LINE
  8
ボルト／ビス
  6
DOT
 62
    64
 10
88.5831
 20
-80.951505
 11
88.250905
 21
-81.272412
  0
LINE
  8
ボルト／ビス
  6
DOT
 62
    64
 10
88.027268
 20
-80.376133
 11
87.695077
 21
-80.69704
  0
LINE
  8
ボルト／ビス
  6
DOT
 62
    64
 10
76.903027
 20
-68.52847
 11
76.459015
 21
-68.40124
  0
LINE
  8
ボルト／ビス
  6
DOT
 62
    64
 10
76.903027
 20
-68.52847
 11
77.014845
 21
-68.97661
  0
LINE
  8
ボルト／ビス
  6
DOT
 62
    64
 10
76.238645
 20
-69.17029
 11
76.126828
 21
-68.722148
  0
LINE
  8
ボルト／ビス
  6
DOT
 62
    64
 10
76.238645
 20
-69.17029
 11
76.68266
 21
-69.29752
  0
CIRCLE
  8
ボルト／ビス
  6
DOT
 62
    64
 10
76.570838
 20
-68.84938
 40
0.4
  0
LINE
  8
ボルト／ビス
  6
DOT
 62
    64
 10
77.014845
 20
-68.97661
 11
76.68266
 21
-69.29752
  0
LINE
  8
ボルト／ビス
  6
DOT
 62
    64
 10
76.459015
 20
-68.40124
 11
76.126828
 21
-68.722148
  0
ENDBLK
  0
BLOCK
  2
*GRP_0019
 70
    65
 10
0.0
 20
0.0
  0
LINE
  8
補助線
  6
DOT
 62
    64
 10
76.657742
 20
-92.709322
 11
76.484052
 21
-92.889128
  0
LINE
  8
補助線
  6
DOT
 62
    64
 10
76.480995
 20
-92.71238
 11
76.6608
 21
-92.88607
  0
LINE
  8
補助線
  6
DOT
 62
    64
 10
88.052238
 20
-80.914178
 11
88.225935
 21
-80.73437
  0
LINE
  8
補助線
  6
DOT
 62
    64
 10
88.049187
 20
-80.737425
 11
88.22899
 21
-80.911122
  0
LINE
  8
補助線
  6
DOT
 62
    64
 10
99.62049
 20
-68.93928
 11
99.794188
 21
-68.75948
  0
LINE
  8
補助線
  6
DOT
 62
    64
 10
99.617438
 20
-68.762532
 11
99.79724
 21
-68.93623
  0
LINE
  8
型材断面
  6
DOT
 10
75.324482
 20
-92.29035
 11
75.342807
 21
-93.35085
  0
LINE
  8
型材断面
  6
DOT
 10
75.342807
 20
-93.35085
 11
76.062023
 21
-94.04564
  0
LINE
  8
型材断面
  6
DOT
 10
76.062023
 20
-94.04564
 11
77.122523
 21
-94.027315
  0
LINE
  8
型材断面
  6
DOT
 10
99.155717
 20
-67.621285
 11
100.216217
 21
-67.60297
  0
LINE
  8
型材断面
  6
DOT
 10
100.216217
 20
-67.60297
 11
100.935435
 21
-68.29776
  0
LINE
  8
型材断面
  6
DOT
 10
100.935435
 20
-68.29776
 11
100.95375
 21
-69.35826
  0
LINE
  8
型材断面
  6
DOT
 10
75.324482
 20
-92.29035
 11
99.155597
 21
-67.621288
  0
LINE
  8
型材断面
  6
DOT
 10
77.122523
 20
-94.027315
 11
100.953747
 21
-69.35815
  0
LINE
  8
ボルト／ビス
  6
DOT
 62
    64
 10
76.238708
 20
-92.478315
 11
76.126887
 21
-92.926458
  0
LINE
  8
ボルト／ビス
  6
DOT
 62
    64
 10
76.238708
 20
-92.478315
 11
76.682715
 21
-92.351087
  0
LINE
  8
ボルト／ビス
  6
DOT
 62
    64
 10
76.903088
 20
-93.120135
 11
76.45908
 21
-93.247362
  0
LINE
  8
ボルト／ビス
  6
DOT
 62
    64
 10
76.903088
 20
-93.120135
 11
77.014907
 21
-92.671993
  0
CIRCLE
  8
ボルト／ビス
  6
DOT
 62
    64
 10
76.570897
 20
-92.799225
 40
0.4
  0
LINE
  8
ボルト／ビス
  6
DOT
 62
    64
 10
76.682715
 20
-92.351087
 11
77.014907
 21
-92.671993
  0
LINE
  8
ボルト／ビス
  6
DOT
 62
    64
 10
76.126887
 20
-92.926458
 11
76.45908
 21
-93.247362
  0
LINE
  8
ボルト／ビス
  6
DOT
 62
    64
 10
87.806895
 20
-80.503367
 11
88.250907
 21
-80.376133
  0
LINE
  8
ボルト／ビス
  6
DOT
 62
    64
 10
87.806895
 20
-80.503367
 11
87.695075
 21
-80.951505
  0
LINE
  8
ボルト／ビス
  6
DOT
 62
    64
 10
88.47128
 20
-81.14518
 11
88.583098
 21
-80.69704
  0
LINE
  8
ボルト／ビス
  6
DOT
 62
    64
 10
88.47128
 20
-81.14518
 11
88.02727
 21
-81.272412
  0
CIRCLE
  8
ボルト／ビス
  6
DOT
 62
    64
 10
88.13909
 20
-80.824273
 40
0.4
  0
LINE
  8
ボルト／ビス
  6
DOT
 62
    64
 10
87.695075
 20
-80.951505
 11
88.02727
 21
-81.272412
  0
LINE
  8
ボルト／ビス
  6
DOT
 62
    64
 10
88.250907
 20
-80.376133
 11
88.583098
 21
-80.69704
  0
LINE
  8
ボルト／ビス
  6
DOT
 62
    64
 10
99.375147
 20
-68.52847
 11
99.81916
 21
-68.40124
  0
LINE
  8
ボルト／ビス
  6
DOT
 62
    64
 10
99.375147
 20
-68.52847
 11
99.26333
 21
-68.97661
  0
LINE
  8
ボルト／ビス
  6
DOT
 62
    64
 10
100.03953
 20
-69.17029
 11
100.151347
 21
-68.722148
  0
LINE
  8
ボルト／ビス
  6
DOT
 62
    64
 10
100.03953
 20
-69.17029
 11
99.595515
 21
-69.29752
  0
CIRCLE
  8
ボルト／ビス
  6
DOT
 62
    64
 10
99.707337
 20
-68.84938
 40
0.4
  0
LINE
  8
ボルト／ビス
  6
DOT
 62
    64
 10
99.26333
 20
-68.97661
 11
99.595515
 21
-69.29752
  0
LINE
  8
ボルト／ビス
  6
DOT
 62
    64
 10
99.81916
 20
-68.40124
 11
100.151347
 21
-68.722148
  0
ENDBLK
  0
BLOCK
  2
*GRP_0020
 70
    65
 10
0.0
 20
0.0
  0
LINE
  8
補助線
  6
DOT
 62
    64
 10
23.764243
 20
-92.709322
 11
23.590553
 21
-92.889128
  0
LINE
  8
補助線
  6
DOT
 62
    64
 10
23.587495
 20
-92.71238
 11
23.7673
 21
-92.88607
  0
LINE
  8
補助線
  6
DOT
 62
    64
 10
35.158737
 20
-80.914178
 11
35.332435
 21
-80.73437
  0
LINE
  8
補助線
  6
DOT
 62
    64
 10
35.155688
 20
-80.737425
 11
35.33549
 21
-80.911122
  0
LINE
  8
補助線
  6
DOT
 62
    64
 10
46.72699
 20
-68.93928
 11
46.900687
 21
-68.75948
  0
LINE
  8
補助線
  6
DOT
 62
    64
 10
46.723937
 20
-68.762532
 11
46.90374
 21
-68.93623
  0
LINE
  8
型材断面
  6
DOT
 10
22.430983
 20
-92.29035
 11
22.449308
 21
-93.35085
  0
LINE
  8
型材断面
  6
DOT
 10
22.449308
 20
-93.35085
 11
23.168522
 21
-94.04564
  0
LINE
  8
型材断面
  6
DOT
 10
23.168522
 20
-94.04564
 11
24.229023
 21
-94.027315
  0
LINE
  8
型材断面
  6
DOT
 10
46.262218
 20
-67.621285
 11
47.322717
 21
-67.60297
  0
LINE
  8
型材断面
  6
DOT
 10
47.322717
 20
-67.60297
 11
48.041935
 21
-68.29776
  0
LINE
  8
型材断面
  6
DOT
 10
48.041935
 20
-68.29776
 11
48.06025
 21
-69.35826
  0
LINE
  8
型材断面
  6
DOT
 10
22.430983
 20
-92.29035
 11
46.262097
 21
-67.621288
  0
LINE
  8
型材断面
  6
DOT
 10
24.229023
 20
-94.027315
 11
48.060247
 21
-69.35815
  0
LINE
  8
ボルト／ビス
  6
DOT
 62
    64
 10
23.345207
 20
-92.478315
 11
23.233388
 21
-92.926458
  0
LINE
  8
ボルト／ビス
  6
DOT
 62
    64
 10
23.345207
 20
-92.478315
 11
23.789215
 21
-92.351087
  0
LINE
  8
ボルト／ビス
  6
DOT
 62
    64
 10
24.009588
 20
-93.120135
 11
23.56558
 21
-93.247362
  0
LINE
  8
ボルト／ビス
  6
DOT
 62
    64
 10
24.009588
 20
-93.120135
 11
24.121407
 21
-92.671993
  0
CIRCLE
  8
ボルト／ビス
  6
DOT
 62
    64
 10
23.677398
 20
-92.799225
 40
0.4
  0
LINE
  8
ボルト／ビス
  6
DOT
 62
    64
 10
23.789215
 20
-92.351087
 11
24.121407
 21
-92.671993
  0
LINE
  8
ボルト／ビス
  6
DOT
 62
    64
 10
23.233388
 20
-92.926458
 11
23.56558
 21
-93.247362
  0
LINE
  8
ボルト／ビス
  6
DOT
 62
    64
 10
34.913395
 20
-80.503367
 11
35.357408
 21
-80.376133
  0
LINE
  8
ボルト／ビス
  6
DOT
 62
    64
 10
34.913395
 20
-80.503367
 11
34.801575
 21
-80.951505
  0
LINE
  8
ボルト／ビス
  6
DOT
 62
    64
 10
35.57778
 20
-81.14518
 11
35.689597
 21
-80.69704
  0
LINE
  8
ボルト／ビス
  6
DOT
 62
    64
 10
35.57778
 20
-81.14518
 11
35.13377
 21
-81.272412
  0
CIRCLE
  8
ボルト／ビス
  6
DOT
 62
    64
 10
35.24559
 20
-80.824273
 40
0.4
  0
LINE
  8
ボルト／ビス
  6
DOT
 62
    64
 10
34.801575
 20
-80.951505
 11
35.13377
 21
-81.272412
  0
LINE
  8
ボルト／ビス
  6
DOT
 62
    64
 10
35.357408
 20
-80.376133
 11
35.689597
 21
-80.69704
  0
LINE
  8
ボルト／ビス
  6
DOT
 62
    64
 10
46.481647
 20
-68.52847
 11
46.92566
 21
-68.40124
  0
LINE
  8
ボルト／ビス
  6
DOT
 62
    64
 10
46.481647
 20
-68.52847
 11
46.36983
 21
-68.97661
  0
LINE
  8
ボルト／ビス
  6
DOT
 62
    64
 10
47.14603
 20
-69.17029
 11
47.257848
 21
-68.722148
  0
LINE
  8
ボルト／ビス
  6
DOT
 62
    64
 10
47.14603
 20
-69.17029
 11
46.702015
 21
-69.29752
  0
CIRCLE
  8
ボルト／ビス
  6
DOT
 62
    64
 10
46.813838
 20
-68.84938
 40
0.4
  0
LINE
  8
ボルト／ビス
  6
DOT
 62
    64
 10
46.36983
 20
-68.97661
 11
46.702015
 21
-69.29752
  0
LINE
  8
ボルト／ビス
  6
DOT
 62
    64
 10
46.92566
 20
-68.40124
 11
47.257848
 21
-68.722148
  0
ENDBLK
  0
BLOCK
  2
*GRP_0021
 70
    65
 10
0.0
 20
0.0
  0
LINE
  8
補助線
  6
DOT
 62
    64
 10
46.726932
 20
-92.709322
 11
46.900622
 21
-92.889128
  0
LINE
  8
補助線
  6
DOT
 62
    64
 10
46.90368
 20
-92.71238
 11
46.723875
 21
-92.88607
  0
LINE
  8
補助線
  6
DOT
 62
    64
 10
35.332438
 20
-80.914178
 11
35.15874
 21
-80.73437
  0
LINE
  8
補助線
  6
DOT
 62
    64
 10
35.335488
 20
-80.737425
 11
35.155685
 21
-80.911122
  0
LINE
  8
補助線
  6
DOT
 62
    64
 10
23.764185
 20
-68.93928
 11
23.590488
 21
-68.75948
  0
LINE
  8
補助線
  6
DOT
 62
    64
 10
23.767238
 20
-68.762532
 11
23.587435
 21
-68.93623
  0
LINE
  8
型材断面
  6
DOT
 10
48.060193
 20
-92.29035
 11
48.041868
 21
-93.35085
  0
LINE
  8
型材断面
  6
DOT
 10
48.041868
 20
-93.35085
 11
47.322653
 21
-94.04564
  0
LINE
  8
型材断面
  6
DOT
 10
47.322653
 20
-94.04564
 11
46.262153
 21
-94.027315
  0
LINE
  8
型材断面
  6
DOT
 10
24.228958
 20
-67.621285
 11
23.168457
 21
-67.60297
  0
LINE
  8
型材断面
  6
DOT
 10
23.168457
 20
-67.60297
 11
22.44924
 21
-68.29776
  0
LINE
  8
型材断面
  6
DOT
 10
22.44924
 20
-68.29776
 11
22.430925
 21
-69.35826
  0
LINE
  8
型材断面
  6
DOT
 10
48.060193
 20
-92.29035
 11
24.229077
 21
-67.621288
  0
LINE
  8
型材断面
  6
DOT
 10
46.262153
 20
-94.027315
 11
22.430927
 21
-69.35815
  0
LINE
  8
ボルト／ビス
  6
DOT
 62
    64
 10
47.145968
 20
-92.478315
 11
47.257788
 21
-92.926458
  0
LINE
  8
ボルト／ビス
  6
DOT
 62
    64
 10
47.145968
 20
-92.478315
 11
46.70196
 21
-92.351087
  0
LINE
  8
ボルト／ビス
  6
DOT
 62
    64
 10
46.481588
 20
-93.120135
 11
46.925595
 21
-93.247362
  0
LINE
  8
ボルト／ビス
  6
DOT
 62
    64
 10
46.481588
 20
-93.120135
 11
46.369767
 21
-92.671993
  0
CIRCLE
  8
ボルト／ビス
  6
DOT
 62
    64
 10
46.813777
 20
-92.799225
 40
0.4
  0
LINE
  8
ボルト／ビス
  6
DOT
 62
    64
 10
46.70196
 20
-92.351087
 11
46.369767
 21
-92.671993
  0
LINE
  8
ボルト／ビス
  6
DOT
 62
    64
 10
47.257788
 20
-92.926458
 11
46.925595
 21
-93.247362
  0
LINE
  8
ボルト／ビス
  6
DOT
 62
    64
 10
35.57778
 20
-80.503367
 11
35.133768
 21
-80.376133
  0
LINE
  8
ボルト／ビス
  6
DOT
 62
    64
 10
35.57778
 20
-80.503367
 11
35.6896
 21
-80.951505
  0
LINE
  8
ボルト／ビス
  6
DOT
 62
    64
 10
34.913395
 20
-81.14518
 11
34.801577
 21
-80.69704
  0
LINE
  8
ボルト／ビス
  6
DOT
 62
    64
 10
34.913395
 20
-81.14518
 11
35.357405
 21
-81.272412
  0
CIRCLE
  8
ボルト／ビス
  6
DOT
 62
    64
 10
35.245585
 20
-80.824273
 40
0.4
  0
LINE
  8
ボルト／ビス
  6
DOT
 62
    64
 10
35.6896
 20
-80.951505
 11
35.357405
 21
-81.272412
  0
LINE
  8
ボルト／ビス
  6
DOT
 62
    64
 10
35.133768
 20
-80.376133
 11
34.801577
 21
-80.69704
  0
LINE
  8
ボルト／ビス
  6
DOT
 62
    64
 10
24.009527
 20
-68.52847
 11
23.565515
 21
-68.40124
  0
LINE
  8
ボルト／ビス
  6
DOT
 62
    64
 10
24.009527
 20
-68.52847
 11
24.121345
 21
-68.97661
  0
LINE
  8
ボルト／ビス
  6
DOT
 62
    64
 10
23.345145
 20
-69.17029
 11
23.233328
 21
-68.722148
  0
LINE
  8
ボルト／ビス
  6
DOT
 62
    64
 10
23.345145
 20
-69.17029
 11
23.78916
 21
-69.29752
  0
CIRCLE
  8
ボルト／ビス
  6
DOT
 62
    64
 10
23.677338
 20
-68.84938
 40
0.4
  0
LINE
  8
ボルト／ビス
  6
DOT
 62
    64
 10
24.121345
 20
-68.97661
 11
23.78916
 21
-69.29752
  0
LINE
  8
ボルト／ビス
  6
DOT
 62
    64
 10
23.565515
 20
-68.40124
 11
23.233328
 21
-68.722148
  0
ENDBLK
  0
BLOCK
  2
*DIM_0022
 70
    65
 10
0.0
 20
0.0
  0
LINE
  8
寸法
  6
BYBLOCK
 62
     0
 10
108.947027
 20
-70.495532
 11
122.742212
 21
-70.495532
  0
LINE
  8
寸法
  6
BYBLOCK
 62
     0
 10
108.962027
 20
-90.495532
 11
122.742212
 21
-90.495532
  0
LINE
  8
寸法
  6
BYBLOCK
 62
     0
 10
122.742212
 20
-70.495532
 11
122.742212
 21
-90.495532
  0
POINT
  8
寸法
 62
     0
 10
122.742212
 20
-70.495532
  0
POINT
  8
寸法
 62
     0
 10
122.742212
 20
-90.495532
  0
TEXT
  7
TextStyle03
  8
寸法
  6
CONTINUOUS
 62
     0
 10
127.525
 20
-89.7125
  1
上昇高さ400
 40
3.0
 50
90.0
 72
     5
 11
127.525
 21
-71.3375
  0
ENDBLK
  0
BLOCK
  2
*DIM_0023
 70
    65
 10
0.0
 20
0.0
  0
LINE
  8
寸法
  6
CONTINUOUS
 10
93.123087
 20
-1.541398
 11
93.123087
 21
-11.449582
  0
LINE
  8
寸法
  6
CONTINUOUS
 10
175.446153
 20
-1.541398
 11
175.446153
 21
-11.449582
  0
LINE
  8
寸法
  6
CONTINUOUS
 10
93.123087
 20
-11.449582
 11
175.446153
 21
-11.449582
  0
POINT
  8
寸法
 10
93.123087
 20
-11.449582
  0
POINT
  8
寸法
 10
175.446153
 20
-11.449582
  0
TEXT
  7
TextStyle03
  8
寸法
  6
CONTINUOUS
 10
129.33125
 20
-11.075
  1
1646.5
 40
3.0
 72
     5
 11
139.26875
 21
-11.075
  0
ENDBLK
  0
BLOCK
  2
*DIM_0024
 70
    65
 10
0.0
 20
0.0
  0
LINE
  8
寸法
  6
CONTINUOUS
 10
176.446153
 20
-0.541398
 11
183.943255
 21
-0.541398
  0
LINE
  8
寸法
  6
CONTINUOUS
 10
135.28462
 20
57.66979
 11
183.943255
 21
57.66979
  0
LINE
  8
寸法
  6
CONTINUOUS
 10
183.943255
 20
-0.541398
 11
183.943255
 21
57.66979
  0
POINT
  8
寸法
 10
183.943255
 20
-0.541398
  0
POINT
  8
寸法
 10
183.943255
 20
57.66979
  0
TEXT
  7
TextStyle03
  8
寸法
  6
CONTINUOUS
 10
183.575
 20
23.58125
  1
1164.2
 40
3.0
 50
90.0
 72
     5
 11
183.575
 21
33.51875
  0
ENDBLK
  0
BLOCK
  2
*DIM_0025
 70
    65
 10
0.0
 20
0.0
  0
LINE
  8
寸法
  6
CONTINUOUS
 10
-83.226485
 20
49.966033
 11
-83.226485
 21
58.038255
  0
LINE
  8
寸法
  6
CONTINUOUS
 10
-78.72649
 20
49.966033
 11
-78.72649
 21
58.038255
  0
LINE
  8
寸法
  6
CONTINUOUS
 10
-83.226485
 20
58.038255
 11
-78.72649
 21
58.038255
  0
POINT
  8
寸法
 10
-83.226485
 20
58.038255
  0
POINT
  8
寸法
 10
-78.72649
 20
58.038255
  0
TEXT
  7
TextStyle03
  8
寸法
  6
CONTINUOUS
 10
-82.59375
 20
58.4
  1
90
 40
3.0
 72
     5
 11
-79.40625
 21
58.4
  0
ENDBLK
  0
ENDSEC
  0
SECTION
  2
ENTITIES
  0
POLYLINE
  8
通り芯
  6
CONTINUOUS
 66
     1
 70
     1
  0
VERTEX
  8
通り芯
 10
-210.0
 20
-148.5
  0
VERTEX
  8
通り芯
 10
210.0
 20
-148.5
  0
VERTEX
  8
通り芯
 10
210.0
 20
148.5
  0
VERTEX
  8
通り芯
 10
-210.0
 20
148.5
  0
SEQEND
  0
INSERT
  2
*GRP_0001
  8
型材断面
  6
CONTINUOUS
 10
0.0
 20
0.0
  0
LINE
  8
型材断面
  6
CONTINUOUS
 10
-129.000363
 20
12.266025
 11
-132.886122
 21
13.16011
  0
LINE
  8
型材断面
  6
CONTINUOUS
 10
-129.000363
 20
12.266025
 11
-132.886122
 21
11.37194
  0
LINE
  8
型材断面
  6
CONTINUOUS
 10
-132.886122
 20
11.37194
 11
-132.886122
 21
13.16011
  0
LINE
  8
型材断面
  6
DASHDOT
 10
-120.976487
 20
46.71603
 11
-40.976487
 21
46.71603
  0
LINE
  8
型材断面
  6
DASHDOT
 10
-120.976487
 20
6.716028
 11
-40.976487
 21
6.716028
  0
LINE
  8
型材断面
  6
DASHDOT
 10
-120.976487
 20
86.716033
 11
-40.976487
 21
86.716033
  0
LINE
  8
型材断面
  6
CONTINUOUS
 10
-32.952613
 20
81.166035
 11
-29.066853
 21
80.27195
  0
LINE
  8
型材断面
  6
CONTINUOUS
 10
-32.952613
 20
81.166035
 11
-29.066853
 21
82.06012
  0
LINE
  8
型材断面
  6
CONTINUOUS
 10
-29.066853
 20
82.06012
 11
-29.066853
 21
80.27195
  0
LINE
  8
型材断面
  6
CONTINUOUS
 10
-129.000363
 20
81.166035
 11
-132.886122
 21
80.27195
  0
LINE
  8
型材断面
  6
CONTINUOUS
 10
-129.000363
 20
81.166035
 11
-132.886122
 21
82.06012
  0
LINE
  8
型材断面
  6
CONTINUOUS
 10
-132.886122
 20
82.06012
 11
-132.886122
 21
80.27195
  0
LINE
  8
型材断面
  6
CONTINUOUS
 10
-32.952613
 20
12.266025
 11
-29.066853
 21
13.16011
  0
LINE
  8
型材断面
  6
CONTINUOUS
 10
-32.952613
 20
12.266025
 11
-29.066853
 21
11.37194
  0
LINE
  8
型材断面
  6
CONTINUOUS
 10
-29.066853
 20
11.37194
 11
-29.066853
 21
13.16011
  0
LINE
  8
型材断面
  6
CONTINUOUS
 10
-80.976487
 20
-1.307848
 11
-83.219932
 21
-5.193607
  0
LINE
  8
型材断面
  6
CONTINUOUS
 10
-80.976487
 20
-1.307848
 11
-78.733043
 21
-5.193607
  0
LINE
  8
型材断面
  6
CONTINUOUS
 10
-78.733043
 20
-5.193607
 11
-83.219932
 21
-5.193607
  0
LINE
  8
型材断面
  6
CONTINUOUS
 10
-80.976487
 20
94.739907
 11
-83.219932
 21
98.625668
  0
LINE
  8
型材断面
  6
CONTINUOUS
 10
-80.976487
 20
94.739907
 11
-78.733043
 21
98.625668
  0
LINE
  8
型材断面
  6
CONTINUOUS
 10
-78.733043
 20
98.625668
 11
-83.219932
 21
98.625668
  0
LINE
  8
型材断面
  6
CONTINUOUS
 10
-32.95261
 20
46.716033
 11
-29.06685
 21
44.472588
  0
LINE
  8
型材断面
  6
CONTINUOUS
 10
-32.95261
 20
46.716033
 11
-29.06685
 21
48.959477
  0
LINE
  8
型材断面
  6
CONTINUOUS
 10
-29.06685
 20
48.959477
 11
-29.06685
 21
44.472588
  0
LINE
  8
型材断面
  6
CONTINUOUS
 10
-129.000365
 20
46.716033
 11
-132.886125
 21
44.472588
  0
LINE
  8
型材断面
  6
CONTINUOUS
 10
-129.000365
 20
46.716033
 11
-132.886125
 21
48.959477
  0
LINE
  8
型材断面
  6
CONTINUOUS
 10
-132.886125
 20
48.959477
 11
-132.886125
 21
44.472588
  0
LINE
  8
型材断面
  6
CONTINUOUS
 10
-7.243167
 20
0.93023
 11
-9.486612
 21
-2.95553
  0
LINE
  8
型材断面
  6
CONTINUOUS
 10
-7.243167
 20
0.93023
 11
-4.999723
 21
-2.95553
  0
LINE
  8
型材断面
  6
CONTINUOUS
 10
-4.999723
 20
-2.95553
 11
-9.486612
 21
-2.95553
  0
LINE
  8
型材断面
  6
CONTINUOUS
 10
-7.243167
 20
-6.759317
 11
-6.349082
 21
-10.645078
  0
LINE
  8
型材断面
  6
CONTINUOUS
 10
-7.243167
 20
-6.759317
 11
-8.137252
 21
-10.645078
  0
LINE
  8
型材断面
  6
CONTINUOUS
 10
-8.137252
 20
-10.645078
 11
-6.349082
 21
-10.645078
  0
LINE
  8
型材断面
  6
CONTINUOUS
 10
-16.277048
 20
-4.363422
 11
36.379632
 21
-4.363422
  0
LINE
  8
型材断面
  6
CONTINUOUS
 10
-16.277048
 20
-15.563415
 11
36.379632
 21
-15.563415
  0
LINE
  8
型材断面
  6
CONTINUOUS
 10
-16.277048
 20
-22.40336
 11
36.379632
 21
-22.40336
  0
POLYLINE
  8
型材断面
  6
CONTINUOUS
 66
     1
 70
     1
  0
VERTEX
  8
型材断面
 10
-71.75738
 20
-6.36157
  0
VERTEX
  8
型材断面
 10
-90.312593
 20
-6.36157
  0
VERTEX
  8
型材断面
 10
-90.312593
 20
-11.153605
  0
VERTEX
  8
型材断面
 10
-71.75738
 20
-11.153605
  0
SEQEND
  0
POLYLINE
  8
型材断面
  6
CONTINUOUS
 66
     1
 70
     1
  0
VERTEX
  8
型材断面
 10
-71.75738
 20
104.813183
  0
VERTEX
  8
型材断面
 10
-90.312593
 20
104.813183
  0
VERTEX
  8
型材断面
 10
-90.312593
 20
100.021148
  0
VERTEX
  8
型材断面
 10
-71.75738
 20
100.021148
  0
SEQEND
  0
LINE
  8
型材断面
  6
CONTINUOUS
 10
-16.277048
 20
-29.243305
 11
36.379632
 21
-29.243305
  0
LINE
  8
型材断面
  6
DASHDOT
 10
-120.976487
 20
-96.818555
 11
-120.976487
 21
86.716033
  0
LINE
  8
型材断面
  6
DASHDOT
 10
-40.976487
 20
-96.818555
 11
-40.976487
 21
86.716033
  0
LINE
  8
型材断面
  6
DASHDOT
 10
-80.976487
 20
86.716033
 11
-80.976487
 21
-96.613382
  0
LINE
  8
型材断面
  6
CONTINUOUS
 10
-34.726493
 20
0.466035
 11
-34.726493
 21
92.966025
  0
LINE
  8
型材断面
  6
CONTINUOUS
 10
-34.726493
 20
92.966025
 11
-127.226483
 21
92.966025
  0
LINE
  8
型材断面
  6
CONTINUOUS
 10
-127.226483
 20
92.966025
 11
-127.226483
 21
0.466035
  0
LINE
  8
型材断面
  6
CONTINUOUS
 10
-34.726493
 20
0.466035
 11
-127.226483
 21
0.466035
  0
LINE
  8
型材断面
  6
CONTINUOUS
 10
-80.976487
 20
46.71603
 11
-127.226483
 21
0.466035
  0
LINE
  8
型材断面
  6
CONTINUOUS
 10
-80.976487
 20
46.71603
 11
-34.726493
 21
92.966025
  0
LINE
  8
型材断面
  6
CONTINUOUS
 10
-34.726493
 20
0.466035
 11
-127.226483
 21
92.966025
  0
LINE
  8
型材断面
  6
DOT
 10
-44.976487
 20
86.71603
 11
-44.976487
 21
6.71603
  0
LINE
  8
型材断面
  6
DOT
 10
-42.976487
 20
86.71603
 11
-42.976487
 21
6.71603
  0
LINE
  8
型材断面
  6
DOT
 10
-116.976487
 20
86.71603
 11
-116.976487
 21
6.71603
  0
LINE
  8
型材断面
  6
DOT
 10
-118.976487
 20
86.71603
 11
-118.976487
 21
6.71603
  0
LINE
  8
型材断面
  6
CONTINUOUS
 10
-34.726487
 20
-86.407622
 11
-34.673455
 21
-86.354587
  0
LINE
  8
型材断面
  6
CONTINUOUS
 10
-36.831485
 20
-96.613382
 11
-36.831485
 21
-90.758382
  0
LINE
  8
型材断面
  6
CONTINUOUS
 10
-36.831485
 20
-90.758382
 11
-37.094337
 21
-90.495532
  0
LINE
  8
型材断面
  6
CONTINUOUS
 10
-34.726487
 20
-86.478355
 11
-34.726487
 21
-89.79555
  0
LINE
  8
型材断面
  6
CONTINUOUS
 10
-35.976487
 20
-89.795532
 11
-35.976487
 21
-90.495532
  0
LINE
  8
型材断面
  6
CONTINUOUS
 10
-38.081485
 20
-96.613382
 11
-38.081485
 21
-97.118383
  0
LINE
  8
型材断面
  6
CONTINUOUS
 10
-125.12149
 20
-96.613382
 11
-125.12149
 21
-90.758382
  0
LINE
  8
型材断面
  6
CONTINUOUS
 10
-125.12149
 20
-90.758382
 11
-124.858637
 21
-90.495532
  0
LINE
  8
型材断面
  6
CONTINUOUS
 10
-127.226487
 20
-86.478355
 11
-127.226487
 21
-89.79555
  0
LINE
  8
型材断面
  6
CONTINUOUS
 10
-125.976487
 20
-89.795532
 11
-125.976487
 21
-90.495532
  0
LINE
  8
型材断面
  6
CONTINUOUS
 10
-123.87149
 20
-96.613382
 11
-123.87149
 21
-97.118383
  0
LINE
  8
型材断面
  6
CONTINUOUS
 10
-38.081485
 20
-97.118383
 11
-123.87149
 21
-97.118383
  0
LINE
  8
型材断面
  6
CONTINUOUS
 10
-36.831485
 20
-96.613382
 11
-125.12149
 21
-96.613382
  0
LINE
  8
型材断面
  6
CONTINUOUS
 10
-36.831485
 20
-90.758403
 11
-125.12149
 21
-90.758403
  0
LINE
  8
型材断面
  6
CONTINUOUS
 10
-35.976487
 20
-90.495532
 11
-125.976487
 21
-90.495532
  0
LINE
  8
型材断面
  6
CONTINUOUS
 10
-34.726487
 20
-89.79555
 11
-127.226487
 21
-89.79555
  0
LINE
  8
型材断面
  6
CONTINUOUS
 10
-34.726487
 20
-86.478355
 11
-127.226487
 21
-86.478355
  0
LINE
  8
型材断面
  6
CONTINUOUS
 10
-127.226487
 20
-86.407622
 11
-80.976485
 21
-40.157625
  0
LINE
  8
型材断面
  6
CONTINUOUS
 10
-34.726487
 20
-86.407622
 11
-80.976485
 21
-40.157625
  0
LINE
  8
型材断面
  6
CONTINUOUS
 10
-34.673455
 20
-86.354587
 11
-80.976487
 21
-40.051563
  0
LINE
  8
型材断面
  6
CONTINUOUS
 10
-127.27952
 20
-86.354587
 11
-80.976487
 21
-40.051563
  0
LINE
  8
型材断面
  6
CONTINUOUS
 10
-80.976487
 20
-41.324945
 11
-80.976487
 21
-39.91073
  0
LINE
  8
型材断面
  6
CONTINUOUS
 10
-80.976487
 20
-41.324945
 11
-80.976487
 21
-39.91073
  0
LINE
  8
型材断面
  6
CONTINUOUS
 10
-83.226487
 20
-42.16073
 11
-83.155778
 21
-42.23144
  0
LINE
  8
型材断面
  6
CONTINUOUS
 10
-83.155778
 20
-42.23144
 11
-81.882985
 21
-42.23144
  0
LINE
  8
型材断面
  6
CONTINUOUS
 10
-80.976487
 20
-39.91073
 11
-83.226487
 21
-42.16073
  0
LINE
  8
型材断面
  6
CONTINUOUS
 10
-80.976487
 20
-41.324942
 11
-81.882985
 21
-42.23144
  0
LINE
  8
型材断面
  6
CONTINUOUS
 10
-78.7259
 20
-42.16073
 11
-78.79661
 21
-42.23144
  0
LINE
  8
型材断面
  6
CONTINUOUS
 10
-78.79661
 20
-42.23144
 11
-80.069402
 21
-42.23144
  0
LINE
  8
型材断面
  6
CONTINUOUS
 10
-80.976487
 20
-41.324942
 11
-80.06999
 21
-42.23144
  0
LINE
  8
型材断面
  6
CONTINUOUS
 10
-80.976487
 20
-39.91073
 11
-78.726192
 21
-42.161025
  0
LINE
  8
型材断面
  6
CONTINUOUS
 10
107.957337
 20
-86.407622
 11
108.01037
 21
-86.354587
  0
LINE
  8
型材断面
  6
CONTINUOUS
 10
105.85234
 20
-96.613382
 11
105.85234
 21
-90.758382
  0
LINE
  8
型材断面
  6
CONTINUOUS
 10
105.85234
 20
-90.758382
 11
105.589487
 21
-90.495532
  0
LINE
  8
型材断面
  6
CONTINUOUS
 10
107.957337
 20
-86.478355
 11
107.957337
 21
-89.79555
  0
LINE
  8
型材断面
  6
CONTINUOUS
 10
106.707337
 20
-89.795532
 11
106.707337
 21
-90.495532
  0
LINE
  8
型材断面
  6
CONTINUOUS
 10
104.60234
 20
-96.613382
 11
104.60234
 21
-97.118383
  0
LINE
  8
型材断面
  6
CONTINUOUS
 10
17.562335
 20
-96.613382
 11
17.562335
 21
-90.758382
  0
LINE
  8
型材断面
  6
CONTINUOUS
 10
17.562335
 20
-90.758382
 11
17.825187
 21
-90.495532
  0
LINE
  8
型材断面
  6
CONTINUOUS
 10
15.457337
 20
-86.478355
 11
15.457337
 21
-89.79555
  0
LINE
  8
型材断面
  6
CONTINUOUS
 10
16.707337
 20
-89.795532
 11
16.707337
 21
-90.495532
  0
LINE
  8
型材断面
  6
CONTINUOUS
 10
18.812335
 20
-96.613382
 11
18.812335
 21
-97.118383
  0
LINE
  8
型材断面
  6
CONTINUOUS
 10
104.60234
 20
-97.118383
 11
18.812335
 21
-97.118383
  0
LINE
  8
型材断面
  6
CONTINUOUS
 10
105.85234
 20
-96.613382
 11
17.562335
 21
-96.613382
  0
LINE
  8
型材断面
  6
CONTINUOUS
 10
105.85234
 20
-90.758403
 11
17.562335
 21
-90.758403
  0
LINE
  8
型材断面
  6
CONTINUOUS
 10
106.707337
 20
-90.495532
 11
16.707337
 21
-90.495532
  0
LINE
  8
型材断面
  6
CONTINUOUS
 10
107.957337
 20
-89.79555
 11
15.457337
 21
-89.79555
  0
LINE
  8
型材断面
  6
CONTINUOUS
 10
107.957337
 20
-86.478355
 11
15.457337
 21
-86.478355
  0
LINE
  8
型材断面
  6
CONTINUOUS
 10
15.457337
 20
-86.407622
 11
61.70734
 21
-40.157625
  0
LINE
  8
型材断面
  6
CONTINUOUS
 10
107.957337
 20
-86.407622
 11
61.70734
 21
-40.157625
  0
LINE
  8
型材断面
  6
CONTINUOUS
 10
108.01037
 20
-86.354587
 11
61.707337
 21
-40.051563
  0
LINE
  8
型材断面
  6
CONTINUOUS
 10
15.404305
 20
-86.354587
 11
61.707337
 21
-40.051563
  0
LINE
  8
型材断面
  6
CONTINUOUS
 10
61.707337
 20
-41.324945
 11
61.707337
 21
-39.91073
  0
LINE
  8
型材断面
  6
CONTINUOUS
 10
61.707337
 20
-41.324945
 11
61.707337
 21
-39.91073
  0
LINE
  8
型材断面
  6
CONTINUOUS
 10
59.457337
 20
-42.16073
 11
59.528047
 21
-42.23144
  0
LINE
  8
型材断面
  6
CONTINUOUS
 10
59.528047
 20
-42.23144
 11
60.80084
 21
-42.23144
  0
LINE
  8
型材断面
  6
CONTINUOUS
 10
61.707337
 20
-39.91073
 11
59.457337
 21
-42.16073
  0
LINE
  8
型材断面
  6
CONTINUOUS
 10
61.707337
 20
-41.324942
 11
60.80084
 21
-42.23144
  0
LINE
  8
型材断面
  6
CONTINUOUS
 10
63.957925
 20
-42.16073
 11
63.887215
 21
-42.23144
  0
LINE
  8
型材断面
  6
CONTINUOUS
 10
63.887215
 20
-42.23144
 11
62.614423
 21
-42.23144
  0
LINE
  8
型材断面
  6
CONTINUOUS
 10
61.707337
 20
-41.324942
 11
62.613835
 21
-42.23144
  0
LINE
  8
型材断面
  6
CONTINUOUS
 10
61.707337
 20
-39.91073
 11
63.957633
 21
-42.161025
  0
INSERT
  2
*GRP_0017
  8
型材断面
  6
CONTINUOUS
 10
0.0
 20
0.0
  0
INSERT
  2
*GRP_0018
  8
型材断面
  6
DOT
 10
0.0
 20
0.0
  0
INSERT
  2
*GRP_0019
  8
型材断面
  6
DOT
 10
0.0
 20
0.0
  0
INSERT
  2
*GRP_0020
  8
型材断面
  6
DOT
 10
0.0
 20
0.0
  0
INSERT
  2
*GRP_0021
  8
型材断面
  6
DOT
 10
0.0
 20
0.0
  0
LINE
  8
型材断面
  6
CONTINUOUS
 10
99.694873
 20
50.325625
 11
123.626495
 21
50.325625
  0
LINE
  8
型材断面
  6
CONTINUOUS
 10
-82.382168
 20
46.71603
 11
-83.226487
 21
45.871712
  0
LINE
  8
型材断面
  6
CONTINUOUS
 10
-83.226487
 20
45.871712
 11
-83.226487
 21
44.46603
  0
LINE
  8
型材断面
  6
CONTINUOUS
 10
-83.226487
 20
44.46603
 11
-81.82081
 21
44.46603
  0
LINE
  8
型材断面
  6
CONTINUOUS
 10
-80.976487
 20
45.31035
 11
-81.82081
 21
44.46603
  0
LINE
  8
型材断面
  6
CONTINUOUS
 10
-80.976487
 20
46.71603
 11
-83.22649
 21
44.46603
  0
LINE
  8
型材断面
  6
CONTINUOUS
 10
-78.72649
 20
48.966033
 11
-80.132165
 21
48.96603
  0
LINE
  8
型材断面
  6
CONTINUOUS
 10
-80.976487
 20
48.12171
 11
-80.132165
 21
48.96603
  0
LINE
  8
型材断面
  6
CONTINUOUS
 10
-78.72649
 20
48.966033
 11
-78.726487
 21
47.560347
  0
LINE
  8
型材断面
  6
CONTINUOUS
 10
-79.570807
 20
46.71603
 11
-78.726487
 21
47.560347
  0
LINE
  8
型材断面
  6
CONTINUOUS
 10
-80.976487
 20
46.71603
 11
-78.726483
 21
48.966033
  0
LINE
  8
型材断面
  6
CONTINUOUS
 10
-80.976487
 20
45.31035
 11
-80.132165
 21
44.46603
  0
LINE
  8
型材断面
  6
CONTINUOUS
 10
-78.726487
 20
44.46603
 11
-80.132165
 21
44.46603
  0
LINE
  8
型材断面
  6
CONTINUOUS
 10
-78.726487
 20
44.46603
 11
-78.726487
 21
45.871712
  0
LINE
  8
型材断面
  6
CONTINUOUS
 10
-79.570807
 20
46.71603
 11
-78.726487
 21
45.871712
  0
LINE
  8
型材断面
  6
CONTINUOUS
 10
-83.226485
 20
48.966033
 11
-81.82081
 21
48.96603
  0
LINE
  8
型材断面
  6
CONTINUOUS
 10
-80.976487
 20
48.12171
 11
-81.82081
 21
48.96603
  0
LINE
  8
型材断面
  6
CONTINUOUS
 10
-83.226485
 20
48.966033
 11
-83.226487
 21
47.560347
  0
LINE
  8
型材断面
  6
CONTINUOUS
 10
-82.382168
 20
46.71603
 11
-83.226487
 21
47.560347
  0
LINE
  8
型材断面
  6
CONTINUOUS
 10
-80.976487
 20
46.71603
 11
-83.226485
 21
48.966025
  0
LINE
  8
型材断面
  6
CONTINUOUS
 10
-80.976487
 20
46.71603
 11
-78.726485
 21
44.46603
  0
LINE
  8
ガラス
  6
CONTINUOUS
 10
-79.163263
 20
-70.46891
 11
-83.035898
 21
-74.341545
  0
LINE
  8
ガラス
  6
CONTINUOUS
 10
-80.043585
 20
-72.067267
 11
-81.43754
 21
-73.461222
  0
LINE
  8
ガラス
  6
CONTINUOUS
 10
-80.76162
 20
-71.349233
 11
-82.155575
 21
-72.743188
  0
LINE
  8
ガラス
  6
CONTINUOUS
 10
-78.639387
 20
20.428475
 11
-82.512022
 21
16.55584
  0
LINE
  8
ガラス
  6
CONTINUOUS
 10
-80.237745
 20
19.548152
 11
-81.6317
 21
18.154198
  0
LINE
  8
ガラス
  6
CONTINUOUS
 10
-78.639387
 20
73.525497
 11
-82.512022
 21
69.652863
  0
LINE
  8
ガラス
  6
CONTINUOUS
 10
-80.237745
 20
72.645175
 11
-81.6317
 21
71.25122
  0
LINE
  8
ガラス
  6
CONTINUOUS
 10
-103.059345
 20
48.785215
 11
-106.93198
 21
44.91258
  0
LINE
  8
ガラス
  6
CONTINUOUS
 10
-104.657702
 20
47.904892
 11
-106.051657
 21
46.510937
  0
LINE
  8
ガラス
  6
CONTINUOUS
 10
-52.910125
 20
48.785215
 11
-56.78276
 21
44.91258
  0
LINE
  8
ガラス
  6
CONTINUOUS
 10
-54.508482
 20
47.904892
 11
-55.902437
 21
46.510937
  0
LINE
  8
ガラス
  6
CONTINUOUS
 10
-79.51971
 20
71.92714
 11
-80.913665
 21
70.533185
  0
LINE
  8
ガラス
  6
CONTINUOUS
 10
-53.790448
 20
47.186858
 11
-55.184403
 21
45.792902
  0
LINE
  8
ガラス
  6
CONTINUOUS
 10
-79.51971
 20
18.830118
 11
-80.913665
 21
17.436162
  0
LINE
  8
ガラス
  6
CONTINUOUS
 10
-103.939668
 20
47.186858
 11
-105.333623
 21
45.792902
  0
LINE
  8
ガラス
  6
CONTINUOUS
 10
175.446153
 20
-0.541398
 11
134.28462
 21
57.66979
  0
LINE
  8
ガラス
  6
CONTINUOUS
 10
134.28462
 20
57.66979
 11
93.123087
 21
-0.541398
  0
LINE
  8
ガラス
  6
CONTINUOUS
 10
175.446153
 20
-0.541398
 11
93.123087
 21
-0.541398
  0
LINE
  8
ゴム等
  6
CONTINUOUS
 10
-80.976487
 20
43.526752
 11
-122.930403
 21
1.572838
  0
LINE
  8
ゴム等
  6
CONTINUOUS
 10
-80.976487
 20
45.11892
 11
-125.44181
 21
0.653598
  0
LINE
  8
ゴム等
  6
CONTINUOUS
 10
-84.165765
 20
46.71603
 11
-126.11968
 21
4.762115
  0
LINE
  8
ゴム等
  6
CONTINUOUS
 10
-82.573597
 20
46.71603
 11
-127.03892
 21
2.250707
  0
LINE
  8
ゴム等
  6
CONTINUOUS
 10
-80.976487
 20
43.526752
 11
-39.022573
 21
1.572838
  0
LINE
  8
ゴム等
  6
CONTINUOUS
 10
-122.930403
 20
1.572838
 11
-39.022573
 21
1.572838
  0
LINE
  8
ゴム等
  6
CONTINUOUS
 10
-80.976487
 20
45.11892
 11
-36.511165
 21
0.653598
  0
LINE
  8
ゴム等
  6
CONTINUOUS
 10
-125.44181
 20
0.653598
 11
-36.511165
 21
0.653598
  0
LINE
  8
ゴム等
  6
CONTINUOUS
 10
-77.78721
 20
46.71603
 11
-35.833295
 21
4.762115
  0
LINE
  8
ゴム等
  6
CONTINUOUS
 10
-79.379378
 20
46.71603
 11
-34.914055
 21
2.250707
  0
LINE
  8
ゴム等
  6
CONTINUOUS
 10
-84.165765
 20
46.71603
 11
-126.11968
 21
88.669945
  0
LINE
  8
ゴム等
  6
CONTINUOUS
 10
-126.11968
 20
4.762115
 11
-126.11968
 21
88.669945
  0
LINE
  8
ゴム等
  6
CONTINUOUS
 10
-82.573597
 20
46.71603
 11
-127.03892
 21
91.181352
  0
LINE
  8
ゴム等
  6
CONTINUOUS
 10
-127.03892
 20
2.250707
 11
-127.03892
 21
91.181352
  0
LINE
  8
ゴム等
  6
CONTINUOUS
 10
-80.976487
 20
49.905307
 11
-122.930403
 21
91.859223
  0
LINE
  8
ゴム等
  6
CONTINUOUS
 10
-80.976487
 20
48.31314
 11
-125.44181
 21
92.778463
  0
LINE
  8
ゴム等
  6
CONTINUOUS
 10
-80.976487
 20
49.905307
 11
-39.022573
 21
91.859223
  0
LINE
  8
ゴム等
  6
CONTINUOUS
 10
-122.930403
 20
91.859223
 11
-39.022573
 21
91.859223
  0
LINE
  8
ゴム等
  6
CONTINUOUS
 10
-125.44181
 20
92.778463
 11
-36.511165
 21
92.778463
  0
LINE
  8
ゴム等
  6
CONTINUOUS
 10
-80.976487
 20
48.31314
 11
-36.511165
 21
92.778463
  0
LINE
  8
ゴム等
  6
CONTINUOUS
 10
-77.78721
 20
46.71603
 11
-35.833295
 21
88.669945
  0
LINE
  8
ゴム等
  6
CONTINUOUS
 10
-35.833295
 20
4.762115
 11
-35.833295
 21
88.669945
  0
LINE
  8
ゴム等
  6
CONTINUOUS
 10
-79.379378
 20
46.71603
 11
-34.914055
 21
91.181352
  0
LINE
  8
ゴム等
  6
CONTINUOUS
 10
-34.914055
 20
2.250707
 11
-34.914055
 21
91.181352
  0
LINE
  8
ゴム等
  6
CONTINUOUS
 10
-120.409753
 20
2.830915
 11
-41.543222
 21
2.830915
  0
LINE
  8
ゴム等
  6
CONTINUOUS
 10
-124.861603
 20
7.282765
 11
-124.861603
 21
86.149295
  0
LINE
  8
ゴム等
  6
CONTINUOUS
 10
-41.543222
 20
90.601145
 11
-120.409753
 21
90.601145
  0
LINE
  8
ゴム等
  6
CONTINUOUS
 10
-37.091373
 20
7.282765
 11
-37.091373
 21
86.149295
  0
LINE
  8
ゴム等
  6
CONTINUOUS
 10
-124.861603
 20
86.149295
 11
-85.428337
 21
46.71603
  0
LINE
  8
ゴム等
  6
CONTINUOUS
 10
-124.861603
 20
7.282765
 11
-85.428337
 21
46.71603
  0
LINE
  8
ゴム等
  6
CONTINUOUS
 10
-120.409753
 20
90.601145
 11
-80.976487
 21
51.16788
  0
LINE
  8
ゴム等
  6
CONTINUOUS
 10
-41.543222
 20
90.601145
 11
-80.976487
 21
51.16788
  0
LINE
  8
ゴム等
  6
CONTINUOUS
 10
-37.091373
 20
86.149295
 11
-76.524637
 21
46.71603
  0
LINE
  8
ゴム等
  6
CONTINUOUS
 10
-37.091373
 20
7.282765
 11
-76.524637
 21
46.71603
  0
LINE
  8
ゴム等
  6
CONTINUOUS
 10
-120.409753
 20
2.830915
 11
-80.976487
 21
42.26418
  0
LINE
  8
ゴム等
  6
CONTINUOUS
 10
-41.543222
 20
2.830915
 11
-80.976487
 21
42.26418
  0
LINE
  8
ゴム等
  6
CONTINUOUS
 10
-127.03892
 20
91.181352
 11
-126.11968
 21
88.669945
  0
LINE
  8
ゴム等
  6
CONTINUOUS
 10
-126.11968
 20
88.669945
 11
-124.861603
 21
86.149295
  0
LINE
  8
ゴム等
  6
CONTINUOUS
 10
-125.44181
 20
92.778463
 11
-122.930403
 21
91.859223
  0
LINE
  8
ゴム等
  6
CONTINUOUS
 10
-122.930403
 20
91.859223
 11
-120.409753
 21
90.601145
  0
LINE
  8
ゴム等
  6
CONTINUOUS
 10
-34.914055
 20
91.181352
 11
-35.833295
 21
88.669945
  0
LINE
  8
ゴム等
  6
CONTINUOUS
 10
-35.833295
 20
88.669945
 11
-37.091373
 21
86.149295
  0
LINE
  8
ゴム等
  6
CONTINUOUS
 10
-36.511165
 20
92.778463
 11
-39.022573
 21
91.859223
  0
LINE
  8
ゴム等
  6
CONTINUOUS
 10
-39.022573
 20
91.859223
 11
-41.543222
 21
90.601145
  0
LINE
  8
ゴム等
  6
CONTINUOUS
 10
-34.914055
 20
2.250707
 11
-35.833295
 21
4.762115
  0
LINE
  8
ゴム等
  6
CONTINUOUS
 10
-35.833295
 20
4.762115
 11
-37.091373
 21
7.282765
  0
LINE
  8
ゴム等
  6
CONTINUOUS
 10
-36.511165
 20
0.653598
 11
-39.022573
 21
1.572838
  0
LINE
  8
ゴム等
  6
CONTINUOUS
 10
-39.022573
 20
1.572838
 11
-41.543222
 21
2.830915
  0
LINE
  8
ゴム等
  6
CONTINUOUS
 10
-127.03892
 20
2.250707
 11
-126.11968
 21
4.762115
  0
LINE
  8
ゴム等
  6
CONTINUOUS
 10
-126.11968
 20
4.762115
 11
-124.861603
 21
7.282765
  0
LINE
  8
ゴム等
  6
CONTINUOUS
 10
-125.44181
 20
0.653598
 11
-122.930403
 21
1.572838
  0
LINE
  8
ゴム等
  6
CONTINUOUS
 10
-122.930403
 20
1.572838
 11
-120.409753
 21
2.830915
  0
LINE
  8
ゴム等
  6
CONTINUOUS
 10
-41.540712
 20
-84.743657
 11
-39.022585
 21
-85.336
  0
LINE
  8
ゴム等
  6
CONTINUOUS
 10
-39.022585
 20
-85.336
 11
-36.51118
 21
-86.25524
  0
LINE
  8
ゴム等
  6
CONTINUOUS
 10
-125.441795
 20
-86.25524
 11
-122.93039
 21
-85.336
  0
LINE
  8
ゴム等
  6
CONTINUOUS
 10
-122.93039
 20
-85.336
 11
-120.412263
 21
-84.743657
  0
LINE
  8
ゴム等
  6
CONTINUOUS
 10
-122.93039
 20
-85.336
 11
-39.022585
 21
-85.336
  0
LINE
  8
ゴム等
  6
CONTINUOUS
 10
-125.441795
 20
-86.25524
 11
-36.51118
 21
-86.25524
  0
LINE
  8
ゴム等
  6
CONTINUOUS
 10
-122.93039
 20
-85.336
 11
-80.976487
 21
-43.382103
  0
LINE
  8
ゴム等
  6
CONTINUOUS
 10
-39.022585
 20
-85.336
 11
-80.976487
 21
-43.382103
  0
LINE
  8
ゴム等
  6
CONTINUOUS
 10
-36.51118
 20
-86.25524
 11
-80.976487
 21
-41.789937
  0
LINE
  8
ゴム等
  6
CONTINUOUS
 10
-125.441795
 20
-86.25524
 11
-80.976487
 21
-41.789937
  0
LINE
  8
ゴム等
  6
CONTINUOUS
 10
-120.412263
 20
-84.743657
 11
-80.976487
 21
-45.307888
  0
LINE
  8
ゴム等
  6
CONTINUOUS
 10
-120.412263
 20
-84.743657
 11
-41.540712
 21
-84.743657
  0
LINE
  8
ゴム等
  6
CONTINUOUS
 10
-80.976487
 20
-45.307888
 11
-41.540712
 21
-84.743657
  0
LINE
  8
ゴム等
  6
CONTINUOUS
 10
101.143112
 20
-84.743657
 11
103.66124
 21
-85.336
  0
LINE
  8
ゴム等
  6
CONTINUOUS
 10
103.66124
 20
-85.336
 11
106.172645
 21
-86.25524
  0
LINE
  8
ゴム等
  6
CONTINUOUS
 10
17.24203
 20
-86.25524
 11
19.753435
 21
-85.336
  0
LINE
  8
ゴム等
  6
CONTINUOUS
 10
19.753435
 20
-85.336
 11
22.271563
 21
-84.743657
  0
LINE
  8
ゴム等
  6
CONTINUOUS
 10
19.753435
 20
-85.336
 11
103.66124
 21
-85.336
  0
LINE
  8
ゴム等
  6
CONTINUOUS
 10
17.24203
 20
-86.25524
 11
106.172645
 21
-86.25524
  0
LINE
  8
ゴム等
  6
CONTINUOUS
 10
19.753435
 20
-85.336
 11
61.707337
 21
-43.382103
  0
LINE
  8
ゴム等
  6
CONTINUOUS
 10
103.66124
 20
-85.336
 11
61.707337
 21
-43.382103
  0
LINE
  8
ゴム等
  6
CONTINUOUS
 10
106.172645
 20
-86.25524
 11
61.707337
 21
-41.789937
  0
LINE
  8
ゴム等
  6
CONTINUOUS
 10
17.24203
 20
-86.25524
 11
61.707337
 21
-41.789937
  0
LINE
  8
ゴム等
  6
CONTINUOUS
 10
22.271563
 20
-84.743657
 11
61.707337
 21
-45.307888
  0
LINE
  8
ゴム等
  6
CONTINUOUS
 10
22.271563
 20
-84.743657
 11
101.143112
 21
-84.743657
  0
LINE
  8
ゴム等
  6
CONTINUOUS
 10
61.707337
 20
-45.307888
 11
101.143112
 21
-84.743657
  0
LINE
  8
ゴム等
  6
CONTINUOUS
 10
-80.976487
 20
45.11892
 11
-80.976487
 21
43.526752
  0
LINE
  8
ゴム等
  6
CONTINUOUS
 10
-80.976487
 20
48.31314
 11
-80.976487
 21
49.905307
  0
LINE
  8
ゴム等
  6
CONTINUOUS
 10
-79.379378
 20
46.71603
 11
-77.78721
 21
46.71603
  0
LINE
  8
ゴム等
  6
CONTINUOUS
 10
-82.573597
 20
46.71603
 11
-84.165765
 21
46.71603
  0
TEXT
  7
TextStyle03
  8
文字
  6
CONTINUOUS
 10
64.675
 20
94.05
  1
ＮＳコード：ＮＳ４Ｇ
 40
5.0
 72
     5
 11
120.3
 21
94.05
  0
TEXT
  7
TextStyle03
  8
文字
  6
CONTINUOUS
 10
-31.325
 20
25.425
  1
ﾊﾞﾗﾝｽｽﾃｰ
 40
3.0
 72
     5
 11
-18.0125
 21
25.425
  0
TEXT
  7
TextStyle03
  8
文字
  6
CONTINUOUS
 10
-2.95
 20
-2.625
  1
は排水穴位置を示す
 40
3.0
 72
     5
 11
27.05
 21
-2.625
  0
TEXT
  7
TextStyle03
  8
文字
  6
CONTINUOUS
 10
-2.95
 20
-10.475
  1
はケーシング位置を示す
 40
3.0
 72
     5
 11
33.8
 21
-10.475
  0
TEXT
  7
TextStyle03
  8
文字
  6
CONTINUOUS
 10
-2.95
 20
-13.85
  1
４ヶ所中1ヶ所に設定
 40
3.0
 72
     5
 11
28.7375
 21
-13.85
  0
TEXT
  7
TextStyle03
  8
文字
  6
CONTINUOUS
 10
-89.325
 20
-10.15
  1
可動装置側
 40
3.0
 72
     5
 11
-72.825
 21
-10.15
  0
TEXT
  7
TextStyle03
  8
文字
  6
CONTINUOUS
 10
-89.325
 20
101.0
  1
可動装置側
 40
3.0
 72
     5
 11
-72.825
 21
101.0
  0
TEXT
  7
TextStyle03
  8
文字
  6
CONTINUOUS
 10
-144.0375
 20
72.9
  1
ﾊﾞﾗﾝｽｽﾃｰ
 40
3.0
 72
     5
 11
-130.725
 21
72.9
  0
TEXT
  7
TextStyle03
  8
文字
  6
CONTINUOUS
 10
-153.225
 20
3.625
  1
アンカーピッチ
 40
3.0
 50
90.0
 72
     5
 11
-153.225
 21
26.875
  0
TEXT
  7
TextStyle03
  8
文字
  6
CONTINUOUS
 10
-141.2
 20
119.65
  1
アンカーピッチ
 40
3.0
 72
     5
 11
-117.95
 21
119.65
  0
TEXT
  7
TextStyle03
  8
文字
  6
CONTINUOUS
 10
-8.6
 20
-27.825
  1
アームユニット数　４ヶ所
 40
3.0
 72
     5
 11
31.525
 21
-27.825
  0
TEXT
  7
TextStyle03
  8
文字
  6
CONTINUOUS
 10
-8.55
 20
-21.0
  1
アンカー数量　１０ヶ所
 40
3.0
 72
     5
 11
28.2
 21
-21.0
  0
TEXT
  7
TextStyle03
  8
文字
  6
CONTINUOUS
 10
66.275
 20
120.225
  1
シリーズ：ＤＦ４
 40
5.0
 72
     5
 11
110.65
 21
120.225
  0
TEXT
  7
TextStyle03
  8
文字
  6
CONTINUOUS
 10
66.275
 20
114.6
  1
　　　　　四角錘（上下可動）1600×1600タイプ
 40
5.0
 72
     5
 11
189.4
 21
114.6
  0
TEXT
  7
TextStyle03
  8
文字
  6
CONTINUOUS
 10
66.275
 20
108.975
  1
　　　　　シングルガラス仕様
 40
5.0
 72
     5
 11
144.4
 21
108.975
  0
TEXT
  7
TextStyle03
  8
文字
  6
CONTINUOUS
 10
66.275
 20
103.35
  1
図面名　：外観姿図
 40
5.0
 72
     5
 11
116.275
 21
103.35
  0
TEXT
  7
TextStyle03
  8
文字
  6
CONTINUOUS
 10
154.925
 20
1.8
  1
×４枚
 40
3.0
 72
     5
 11
164.675
 21
1.8
  0
TEXT
  7
TextStyle03
  8
文字
  6
CONTINUOUS
 10
103.3
 20
51.525
  1
ガラス寸法
 40
3.0
 72
     5
 11
119.8
 21
51.525
  0
INSERT
  2
*DIM_0002
  8
寸法
  6
CONTINUOUS
 10
0.0
 20
0.0
  0
INSERT
  2
*DIM_0003
  8
寸法
  6
CONTINUOUS
 10
0.0
 20
0.0
  0
INSERT
  2
*GRP_0004
  8
寸法
  6
CONTINUOUS
 10
0.0
 20
0.0
  0
INSERT
  2
*DIM_0005
  8
寸法
  6
CONTINUOUS
 10
0.0
 20
0.0
  0
INSERT
  2
*DIM_0007
  8
寸法
  6
CONTINUOUS
 10
0.0
 20
0.0
  0
INSERT
  2
*GRP_0008
  8
寸法
  6
CONTINUOUS
 10
0.0
 20
0.0
  0
INSERT
  2
*DIM_0009
  8
寸法
  6
CONTINUOUS
 10
0.0
 20
0.0
  0
INSERT
  2
*DIM_0010
  8
寸法
  6
CONTINUOUS
 10
0.0
 20
0.0
  0
INSERT
  2
*DIM_0011
  8
寸法
  6
CONTINUOUS
 10
0.0
 20
0.0
  0
INSERT
  2
*DIM_0012
  8
寸法
  6
CONTINUOUS
 10
0.0
 20
0.0
  0
INSERT
  2
*DIM_0013
  8
寸法
  6
CONTINUOUS
 10
0.0
 20
0.0
  0
INSERT
  2
*DIM_0014
  8
寸法
  6
CONTINUOUS
 10
0.0
 20
0.0
  0
INSERT
  2
*DIM_0015
  8
寸法
  6
CONTINUOUS
 10
0.0
 20
0.0
  0
INSERT
  2
*DIM_0016
  8
寸法
  6
CONTINUOUS
 10
0.0
 20
0.0
  0
INSERT
  2
*DIM_0022
  8
寸法
  6
CONTINUOUS
 10
0.0
 20
0.0
  0
INSERT
  2
*DIM_0023
  8
寸法
  6
CONTINUOUS
 10
0.0
 20
0.0
  0
INSERT
  2
*DIM_0024
  8
寸法
  6
CONTINUOUS
 10
0.0
 20
0.0
  0
INSERT
  2
*DIM_0025
  8
寸法
  6
CONTINUOUS
 10
0.0
 20
0.0
  0
ENDSEC
  0
EOF
