  0
SECTION
  2
HEADER
  9
$EXTMIN
 10
-210.0
 20
-148.5
  9
$EXTMAX
 10
210.0
 20
148.5
  9
$PDMODE
 70
    32
  9
$PDSIZE
 40
1.5
  9
$LTSCALE
 40
10.0
  0
ENDSEC
  0
SECTION
  2
TABLES
  0
TABLE
  2
LTYPE
 70
    15
  0
LTYPE
  2
CONTINUOUS
 70
    64
  3
実線
 72
    65
 73
     0
 40
0.0
  0
LTYPE
  2
DASHED
 70
    64
  3
破線A
 72
    65
 73
     2
 40
0.6
 49
0.4
 49
-0.2
  0
LTYPE
  2
DASHEDX2
 70
    64
  3
破線B
 72
    65
 73
     2
 40
1.3
 49
0.9
 49
-0.4
  0
LTYPE
  2
DASHDOT
 70
    64
  3
１点鎖線A
 72
    65
 73
     4
 40
0.5375
 49
0.375
 49
-0.05
 49
0.0625
 49
-0.05
  0
LTYPE
  2
DASHDOTX2
 70
    64
  3
１点鎖線B
 72
    65
 73
     4
 40
1.075
 49
0.75
 49
-0.1
 49
0.125
 49
-0.1
  0
LTYPE
  2
DIVIDE2
 70
    64
  3
２点鎖線A
 72
    65
 73
     6
 40
0.5125
 49
0.3
 49
-0.0375
 49
0.05
 49
-0.0375
 49
0.05
 49
-0.0375
  0
LTYPE
  2
DIVIDE
 70
    64
  3
２点鎖線B
 72
    65
 73
     6
 40
1.05
 49
0.55
 49
-0.1
 49
0.1
 49
-0.1
 49
0.1
 49
-0.1
  0
LTYPE
  2
DOT
 70
    64
  3
点線A
 72
    65
 73
     2
 40
0.1125
 49
0.0625
 49
-0.05
  0
LTYPE
  2
DOTX2
 70
    64
  3
点線B
 72
    65
 73
     2
 40
0.275
 49
0.15
 49
-0.125
  0
LTYPE
  2
CONTINUOUS
 70
    64
  3
実線
 72
    65
 73
     0
 40
0.0
  0
LTYPE
  2
CONTINUOUS
 70
    64
  3
実線
 72
    65
 73
     0
 40
0.0
  0
LTYPE
  2
CONTINUOUS
 70
    64
  3
実線
 72
    65
 73
     0
 40
0.0
  0
LTYPE
  2
CONTINUOUS
 70
    64
  3
実線
 72
    65
 73
     0
 40
0.0
  0
LTYPE
  2
CONTINUOUS
 70
    64
  3
実線
 72
    65
 73
     0
 40
0.0
  0
LTYPE
  2
CONTINUOUS
 70
    64
  3
実線
 72
    65
 73
     0
 40
0.0
  0
ENDTAB
  0
TABLE
  2
LAYER
 70
    35
  0
LAYER
  2
通り芯
 70
     0
 62
    15
  6
CONTINUOUS
  0
LAYER
  2
補助線
 70
     0
 62
    16
  6
DOT
  0
LAYER
  2
躯体
 70
     0
 62
    31
  6
CONTINUOUS
  0
LAYER
  2
型材
 70
     0
 62
    32
  6
CONTINUOUS
  0
LAYER
  2
型材断面
 70
     0
 62
    47
  6
CONTINUOUS
  0
LAYER
  2
ガラス
 70
     0
 62
    48
  6
CONTINUOUS
  0
LAYER
  2
ゴム等
 70
     0
 62
    63
  6
CONTINUOUS
  0
LAYER
  2
ボルト／ビス
 70
     0
 62
    64
  6
CONTINUOUS
  0
LAYER
  2
文字
 70
     0
 62
    79
  6
CONTINUOUS
  0
LAYER
  2
寸法
 70
     0
 62
    80
  6
CONTINUOUS
  0
LAYER
  2
ﾊｯﾁﾝｸﾞ
 70
     0
 62
    95
  6
CONTINUOUS
  0
LAYER
  2
別途部材
 70
     0
 62
    96
  6
CONTINUOUS
  0
LAYER
  2
曲げ物
 70
     0
 62
   111
  6
CONTINUOUS
  0
LAYER
  2
鉄骨等
 70
     0
 62
   112
  6
CONTINUOUS
  0
LAYER
  2
St
 70
     0
 62
   127
  6
CONTINUOUS
  0
LAYER
  2
その他部品等
 70
     0
 62
   128
  6
CONTINUOUS
  0
LAYER
  2
ｶﾞｽｹｯﾄ
 70
     0
 62
   143
  6
CONTINUOUS
  0
LAYER
  2
ｽｹｯﾁ
 70
     0
 62
    14
  6
CONTINUOUS
  0
LAYER
  2
0
 70
     0
 62
    17
  6
CONTINUOUS
  0
LAYER
  2
1
 70
     0
 62
    30
  6
CONTINUOUS
  0
LAYER
  2
4
 70
     0
 62
    33
  6
CONTINUOUS
  0
LAYER
  2
ﾚｲﾔ3
 70
     0
 62
    46
  6
CONTINUOUS
  0
LAYER
  2
外形線
 70
     0
 62
    49
  6
CONTINUOUS
  0
LAYER
  2
部品
 70
     0
 62
    14
  6
CONTINUOUS
  0
LAYER
  2
サッシ芯
 70
     0
 62
    17
  6
DASHDOTX2
  0
LAYER
  2
寸法線
 70
     0
 62
    62
  6
CONTINUOUS
  0
LAYER
  2
姿図外形線
 70
     0
 62
    65
  6
CONTINUOUS
  0
LAYER
  2
姿補助線
 70
     0
 62
    30
  6
CONTINUOUS
  0
LAYER
  2
透視線
 70
     0
 62
    78
  6
DOT
  0
LAYER
  2
用紙
 70
     0
 62
    81
  6
CONTINUOUS
  0
LAYER
  2
実線図枠
 70
     0
 62
    94
  6
CONTINUOUS
  0
LAYER
  2
補助図枠
 70
     0
 62
    97
  6
CONTINUOUS
  0
LAYER
  2
建具記号
 70
     0
 62
   110
  6
CONTINUOUS
  0
LAYER
  2
補助文字
 70
     0
 62
   113
  6
CONTINUOUS
  0
LAYER
  2
01
 70
     0
 62
     1
  6
CONTINUOUS
  0
ENDTAB
  0
TABLE
  2
STYLE
 70
    10
  0
STYLE
  2
STANDARD
 70
     0
 40
1.0
 41
1.0
 42
1.0
 50
0.0
 71
     0
  3
TXT
  4
BIGFONT
  0
STYLE
  2
TATE
 70
     4
 40
1.0
 41
1.0
 42
1.0
 50
0.0
 71
     0
  3
TXT
  4
BIGFONT
  0
STYLE
  2
TextStyle03
 70
     0
 40
1.0
 41
1.0
 42
1.0
 50
0.0
 71
     0
  3
MONOTXT
  4
BIGFONT
  0
STYLE
  2
TextStyle04
 70
     0
 40
1.0
 41
1.0
 42
1.0
 50
0.0
 71
     0
  3
MONOTXT
  4
BIGFONT
  0
STYLE
  2
TextStyle05
 70
     0
 40
1.0
 41
1.0
 42
1.0
 50
0.0
 71
     0
  3
MONOTXT
  4
BIGFONT
  0
STYLE
  2
TextStyle06
 70
     0
 40
1.0
 41
1.0
 42
1.0
 50
0.0
 71
     0
  3
MONOTXT
  4
BIGFONT
  0
STYLE
  2
TextStyle07
 70
     0
 40
1.0
 41
1.0
 42
1.0
 50
0.0
 71
     0
  3
MONOTXT
  4
BIGFONT
  0
STYLE
  2
TextStyle08
 70
     0
 40
1.0
 41
1.0
 42
1.0
 50
0.0
 71
     0
  3
MONOTXT
  4
BIGFONT
  0
STYLE
  2
TextStyle09
 70
     0
 40
1.0
 41
1.0
 42
1.0
 50
0.0
 71
     0
  3
MONOTXT
  4
BIGFONT
  0
STYLE
  2
TextStyle10
 70
     0
 40
1.0
 41
1.0
 42
1.0
 50
0.0
 71
     0
  3
MONOTXT
  4
BIGFONT
  0
ENDTAB
  0
ENDSEC
  0
SECTION
  2
BLOCKS
  0
BLOCK
  2
*GRP_0001
 70
    65
 10
0.0
 20
0.0
  0
LINE
  8
型材断面
  6
CONTINUOUS
 10
195.0
 20
133.5
 11
195.0
 21
-133.5
  0
LINE
  8
型材断面
  6
CONTINUOUS
 10
195.0
 20
-133.5
 11
-185.0
 21
-133.5
  0
LINE
  8
型材断面
  6
CONTINUOUS
 10
-185.0
 20
-133.5
 11
-185.0
 21
133.5
  0
LINE
  8
型材断面
  6
CONTINUOUS
 10
195.0
 20
133.5
 11
-185.0
 21
133.5
  0
LINE
  8
型材断面
  6
CONTINUOUS
 10
145.0
 20
-133.5
 11
145.0
 21
-118.5
  0
LINE
  8
型材断面
  6
CONTINUOUS
 10
195.0
 20
-118.5
 11
145.0
 21
-118.5
  0
ENDBLK
  0
BLOCK
  2
*DIM_0002
 70
    65
 10
0.0
 20
0.0
  0
LINE
  8
寸法
  6
BYBLOCK
 62
     0
 10
-27.43443
 20
92.674247
 11
-6.885002
 21
92.674247
  0
LINE
  8
寸法
  6
BYBLOCK
 62
     0
 10
-19.410555
 20
87.124247
 11
-6.885002
 21
87.124247
  0
LINE
  8
寸法
  6
BYBLOCK
 62
     0
 10
-6.885002
 20
92.674247
 11
-6.885002
 21
87.124247
  0
POINT
  8
寸法
 62
     0
 10
-6.885002
 20
92.674247
  0
POINT
  8
寸法
 62
     0
 10
-6.885002
 20
87.124247
  0
TEXT
  7
TextStyle03
  8
寸法
  6
CONTINUOUS
 62
     0
 10
-7.3
 20
87.4375
  1
111
 40
3.0
 50
90.0
 72
     5
 11
-7.3
 21
92.3125
  0
ENDBLK
  0
BLOCK
  2
*DIM_0003
 70
    65
 10
0.0
 20
0.0
  0
LINE
  8
寸法
  6
BYBLOCK
 62
     0
 10
-27.43443
 20
-7.325757
 11
-6.885002
 21
-7.325757
  0
LINE
  8
寸法
  6
BYBLOCK
 62
     0
 10
-19.410555
 20
-1.775757
 11
-6.885002
 21
-1.775757
  0
LINE
  8
寸法
  6
BYBLOCK
 62
     0
 10
-6.885002
 20
-7.325757
 11
-6.885002
 21
-1.775757
  0
POINT
  8
寸法
 62
     0
 10
-6.885002
 20
-7.325757
  0
POINT
  8
寸法
 62
     0
 10
-6.885002
 20
-1.775757
  0
TEXT
  7
TextStyle03
  8
寸法
  6
CONTINUOUS
 62
     0
 10
-7.275
 20
-7.0125
  1
111
 40
3.0
 50
90.0
 72
     5
 11
-7.275
 21
-2.1375
  0
ENDBLK
  0
BLOCK
  2
*GRP_0004
 70
    65
 10
0.0
 20
0.0
  0
POLYLINE
  8
寸法
  6
BYBLOCK
 62
     0
 66
     1
  0
VERTEX
  8
寸法
 10
-30.989525
 20
18.958217
  0
VERTEX
  8
寸法
 10
-24.573023
 20
12.541715
  0
VERTEX
  8
寸法
 10
-18.665895
 20
12.541715
  0
SEQEND
  0
ENDBLK
  0
BLOCK
  2
*DIM_0005
 70
    65
 10
0.0
 20
0.0
  0
LINE
  8
寸法
  6
CONTINUOUS
 62
     0
 10
-127.750185
 20
-34.773415
 11
-127.750185
 21
-31.493875
  0
LINE
  8
寸法
  6
CONTINUOUS
 62
     0
 10
-27.750185
 20
-34.773415
 11
-27.750185
 21
-31.493875
  0
LINE
  8
寸法
  6
CONTINUOUS
 62
     0
 10
-127.750185
 20
-31.493875
 11
-27.750185
 21
-31.493875
  0
POINT
  8
寸法
 62
     0
 10
-127.750185
 20
-31.493875
  0
POINT
  8
寸法
 62
     0
 10
-27.750185
 20
-31.493875
  0
TEXT
  7
TextStyle03
  8
寸法
  6
CONTINUOUS
 62
     0
 10
-89.49375
 20
-31.125
  1
呼称寸法　2000
 40
3.0
 72
     5
 11
-66.05625
 21
-31.125
  0
ENDBLK
  0
BLOCK
  2
*DIM_0006
 70
    65
 10
0.0
 20
0.0
  0
LINE
  8
寸法
  6
BYBLOCK
 62
     0
 10
-112.750185
 20
117.929245
 11
-112.750185
 21
128.86
  0
LINE
  8
寸法
  6
BYBLOCK
 62
     0
 10
-77.750185
 20
117.929245
 11
-77.750185
 21
128.86
  0
LINE
  8
寸法
  6
BYBLOCK
 62
     0
 10
-112.750185
 20
128.86
 11
-77.750185
 21
128.86
  0
POINT
  8
寸法
 62
     0
 10
-112.750185
 20
128.86
  0
POINT
  8
寸法
 62
     0
 10
-77.750185
 20
128.86
  0
TEXT
  7
TextStyle03
  8
寸法
  6
CONTINUOUS
 62
     0
 10
-97.7125
 20
129.225
  1
700
 40
3.0
 72
     5
 11
-92.8375
 21
129.225
  0
ENDBLK
  0
BLOCK
  2
*DIM_0007
 70
    65
 10
0.0
 20
0.0
  0
LINE
  8
寸法
  6
BYBLOCK
 62
     0
 10
-42.750185
 20
117.929245
 11
-42.750185
 21
128.86
  0
LINE
  8
寸法
  6
BYBLOCK
 62
     0
 10
-77.750185
 20
128.86
 11
-42.750185
 21
128.86
  0
POINT
  8
寸法
 62
     0
 10
-42.750185
 20
128.86
  0
TEXT
  7
TextStyle03
  8
寸法
  6
CONTINUOUS
 62
     0
 10
-62.7125
 20
129.225
  1
700
 40
3.0
 72
     5
 11
-57.8375
 21
129.225
  0
ENDBLK
  0
BLOCK
  2
*GRP_0008
 70
    65
 10
0.0
 20
0.0
  0
POLYLINE
  8
寸法
  6
BYBLOCK
 62
     0
 66
     1
  0
VERTEX
  8
寸法
 10
-124.510845
 20
69.855272
  0
VERTEX
  8
寸法
 10
-130.927348
 20
76.271775
  0
VERTEX
  8
寸法
 10
-136.834475
 20
76.271775
  0
SEQEND
  0
ENDBLK
  0
BLOCK
  2
*DIM_0009
 70
    65
 10
0.0
 20
0.0
  0
LINE
  8
寸法
  6
BYBLOCK
 62
     0
 10
-153.005185
 20
77.674245
 11
-163.93594
 21
77.674247
  0
LINE
  8
寸法
  6
BYBLOCK
 62
     0
 10
-153.005188
 20
42.674245
 11
-163.935942
 21
42.674247
  0
LINE
  8
寸法
  6
BYBLOCK
 62
     0
 10
-163.93594
 20
77.674247
 11
-163.935942
 21
42.674247
  0
POINT
  8
寸法
 62
     0
 10
-163.93594
 20
77.674247
  0
POINT
  8
寸法
 62
     0
 10
-163.935942
 20
42.674247
  0
TEXT
  7
TextStyle03
  8
寸法
  6
CONTINUOUS
 62
     0
 10
-164.325
 20
57.7125
  1
700
 40
3.0
 50
90.0
 72
     5
 11
-164.325
 21
62.5875
  0
ENDBLK
  0
BLOCK
  2
*DIM_0010
 70
    65
 10
0.0
 20
0.0
  0
LINE
  8
寸法
  6
BYBLOCK
 62
     0
 10
-153.005188
 20
42.674245
 11
-163.935942
 21
42.67425
  0
LINE
  8
寸法
  6
BYBLOCK
 62
     0
 10
-153.00519
 20
7.674245
 11
-163.935945
 21
7.67425
  0
LINE
  8
寸法
  6
BYBLOCK
 62
     0
 10
-163.935942
 20
42.67425
 11
-163.935945
 21
7.67425
  0
POINT
  8
寸法
 62
     0
 10
-163.935945
 20
7.67425
  0
TEXT
  7
TextStyle03
  8
寸法
  6
CONTINUOUS
 62
     0
 10
-164.325
 20
22.7125
  1
700
 40
3.0
 50
90.0
 72
     5
 11
-164.325
 21
27.5875
  0
ENDBLK
  0
BLOCK
  2
*DIM_0011
 70
    65
 10
0.0
 20
0.0
  0
LINE
  8
寸法
  6
CONTINUOUS
 10
-21.500185
 20
-99.520137
 11
-21.500185
 21
-31.493875
  0
LINE
  8
寸法
  6
CONTINUOUS
 10
-27.750185
 20
-31.493875
 11
-21.500185
 21
-31.493875
  0
POINT
  8
寸法
 10
-27.750185
 20
-31.493875
  0
POINT
  8
寸法
 10
-21.500185
 20
-31.493875
  0
TEXT
  7
TextStyle03
  8
寸法
  6
CONTINUOUS
 10
-27.0875
 20
-31.125
  1
125
 40
3.0
 72
     5
 11
-22.2125
 21
-31.125
  0
ENDBLK
  0
BLOCK
  2
*DIM_0012
 70
    65
 10
0.0
 20
0.0
  0
LINE
  8
寸法
  6
CONTINUOUS
 10
-134.00018
 20
-99.520137
 11
-134.00018
 21
-31.493875
  0
LINE
  8
寸法
  6
CONTINUOUS
 10
-127.750185
 20
-31.493875
 11
-134.00018
 21
-31.493875
  0
POINT
  8
寸法
 10
-127.750185
 20
-31.493875
  0
POINT
  8
寸法
 10
-134.00018
 20
-31.493875
  0
TEXT
  7
TextStyle03
  8
寸法
  6
CONTINUOUS
 10
-133.3375
 20
-31.125
  1
125
 40
3.0
 72
     5
 11
-128.4625
 21
-31.125
  0
ENDBLK
  0
BLOCK
  2
*DIM_0013
 70
    65
 10
0.0
 20
0.0
  0
LINE
  8
寸法
  6
CONTINUOUS
 10
-22.605182
 20
-110.655165
 11
-2.35455
 21
-110.655165
  0
LINE
  8
寸法
  6
CONTINUOUS
 10
-20.500185
 20
-100.520137
 11
-2.35455
 21
-100.520137
  0
LINE
  8
寸法
  6
CONTINUOUS
 10
-2.35455
 20
-110.655165
 11
-2.35455
 21
-100.520137
  0
POINT
  8
寸法
 10
-2.35455
 20
-110.655165
  0
POINT
  8
寸法
 10
-2.35455
 20
-100.520137
  0
TEXT
  7
TextStyle03
  8
寸法
  6
CONTINUOUS
 10
-2.75
 20
-109.725
  1
202.7
 40
3.0
 50
90.0
 72
     5
 11
-2.75
 21
-101.475
  0
ENDBLK
  0
BLOCK
  2
*DIM_0014
 70
    65
 10
0.0
 20
0.0
  0
LINE
  8
寸法
  6
CONTINUOUS
 10
-76.750185
 20
-43.951923
 11
-2.35455
 21
-43.951923
  0
LINE
  8
寸法
  6
CONTINUOUS
 10
-2.35455
 20
-100.520137
 11
-2.35455
 21
-43.951923
  0
POINT
  8
寸法
 10
-2.35455
 20
-43.951923
  0
TEXT
  7
TextStyle03
  8
寸法
  6
CONTINUOUS
 10
-2.75
 20
-77.21875
  1
1131.4
 40
3.0
 50
90.0
 72
     5
 11
-2.75
 21
-67.28125
  0
ENDBLK
  0
BLOCK
  2
*DIM_0015
 70
    65
 10
0.0
 20
0.0
  0
LINE
  8
寸法
  6
CONTINUOUS
 10
-80.000185
 20
-45.201923
 11
-80.000185
 21
-39.07819
  0
LINE
  8
寸法
  6
CONTINUOUS
 10
-75.499597
 20
-45.201923
 11
-75.499597
 21
-39.07819
  0
LINE
  8
寸法
  6
CONTINUOUS
 10
-80.000185
 20
-39.07819
 11
-75.499597
 21
-39.07819
  0
POINT
  8
寸法
 10
-80.000185
 20
-39.07819
  0
POINT
  8
寸法
 10
-75.499597
 20
-39.07819
  0
TEXT
  7
TextStyle03
  8
寸法
  6
CONTINUOUS
 10
-79.34375
 20
-38.725
  1
90
 40
3.0
 72
     5
 11
-76.15625
 21
-38.725
  0
ENDBLK
  0
BLOCK
  2
*DIM_0016
 70
    65
 10
0.0
 20
0.0
  0
LINE
  8
寸法
  6
CONTINUOUS
 10
-76.750185
 20
-43.951923
 11
-64.782335
 21
-43.951923
  0
LINE
  8
寸法
  6
CONTINUOUS
 10
-74.499597
 20
-46.201923
 11
-64.782335
 21
-46.201923
  0
LINE
  8
寸法
  6
CONTINUOUS
 10
-64.782335
 20
-43.951923
 11
-64.782335
 21
-46.201923
  0
POINT
  8
寸法
 10
-64.782335
 20
-43.951923
  0
POINT
  8
寸法
 10
-64.782335
 20
-46.201923
  0
TEXT
  7
TextStyle03
  8
寸法
  6
CONTINUOUS
 10
-64.925
 20
-50.24375
  1
45
 40
3.0
 50
90.0
 72
     5
 11
-64.925
 21
-47.05625
  0
ENDBLK
  0
BLOCK
  2
*GRP_0017
 70
    65
 10
0.0
 20
0.0
  0
LINE
  8
補助線
  6
DOT
 62
    64
 10
70.73971
 20
-106.75651
 11
70.55395
 21
-106.923815
  0
LINE
  8
補助線
  6
DOT
 62
    64
 10
70.563177
 20
-106.747282
 11
70.730482
 21
-106.933043
  0
LINE
  8
補助線
  6
DOT
 62
    64
 10
86.6266
 20
-92.44878
 11
86.812368
 21
-92.281475
  0
LINE
  8
補助線
  6
DOT
 62
    64
 10
86.635835
 20
-92.272242
 11
86.803138
 21
-92.458013
  0
LINE
  8
補助線
  6
DOT
 62
    64
 10
102.699458
 20
-77.973963
 11
102.885227
 21
-77.806668
  0
LINE
  8
補助線
  6
DOT
 62
    64
 10
102.708695
 20
-77.79743
 11
102.875987
 21
-77.9832
  0
LINE
  8
型材断面
  6
DOT
 10
69.438777
 20
-106.245928
 11
69.383385
 21
-107.305138
  0
LINE
  8
型材断面
  6
DOT
 10
69.383385
 20
-107.305138
 11
70.052595
 21
-108.048215
  0
LINE
  8
型材断面
  6
DOT
 10
70.052595
 20
-108.048215
 11
71.111805
 21
-108.103608
  0
LINE
  8
型材断面
  6
DOT
 10
102.327383
 20
-76.62686
 11
103.386593
 21
-76.682275
  0
LINE
  8
型材断面
  6
DOT
 10
103.386593
 20
-76.682275
 11
104.055795
 21
-77.425355
  0
LINE
  8
型材断面
  6
DOT
 10
104.055795
 20
-77.425355
 11
104.000382
 21
-78.484565
  0
LINE
  8
型材断面
  6
DOT
 10
69.438777
 20
-106.245928
 11
102.326943
 21
-76.626837
  0
LINE
  8
型材断面
  6
DOT
 10
71.111805
 20
-108.103608
 11
104.000405
 21
-78.48414
  0
LINE
  8
ボルト／ビス
  6
DOT
 62
    64
 10
70.337738
 20
-106.49695
 11
70.195055
 21
-106.936243
  0
LINE
  8
ボルト／ビス
  6
DOT
 62
    64
 10
70.337738
 20
-106.49695
 11
70.78951
 21
-106.400875
  0
LINE
  8
ボルト／ビス
  6
DOT
 62
    64
 10
70.955923
 20
-107.183375
 11
70.50415
 21
-107.27945
  0
LINE
  8
ボルト／ビス
  6
DOT
 62
    64
 10
70.955923
 20
-107.183375
 11
71.098605
 21
-106.744082
  0
CIRCLE
  8
ボルト／ビス
  6
DOT
 62
    64
 10
70.64683
 20
-106.840163
 40
0.4
  0
LINE
  8
ボルト／ビス
  6
DOT
 62
    64
 10
70.78951
 20
-106.400875
 11
71.098605
 21
-106.744082
  0
LINE
  8
ボルト／ビス
  6
DOT
 62
    64
 10
70.195055
 20
-106.936243
 11
70.50415
 21
-107.27945
  0
LINE
  8
ボルト／ビス
  6
DOT
 62
    64
 10
86.410388
 20
-92.02192
 11
86.862168
 21
-91.925838
  0
LINE
  8
ボルト／ビス
  6
DOT
 62
    64
 10
86.410388
 20
-92.02192
 11
86.267705
 21
-92.461205
  0
LINE
  8
ボルト／ビス
  6
DOT
 62
    64
 10
87.02858
 20
-92.708338
 11
87.17126
 21
-92.269048
  0
LINE
  8
ボルト／ビス
  6
DOT
 62
    64
 10
87.02858
 20
-92.708338
 11
86.576805
 21
-92.804415
  0
CIRCLE
  8
ボルト／ビス
  6
DOT
 62
    64
 10
86.719487
 20
-92.365128
 40
0.4
  0
LINE
  8
ボルト／ビス
  6
DOT
 62
    64
 10
86.267705
 20
-92.461205
 11
86.576805
 21
-92.804415
  0
LINE
  8
ボルト／ビス
  6
DOT
 62
    64
 10
86.862168
 20
-91.925838
 11
87.17126
 21
-92.269048
  0
LINE
  8
ボルト／ビス
  6
DOT
 62
    64
 10
102.48325
 20
-77.547102
 11
102.93503
 21
-77.451027
  0
LINE
  8
ボルト／ビス
  6
DOT
 62
    64
 10
102.48325
 20
-77.547102
 11
102.34057
 21
-77.986388
  0
LINE
  8
ボルト／ビス
  6
DOT
 62
    64
 10
103.101435
 20
-78.23353
 11
103.244117
 21
-77.794243
  0
LINE
  8
ボルト／ビス
  6
DOT
 62
    64
 10
103.101435
 20
-78.23353
 11
102.649655
 21
-78.329602
  0
CIRCLE
  8
ボルト／ビス
  6
DOT
 62
    64
 10
102.792343
 20
-77.890315
 40
0.4
  0
LINE
  8
ボルト／ビス
  6
DOT
 62
    64
 10
102.34057
 20
-77.986388
 11
102.649655
 21
-78.329602
  0
LINE
  8
ボルト／ビス
  6
DOT
 62
    64
 10
102.93503
 20
-77.451027
 11
103.244117
 21
-77.794243
  0
ENDBLK
  0
BLOCK
  2
*GRP_0018
 70
    65
 10
0.0
 20
0.0
  0
LINE
  8
補助線
  6
DOT
 62
    64
 10
102.69926
 20
-106.75651
 11
102.88502
 21
-106.923815
  0
LINE
  8
補助線
  6
DOT
 62
    64
 10
102.875792
 20
-106.747282
 11
102.708488
 21
-106.933043
  0
LINE
  8
補助線
  6
DOT
 62
    64
 10
86.81237
 20
-92.44878
 11
86.626603
 21
-92.281475
  0
LINE
  8
補助線
  6
DOT
 62
    64
 10
86.803135
 20
-92.272242
 11
86.635832
 21
-92.458013
  0
LINE
  8
補助線
  6
DOT
 62
    64
 10
70.739512
 20
-77.973963
 11
70.553743
 21
-77.806668
  0
LINE
  8
補助線
  6
DOT
 62
    64
 10
70.730275
 20
-77.79743
 11
70.562983
 21
-77.9832
  0
LINE
  8
型材断面
  6
DOT
 10
104.000193
 20
-106.245928
 11
104.055585
 21
-107.305138
  0
LINE
  8
型材断面
  6
DOT
 10
104.055585
 20
-107.305138
 11
103.386375
 21
-108.048215
  0
LINE
  8
型材断面
  6
DOT
 10
103.386375
 20
-108.048215
 11
102.327165
 21
-108.103608
  0
LINE
  8
型材断面
  6
DOT
 10
71.111587
 20
-76.62686
 11
70.052377
 21
-76.682275
  0
LINE
  8
型材断面
  6
DOT
 10
70.052377
 20
-76.682275
 11
69.383175
 21
-77.425355
  0
LINE
  8
型材断面
  6
DOT
 10
69.383175
 20
-77.425355
 11
69.438587
 21
-78.484565
  0
LINE
  8
型材断面
  6
DOT
 10
104.000193
 20
-106.245928
 11
71.112027
 21
-76.626837
  0
LINE
  8
型材断面
  6
DOT
 10
102.327165
 20
-108.103608
 11
69.438565
 21
-78.48414
  0
LINE
  8
ボルト／ビス
  6
DOT
 62
    64
 10
103.101232
 20
-106.49695
 11
103.243915
 21
-106.936243
  0
LINE
  8
ボルト／ビス
  6
DOT
 62
    64
 10
103.101232
 20
-106.49695
 11
102.64946
 21
-106.400875
  0
LINE
  8
ボルト／ビス
  6
DOT
 62
    64
 10
102.483048
 20
-107.183375
 11
102.93482
 21
-107.27945
  0
LINE
  8
ボルト／ビス
  6
DOT
 62
    64
 10
102.483048
 20
-107.183375
 11
102.340365
 21
-106.744082
  0
CIRCLE
  8
ボルト／ビス
  6
DOT
 62
    64
 10
102.79214
 20
-106.840163
 40
0.4
  0
LINE
  8
ボルト／ビス
  6
DOT
 62
    64
 10
102.64946
 20
-106.400875
 11
102.340365
 21
-106.744082
  0
LINE
  8
ボルト／ビス
  6
DOT
 62
    64
 10
103.243915
 20
-106.936243
 11
102.93482
 21
-107.27945
  0
LINE
  8
ボルト／ビス
  6
DOT
 62
    64
 10
87.028583
 20
-92.02192
 11
86.576802
 21
-91.925838
  0
LINE
  8
ボルト／ビス
  6
DOT
 62
    64
 10
87.028583
 20
-92.02192
 11
87.171265
 21
-92.461205
  0
LINE
  8
ボルト／ビス
  6
DOT
 62
    64
 10
86.41039
 20
-92.708338
 11
86.26771
 21
-92.269048
  0
LINE
  8
ボルト／ビス
  6
DOT
 62
    64
 10
86.41039
 20
-92.708338
 11
86.862165
 21
-92.804415
  0
CIRCLE
  8
ボルト／ビス
  6
DOT
 62
    64
 10
86.719483
 20
-92.365128
 40
0.4
  0
LINE
  8
ボルト／ビス
  6
DOT
 62
    64
 10
87.171265
 20
-92.461205
 11
86.862165
 21
-92.804415
  0
LINE
  8
ボルト／ビス
  6
DOT
 62
    64
 10
86.576802
 20
-91.925838
 11
86.26771
 21
-92.269048
  0
LINE
  8
ボルト／ビス
  6
DOT
 62
    64
 10
70.95572
 20
-77.547102
 11
70.50394
 21
-77.451027
  0
LINE
  8
ボルト／ビス
  6
DOT
 62
    64
 10
70.95572
 20
-77.547102
 11
71.0984
 21
-77.986388
  0
LINE
  8
ボルト／ビス
  6
DOT
 62
    64
 10
70.337535
 20
-78.23353
 11
70.194852
 21
-77.794243
  0
LINE
  8
ボルト／ビス
  6
DOT
 62
    64
 10
70.337535
 20
-78.23353
 11
70.789315
 21
-78.329602
  0
CIRCLE
  8
ボルト／ビス
  6
DOT
 62
    64
 10
70.646628
 20
-77.890315
 40
0.4
  0
LINE
  8
ボルト／ビス
  6
DOT
 62
    64
 10
71.0984
 20
-77.986388
 11
70.789315
 21
-78.329602
  0
LINE
  8
ボルト／ビス
  6
DOT
 62
    64
 10
70.50394
 20
-77.451027
 11
70.194852
 21
-77.794243
  0
ENDBLK
  0
BLOCK
  2
*GRP_0019
 70
    65
 10
0.0
 20
0.0
  0
LINE
  8
補助線
  6
DOT
 62
    64
 10
163.503395
 20
-106.75651
 11
163.689155
 21
-106.923815
  0
LINE
  8
補助線
  6
DOT
 62
    64
 10
163.679927
 20
-106.747282
 11
163.512622
 21
-106.933043
  0
LINE
  8
補助線
  6
DOT
 62
    64
 10
147.616505
 20
-92.44878
 11
147.430738
 21
-92.281475
  0
LINE
  8
補助線
  6
DOT
 62
    64
 10
147.60727
 20
-92.272242
 11
147.439968
 21
-92.458013
  0
LINE
  8
補助線
  6
DOT
 62
    64
 10
131.543648
 20
-77.973963
 11
131.357878
 21
-77.806668
  0
LINE
  8
補助線
  6
DOT
 62
    64
 10
131.53441
 20
-77.79743
 11
131.367117
 21
-77.9832
  0
LINE
  8
型材断面
  6
DOT
 10
164.804328
 20
-106.245928
 11
164.85972
 21
-107.305138
  0
LINE
  8
型材断面
  6
DOT
 10
164.85972
 20
-107.305138
 11
164.19051
 21
-108.048215
  0
LINE
  8
型材断面
  6
DOT
 10
164.19051
 20
-108.048215
 11
163.1313
 21
-108.103608
  0
LINE
  8
型材断面
  6
DOT
 10
131.915723
 20
-76.62686
 11
130.856512
 21
-76.682275
  0
LINE
  8
型材断面
  6
DOT
 10
130.856512
 20
-76.682275
 11
130.18731
 21
-77.425355
  0
LINE
  8
型材断面
  6
DOT
 10
130.18731
 20
-77.425355
 11
130.242722
 21
-78.484565
  0
LINE
  8
型材断面
  6
DOT
 10
164.804328
 20
-106.245928
 11
131.916163
 21
-76.626837
  0
LINE
  8
型材断面
  6
DOT
 10
163.1313
 20
-108.103608
 11
130.2427
 21
-78.48414
  0
LINE
  8
ボルト／ビス
  6
DOT
 62
    64
 10
163.905367
 20
-106.49695
 11
164.04805
 21
-106.936243
  0
LINE
  8
ボルト／ビス
  6
DOT
 62
    64
 10
163.905367
 20
-106.49695
 11
163.453595
 21
-106.400875
  0
LINE
  8
ボルト／ビス
  6
DOT
 62
    64
 10
163.287183
 20
-107.183375
 11
163.738955
 21
-107.27945
  0
LINE
  8
ボルト／ビス
  6
DOT
 62
    64
 10
163.287183
 20
-107.183375
 11
163.1445
 21
-106.744082
  0
CIRCLE
  8
ボルト／ビス
  6
DOT
 62
    64
 10
163.596275
 20
-106.840163
 40
0.4
  0
LINE
  8
ボルト／ビス
  6
DOT
 62
    64
 10
163.453595
 20
-106.400875
 11
163.1445
 21
-106.744082
  0
LINE
  8
ボルト／ビス
  6
DOT
 62
    64
 10
164.04805
 20
-106.936243
 11
163.738955
 21
-107.27945
  0
LINE
  8
ボルト／ビス
  6
DOT
 62
    64
 10
147.832718
 20
-92.02192
 11
147.380938
 21
-91.925838
  0
LINE
  8
ボルト／ビス
  6
DOT
 62
    64
 10
147.832718
 20
-92.02192
 11
147.9754
 21
-92.461205
  0
LINE
  8
ボルト／ビス
  6
DOT
 62
    64
 10
147.214525
 20
-92.708338
 11
147.071845
 21
-92.269048
  0
LINE
  8
ボルト／ビス
  6
DOT
 62
    64
 10
147.214525
 20
-92.708338
 11
147.6663
 21
-92.804415
  0
CIRCLE
  8
ボルト／ビス
  6
DOT
 62
    64
 10
147.523618
 20
-92.365128
 40
0.4
  0
LINE
  8
ボルト／ビス
  6
DOT
 62
    64
 10
147.9754
 20
-92.461205
 11
147.6663
 21
-92.804415
  0
LINE
  8
ボルト／ビス
  6
DOT
 62
    64
 10
147.380938
 20
-91.925838
 11
147.071845
 21
-92.269048
  0
LINE
  8
ボルト／ビス
  6
DOT
 62
    64
 10
131.759855
 20
-77.547102
 11
131.308075
 21
-77.451027
  0
LINE
  8
ボルト／ビス
  6
DOT
 62
    64
 10
131.759855
 20
-77.547102
 11
131.902535
 21
-77.986388
  0
LINE
  8
ボルト／ビス
  6
DOT
 62
    64
 10
131.14167
 20
-78.23353
 11
130.998987
 21
-77.794243
  0
LINE
  8
ボルト／ビス
  6
DOT
 62
    64
 10
131.14167
 20
-78.23353
 11
131.59345
 21
-78.329602
  0
CIRCLE
  8
ボルト／ビス
  6
DOT
 62
    64
 10
131.450763
 20
-77.890315
 40
0.4
  0
LINE
  8
ボルト／ビス
  6
DOT
 62
    64
 10
131.902535
 20
-77.986388
 11
131.59345
 21
-78.329602
  0
LINE
  8
ボルト／ビス
  6
DOT
 62
    64
 10
131.308075
 20
-77.451027
 11
130.998987
 21
-77.794243
  0
ENDBLK
  0
BLOCK
  2
*GRP_0020
 70
    65
 10
0.0
 20
0.0
  0
LINE
  8
補助線
  6
DOT
 62
    64
 10
131.543845
 20
-106.75651
 11
131.358085
 21
-106.923815
  0
LINE
  8
補助線
  6
DOT
 62
    64
 10
131.367312
 20
-106.747282
 11
131.534618
 21
-106.933043
  0
LINE
  8
補助線
  6
DOT
 62
    64
 10
147.430735
 20
-92.44878
 11
147.616503
 21
-92.281475
  0
LINE
  8
補助線
  6
DOT
 62
    64
 10
147.43997
 20
-92.272242
 11
147.607272
 21
-92.458013
  0
LINE
  8
補助線
  6
DOT
 62
    64
 10
163.503593
 20
-77.973963
 11
163.689363
 21
-77.806668
  0
LINE
  8
補助線
  6
DOT
 62
    64
 10
163.51283
 20
-77.79743
 11
163.680122
 21
-77.9832
  0
LINE
  8
型材断面
  6
DOT
 10
130.242913
 20
-106.245928
 11
130.18752
 21
-107.305138
  0
LINE
  8
型材断面
  6
DOT
 10
130.18752
 20
-107.305138
 11
130.85673
 21
-108.048215
  0
LINE
  8
型材断面
  6
DOT
 10
130.85673
 20
-108.048215
 11
131.91594
 21
-108.103608
  0
LINE
  8
型材断面
  6
DOT
 10
163.131517
 20
-76.62686
 11
164.190727
 21
-76.682275
  0
LINE
  8
型材断面
  6
DOT
 10
164.190727
 20
-76.682275
 11
164.85993
 21
-77.425355
  0
LINE
  8
型材断面
  6
DOT
 10
164.85993
 20
-77.425355
 11
164.804517
 21
-78.484565
  0
LINE
  8
型材断面
  6
DOT
 10
130.242913
 20
-106.245928
 11
163.131078
 21
-76.626837
  0
LINE
  8
型材断面
  6
DOT
 10
131.91594
 20
-108.103608
 11
164.80454
 21
-78.48414
  0
LINE
  8
ボルト／ビス
  6
DOT
 62
    64
 10
131.141872
 20
-106.49695
 11
130.99919
 21
-106.936243
  0
LINE
  8
ボルト／ビス
  6
DOT
 62
    64
 10
131.141872
 20
-106.49695
 11
131.593645
 21
-106.400875
  0
LINE
  8
ボルト／ビス
  6
DOT
 62
    64
 10
131.760058
 20
-107.183375
 11
131.308285
 21
-107.27945
  0
LINE
  8
ボルト／ビス
  6
DOT
 62
    64
 10
131.760058
 20
-107.183375
 11
131.90274
 21
-106.744082
  0
CIRCLE
  8
ボルト／ビス
  6
DOT
 62
    64
 10
131.450965
 20
-106.840163
 40
0.4
  0
LINE
  8
ボルト／ビス
  6
DOT
 62
    64
 10
131.593645
 20
-106.400875
 11
131.90274
 21
-106.744082
  0
LINE
  8
ボルト／ビス
  6
DOT
 62
    64
 10
130.99919
 20
-106.936243
 11
131.308285
 21
-107.27945
  0
LINE
  8
ボルト／ビス
  6
DOT
 62
    64
 10
147.214523
 20
-92.02192
 11
147.666302
 21
-91.925838
  0
LINE
  8
ボルト／ビス
  6
DOT
 62
    64
 10
147.214523
 20
-92.02192
 11
147.07184
 21
-92.461205
  0
LINE
  8
ボルト／ビス
  6
DOT
 62
    64
 10
147.832715
 20
-92.708338
 11
147.975395
 21
-92.269048
  0
LINE
  8
ボルト／ビス
  6
DOT
 62
    64
 10
147.832715
 20
-92.708338
 11
147.38094
 21
-92.804415
  0
CIRCLE
  8
ボルト／ビス
  6
DOT
 62
    64
 10
147.523623
 20
-92.365128
 40
0.4
  0
LINE
  8
ボルト／ビス
  6
DOT
 62
    64
 10
147.07184
 20
-92.461205
 11
147.38094
 21
-92.804415
  0
LINE
  8
ボルト／ビス
  6
DOT
 62
    64
 10
147.666302
 20
-91.925838
 11
147.975395
 21
-92.269048
  0
LINE
  8
ボルト／ビス
  6
DOT
 62
    64
 10
163.287385
 20
-77.547102
 11
163.739165
 21
-77.451027
  0
LINE
  8
ボルト／ビス
  6
DOT
 62
    64
 10
163.287385
 20
-77.547102
 11
163.144705
 21
-77.986388
  0
LINE
  8
ボルト／ビス
  6
DOT
 62
    64
 10
163.90557
 20
-78.23353
 11
164.048252
 21
-77.794243
  0
LINE
  8
ボルト／ビス
  6
DOT
 62
    64
 10
163.90557
 20
-78.23353
 11
163.45379
 21
-78.329602
  0
CIRCLE
  8
ボルト／ビス
  6
DOT
 62
    64
 10
163.596478
 20
-77.890315
 40
0.4
  0
LINE
  8
ボルト／ビス
  6
DOT
 62
    64
 10
163.144705
 20
-77.986388
 11
163.45379
 21
-78.329602
  0
LINE
  8
ボルト／ビス
  6
DOT
 62
    64
 10
163.739165
 20
-77.451027
 11
164.048252
 21
-77.794243
  0
ENDBLK
  0
BLOCK
  2
*GRP_0021
 70
    65
 10
0.0
 20
0.0
  0
LINE
  8
型材断面
  6
DOT
 10
173.369988
 20
-75.449405
 11
173.42302
 21
-75.39637
  0
LINE
  8
型材断面
  6
DOT
 10
117.119988
 20
-20.366137
 11
117.119988
 21
-18.951923
  0
LINE
  8
型材断面
  6
DOT
 10
117.119988
 20
-20.366137
 11
117.119988
 21
-18.951923
  0
LINE
  8
型材断面
  6
DOT
 10
114.869988
 20
-21.201923
 11
114.940697
 21
-21.272632
  0
LINE
  8
型材断面
  6
DOT
 10
114.940697
 20
-21.272632
 11
116.21349
 21
-21.272632
  0
LINE
  8
型材断面
  6
DOT
 10
117.119988
 20
-18.951923
 11
114.869988
 21
-21.201923
  0
LINE
  8
型材断面
  6
DOT
 10
117.119988
 20
-20.366135
 11
116.21349
 21
-21.272632
  0
LINE
  8
型材断面
  6
DOT
 10
119.370575
 20
-21.201923
 11
119.299865
 21
-21.272632
  0
LINE
  8
型材断面
  6
DOT
 10
119.299865
 20
-21.272632
 11
118.027073
 21
-21.272632
  0
LINE
  8
型材断面
  6
DOT
 10
117.119988
 20
-20.366135
 11
118.026485
 21
-21.272632
  0
LINE
  8
型材断面
  6
DOT
 10
117.119988
 20
-18.951923
 11
119.370283
 21
-21.202218
  0
LINE
  8
型材断面
  6
DOT
 10
117.121552
 20
-25.087652
 11
117.121552
 21
-21.60886
  0
LINE
  8
型材断面
  6
DOT
 10
60.869993
 20
-75.520137
 11
173.369988
 21
-75.520137
  0
LINE
  8
型材断面
  6
DOT
 10
60.869993
 20
-78.837332
 11
173.369988
 21
-78.837332
  0
LINE
  8
型材断面
  6
DOT
 10
173.369988
 20
-75.520137
 11
173.369988
 21
-78.837332
  0
LINE
  8
型材断面
  6
DOT
 10
172.119988
 20
-78.837315
 11
172.119988
 21
-79.537315
  0
LINE
  8
型材断面
  6
DOT
 10
62.11999
 20
-79.537315
 11
172.119988
 21
-79.537315
  0
LINE
  8
型材断面
  6
DOT
 10
60.869988
 20
-75.520137
 11
60.869988
 21
-78.837332
  0
LINE
  8
型材断面
  6
DOT
 10
62.119988
 20
-78.837315
 11
62.119988
 21
-79.537315
  0
LINE
  8
型材断面
  6
DOT
 10
60.816955
 20
-75.39637
 11
114.9407
 21
-21.272632
  0
LINE
  8
型材断面
  6
DOT
 10
60.869988
 20
-75.449405
 11
115.046765
 21
-21.272632
  0
LINE
  8
型材断面
  6
DOT
 10
173.369988
 20
-75.449405
 11
119.193215
 21
-21.272632
  0
LINE
  8
型材断面
  6
DOT
 10
173.42302
 20
-75.39637
 11
119.299275
 21
-21.272632
  0
LINE
  8
ゴム等
  6
DOT
 10
117.119988
 20
-22.423885
 11
65.166085
 21
-74.377783
  0
LINE
  8
ゴム等
  6
DOT
 10
117.119988
 20
-20.83172
 11
62.65468
 21
-75.297022
  0
LINE
  8
ゴム等
  6
DOT
 10
62.65468
 20
-75.297022
 11
65.166085
 21
-74.377783
  0
LINE
  8
ゴム等
  6
DOT
 10
65.166085
 20
-74.377783
 11
67.684212
 21
-73.78544
  0
LINE
  8
ゴム等
  6
DOT
 10
117.119988
 20
-22.423885
 11
169.07389
 21
-74.377783
  0
LINE
  8
ゴム等
  6
DOT
 10
65.166085
 20
-74.377783
 11
169.07389
 21
-74.377783
  0
LINE
  8
ゴム等
  6
DOT
 10
117.119988
 20
-20.83172
 11
171.585295
 21
-75.297022
  0
LINE
  8
ゴム等
  6
DOT
 10
62.65468
 20
-75.297022
 11
171.585295
 21
-75.297022
  0
LINE
  8
ゴム等
  6
DOT
 10
166.555762
 20
-73.78544
 11
169.07389
 21
-74.377783
  0
LINE
  8
ゴム等
  6
DOT
 10
169.07389
 20
-74.377783
 11
171.585295
 21
-75.297022
  0
LINE
  8
ゴム等
  6
DOT
 10
166.555762
 20
-73.78544
 11
119.06833
 21
-26.298013
  0
LINE
  8
ゴム等
  6
DOT
 10
67.684212
 20
-73.78544
 11
115.171645
 21
-26.298013
  0
LINE
  8
ゴム等
  6
DOT
 10
115.171645
 20
-26.298013
 11
116.469985
 21
-23.073888
  0
LINE
  8
ゴム等
  6
DOT
 10
119.06833
 20
-26.298013
 11
117.76999
 21
-23.073888
  0
LINE
  8
ゴム等
  6
DOT
 10
119.06833
 20
-26.298013
 11
119.06833
 21
-73.78544
  0
LINE
  8
ゴム等
  6
DOT
 10
166.555762
 20
-73.78544
 11
119.06833
 21
-73.78544
  0
LINE
  8
ゴム等
  6
DOT
 10
115.171645
 20
-26.298013
 11
115.171645
 21
-73.78544
  0
LINE
  8
ゴム等
  6
DOT
 10
67.684212
 20
-73.78544
 11
115.171645
 21
-73.78544
  0
LINE
  8
ゴム等
  6
DOT
 10
116.469985
 20
-23.073888
 11
116.469985
 21
-74.377783
  0
LINE
  8
ゴム等
  6
DOT
 10
117.76999
 20
-23.073888
 11
117.76999
 21
-74.377783
  0
LINE
  8
ゴム等
  6
DOT
 10
117.76999
 20
-74.377783
 11
119.06833
 21
-73.78544
  0
LINE
  8
ゴム等
  6
DOT
 10
115.171645
 20
-73.78544
 11
116.469985
 21
-74.377783
  0
ENDBLK
  0
BLOCK
  2
*DIM_0022
 70
    65
 10
0.0
 20
0.0
  0
LINE
  8
寸法
  6
BYBLOCK
 62
     0
 10
173.94988
 20
-79.537313
 11
186.51351
 21
-79.537313
  0
LINE
  8
寸法
  6
BYBLOCK
 62
     0
 10
173.94988
 20
-104.537315
 11
186.51351
 21
-104.537315
  0
LINE
  8
寸法
  6
BYBLOCK
 62
     0
 10
186.51351
 20
-79.537313
 11
186.51351
 21
-104.537315
  0
POINT
  8
寸法
 62
     0
 10
186.51351
 20
-79.537313
  0
POINT
  8
寸法
 62
     0
 10
186.51351
 20
-104.537315
  0
TEXT
  7
TextStyle03
  8
寸法
  6
CONTINUOUS
 62
     0
 10
186.125
 20
-101.2375
  1
上昇高さ500
 40
3.0
 50
90.0
 72
     5
 11
186.125
 21
-82.8625
  0
ENDBLK
  0
BLOCK
  2
*DIM_0023
 70
    65
 10
0.0
 20
0.0
  0
LINE
  8
寸法
  6
CONTINUOUS
 10
155.222925
 20
82.379838
 11
165.097025
 21
82.379838
  0
LINE
  8
寸法
  6
CONTINUOUS
 10
155.222925
 20
11.617583
 11
165.097025
 21
11.617583
  0
LINE
  8
寸法
  6
CONTINUOUS
 10
165.097025
 20
82.379838
 11
165.097025
 21
11.617583
  0
POINT
  8
寸法
 10
165.097025
 20
82.379838
  0
POINT
  8
寸法
 10
165.097025
 20
11.617583
  0
TEXT
  7
TextStyle03
  8
寸法
  6
CONTINUOUS
 10
164.725
 20
42.00625
  1
1415.2
 40
3.0
 50
90.0
 72
     5
 11
164.725
 21
51.94375
  0
ENDBLK
  0
BLOCK
  2
*DIM_0024
 70
    65
 10
0.0
 20
0.0
  0
LINE
  8
寸法
  6
CONTINUOUS
 10
104.186448
 20
10.617583
 11
104.186448
 21
-0.00031
  0
LINE
  8
寸法
  6
CONTINUOUS
 10
154.222925
 20
10.85394
 11
154.222925
 21
-0.00031
  0
LINE
  8
寸法
  6
CONTINUOUS
 10
104.186448
 20
-0.00031
 11
154.222925
 21
-0.00031
  0
POINT
  8
寸法
 10
104.186448
 20
-0.00031
  0
POINT
  8
寸法
 10
154.222925
 20
-0.00031
  0
TEXT
  7
TextStyle03
  8
寸法
  6
CONTINUOUS
 10
124.25625
 20
0.35
  1
1000.7
 40
3.0
 72
     5
 11
134.19375
 21
0.35
  0
ENDBLK
  0
ENDSEC
  0
SECTION
  2
ENTITIES
  0
POLYLINE
  8
通り芯
  6
CONTINUOUS
 66
     1
 70
     1
  0
VERTEX
  8
通り芯
 10
-210.0
 20
-148.5
  0
VERTEX
  8
通り芯
 10
210.0
 20
-148.5
  0
VERTEX
  8
通り芯
 10
210.0
 20
148.5
  0
VERTEX
  8
通り芯
 10
-210.0
 20
148.5
  0
SEQEND
  0
INSERT
  2
*GRP_0001
  8
型材断面
  6
CONTINUOUS
 10
0.0
 20
0.0
  0
LINE
  8
型材断面
  6
CONTINUOUS
 10
-135.77406
 20
-1.775757
 11
-139.65982
 21
-0.881672
  0
LINE
  8
型材断面
  6
CONTINUOUS
 10
-135.77406
 20
-1.775757
 11
-139.65982
 21
-2.669842
  0
LINE
  8
型材断面
  6
CONTINUOUS
 10
-139.65982
 20
-2.669842
 11
-139.65982
 21
-0.881672
  0
LINE
  8
型材断面
  6
DASHDOT
 10
-127.750185
 20
-7.325755
 11
-27.750185
 21
-7.325755
  0
LINE
  8
型材断面
  6
DASHDOT
 10
-127.750185
 20
42.674245
 11
-27.750185
 21
42.674245
  0
LINE
  8
型材断面
  6
DASHDOT
 10
-127.750185
 20
92.674245
 11
-27.750185
 21
92.674245
  0
LINE
  8
型材断面
  6
CONTINUOUS
 10
-77.750185
 20
-15.34963
 11
-79.99363
 21
-19.23539
  0
LINE
  8
型材断面
  6
CONTINUOUS
 10
-77.750185
 20
-15.34963
 11
-75.50674
 21
-19.23539
  0
LINE
  8
型材断面
  6
CONTINUOUS
 10
-75.50674
 20
-19.23539
 11
-79.99363
 21
-19.23539
  0
LINE
  8
型材断面
  6
CONTINUOUS
 10
-135.774063
 20
42.674245
 11
-139.659822
 21
40.4308
  0
LINE
  8
型材断面
  6
CONTINUOUS
 10
-135.774063
 20
42.674245
 11
-139.659822
 21
44.91769
  0
LINE
  8
型材断面
  6
CONTINUOUS
 10
-139.659822
 20
44.91769
 11
-139.659822
 21
40.4308
  0
LINE
  8
型材断面
  6
CONTINUOUS
 10
-135.77406
 20
87.124247
 11
-139.65982
 21
86.230163
  0
LINE
  8
型材断面
  6
CONTINUOUS
 10
-135.77406
 20
87.124247
 11
-139.65982
 21
88.018333
  0
LINE
  8
型材断面
  6
CONTINUOUS
 10
-139.65982
 20
88.018333
 11
-139.65982
 21
86.230163
  0
LINE
  8
型材断面
  6
CONTINUOUS
 10
-77.750185
 20
100.69812
 11
-79.99363
 21
104.58388
  0
LINE
  8
型材断面
  6
CONTINUOUS
 10
-77.750185
 20
100.69812
 11
-75.50674
 21
104.58388
  0
LINE
  8
型材断面
  6
CONTINUOUS
 10
-75.50674
 20
104.58388
 11
-79.99363
 21
104.58388
  0
LINE
  8
型材断面
  6
CONTINUOUS
 10
-19.72631
 20
-1.775757
 11
-15.84055
 21
-0.881672
  0
LINE
  8
型材断面
  6
CONTINUOUS
 10
-19.72631
 20
-1.775757
 11
-15.84055
 21
-2.669842
  0
LINE
  8
型材断面
  6
CONTINUOUS
 10
-15.84055
 20
-2.669842
 11
-15.84055
 21
-0.881672
  0
LINE
  8
型材断面
  6
CONTINUOUS
 10
-19.726307
 20
42.674245
 11
-15.840547
 21
40.4308
  0
LINE
  8
型材断面
  6
CONTINUOUS
 10
-19.726307
 20
42.674245
 11
-15.840547
 21
44.91769
  0
LINE
  8
型材断面
  6
CONTINUOUS
 10
-15.840547
 20
44.91769
 11
-15.840547
 21
40.4308
  0
LINE
  8
型材断面
  6
CONTINUOUS
 10
-19.72631
 20
87.124247
 11
-15.84055
 21
86.230163
  0
LINE
  8
型材断面
  6
CONTINUOUS
 10
-19.72631
 20
87.124247
 11
-15.84055
 21
88.018333
  0
LINE
  8
型材断面
  6
CONTINUOUS
 10
-15.84055
 20
88.018333
 11
-15.84055
 21
86.230163
  0
LINE
  8
型材断面
  6
CONTINUOUS
 10
10.516347
 20
-1.556797
 11
8.272903
 21
-5.442558
  0
LINE
  8
型材断面
  6
CONTINUOUS
 10
10.516347
 20
-1.556797
 11
12.759793
 21
-5.442558
  0
LINE
  8
型材断面
  6
CONTINUOUS
 10
12.759793
 20
-5.442558
 11
8.272903
 21
-5.442558
  0
LINE
  8
型材断面
  6
CONTINUOUS
 10
10.516347
 20
-9.246345
 11
11.410433
 21
-13.132105
  0
LINE
  8
型材断面
  6
CONTINUOUS
 10
10.516347
 20
-9.246345
 11
9.622263
 21
-13.132105
  0
LINE
  8
型材断面
  6
CONTINUOUS
 10
9.622263
 20
-13.132105
 11
11.410433
 21
-13.132105
  0
LINE
  8
型材断面
  6
CONTINUOUS
 10
1.482467
 20
-6.85045
 11
54.139148
 21
-6.85045
  0
LINE
  8
型材断面
  6
CONTINUOUS
 10
1.482467
 20
-18.050443
 11
54.139148
 21
-18.050443
  0
LINE
  8
型材断面
  6
CONTINUOUS
 10
1.482467
 20
-24.890387
 11
54.139148
 21
-24.890387
  0
POLYLINE
  8
型材断面
  6
CONTINUOUS
 66
     1
 70
     1
  0
VERTEX
  8
型材断面
 10
-68.343787
 20
-20.054853
  0
VERTEX
  8
型材断面
 10
-86.899
 20
-20.054853
  0
VERTEX
  8
型材断面
 10
-86.899
 20
-24.846887
  0
VERTEX
  8
型材断面
 10
-68.343787
 20
-24.846887
  0
SEQEND
  0
POLYLINE
  8
型材断面
  6
CONTINUOUS
 66
     1
 70
     1
  0
VERTEX
  8
型材断面
 10
-68.343787
 20
110.279602
  0
VERTEX
  8
型材断面
 10
-86.899
 20
110.279602
  0
VERTEX
  8
型材断面
 10
-86.899
 20
105.487567
  0
VERTEX
  8
型材断面
 10
-68.343787
 20
105.487567
  0
SEQEND
  0
LINE
  8
型材断面
  6
CONTINUOUS
 10
1.482467
 20
-31.730332
 11
54.139148
 21
-31.730332
  0
LINE
  8
型材断面
  6
DASHDOT
 10
-127.750185
 20
-110.860337
 11
-127.750185
 21
92.674245
  0
LINE
  8
型材断面
  6
DASHDOT
 10
-27.750185
 20
-110.860337
 11
-27.750185
 21
92.674245
  0
LINE
  8
型材断面
  6
DASHDOT
 10
-77.750185
 20
92.674245
 11
-77.750185
 21
-110.655165
  0
LINE
  8
型材断面
  6
CONTINUOUS
 10
-134.00018
 20
98.92424
 11
-21.50019
 21
98.92424
  0
LINE
  8
型材断面
  6
CONTINUOUS
 10
-21.50019
 20
98.92424
 11
-21.50019
 21
-13.57575
  0
LINE
  8
型材断面
  6
CONTINUOUS
 10
-134.00018
 20
98.92424
 11
-134.00018
 21
-13.57575
  0
LINE
  8
型材断面
  6
CONTINUOUS
 10
-21.50019
 20
-13.57575
 11
-134.00018
 21
-13.57575
  0
LINE
  8
型材断面
  6
CONTINUOUS
 10
-134.00018
 20
-13.57575
 11
-77.750185
 21
42.674245
  0
LINE
  8
型材断面
  6
CONTINUOUS
 10
-21.50019
 20
-13.57575
 11
-77.750185
 21
42.674245
  0
LINE
  8
型材断面
  6
CONTINUOUS
 10
-134.00018
 20
98.92424
 11
-77.750185
 21
42.674245
  0
LINE
  8
型材断面
  6
CONTINUOUS
 10
-21.50019
 20
98.92424
 11
-77.750185
 21
42.674245
  0
LINE
  8
型材断面
  6
DOT
 10
-31.750185
 20
92.674245
 11
-31.750185
 21
-7.325755
  0
LINE
  8
型材断面
  6
DOT
 10
-29.750185
 20
92.674245
 11
-29.750185
 21
-7.325755
  0
LINE
  8
型材断面
  6
DOT
 10
-123.750185
 20
92.674245
 11
-123.750185
 21
-7.325755
  0
LINE
  8
型材断面
  6
DOT
 10
-125.750185
 20
92.674245
 11
-125.750185
 21
-7.325755
  0
LINE
  8
型材断面
  6
CONTINUOUS
 10
-21.500185
 20
-100.449405
 11
-21.447152
 21
-100.39637
  0
LINE
  8
型材断面
  6
CONTINUOUS
 10
-77.750185
 20
-45.366137
 11
-77.750185
 21
-43.951923
  0
LINE
  8
型材断面
  6
CONTINUOUS
 10
-77.750185
 20
-45.366137
 11
-77.750185
 21
-43.951923
  0
LINE
  8
型材断面
  6
CONTINUOUS
 10
-80.000185
 20
-46.201923
 11
-79.929475
 21
-46.272632
  0
LINE
  8
型材断面
  6
CONTINUOUS
 10
-79.929475
 20
-46.272632
 11
-78.656682
 21
-46.272632
  0
LINE
  8
型材断面
  6
CONTINUOUS
 10
-77.750185
 20
-43.951923
 11
-80.000185
 21
-46.201923
  0
LINE
  8
型材断面
  6
CONTINUOUS
 10
-77.750185
 20
-45.366135
 11
-78.656682
 21
-46.272632
  0
LINE
  8
型材断面
  6
CONTINUOUS
 10
-75.499597
 20
-46.201923
 11
-75.570308
 21
-46.272632
  0
LINE
  8
型材断面
  6
CONTINUOUS
 10
-75.570308
 20
-46.272632
 11
-76.8431
 21
-46.272632
  0
LINE
  8
型材断面
  6
CONTINUOUS
 10
-77.750185
 20
-45.366135
 11
-76.843688
 21
-46.272632
  0
LINE
  8
型材断面
  6
CONTINUOUS
 10
-77.750185
 20
-43.951923
 11
-75.49989
 21
-46.202218
  0
LINE
  8
型材断面
  6
CONTINUOUS
 10
-77.74862
 20
-50.087652
 11
-77.74862
 21
-46.60886
  0
LINE
  8
型材断面
  6
CONTINUOUS
 10
-134.00018
 20
-100.520137
 11
-21.500185
 21
-100.520137
  0
LINE
  8
型材断面
  6
CONTINUOUS
 10
-131.895185
 20
-104.800185
 11
-23.605182
 21
-104.800185
  0
LINE
  8
型材断面
  6
CONTINUOUS
 10
-131.895185
 20
-110.655165
 11
-23.605182
 21
-110.655165
  0
LINE
  8
型材断面
  6
CONTINUOUS
 10
-23.605182
 20
-110.655165
 11
-23.605182
 21
-104.800165
  0
LINE
  8
型材断面
  6
CONTINUOUS
 10
-23.605182
 20
-104.800165
 11
-23.868035
 21
-104.537315
  0
LINE
  8
型材断面
  6
CONTINUOUS
 10
-134.00018
 20
-103.837332
 11
-21.500185
 21
-103.837332
  0
LINE
  8
型材断面
  6
CONTINUOUS
 10
-21.500185
 20
-100.520137
 11
-21.500185
 21
-103.837332
  0
LINE
  8
型材断面
  6
CONTINUOUS
 10
-22.750185
 20
-103.837315
 11
-22.750185
 21
-104.537315
  0
LINE
  8
型材断面
  6
CONTINUOUS
 10
-132.750183
 20
-104.537315
 11
-22.750185
 21
-104.537315
  0
LINE
  8
型材断面
  6
CONTINUOUS
 10
-24.855182
 20
-110.655165
 11
-24.855182
 21
-111.160165
  0
LINE
  8
型材断面
  6
CONTINUOUS
 10
-131.895187
 20
-110.655165
 11
-131.895187
 21
-104.800165
  0
LINE
  8
型材断面
  6
CONTINUOUS
 10
-131.895187
 20
-104.800165
 11
-131.632335
 21
-104.537315
  0
LINE
  8
型材断面
  6
CONTINUOUS
 10
-134.000185
 20
-100.520137
 11
-134.000185
 21
-103.837332
  0
LINE
  8
型材断面
  6
CONTINUOUS
 10
-132.750185
 20
-103.837315
 11
-132.750185
 21
-104.537315
  0
LINE
  8
型材断面
  6
CONTINUOUS
 10
-130.645187
 20
-110.655165
 11
-130.645187
 21
-111.160165
  0
LINE
  8
型材断面
  6
CONTINUOUS
 10
-24.855182
 20
-111.160165
 11
-130.645187
 21
-111.160165
  0
LINE
  8
型材断面
  6
CONTINUOUS
 10
-134.053218
 20
-100.39637
 11
-79.929472
 21
-46.272632
  0
LINE
  8
型材断面
  6
CONTINUOUS
 10
-134.000185
 20
-100.449405
 11
-79.823408
 21
-46.272632
  0
LINE
  8
型材断面
  6
CONTINUOUS
 10
-21.500185
 20
-100.449405
 11
-75.676958
 21
-46.272632
  0
LINE
  8
型材断面
  6
CONTINUOUS
 10
-21.447152
 20
-100.39637
 11
-75.570897
 21
-46.272632
  0
LINE
  8
型材断面
  6
CONTINUOUS
 10
173.369988
 20
-100.449405
 11
173.42302
 21
-100.39637
  0
LINE
  8
型材断面
  6
CONTINUOUS
 10
117.119988
 20
-45.366137
 11
117.119988
 21
-43.951923
  0
LINE
  8
型材断面
  6
CONTINUOUS
 10
117.119988
 20
-45.366137
 11
117.119988
 21
-43.951923
  0
LINE
  8
型材断面
  6
CONTINUOUS
 10
114.869988
 20
-46.201923
 11
114.940697
 21
-46.272632
  0
LINE
  8
型材断面
  6
CONTINUOUS
 10
114.940697
 20
-46.272632
 11
116.21349
 21
-46.272632
  0
LINE
  8
型材断面
  6
CONTINUOUS
 10
117.119988
 20
-43.951923
 11
114.869988
 21
-46.201923
  0
LINE
  8
型材断面
  6
CONTINUOUS
 10
117.119988
 20
-45.366135
 11
116.21349
 21
-46.272632
  0
LINE
  8
型材断面
  6
CONTINUOUS
 10
119.370575
 20
-46.201923
 11
119.299865
 21
-46.272632
  0
LINE
  8
型材断面
  6
CONTINUOUS
 10
119.299865
 20
-46.272632
 11
118.027073
 21
-46.272632
  0
LINE
  8
型材断面
  6
CONTINUOUS
 10
117.119988
 20
-45.366135
 11
118.026485
 21
-46.272632
  0
LINE
  8
型材断面
  6
CONTINUOUS
 10
117.119988
 20
-43.951923
 11
119.370283
 21
-46.202218
  0
LINE
  8
型材断面
  6
CONTINUOUS
 10
117.121552
 20
-50.087652
 11
117.121552
 21
-46.60886
  0
LINE
  8
型材断面
  6
CONTINUOUS
 10
60.869993
 20
-100.520137
 11
173.369988
 21
-100.520137
  0
LINE
  8
型材断面
  6
CONTINUOUS
 10
62.974987
 20
-104.800185
 11
171.26499
 21
-104.800185
  0
LINE
  8
型材断面
  6
CONTINUOUS
 10
62.974987
 20
-110.655165
 11
171.26499
 21
-110.655165
  0
LINE
  8
型材断面
  6
CONTINUOUS
 10
171.26499
 20
-110.655165
 11
171.26499
 21
-104.800165
  0
LINE
  8
型材断面
  6
CONTINUOUS
 10
171.26499
 20
-104.800165
 11
171.002138
 21
-104.537315
  0
LINE
  8
型材断面
  6
CONTINUOUS
 10
60.869993
 20
-103.837332
 11
173.369988
 21
-103.837332
  0
LINE
  8
型材断面
  6
CONTINUOUS
 10
173.369988
 20
-100.520137
 11
173.369988
 21
-103.837332
  0
LINE
  8
型材断面
  6
CONTINUOUS
 10
172.119988
 20
-103.837315
 11
172.119988
 21
-104.537315
  0
LINE
  8
型材断面
  6
CONTINUOUS
 10
62.11999
 20
-104.537315
 11
172.119988
 21
-104.537315
  0
LINE
  8
型材断面
  6
CONTINUOUS
 10
170.01499
 20
-110.655165
 11
170.01499
 21
-111.160165
  0
LINE
  8
型材断面
  6
CONTINUOUS
 10
62.974985
 20
-110.655165
 11
62.974985
 21
-104.800165
  0
LINE
  8
型材断面
  6
CONTINUOUS
 10
62.974985
 20
-104.800165
 11
63.237838
 21
-104.537315
  0
LINE
  8
型材断面
  6
CONTINUOUS
 10
60.869988
 20
-100.520137
 11
60.869988
 21
-103.837332
  0
LINE
  8
型材断面
  6
CONTINUOUS
 10
62.119988
 20
-103.837315
 11
62.119988
 21
-104.537315
  0
LINE
  8
型材断面
  6
CONTINUOUS
 10
64.224985
 20
-110.655165
 11
64.224985
 21
-111.160165
  0
LINE
  8
型材断面
  6
CONTINUOUS
 10
170.01499
 20
-111.160165
 11
64.224985
 21
-111.160165
  0
LINE
  8
型材断面
  6
CONTINUOUS
 10
60.816955
 20
-100.39637
 11
114.9407
 21
-46.272632
  0
LINE
  8
型材断面
  6
CONTINUOUS
 10
60.869988
 20
-100.449405
 11
115.046765
 21
-46.272632
  0
LINE
  8
型材断面
  6
CONTINUOUS
 10
173.369988
 20
-100.449405
 11
119.193215
 21
-46.272632
  0
LINE
  8
型材断面
  6
CONTINUOUS
 10
173.42302
 20
-100.39637
 11
119.299275
 21
-46.272632
  0
INSERT
  2
*GRP_0017
  8
型材断面
  6
DOT
 10
0.0
 20
0.0
  0
INSERT
  2
*GRP_0018
  8
型材断面
  6
DOT
 10
0.0
 20
0.0
  0
INSERT
  2
*GRP_0019
  8
型材断面
  6
DOT
 10
0.0
 20
0.0
  0
INSERT
  2
*GRP_0020
  8
型材断面
  6
DOT
 10
0.0
 20
0.0
  0
INSERT
  2
*GRP_0021
  8
型材断面
  6
DOT
 10
0.0
 20
0.0
  0
LINE
  8
型材断面
  6
CONTINUOUS
 10
103.94042
 20
70.270215
 11
127.872042
 21
70.270215
  0
LINE
  8
型材断面
  6
CONTINUOUS
 10
-79.155865
 20
42.674245
 11
-80.000185
 21
41.829927
  0
LINE
  8
型材断面
  6
CONTINUOUS
 10
-80.000185
 20
41.829927
 11
-80.000185
 21
40.424245
  0
LINE
  8
型材断面
  6
CONTINUOUS
 10
-80.000185
 20
40.424245
 11
-78.594507
 21
40.424245
  0
LINE
  8
型材断面
  6
CONTINUOUS
 10
-77.750185
 20
41.268565
 11
-78.594507
 21
40.424245
  0
LINE
  8
型材断面
  6
CONTINUOUS
 10
-77.750185
 20
42.674245
 11
-80.000187
 21
40.424245
  0
LINE
  8
型材断面
  6
CONTINUOUS
 10
-75.500187
 20
44.924247
 11
-76.905862
 21
44.924245
  0
LINE
  8
型材断面
  6
CONTINUOUS
 10
-77.750185
 20
44.079925
 11
-76.905862
 21
44.924245
  0
LINE
  8
型材断面
  6
CONTINUOUS
 10
-75.500187
 20
44.924247
 11
-75.500185
 21
43.518563
  0
LINE
  8
型材断面
  6
CONTINUOUS
 10
-76.344505
 20
42.674245
 11
-75.500185
 21
43.518563
  0
LINE
  8
型材断面
  6
CONTINUOUS
 10
-77.750185
 20
42.674245
 11
-75.50018
 21
44.924247
  0
LINE
  8
型材断面
  6
CONTINUOUS
 10
-77.750185
 20
41.268565
 11
-76.905862
 21
40.424245
  0
LINE
  8
型材断面
  6
CONTINUOUS
 10
-75.500185
 20
40.424245
 11
-76.905862
 21
40.424245
  0
LINE
  8
型材断面
  6
CONTINUOUS
 10
-75.500185
 20
40.424245
 11
-75.500185
 21
41.829927
  0
LINE
  8
型材断面
  6
CONTINUOUS
 10
-76.344505
 20
42.674245
 11
-75.500185
 21
41.829927
  0
LINE
  8
型材断面
  6
CONTINUOUS
 10
-80.000183
 20
44.924247
 11
-78.594507
 21
44.924245
  0
LINE
  8
型材断面
  6
CONTINUOUS
 10
-77.750185
 20
44.079925
 11
-78.594507
 21
44.924245
  0
LINE
  8
型材断面
  6
CONTINUOUS
 10
-80.000183
 20
44.924247
 11
-80.000185
 21
43.518563
  0
LINE
  8
型材断面
  6
CONTINUOUS
 10
-79.155865
 20
42.674245
 11
-80.000185
 21
43.518563
  0
LINE
  8
型材断面
  6
CONTINUOUS
 10
-77.750185
 20
42.674245
 11
-80.000183
 21
44.92424
  0
LINE
  8
型材断面
  6
CONTINUOUS
 10
-77.750185
 20
42.674245
 11
-75.500183
 21
40.424245
  0
LINE
  8
ガラス
  6
CONTINUOUS
 10
-86.930325
 20
74.035193
 11
-90.80296
 21
70.162558
  0
LINE
  8
ガラス
  6
CONTINUOUS
 10
-88.528683
 20
73.15487
 11
-89.922638
 21
71.760915
  0
LINE
  8
ガラス
  6
CONTINUOUS
 10
-64.676722
 20
74.035193
 11
-68.549358
 21
70.162558
  0
LINE
  8
ガラス
  6
CONTINUOUS
 10
-66.27508
 20
73.15487
 11
-67.669035
 21
71.760915
  0
LINE
  8
ガラス
  6
CONTINUOUS
 10
-86.930325
 20
13.625007
 11
-90.80296
 21
9.752372
  0
LINE
  8
ガラス
  6
CONTINUOUS
 10
-88.528683
 20
12.744685
 11
-89.922638
 21
11.35073
  0
LINE
  8
ガラス
  6
CONTINUOUS
 10
-64.676722
 20
13.625007
 11
-68.549358
 21
9.752372
  0
LINE
  8
ガラス
  6
CONTINUOUS
 10
-66.27508
 20
12.744685
 11
-67.669035
 21
11.35073
  0
LINE
  8
ガラス
  6
CONTINUOUS
 10
-44.643925
 20
32.178015
 11
-48.51656
 21
28.30538
  0
LINE
  8
ガラス
  6
CONTINUOUS
 10
-46.242282
 20
31.297693
 11
-47.636237
 21
29.903737
  0
LINE
  8
ガラス
  6
CONTINUOUS
 10
-44.643925
 20
56.270468
 11
-48.51656
 21
52.397833
  0
LINE
  8
ガラス
  6
CONTINUOUS
 10
-46.242282
 20
55.390145
 11
-47.636237
 21
53.99619
  0
LINE
  8
ガラス
  6
CONTINUOUS
 10
-109.88609
 20
32.178015
 11
-113.758725
 21
28.30538
  0
LINE
  8
ガラス
  6
CONTINUOUS
 10
-111.484447
 20
31.297693
 11
-112.878402
 21
29.903737
  0
LINE
  8
ガラス
  6
CONTINUOUS
 10
-109.88609
 20
56.270468
 11
-113.758725
 21
52.397833
  0
LINE
  8
ガラス
  6
CONTINUOUS
 10
-111.484447
 20
55.390145
 11
-112.878402
 21
53.99619
  0
LINE
  8
ガラス
  6
CONTINUOUS
 10
-91.35434
 20
-79.662935
 11
-95.226975
 21
-83.53557
  0
LINE
  8
ガラス
  6
CONTINUOUS
 10
-92.234663
 20
-81.261293
 11
-93.628618
 21
-82.655248
  0
LINE
  8
ガラス
  6
CONTINUOUS
 10
-92.952697
 20
-80.543257
 11
-94.346652
 21
-81.937212
  0
LINE
  8
ガラス
  6
CONTINUOUS
 10
-59.927495
 20
-79.662935
 11
-63.80013
 21
-83.53557
  0
LINE
  8
ガラス
  6
CONTINUOUS
 10
-60.807817
 20
-81.261293
 11
-62.201772
 21
-82.655248
  0
LINE
  8
ガラス
  6
CONTINUOUS
 10
-61.525853
 20
-80.543257
 11
-62.919808
 21
-81.937212
  0
LINE
  8
ガラス
  6
CONTINUOUS
 10
-65.557045
 20
72.436835
 11
-66.951
 21
71.04288
  0
LINE
  8
ガラス
  6
CONTINUOUS
 10
-87.810647
 20
72.436835
 11
-89.204602
 21
71.04288
  0
LINE
  8
ガラス
  6
CONTINUOUS
 10
-110.766413
 20
54.67211
 11
-112.160368
 21
53.278155
  0
LINE
  8
ガラス
  6
CONTINUOUS
 10
-110.766413
 20
30.579658
 11
-112.160368
 21
29.185702
  0
LINE
  8
ガラス
  6
CONTINUOUS
 10
-87.810647
 20
12.02665
 11
-89.204602
 21
10.632695
  0
LINE
  8
ガラス
  6
CONTINUOUS
 10
-65.557045
 20
12.02665
 11
-66.951
 21
10.632695
  0
LINE
  8
ガラス
  6
CONTINUOUS
 10
-45.524248
 20
30.579658
 11
-46.918203
 21
29.185702
  0
LINE
  8
ガラス
  6
CONTINUOUS
 10
-45.524248
 20
54.67211
 11
-46.918203
 21
53.278155
  0
LINE
  8
ガラス
  6
CONTINUOUS
 10
104.186448
 20
11.617583
 11
154.222925
 21
82.379838
  0
LINE
  8
ガラス
  6
CONTINUOUS
 10
154.222925
 20
82.379838
 11
154.222925
 21
11.617583
  0
LINE
  8
ガラス
  6
CONTINUOUS
 10
104.186448
 20
11.617583
 11
154.222925
 21
11.617583
  0
LINE
  8
ゴム等
  6
CONTINUOUS
 10
-132.215507
 20
-13.388188
 11
-129.7041
 21
-12.468948
  0
LINE
  8
ゴム等
  6
CONTINUOUS
 10
-129.7041
 20
-12.468948
 11
-127.18345
 21
-11.21087
  0
LINE
  8
ゴム等
  6
CONTINUOUS
 10
-127.18345
 20
-11.21087
 11
-79.686855
 21
-11.21087
  0
LINE
  8
ゴム等
  6
CONTINUOUS
 10
-127.18345
 20
-11.21087
 11
-79.686855
 21
36.285725
  0
LINE
  8
ゴム等
  6
CONTINUOUS
 10
-79.686855
 20
-11.21087
 11
-79.686855
 21
36.285725
  0
LINE
  8
ゴム等
  6
CONTINUOUS
 10
-78.38728
 20
-12.468948
 11
-78.38728
 21
38.847873
  0
LINE
  8
ゴム等
  6
CONTINUOUS
 10
-129.7041
 20
-12.468948
 11
-77.750185
 21
39.484967
  0
LINE
  8
ゴム等
  6
CONTINUOUS
 10
-132.215507
 20
-13.388188
 11
-77.750185
 21
41.077135
  0
LINE
  8
ゴム等
  6
CONTINUOUS
 10
-79.686855
 20
-11.21087
 11
-78.38728
 21
-12.468948
  0
LINE
  8
ゴム等
  6
CONTINUOUS
 10
-79.686855
 20
36.285725
 11
-78.38728
 21
38.847873
  0
LINE
  8
ゴム等
  6
CONTINUOUS
 10
-23.284862
 20
-13.388188
 11
-25.79627
 21
-12.468948
  0
LINE
  8
ゴム等
  6
CONTINUOUS
 10
-25.79627
 20
-12.468948
 11
-28.31692
 21
-11.21087
  0
LINE
  8
ゴム等
  6
CONTINUOUS
 10
-28.31692
 20
-11.21087
 11
-75.813515
 21
-11.21087
  0
LINE
  8
ゴム等
  6
CONTINUOUS
 10
-28.31692
 20
-11.21087
 11
-75.813515
 21
36.285725
  0
LINE
  8
ゴム等
  6
CONTINUOUS
 10
-75.813515
 20
-11.21087
 11
-75.813515
 21
36.285725
  0
LINE
  8
ゴム等
  6
CONTINUOUS
 10
-77.11309
 20
-12.468948
 11
-77.11309
 21
38.847873
  0
LINE
  8
ゴム等
  6
CONTINUOUS
 10
-25.79627
 20
-12.468948
 11
-77.750185
 21
39.484967
  0
LINE
  8
ゴム等
  6
CONTINUOUS
 10
-23.284862
 20
-13.388188
 11
-77.750185
 21
41.077135
  0
LINE
  8
ゴム等
  6
CONTINUOUS
 10
-75.813515
 20
-11.21087
 11
-77.11309
 21
-12.468948
  0
LINE
  8
ゴム等
  6
CONTINUOUS
 10
-75.813515
 20
36.285725
 11
-77.11309
 21
38.847873
  0
LINE
  8
ゴム等
  6
CONTINUOUS
 10
-129.7041
 20
-12.468948
 11
-25.79627
 21
-12.468948
  0
LINE
  8
ゴム等
  6
CONTINUOUS
 10
-132.215507
 20
-13.388188
 11
-23.284862
 21
-13.388188
  0
LINE
  8
ゴム等
  6
CONTINUOUS
 10
-132.215507
 20
98.736678
 11
-129.7041
 21
97.817438
  0
LINE
  8
ゴム等
  6
CONTINUOUS
 10
-129.7041
 20
97.817438
 11
-127.18345
 21
96.55936
  0
LINE
  8
ゴム等
  6
CONTINUOUS
 10
-127.18345
 20
96.55936
 11
-79.686855
 21
96.55936
  0
LINE
  8
ゴム等
  6
CONTINUOUS
 10
-127.18345
 20
96.55936
 11
-79.686855
 21
49.062765
  0
LINE
  8
ゴム等
  6
CONTINUOUS
 10
-79.686855
 20
96.55936
 11
-79.686855
 21
49.062765
  0
LINE
  8
ゴム等
  6
CONTINUOUS
 10
-78.38728
 20
97.817438
 11
-78.38728
 21
46.500618
  0
LINE
  8
ゴム等
  6
CONTINUOUS
 10
-129.7041
 20
97.817438
 11
-77.750185
 21
45.863523
  0
LINE
  8
ゴム等
  6
CONTINUOUS
 10
-132.215507
 20
98.736678
 11
-77.750185
 21
44.271355
  0
LINE
  8
ゴム等
  6
CONTINUOUS
 10
-79.686855
 20
96.55936
 11
-78.38728
 21
97.817438
  0
LINE
  8
ゴム等
  6
CONTINUOUS
 10
-79.686855
 20
49.062765
 11
-78.38728
 21
46.500618
  0
LINE
  8
ゴム等
  6
CONTINUOUS
 10
-23.284862
 20
98.736678
 11
-25.79627
 21
97.817438
  0
LINE
  8
ゴム等
  6
CONTINUOUS
 10
-25.79627
 20
97.817438
 11
-28.31692
 21
96.55936
  0
LINE
  8
ゴム等
  6
CONTINUOUS
 10
-28.31692
 20
96.55936
 11
-75.813515
 21
96.55936
  0
LINE
  8
ゴム等
  6
CONTINUOUS
 10
-28.31692
 20
96.55936
 11
-75.813515
 21
49.062765
  0
LINE
  8
ゴム等
  6
CONTINUOUS
 10
-75.813515
 20
96.55936
 11
-75.813515
 21
49.062765
  0
LINE
  8
ゴム等
  6
CONTINUOUS
 10
-77.11309
 20
97.817438
 11
-77.11309
 21
46.500618
  0
LINE
  8
ゴム等
  6
CONTINUOUS
 10
-25.79627
 20
97.817438
 11
-77.750185
 21
45.863523
  0
LINE
  8
ゴム等
  6
CONTINUOUS
 10
-23.284862
 20
98.736678
 11
-77.750185
 21
44.271355
  0
LINE
  8
ゴム等
  6
CONTINUOUS
 10
-75.813515
 20
96.55936
 11
-77.11309
 21
97.817438
  0
LINE
  8
ゴム等
  6
CONTINUOUS
 10
-75.813515
 20
49.062765
 11
-77.11309
 21
46.500618
  0
LINE
  8
ゴム等
  6
CONTINUOUS
 10
-129.7041
 20
97.817438
 11
-25.79627
 21
97.817438
  0
LINE
  8
ゴム等
  6
CONTINUOUS
 10
-132.215507
 20
98.736678
 11
-23.284862
 21
98.736678
  0
LINE
  8
ゴム等
  6
CONTINUOUS
 10
-21.687752
 20
-11.791078
 11
-22.606992
 21
-9.27967
  0
LINE
  8
ゴム等
  6
CONTINUOUS
 10
-22.606992
 20
-9.27967
 11
-23.86507
 21
-6.75902
  0
LINE
  8
ゴム等
  6
CONTINUOUS
 10
-23.86507
 20
-6.75902
 11
-23.86507
 21
40.737575
  0
LINE
  8
ゴム等
  6
CONTINUOUS
 10
-23.86507
 20
-6.75902
 11
-71.361665
 21
40.737575
  0
LINE
  8
ゴム等
  6
CONTINUOUS
 10
-23.86507
 20
40.737575
 11
-71.361665
 21
40.737575
  0
LINE
  8
ゴム等
  6
CONTINUOUS
 10
-22.606992
 20
42.03715
 11
-73.923812
 21
42.03715
  0
LINE
  8
ゴム等
  6
CONTINUOUS
 10
-22.606992
 20
-9.27967
 11
-74.560908
 21
42.674245
  0
LINE
  8
ゴム等
  6
CONTINUOUS
 10
-21.687752
 20
-11.791078
 11
-76.153075
 21
42.674245
  0
LINE
  8
ゴム等
  6
CONTINUOUS
 10
-23.86507
 20
40.737575
 11
-22.606992
 21
42.03715
  0
LINE
  8
ゴム等
  6
CONTINUOUS
 10
-71.361665
 20
40.737575
 11
-73.923812
 21
42.03715
  0
LINE
  8
ゴム等
  6
CONTINUOUS
 10
-21.687752
 20
97.139567
 11
-22.606992
 21
94.62816
  0
LINE
  8
ゴム等
  6
CONTINUOUS
 10
-22.606992
 20
94.62816
 11
-23.86507
 21
92.10751
  0
LINE
  8
ゴム等
  6
CONTINUOUS
 10
-23.86507
 20
92.10751
 11
-23.86507
 21
44.610915
  0
LINE
  8
ゴム等
  6
CONTINUOUS
 10
-23.86507
 20
92.10751
 11
-71.361665
 21
44.610915
  0
LINE
  8
ゴム等
  6
CONTINUOUS
 10
-23.86507
 20
44.610915
 11
-71.361665
 21
44.610915
  0
LINE
  8
ゴム等
  6
CONTINUOUS
 10
-22.606992
 20
43.31134
 11
-73.923812
 21
43.31134
  0
LINE
  8
ゴム等
  6
CONTINUOUS
 10
-22.606992
 20
94.62816
 11
-74.560908
 21
42.674245
  0
LINE
  8
ゴム等
  6
CONTINUOUS
 10
-21.687752
 20
97.139567
 11
-76.153075
 21
42.674245
  0
LINE
  8
ゴム等
  6
CONTINUOUS
 10
-23.86507
 20
44.610915
 11
-22.606992
 21
43.31134
  0
LINE
  8
ゴム等
  6
CONTINUOUS
 10
-71.361665
 20
44.610915
 11
-73.923812
 21
43.31134
  0
LINE
  8
ゴム等
  6
CONTINUOUS
 10
-22.606992
 20
-9.27967
 11
-22.606992
 21
94.62816
  0
LINE
  8
ゴム等
  6
CONTINUOUS
 10
-21.687752
 20
-11.791078
 11
-21.687752
 21
97.139567
  0
LINE
  8
ゴム等
  6
CONTINUOUS
 10
-133.812618
 20
-11.791078
 11
-132.893378
 21
-9.27967
  0
LINE
  8
ゴム等
  6
CONTINUOUS
 10
-132.893378
 20
-9.27967
 11
-131.6353
 21
-6.75902
  0
LINE
  8
ゴム等
  6
CONTINUOUS
 10
-131.6353
 20
-6.75902
 11
-131.6353
 21
40.737575
  0
LINE
  8
ゴム等
  6
CONTINUOUS
 10
-131.6353
 20
-6.75902
 11
-84.138705
 21
40.737575
  0
LINE
  8
ゴム等
  6
CONTINUOUS
 10
-131.6353
 20
40.737575
 11
-84.138705
 21
40.737575
  0
LINE
  8
ゴム等
  6
CONTINUOUS
 10
-132.893378
 20
42.03715
 11
-81.576558
 21
42.03715
  0
LINE
  8
ゴム等
  6
CONTINUOUS
 10
-132.893378
 20
-9.27967
 11
-80.939462
 21
42.674245
  0
LINE
  8
ゴム等
  6
CONTINUOUS
 10
-133.812618
 20
-11.791078
 11
-79.347295
 21
42.674245
  0
LINE
  8
ゴム等
  6
CONTINUOUS
 10
-131.6353
 20
40.737575
 11
-132.893378
 21
42.03715
  0
LINE
  8
ゴム等
  6
CONTINUOUS
 10
-84.138705
 20
40.737575
 11
-81.576558
 21
42.03715
  0
LINE
  8
ゴム等
  6
CONTINUOUS
 10
-133.812618
 20
97.139567
 11
-132.893378
 21
94.62816
  0
LINE
  8
ゴム等
  6
CONTINUOUS
 10
-132.893378
 20
94.62816
 11
-131.6353
 21
92.10751
  0
LINE
  8
ゴム等
  6
CONTINUOUS
 10
-131.6353
 20
92.10751
 11
-131.6353
 21
44.610915
  0
LINE
  8
ゴム等
  6
CONTINUOUS
 10
-131.6353
 20
92.10751
 11
-84.138705
 21
44.610915
  0
LINE
  8
ゴム等
  6
CONTINUOUS
 10
-131.6353
 20
44.610915
 11
-84.138705
 21
44.610915
  0
LINE
  8
ゴム等
  6
CONTINUOUS
 10
-132.893378
 20
43.31134
 11
-81.576558
 21
43.31134
  0
LINE
  8
ゴム等
  6
CONTINUOUS
 10
-132.893378
 20
94.62816
 11
-80.939462
 21
42.674245
  0
LINE
  8
ゴム等
  6
CONTINUOUS
 10
-133.812618
 20
97.139567
 11
-79.347295
 21
42.674245
  0
LINE
  8
ゴム等
  6
CONTINUOUS
 10
-131.6353
 20
44.610915
 11
-132.893378
 21
43.31134
  0
LINE
  8
ゴム等
  6
CONTINUOUS
 10
-84.138705
 20
44.610915
 11
-81.576558
 21
43.31134
  0
LINE
  8
ゴム等
  6
CONTINUOUS
 10
-132.893378
 20
-9.27967
 11
-132.893378
 21
94.62816
  0
LINE
  8
ゴム等
  6
CONTINUOUS
 10
-133.812618
 20
-11.791078
 11
-133.812618
 21
97.139567
  0
LINE
  8
ゴム等
  6
CONTINUOUS
 10
-77.750185
 20
-47.423885
 11
-129.704087
 21
-99.377783
  0
LINE
  8
ゴム等
  6
CONTINUOUS
 10
-77.750185
 20
-45.83172
 11
-132.215492
 21
-100.297023
  0
LINE
  8
ゴム等
  6
CONTINUOUS
 10
-132.215492
 20
-100.297023
 11
-129.704087
 21
-99.377783
  0
LINE
  8
ゴム等
  6
CONTINUOUS
 10
-129.704087
 20
-99.377783
 11
-127.18596
 21
-98.78544
  0
LINE
  8
ゴム等
  6
CONTINUOUS
 10
-77.750185
 20
-47.423885
 11
-25.796282
 21
-99.377783
  0
LINE
  8
ゴム等
  6
CONTINUOUS
 10
-129.704087
 20
-99.377783
 11
-25.796282
 21
-99.377783
  0
LINE
  8
ゴム等
  6
CONTINUOUS
 10
-77.750185
 20
-45.83172
 11
-23.284878
 21
-100.297023
  0
LINE
  8
ゴム等
  6
CONTINUOUS
 10
-132.215492
 20
-100.297023
 11
-23.284878
 21
-100.297023
  0
LINE
  8
ゴム等
  6
CONTINUOUS
 10
-28.31441
 20
-98.78544
 11
-25.796282
 21
-99.377783
  0
LINE
  8
ゴム等
  6
CONTINUOUS
 10
-25.796282
 20
-99.377783
 11
-23.284878
 21
-100.297023
  0
LINE
  8
ゴム等
  6
CONTINUOUS
 10
-28.31441
 20
-98.78544
 11
-75.801843
 21
-51.298013
  0
LINE
  8
ゴム等
  6
CONTINUOUS
 10
-127.18596
 20
-98.78544
 11
-79.698527
 21
-51.298013
  0
LINE
  8
ゴム等
  6
CONTINUOUS
 10
-79.698527
 20
-51.298013
 11
-78.400187
 21
-48.073887
  0
LINE
  8
ゴム等
  6
CONTINUOUS
 10
-75.801843
 20
-51.298013
 11
-77.100183
 21
-48.073887
  0
LINE
  8
ゴム等
  6
CONTINUOUS
 10
-75.801843
 20
-51.298013
 11
-75.801843
 21
-98.78544
  0
LINE
  8
ゴム等
  6
CONTINUOUS
 10
-28.31441
 20
-98.78544
 11
-75.801843
 21
-98.78544
  0
LINE
  8
ゴム等
  6
CONTINUOUS
 10
-79.698527
 20
-51.298013
 11
-79.698527
 21
-98.78544
  0
LINE
  8
ゴム等
  6
CONTINUOUS
 10
-127.18596
 20
-98.78544
 11
-79.698527
 21
-98.78544
  0
LINE
  8
ゴム等
  6
CONTINUOUS
 10
-78.400187
 20
-48.073887
 11
-78.400187
 21
-99.377783
  0
LINE
  8
ゴム等
  6
CONTINUOUS
 10
-77.100183
 20
-48.073887
 11
-77.100183
 21
-99.377783
  0
LINE
  8
ゴム等
  6
CONTINUOUS
 10
-77.100183
 20
-99.377783
 11
-75.801843
 21
-98.78544
  0
LINE
  8
ゴム等
  6
CONTINUOUS
 10
-79.698527
 20
-98.78544
 11
-78.400187
 21
-99.377783
  0
LINE
  8
ゴム等
  6
CONTINUOUS
 10
117.119988
 20
-47.423885
 11
65.166085
 21
-99.377783
  0
LINE
  8
ゴム等
  6
CONTINUOUS
 10
117.119988
 20
-45.83172
 11
62.65468
 21
-100.297023
  0
LINE
  8
ゴム等
  6
CONTINUOUS
 10
62.65468
 20
-100.297023
 11
65.166085
 21
-99.377783
  0
LINE
  8
ゴム等
  6
CONTINUOUS
 10
65.166085
 20
-99.377783
 11
67.684212
 21
-98.78544
  0
LINE
  8
ゴム等
  6
CONTINUOUS
 10
117.119988
 20
-47.423885
 11
169.07389
 21
-99.377783
  0
LINE
  8
ゴム等
  6
CONTINUOUS
 10
65.166085
 20
-99.377783
 11
169.07389
 21
-99.377783
  0
LINE
  8
ゴム等
  6
CONTINUOUS
 10
117.119988
 20
-45.83172
 11
171.585295
 21
-100.297023
  0
LINE
  8
ゴム等
  6
CONTINUOUS
 10
62.65468
 20
-100.297023
 11
171.585295
 21
-100.297023
  0
LINE
  8
ゴム等
  6
CONTINUOUS
 10
166.555762
 20
-98.78544
 11
169.07389
 21
-99.377783
  0
LINE
  8
ゴム等
  6
CONTINUOUS
 10
169.07389
 20
-99.377783
 11
171.585295
 21
-100.297023
  0
LINE
  8
ゴム等
  6
CONTINUOUS
 10
166.555762
 20
-98.78544
 11
119.06833
 21
-51.298013
  0
LINE
  8
ゴム等
  6
CONTINUOUS
 10
67.684212
 20
-98.78544
 11
115.171645
 21
-51.298013
  0
LINE
  8
ゴム等
  6
CONTINUOUS
 10
115.171645
 20
-51.298013
 11
116.469985
 21
-48.073887
  0
LINE
  8
ゴム等
  6
CONTINUOUS
 10
119.06833
 20
-51.298013
 11
117.76999
 21
-48.073887
  0
LINE
  8
ゴム等
  6
CONTINUOUS
 10
119.06833
 20
-51.298013
 11
119.06833
 21
-98.78544
  0
LINE
  8
ゴム等
  6
CONTINUOUS
 10
166.555762
 20
-98.78544
 11
119.06833
 21
-98.78544
  0
LINE
  8
ゴム等
  6
CONTINUOUS
 10
115.171645
 20
-51.298013
 11
115.171645
 21
-98.78544
  0
LINE
  8
ゴム等
  6
CONTINUOUS
 10
67.684212
 20
-98.78544
 11
115.171645
 21
-98.78544
  0
LINE
  8
ゴム等
  6
CONTINUOUS
 10
116.469985
 20
-48.073887
 11
116.469985
 21
-99.377783
  0
LINE
  8
ゴム等
  6
CONTINUOUS
 10
117.76999
 20
-48.073887
 11
117.76999
 21
-99.377783
  0
LINE
  8
ゴム等
  6
CONTINUOUS
 10
117.76999
 20
-99.377783
 11
119.06833
 21
-98.78544
  0
LINE
  8
ゴム等
  6
CONTINUOUS
 10
115.171645
 20
-98.78544
 11
116.469985
 21
-99.377783
  0
TEXT
  7
TextStyle03
  8
文字
  6
CONTINUOUS
 10
-18.15
 20
11.4
  1
ﾊﾞﾗﾝｽｽﾃｰ
 40
3.0
 72
     5
 11
-4.8375
 21
11.4
  0
TEXT
  7
TextStyle03
  8
文字
  6
CONTINUOUS
 10
14.825
 20
-5.1
  1
は排水穴位置を示す
 40
3.0
 72
     5
 11
44.825
 21
-5.1
  0
TEXT
  7
TextStyle03
  8
文字
  6
CONTINUOUS
 10
14.825
 20
-12.95
  1
はケーシング位置を示す
 40
3.0
 72
     5
 11
51.575
 21
-12.95
  0
TEXT
  7
TextStyle03
  8
文字
  6
CONTINUOUS
 10
14.825
 20
-16.325
  1
４ヶ所中1ヶ所に設定
 40
3.0
 72
     5
 11
46.5125
 21
-16.325
  0
TEXT
  7
TextStyle03
  8
文字
  6
CONTINUOUS
 10
-85.925
 20
-23.825
  1
可動装置側
 40
3.0
 72
     5
 11
-69.425
 21
-23.825
  0
TEXT
  7
TextStyle03
  8
文字
  6
CONTINUOUS
 10
-85.925
 20
106.5
  1
可動装置側
 40
3.0
 72
     5
 11
-69.425
 21
106.5
  0
TEXT
  7
TextStyle03
  8
文字
  6
CONTINUOUS
 10
-150.6625
 20
74.4
  1
ﾊﾞﾗﾝｽｽﾃｰ
 40
3.0
 72
     5
 11
-137.35
 21
74.4
  0
TEXT
  7
TextStyle03
  8
文字
  6
CONTINUOUS
 10
-160.725
 20
-17.075
  1
アンカーピッチ
 40
3.0
 50
90.0
 72
     5
 11
-160.725
 21
6.175
  0
TEXT
  7
TextStyle03
  8
文字
  6
CONTINUOUS
 10
-140.0
 20
124.425
  1
アンカーピッチ
 40
3.0
 72
     5
 11
-116.75
 21
124.425
  0
TEXT
  7
TextStyle03
  8
文字
  6
CONTINUOUS
 10
9.15
 20
-30.3
  1
アームユニット数　４ヶ所
 40
3.0
 72
     5
 11
49.275
 21
-30.3
  0
TEXT
  7
TextStyle03
  8
文字
  6
CONTINUOUS
 10
9.225
 20
-23.475
  1
アンカー数量　１２ヶ所
 40
3.0
 72
     5
 11
45.975
 21
-23.475
  0
TEXT
  7
TextStyle03
  8
文字
  6
CONTINUOUS
 10
66.825
 20
97.05
  1
ＮＳコード：ＮＳ４Ｇ
 40
5.0
 72
     5
 11
122.45
 21
97.05
  0
TEXT
  7
TextStyle03
  8
文字
  6
CONTINUOUS
 10
68.425
 20
120.175
  1
シリーズ：ＤＦ４
 40
5.0
 72
     5
 11
112.8
 21
120.175
  0
TEXT
  7
TextStyle03
  8
文字
  6
CONTINUOUS
 10
68.425
 20
114.55
  1
　　　　　四角錘（上下可動）2000×2000タイプ
 40
5.0
 72
     5
 11
191.55
 21
114.55
  0
TEXT
  7
TextStyle03
  8
文字
  6
CONTINUOUS
 10
68.425
 20
108.925
  1
図面名　：外観姿図
 40
5.0
 72
     5
 11
118.425
 21
108.925
  0
TEXT
  7
TextStyle03
  8
文字
  6
CONTINUOUS
 10
68.425
 20
103.3
  1
　　　　　　
 40
5.0
 72
     5
 11
101.55
 21
103.3
  0
TEXT
  7
TextStyle03
  8
文字
  6
CONTINUOUS
 10
133.15
 20
18.275
  1
本図×４枚
 40
3.0
 72
     5
 11
149.65
 21
18.275
  0
TEXT
  7
TextStyle03
  8
文字
  6
CONTINUOUS
 10
133.15
 20
14.9
  1
逆図×４枚
 40
3.0
 72
     5
 11
149.65
 21
14.9
  0
TEXT
  7
TextStyle03
  8
文字
  6
CONTINUOUS
 10
107.525
 20
71.45
  1
ガラス寸法
 40
3.0
 72
     5
 11
124.025
 21
71.45
  0
INSERT
  2
*DIM_0002
  8
寸法
  6
CONTINUOUS
 10
0.0
 20
0.0
  0
INSERT
  2
*DIM_0003
  8
寸法
  6
CONTINUOUS
 10
0.0
 20
0.0
  0
INSERT
  2
*GRP_0004
  8
寸法
  6
CONTINUOUS
 10
0.0
 20
0.0
  0
INSERT
  2
*DIM_0005
  8
寸法
  6
CONTINUOUS
 10
0.0
 20
0.0
  0
INSERT
  2
*DIM_0006
  8
寸法
  6
CONTINUOUS
 10
0.0
 20
0.0
  0
INSERT
  2
*DIM_0007
  8
寸法
  6
CONTINUOUS
 10
0.0
 20
0.0
  0
INSERT
  2
*GRP_0008
  8
寸法
  6
CONTINUOUS
 10
0.0
 20
0.0
  0
INSERT
  2
*DIM_0009
  8
寸法
  6
CONTINUOUS
 10
0.0
 20
0.0
  0
INSERT
  2
*DIM_0010
  8
寸法
  6
CONTINUOUS
 10
0.0
 20
0.0
  0
INSERT
  2
*DIM_0011
  8
寸法
  6
CONTINUOUS
 10
0.0
 20
0.0
  0
INSERT
  2
*DIM_0012
  8
寸法
  6
CONTINUOUS
 10
0.0
 20
0.0
  0
INSERT
  2
*DIM_0013
  8
寸法
  6
CONTINUOUS
 10
0.0
 20
0.0
  0
INSERT
  2
*DIM_0014
  8
寸法
  6
CONTINUOUS
 10
0.0
 20
0.0
  0
INSERT
  2
*DIM_0015
  8
寸法
  6
CONTINUOUS
 10
0.0
 20
0.0
  0
INSERT
  2
*DIM_0016
  8
寸法
  6
CONTINUOUS
 10
0.0
 20
0.0
  0
INSERT
  2
*DIM_0022
  8
寸法
  6
CONTINUOUS
 10
0.0
 20
0.0
  0
INSERT
  2
*DIM_0023
  8
寸法
  6
CONTINUOUS
 10
0.0
 20
0.0
  0
INSERT
  2
*DIM_0024
  8
寸法
  6
CONTINUOUS
 10
0.0
 20
0.0
  0
ENDSEC
  0
EOF
