  0
SECTION
  2
HEADER
  9
$EXTMIN
 10
-210.0
 20
-148.5
  9
$EXTMAX
 10
210.0
 20
148.5
  9
$PDMODE
 70
    32
  9
$PDSIZE
 40
1.5
  9
$LTSCALE
 40
10.0
  0
ENDSEC
  0
SECTION
  2
TABLES
  0
TABLE
  2
LTYPE
 70
    15
  0
LTYPE
  2
CONTINUOUS
 70
    64
  3
実線
 72
    65
 73
     0
 40
0.0
  0
LTYPE
  2
DASHED
 70
    64
  3
破線A
 72
    65
 73
     2
 40
0.6
 49
0.4
 49
-0.2
  0
LTYPE
  2
DASHEDX2
 70
    64
  3
破線B
 72
    65
 73
     2
 40
1.3
 49
0.9
 49
-0.4
  0
LTYPE
  2
DASHDOT
 70
    64
  3
１点鎖線A
 72
    65
 73
     4
 40
0.5375
 49
0.375
 49
-0.05
 49
0.0625
 49
-0.05
  0
LTYPE
  2
DASHDOTX2
 70
    64
  3
１点鎖線B
 72
    65
 73
     4
 40
1.075
 49
0.75
 49
-0.1
 49
0.125
 49
-0.1
  0
LTYPE
  2
DIVIDE2
 70
    64
  3
２点鎖線A
 72
    65
 73
     6
 40
0.5125
 49
0.3
 49
-0.0375
 49
0.05
 49
-0.0375
 49
0.05
 49
-0.0375
  0
LTYPE
  2
DIVIDE
 70
    64
  3
２点鎖線B
 72
    65
 73
     6
 40
1.05
 49
0.55
 49
-0.1
 49
0.1
 49
-0.1
 49
0.1
 49
-0.1
  0
LTYPE
  2
DOT
 70
    64
  3
点線A
 72
    65
 73
     2
 40
0.1125
 49
0.0625
 49
-0.05
  0
LTYPE
  2
DOTX2
 70
    64
  3
点線B
 72
    65
 73
     2
 40
0.275
 49
0.15
 49
-0.125
  0
LTYPE
  2
CONTINUOUS
 70
    64
  3
実線
 72
    65
 73
     0
 40
0.0
  0
LTYPE
  2
CONTINUOUS
 70
    64
  3
実線
 72
    65
 73
     0
 40
0.0
  0
LTYPE
  2
CONTINUOUS
 70
    64
  3
実線
 72
    65
 73
     0
 40
0.0
  0
LTYPE
  2
CONTINUOUS
 70
    64
  3
実線
 72
    65
 73
     0
 40
0.0
  0
LTYPE
  2
CONTINUOUS
 70
    64
  3
実線
 72
    65
 73
     0
 40
0.0
  0
LTYPE
  2
CONTINUOUS
 70
    64
  3
実線
 72
    65
 73
     0
 40
0.0
  0
ENDTAB
  0
TABLE
  2
LAYER
 70
    34
  0
LAYER
  2
通り芯
 70
     0
 62
    15
  6
CONTINUOUS
  0
LAYER
  2
補助線
 70
     0
 62
    16
  6
DOT
  0
LAYER
  2
躯体
 70
     0
 62
    31
  6
CONTINUOUS
  0
LAYER
  2
型材
 70
     0
 62
    32
  6
CONTINUOUS
  0
LAYER
  2
型材断面
 70
     0
 62
    47
  6
CONTINUOUS
  0
LAYER
  2
ガラス
 70
     0
 62
    48
  6
CONTINUOUS
  0
LAYER
  2
ゴム等
 70
     0
 62
    63
  6
CONTINUOUS
  0
LAYER
  2
ボルト／ビス
 70
     0
 62
    64
  6
CONTINUOUS
  0
LAYER
  2
文字
 70
     0
 62
    79
  6
CONTINUOUS
  0
LAYER
  2
寸法
 70
     0
 62
    80
  6
CONTINUOUS
  0
LAYER
  2
ﾊｯﾁﾝｸﾞ
 70
     0
 62
    95
  6
CONTINUOUS
  0
LAYER
  2
別途部材
 70
     0
 62
    96
  6
CONTINUOUS
  0
LAYER
  2
曲げ物
 70
     0
 62
   111
  6
CONTINUOUS
  0
LAYER
  2
鉄骨等
 70
     0
 62
   112
  6
CONTINUOUS
  0
LAYER
  2
St
 70
     0
 62
   127
  6
CONTINUOUS
  0
LAYER
  2
その他部品等
 70
     0
 62
   128
  6
CONTINUOUS
  0
LAYER
  2
ｶﾞｽｹｯﾄ
 70
     0
 62
   143
  6
CONTINUOUS
  0
LAYER
  2
ｽｹｯﾁ
 70
     0
 62
    14
  6
CONTINUOUS
  0
LAYER
  2
0
 70
     0
 62
    17
  6
CONTINUOUS
  0
LAYER
  2
1
 70
     0
 62
    30
  6
CONTINUOUS
  0
LAYER
  2
4
 70
     0
 62
    33
  6
CONTINUOUS
  0
LAYER
  2
ﾚｲﾔ3
 70
     0
 62
    46
  6
CONTINUOUS
  0
LAYER
  2
外形線
 70
     0
 62
    49
  6
CONTINUOUS
  0
LAYER
  2
部品
 70
     0
 62
    14
  6
CONTINUOUS
  0
LAYER
  2
サッシ芯
 70
     0
 62
    17
  6
DASHDOTX2
  0
LAYER
  2
寸法線
 70
     0
 62
    62
  6
CONTINUOUS
  0
LAYER
  2
姿図外形線
 70
     0
 62
    65
  6
CONTINUOUS
  0
LAYER
  2
姿補助線
 70
     0
 62
    30
  6
CONTINUOUS
  0
LAYER
  2
透視線
 70
     0
 62
    78
  6
DOT
  0
LAYER
  2
用紙
 70
     0
 62
    81
  6
CONTINUOUS
  0
LAYER
  2
実線図枠
 70
     0
 62
    94
  6
CONTINUOUS
  0
LAYER
  2
補助図枠
 70
     0
 62
    97
  6
CONTINUOUS
  0
LAYER
  2
建具記号
 70
     0
 62
   110
  6
CONTINUOUS
  0
LAYER
  2
補助文字
 70
     0
 62
   113
  6
CONTINUOUS
  0
ENDTAB
  0
TABLE
  2
STYLE
 70
    10
  0
STYLE
  2
STANDARD
 70
     0
 40
1.0
 41
1.0
 42
1.0
 50
0.0
 71
     0
  3
TXT
  4
BIGFONT
  0
STYLE
  2
TATE
 70
     4
 40
1.0
 41
1.0
 42
1.0
 50
0.0
 71
     0
  3
TXT
  4
BIGFONT
  0
STYLE
  2
TextStyle03
 70
     0
 40
1.0
 41
1.0
 42
1.0
 50
0.0
 71
     0
  3
MONOTXT
  4
BIGFONT
  0
STYLE
  2
TextStyle04
 70
     0
 40
1.0
 41
1.0
 42
1.0
 50
0.0
 71
     0
  3
MONOTXT
  4
BIGFONT
  0
STYLE
  2
TextStyle05
 70
     0
 40
1.0
 41
1.0
 42
1.0
 50
0.0
 71
     0
  3
MONOTXT
  4
BIGFONT
  0
STYLE
  2
TextStyle06
 70
     0
 40
1.0
 41
1.0
 42
1.0
 50
0.0
 71
     0
  3
MONOTXT
  4
BIGFONT
  0
STYLE
  2
TextStyle07
 70
     0
 40
1.0
 41
1.0
 42
1.0
 50
0.0
 71
     0
  3
MONOTXT
  4
BIGFONT
  0
STYLE
  2
TextStyle08
 70
     0
 40
1.0
 41
1.0
 42
1.0
 50
0.0
 71
     0
  3
MONOTXT
  4
BIGFONT
  0
STYLE
  2
TextStyle09
 70
     0
 40
1.0
 41
1.0
 42
1.0
 50
0.0
 71
     0
  3
MONOTXT
  4
BIGFONT
  0
STYLE
  2
TextStyle10
 70
     0
 40
1.0
 41
1.0
 42
1.0
 50
0.0
 71
     0
  3
MONOTXT
  4
BIGFONT
  0
ENDTAB
  0
ENDSEC
  0
SECTION
  2
BLOCKS
  0
BLOCK
  2
*GRP_0001
 70
    65
 10
0.0
 20
0.0
  0
LINE
  8
型材断面
  6
CONTINUOUS
 10
195.0
 20
133.5
 11
195.0
 21
-133.5
  0
LINE
  8
型材断面
  6
CONTINUOUS
 10
195.0
 20
-133.5
 11
-185.0
 21
-133.5
  0
LINE
  8
型材断面
  6
CONTINUOUS
 10
-185.0
 20
-133.5
 11
-185.0
 21
133.5
  0
LINE
  8
型材断面
  6
CONTINUOUS
 10
195.0
 20
133.5
 11
-185.0
 21
133.5
  0
LINE
  8
型材断面
  6
CONTINUOUS
 10
145.0
 20
-133.5
 11
145.0
 21
-118.5
  0
LINE
  8
型材断面
  6
CONTINUOUS
 10
195.0
 20
-118.5
 11
145.0
 21
-118.5
  0
ENDBLK
  0
BLOCK
  2
*DIM_0002
 70
    65
 10
0.0
 20
0.0
  0
LINE
  8
寸法
  6
BYBLOCK
 62
     0
 10
-121.898747
 20
-33.377287
 11
-76.898747
 21
-33.377287
  0
POINT
  8
寸法
 62
     0
 10
-121.898747
 20
-33.377287
  0
POINT
  8
寸法
 62
     0
 10
-76.898747
 20
-33.377287
  0
TEXT
  7
TextStyle03
  8
寸法
  6
CONTINUOUS
 62
     0
 10
-110.275
 20
-33.025
  1
呼称寸法　900
 40
3.0
 72
     5
 11
-88.525
 21
-33.025
  0
ENDBLK
  0
BLOCK
  2
*GRP_0004
 70
    65
 10
0.0
 20
0.0
  0
POLYLINE
  8
寸法
  6
CONTINUOUS
 62
     0
 66
     1
  0
VERTEX
  8
寸法
 10
-79.000993
 20
19.21232
  0
VERTEX
  8
寸法
 10
-75.319798
 20
15.531125
  0
VERTEX
  8
寸法
 10
-52.47722
 20
15.531125
  0
SEQEND
  0
ENDBLK
  0
BLOCK
  2
*DIM_0005
 70
    65
 10
0.0
 20
0.0
  0
LINE
  8
寸法
  6
BYBLOCK
 62
     0
 10
-75.898747
 20
51.716028
 11
-59.038835
 21
51.716028
  0
LINE
  8
寸法
  6
BYBLOCK
 62
     0
 10
-67.874873
 20
46.16603
 11
-59.038835
 21
46.16603
  0
LINE
  8
寸法
  6
BYBLOCK
 62
     0
 10
-59.038835
 20
51.716028
 11
-59.038835
 21
46.16603
  0
POINT
  8
寸法
 62
     0
 10
-59.038835
 20
51.716028
  0
POINT
  8
寸法
 62
     0
 10
-59.038835
 20
46.16603
  0
TEXT
  7
TextStyle03
  8
寸法
  6
CONTINUOUS
 62
     0
 10
-59.4
 20
46.4875
  1
111
 40
3.0
 50
90.0
 72
     5
 11
-59.4
 21
51.3625
  0
ENDBLK
  0
BLOCK
  2
*DIM_0006
 70
    65
 10
0.0
 20
0.0
  0
LINE
  8
寸法
  6
BYBLOCK
 62
     0
 10
-75.898747
 20
6.716028
 11
-59.038835
 21
6.716028
  0
LINE
  8
寸法
  6
BYBLOCK
 62
     0
 10
-67.874873
 20
12.266025
 11
-59.038835
 21
12.266025
  0
LINE
  8
寸法
  6
BYBLOCK
 62
     0
 10
-59.038835
 20
6.716028
 11
-59.038835
 21
12.266025
  0
POINT
  8
寸法
 62
     0
 10
-59.038835
 20
6.716028
  0
POINT
  8
寸法
 62
     0
 10
-59.038835
 20
12.266025
  0
TEXT
  7
TextStyle03
  8
寸法
  6
CONTINUOUS
 62
     0
 10
-59.4
 20
7.0375
  1
111
 40
3.0
 50
90.0
 72
     5
 11
-59.4
 21
11.9125
  0
ENDBLK
  0
BLOCK
  2
*DIM_0007
 70
    65
 10
0.0
 20
0.0
  0
LINE
  8
寸法
  6
BYBLOCK
 62
     0
 10
-114.398747
 20
52.716028
 11
-114.398747
 21
70.655042
  0
LINE
  8
寸法
  6
BYBLOCK
 62
     0
 10
-84.398747
 20
52.716028
 11
-84.398747
 21
70.655042
  0
LINE
  8
寸法
  6
BYBLOCK
 62
     0
 10
-114.398747
 20
70.655042
 11
-84.398747
 21
70.655042
  0
POINT
  8
寸法
 62
     0
 10
-114.398747
 20
70.655042
  0
POINT
  8
寸法
 62
     0
 10
-84.398747
 20
70.655042
  0
TEXT
  7
TextStyle03
  8
寸法
  6
CONTINUOUS
 62
     0
 10
-101.8375
 20
71.025
  1
600
 40
3.0
 72
     5
 11
-96.9625
 21
71.025
  0
ENDBLK
  0
BLOCK
  2
*DIM_0008
 70
    65
 10
0.0
 20
0.0
  0
LINE
  8
寸法
  6
BYBLOCK
 62
     0
 10
-122.898747
 20
51.716028
 11
-145.80699
 21
51.716028
  0
LINE
  8
寸法
  6
BYBLOCK
 62
     0
 10
-122.898747
 20
29.216028
 11
-145.80699
 21
29.216028
  0
LINE
  8
寸法
  6
BYBLOCK
 62
     0
 10
-145.80699
 20
51.716028
 11
-145.80699
 21
29.216028
  0
POINT
  8
寸法
 62
     0
 10
-145.80699
 20
51.716028
  0
POINT
  8
寸法
 62
     0
 10
-145.80699
 20
29.216028
  0
TEXT
  7
TextStyle03
  8
寸法
  6
CONTINUOUS
 62
     0
 10
-146.175
 20
38.0125
  1
450
 40
3.0
 50
90.0
 72
     5
 11
-146.175
 21
42.8875
  0
ENDBLK
  0
BLOCK
  2
*DIM_0009
 70
    65
 10
0.0
 20
0.0
  0
LINE
  8
寸法
  6
BYBLOCK
 62
     0
 10
-122.898747
 20
6.716028
 11
-145.80699
 21
6.716028
  0
LINE
  8
寸法
  6
BYBLOCK
 62
     0
 10
-145.80699
 20
29.216028
 11
-145.80699
 21
6.716028
  0
POINT
  8
寸法
 62
     0
 10
-145.80699
 20
6.716028
  0
TEXT
  7
TextStyle03
  8
寸法
  6
CONTINUOUS
 62
     0
 10
-146.175
 20
15.5125
  1
450
 40
3.0
 50
90.0
 72
     5
 11
-146.175
 21
20.3875
  0
ENDBLK
  0
BLOCK
  2
*DIM_0010
 70
    65
 10
0.0
 20
0.0
  0
LINE
  8
寸法
  6
CONTINUOUS
 10
-128.148747
 20
-85.478355
 11
-128.148747
 21
-33.377287
  0
LINE
  8
寸法
  6
CONTINUOUS
 10
-121.898747
 20
-33.377287
 11
-128.148747
 21
-33.377287
  0
POINT
  8
寸法
 10
-121.898747
 20
-33.377287
  0
POINT
  8
寸法
 10
-128.148747
 20
-33.377287
  0
TEXT
  7
TextStyle03
  8
寸法
  6
CONTINUOUS
 10
-127.4625
 20
-33.025
  1
125
 40
3.0
 72
     5
 11
-122.5875
 21
-33.025
  0
ENDBLK
  0
BLOCK
  2
*DIM_0011
 70
    65
 10
0.0
 20
0.0
  0
LINE
  8
寸法
  6
CONTINUOUS
 10
-70.648747
 20
-85.478355
 11
-70.648747
 21
-33.377287
  0
LINE
  8
寸法
  6
CONTINUOUS
 10
-76.898747
 20
-33.377287
 11
-70.648747
 21
-33.377287
  0
POINT
  8
寸法
 10
-76.898747
 20
-33.377287
  0
POINT
  8
寸法
 10
-70.648747
 20
-33.377287
  0
TEXT
  7
TextStyle03
  8
寸法
  6
CONTINUOUS
 10
-76.2125
 20
-33.025
  1
125
 40
3.0
 72
     5
 11
-71.3375
 21
-33.025
  0
ENDBLK
  0
BLOCK
  2
*DIM_0012
 70
    65
 10
0.0
 20
0.0
  0
LINE
  8
寸法
  6
CONTINUOUS
 10
-71.753745
 20
-96.613382
 11
-51.842645
 21
-96.613382
  0
LINE
  8
寸法
  6
CONTINUOUS
 10
-69.648747
 20
-86.478355
 11
-51.842645
 21
-86.478355
  0
LINE
  8
寸法
  6
CONTINUOUS
 10
-51.842645
 20
-96.613382
 11
-51.842645
 21
-86.478355
  0
POINT
  8
寸法
 10
-51.842645
 20
-96.613382
  0
POINT
  8
寸法
 10
-51.842645
 20
-86.478355
  0
TEXT
  7
TextStyle03
  8
寸法
  6
CONTINUOUS
 10
-52.225
 20
-95.675
  1
202.7
 40
3.0
 50
90.0
 72
     5
 11
-52.225
 21
-87.425
  0
ENDBLK
  0
BLOCK
  2
*DIM_0013
 70
    65
 10
0.0
 20
0.0
  0
LINE
  8
寸法
  6
CONTINUOUS
 10
-98.398747
 20
-57.410728
 11
-51.842645
 21
-57.410728
  0
LINE
  8
寸法
  6
CONTINUOUS
 10
-51.842645
 20
-86.478355
 11
-51.842645
 21
-57.410728
  0
POINT
  8
寸法
 10
-51.842645
 20
-57.410728
  0
TEXT
  7
TextStyle03
  8
寸法
  6
CONTINUOUS
 10
-52.225
 20
-76.91875
  1
581.35
 40
3.0
 50
90.0
 72
     5
 11
-52.225
 21
-66.98125
  0
ENDBLK
  0
BLOCK
  2
*DIM_0014
 70
    65
 10
0.0
 20
0.0
  0
LINE
  8
寸法
  6
CONTINUOUS
 10
-101.648747
 20
-58.660728
 11
-101.648747
 21
-52.49864
  0
LINE
  8
寸法
  6
CONTINUOUS
 10
-97.14816
 20
-58.660728
 11
-97.14816
 21
-52.49864
  0
LINE
  8
寸法
  6
CONTINUOUS
 10
-101.648747
 20
-52.49864
 11
-97.14816
 21
-52.49864
  0
POINT
  8
寸法
 10
-101.648747
 20
-52.49864
  0
POINT
  8
寸法
 10
-97.14816
 20
-52.49864
  0
TEXT
  7
TextStyle03
  8
寸法
  6
CONTINUOUS
 10
-100.99375
 20
-52.125
  1
90
 40
3.0
 72
     5
 11
-97.80625
 21
-52.125
  0
ENDBLK
  0
BLOCK
  2
*DIM_0015
 70
    65
 10
0.0
 20
0.0
  0
LINE
  8
寸法
  6
CONTINUOUS
 10
-97.398747
 20
-57.410728
 11
-89.010182
 21
-57.410728
  0
LINE
  8
寸法
  6
CONTINUOUS
 10
-96.14816
 20
-59.660728
 11
-89.010182
 21
-59.660728
  0
LINE
  8
寸法
  6
CONTINUOUS
 10
-89.010182
 20
-57.410728
 11
-89.010182
 21
-59.660728
  0
POINT
  8
寸法
 10
-89.010182
 20
-57.410728
  0
POINT
  8
寸法
 10
-89.010182
 20
-59.660728
  0
TEXT
  7
TextStyle03
  8
寸法
  6
CONTINUOUS
 10
-89.125
 20
-63.49375
  1
45
 40
3.0
 50
90.0
 72
     5
 11
-89.125
 21
-60.30625
  0
ENDBLK
  0
BLOCK
  2
*GRP_0016
 70
    65
 10
0.0
 20
0.0
  0
LINE
  8
補助線
  6
DOT
 62
    64
 10
24.83966
 20
-92.743105
 11
25.063045
 21
-92.855345
  0
LINE
  8
補助線
  6
DOT
 62
    64
 10
25.007473
 20
-92.687533
 11
24.895233
 21
-92.910917
  0
LINE
  8
補助線
  6
DOT
 62
    64
 10
10.1853
 20
-85.380385
 11
9.961908
 21
-85.268145
  0
LINE
  8
補助線
  6
DOT
 62
    64
 10
10.12972
 20
-85.212568
 11
10.017485
 21
-85.435958
  0
LINE
  8
補助線
  6
DOT
 62
    64
 10
-4.69249
 20
-77.905495
 11
-4.91588
 21
-77.793263
  0
LINE
  8
補助線
  6
DOT
 62
    64
 10
-4.748067
 20
-77.737683
 11
-4.860303
 21
-77.961072
  0
LINE
  8
型材断面
  6
DOT
 10
25.959315
 20
-91.90675
 11
26.292772
 21
-92.913627
  0
LINE
  8
型材断面
  6
DOT
 10
26.292772
 20
-92.913627
 11
25.843828
 21
-93.807187
  0
LINE
  8
型材断面
  6
DOT
 10
25.843828
 20
-93.807187
 11
24.83695
 21
-94.140645
  0
LINE
  8
型材断面
  6
DOT
 10
-4.68979
 20
-76.507955
 11
-5.696663
 21
-76.84142
  0
LINE
  8
型材断面
  6
DOT
 10
-5.696663
 20
-76.84142
 11
-6.14561
 21
-77.734983
  0
LINE
  8
型材断面
  6
DOT
 10
-6.14561
 20
-77.734983
 11
-5.812143
 21
-78.741857
  0
LINE
  8
型材断面
  6
DOT
 10
25.959315
 20
-91.90675
 11
-4.689675
 21
-76.507915
  0
LINE
  8
型材断面
  6
DOT
 10
24.83695
 20
-94.140645
 11
-5.812177
 21
-78.74175
  0
LINE
  8
ボルト／ビス
  6
DOT
 62
    64
 10
25.15871
 20
-92.386507
 11
25.412455
 21
-92.772445
  0
LINE
  8
ボルト／ビス
  6
DOT
 62
    64
 10
25.15871
 20
-92.386507
 11
24.69761
 21
-92.41329
  0
LINE
  8
ボルト／ビス
  6
DOT
 62
    64
 10
24.743995
 20
-93.211942
 11
25.205095
 21
-93.18516
  0
LINE
  8
ボルト／ビス
  6
DOT
 62
    64
 10
24.743995
 20
-93.211942
 11
24.49025
 21
-92.826005
  0
CIRCLE
  8
ボルト／ビス
  6
DOT
 62
    64
 10
24.951353
 20
-92.799225
 40
0.4
  0
LINE
  8
ボルト／ビス
  6
DOT
 62
    64
 10
24.69761
 20
-92.41329
 11
24.49025
 21
-92.826005
  0
LINE
  8
ボルト／ビス
  6
DOT
 62
    64
 10
25.412455
 20
-92.772445
 11
25.205095
 21
-93.18516
  0
LINE
  8
ボルト／ビス
  6
DOT
 62
    64
 10
10.280962
 20
-84.911547
 11
9.819858
 21
-84.938325
  0
LINE
  8
ボルト／ビス
  6
DOT
 62
    64
 10
10.280962
 20
-84.911547
 11
10.534707
 21
-85.297483
  0
LINE
  8
ボルト／ビス
  6
DOT
 62
    64
 10
9.866243
 20
-85.73698
 11
9.6125
 21
-85.351045
  0
LINE
  8
ボルト／ビス
  6
DOT
 62
    64
 10
9.866243
 20
-85.73698
 11
10.327345
 21
-85.7102
  0
CIRCLE
  8
ボルト／ビス
  6
DOT
 62
    64
 10
10.0736
 20
-85.324265
 40
0.4
  0
LINE
  8
ボルト／ビス
  6
DOT
 62
    64
 10
10.534707
 20
-85.297483
 11
10.327345
 21
-85.7102
  0
LINE
  8
ボルト／ビス
  6
DOT
 62
    64
 10
9.819858
 20
-84.938325
 11
9.6125
 21
-85.351045
  0
LINE
  8
ボルト／ビス
  6
DOT
 62
    64
 10
-4.596828
 20
-77.436657
 11
-5.057932
 21
-77.46344
  0
LINE
  8
ボルト／ビス
  6
DOT
 62
    64
 10
-4.596828
 20
-77.436657
 11
-4.343085
 21
-77.822595
  0
LINE
  8
ボルト／ビス
  6
DOT
 62
    64
 10
-5.011545
 20
-78.262095
 11
-5.265287
 21
-77.876158
  0
LINE
  8
ボルト／ビス
  6
DOT
 62
    64
 10
-5.011545
 20
-78.262095
 11
-4.550438
 21
-78.235312
  0
CIRCLE
  8
ボルト／ビス
  6
DOT
 62
    64
 10
-4.804183
 20
-77.849377
 40
0.4
  0
LINE
  8
ボルト／ビス
  6
DOT
 62
    64
 10
-4.343085
 20
-77.822595
 11
-4.550438
 21
-78.235312
  0
LINE
  8
ボルト／ビス
  6
DOT
 62
    64
 10
-5.057932
 20
-77.46344
 11
-5.265287
 21
-77.876158
  0
ENDBLK
  0
BLOCK
  2
*GRP_0017
 70
    65
 10
0.0
 20
0.0
  0
LINE
  8
補助線
  6
DOT
 62
    64
 10
-4.692455
 20
-92.743105
 11
-4.91584
 21
-92.855345
  0
LINE
  8
補助線
  6
DOT
 62
    64
 10
-4.860268
 20
-92.687533
 11
-4.748027
 21
-92.910917
  0
LINE
  8
補助線
  6
DOT
 62
    64
 10
9.961905
 20
-85.380385
 11
10.185297
 21
-85.268145
  0
LINE
  8
補助線
  6
DOT
 62
    64
 10
10.017485
 20
-85.212568
 11
10.12972
 21
-85.435958
  0
LINE
  8
補助線
  6
DOT
 62
    64
 10
24.839695
 20
-77.905495
 11
25.063085
 21
-77.793263
  0
LINE
  8
補助線
  6
DOT
 62
    64
 10
24.895272
 20
-77.737683
 11
25.007508
 21
-77.961072
  0
LINE
  8
型材断面
  6
DOT
 10
-5.81211
 20
-91.90675
 11
-6.145568
 21
-92.913627
  0
LINE
  8
型材断面
  6
DOT
 10
-6.145568
 20
-92.913627
 11
-5.696623
 21
-93.807187
  0
LINE
  8
型材断面
  6
DOT
 10
-5.696623
 20
-93.807187
 11
-4.689745
 21
-94.140645
  0
LINE
  8
型材断面
  6
DOT
 10
24.836995
 20
-76.507955
 11
25.843867
 21
-76.84142
  0
LINE
  8
型材断面
  6
DOT
 10
25.843867
 20
-76.84142
 11
26.292815
 21
-77.734983
  0
LINE
  8
型材断面
  6
DOT
 10
26.292815
 20
-77.734983
 11
25.959347
 21
-78.741857
  0
LINE
  8
型材断面
  6
DOT
 10
-5.81211
 20
-91.90675
 11
24.83688
 21
-76.507915
  0
LINE
  8
型材断面
  6
DOT
 10
-4.689745
 20
-94.140645
 11
25.959382
 21
-78.74175
  0
LINE
  8
ボルト／ビス
  6
DOT
 62
    64
 10
-5.011505
 20
-92.386507
 11
-5.26525
 21
-92.772445
  0
LINE
  8
ボルト／ビス
  6
DOT
 62
    64
 10
-5.011505
 20
-92.386507
 11
-4.550405
 21
-92.41329
  0
LINE
  8
ボルト／ビス
  6
DOT
 62
    64
 10
-4.59679
 20
-93.211942
 11
-5.05789
 21
-93.18516
  0
LINE
  8
ボルト／ビス
  6
DOT
 62
    64
 10
-4.59679
 20
-93.211942
 11
-4.343045
 21
-92.826005
  0
CIRCLE
  8
ボルト／ビス
  6
DOT
 62
    64
 10
-4.804147
 20
-92.799225
 40
0.4
  0
LINE
  8
ボルト／ビス
  6
DOT
 62
    64
 10
-4.550405
 20
-92.41329
 11
-4.343045
 21
-92.826005
  0
LINE
  8
ボルト／ビス
  6
DOT
 62
    64
 10
-5.26525
 20
-92.772445
 11
-5.05789
 21
-93.18516
  0
LINE
  8
ボルト／ビス
  6
DOT
 62
    64
 10
9.866243
 20
-84.911547
 11
10.327347
 21
-84.938325
  0
LINE
  8
ボルト／ビス
  6
DOT
 62
    64
 10
9.866243
 20
-84.911547
 11
9.612498
 21
-85.297483
  0
LINE
  8
ボルト／ビス
  6
DOT
 62
    64
 10
10.280962
 20
-85.73698
 11
10.534705
 21
-85.351045
  0
LINE
  8
ボルト／ビス
  6
DOT
 62
    64
 10
10.280962
 20
-85.73698
 11
9.81986
 21
-85.7102
  0
CIRCLE
  8
ボルト／ビス
  6
DOT
 62
    64
 10
10.073605
 20
-85.324265
 40
0.4
  0
LINE
  8
ボルト／ビス
  6
DOT
 62
    64
 10
9.612498
 20
-85.297483
 11
9.81986
 21
-85.7102
  0
LINE
  8
ボルト／ビス
  6
DOT
 62
    64
 10
10.327347
 20
-84.938325
 11
10.534705
 21
-85.351045
  0
LINE
  8
ボルト／ビス
  6
DOT
 62
    64
 10
24.744032
 20
-77.436657
 11
25.205137
 21
-77.46344
  0
LINE
  8
ボルト／ビス
  6
DOT
 62
    64
 10
24.744032
 20
-77.436657
 11
24.49029
 21
-77.822595
  0
LINE
  8
ボルト／ビス
  6
DOT
 62
    64
 10
25.15875
 20
-78.262095
 11
25.412493
 21
-77.876158
  0
LINE
  8
ボルト／ビス
  6
DOT
 62
    64
 10
25.15875
 20
-78.262095
 11
24.697643
 21
-78.235312
  0
CIRCLE
  8
ボルト／ビス
  6
DOT
 62
    64
 10
24.951388
 20
-77.849377
 40
0.4
  0
LINE
  8
ボルト／ビス
  6
DOT
 62
    64
 10
24.49029
 20
-77.822595
 11
24.697643
 21
-78.235312
  0
LINE
  8
ボルト／ビス
  6
DOT
 62
    64
 10
25.205137
 20
-77.46344
 11
25.412493
 21
-77.876158
  0
ENDBLK
  0
BLOCK
  2
*DIM_0018
 70
    65
 10
0.0
 20
0.0
  0
LINE
  8
寸法
  6
BYBLOCK
 62
     0
 10
37.313697
 20
-90.495532
 11
49.37279
 21
-90.495532
  0
LINE
  8
寸法
  6
BYBLOCK
 62
     0
 10
37.313697
 20
-79.495532
 11
49.37279
 21
-79.495532
  0
LINE
  8
寸法
  6
BYBLOCK
 62
     0
 10
49.37279
 20
-90.495532
 11
49.37279
 21
-79.495532
  0
POINT
  8
寸法
 62
     0
 10
49.37279
 20
-90.495532
  0
POINT
  8
寸法
 62
     0
 10
49.37279
 20
-79.495532
  0
TEXT
  7
TextStyle03
  8
寸法
  6
CONTINUOUS
 62
     0
 10
53.75
 20
-94.4125
  1
上昇高さ220
 40
3.0
 50
90.0
 72
     5
 11
53.75
 21
-76.0375
  0
ENDBLK
  0
BLOCK
  2
*DIM_0019
 70
    65
 10
0.0
 20
0.0
  0
LINE
  8
寸法
  6
CONTINUOUS
 10
116.136982
 20
-87.98947
 11
116.136982
 21
-97.511295
  0
LINE
  8
寸法
  6
CONTINUOUS
 10
163.460047
 20
-87.98947
 11
163.460047
 21
-97.511295
  0
LINE
  8
寸法
  6
CONTINUOUS
 10
116.136982
 20
-97.511295
 11
163.460047
 21
-97.511295
  0
POINT
  8
寸法
 10
116.136982
 20
-97.511295
  0
POINT
  8
寸法
 10
163.460047
 20
-97.511295
  0
TEXT
  7
TextStyle03
  8
寸法
  6
CONTINUOUS
 10
135.675
 20
-97.15
  1
946.5
 40
3.0
 72
     5
 11
143.925
 21
-97.15
  0
ENDBLK
  0
BLOCK
  2
*DIM_0020
 70
    65
 10
0.0
 20
0.0
  0
LINE
  8
寸法
  6
CONTINUOUS
 10
164.460047
 20
-86.98947
 11
174.50152
 21
-86.98947
  0
LINE
  8
寸法
  6
CONTINUOUS
 10
140.798515
 20
-53.527015
 11
174.50152
 21
-53.527015
  0
LINE
  8
寸法
  6
CONTINUOUS
 10
174.50152
 20
-86.98947
 11
174.50152
 21
-53.527015
  0
POINT
  8
寸法
 10
174.50152
 20
-86.98947
  0
POINT
  8
寸法
 10
174.50152
 20
-53.527015
  0
TEXT
  7
TextStyle03
  8
寸法
  6
CONTINUOUS
 10
174.125
 20
-74.4
  1
669.3
 40
3.0
 50
90.0
 72
     5
 11
174.125
 21
-66.15
  0
ENDBLK
  0
BLOCK
  2
*DIM_0021
 70
    65
 10
0.0
 20
0.0
  0
LINE
  8
寸法
  6
CONTINUOUS
 10
-101.648745
 20
32.46603
 11
-101.648745
 21
40.538253
  0
LINE
  8
寸法
  6
CONTINUOUS
 10
-97.14875
 20
32.46603
 11
-97.14875
 21
40.538253
  0
LINE
  8
寸法
  6
CONTINUOUS
 10
-101.648745
 20
40.538253
 11
-97.14875
 21
40.538253
  0
POINT
  8
寸法
 10
-101.648745
 20
40.538253
  0
POINT
  8
寸法
 10
-97.14875
 20
40.538253
  0
TEXT
  7
TextStyle03
  8
寸法
  6
CONTINUOUS
 10
-100.99375
 20
40.9
  1
90
 40
3.0
 72
     5
 11
-97.80625
 21
40.9
  0
ENDBLK
  0
ENDSEC
  0
SECTION
  2
ENTITIES
  0
POLYLINE
  8
通り芯
  6
CONTINUOUS
 66
     1
 70
     1
  0
VERTEX
  8
通り芯
 10
-210.0
 20
-148.5
  0
VERTEX
  8
通り芯
 10
210.0
 20
-148.5
  0
VERTEX
  8
通り芯
 10
210.0
 20
148.5
  0
VERTEX
  8
通り芯
 10
-210.0
 20
148.5
  0
SEQEND
  0
INSERT
  2
*GRP_0001
  8
型材断面
  6
CONTINUOUS
 10
0.0
 20
0.0
  0
LINE
  8
型材断面
  6
CONTINUOUS
 10
-129.922623
 20
12.266025
 11
-133.808382
 21
13.16011
  0
LINE
  8
型材断面
  6
CONTINUOUS
 10
-129.922623
 20
12.266025
 11
-133.808382
 21
11.37194
  0
LINE
  8
型材断面
  6
CONTINUOUS
 10
-133.808382
 20
11.37194
 11
-133.808382
 21
13.16011
  0
LINE
  8
型材断面
  6
CONTINUOUS
 10
-44.439203
 20
5.837107
 11
-46.682647
 21
1.951347
  0
LINE
  8
型材断面
  6
CONTINUOUS
 10
-44.439203
 20
5.837107
 11
-42.195758
 21
1.951347
  0
LINE
  8
型材断面
  6
CONTINUOUS
 10
-42.195758
 20
1.951347
 11
-46.682647
 21
1.951347
  0
LINE
  8
型材断面
  6
CONTINUOUS
 10
-44.439203
 20
-1.85244
 11
-43.545118
 21
-5.7382
  0
LINE
  8
型材断面
  6
CONTINUOUS
 10
-44.439203
 20
-1.85244
 11
-45.333288
 21
-5.7382
  0
LINE
  8
型材断面
  6
CONTINUOUS
 10
-45.333288
 20
-5.7382
 11
-43.545118
 21
-5.7382
  0
LINE
  8
型材断面
  6
CONTINUOUS
 10
-53.473082
 20
0.543455
 11
-0.816403
 21
0.543455
  0
LINE
  8
型材断面
  6
CONTINUOUS
 10
-53.473082
 20
-10.656538
 11
-0.816403
 21
-10.656538
  0
LINE
  8
型材断面
  6
CONTINUOUS
 10
-53.473082
 20
-17.496483
 11
-0.816403
 21
-17.496483
  0
LINE
  8
型材断面
  6
DASHDOT
 10
-121.898747
 20
6.716028
 11
-76.898747
 21
6.716028
  0
LINE
  8
型材断面
  6
DASHDOT
 10
-121.898747
 20
51.716028
 11
-76.898747
 21
51.716028
  0
LINE
  8
型材断面
  6
DASHDOTX2
 10
-121.898747
 20
29.216028
 11
-76.898747
 21
29.216028
  0
LINE
  8
型材断面
  6
CONTINUOUS
 10
-129.922623
 20
46.16603
 11
-133.808382
 21
45.271945
  0
LINE
  8
型材断面
  6
CONTINUOUS
 10
-129.922623
 20
46.16603
 11
-133.808382
 21
47.060115
  0
LINE
  8
型材断面
  6
CONTINUOUS
 10
-133.808382
 20
47.060115
 11
-133.808382
 21
45.271945
  0
LINE
  8
型材断面
  6
CONTINUOUS
 10
-68.874873
 20
12.266025
 11
-64.989113
 21
13.16011
  0
LINE
  8
型材断面
  6
CONTINUOUS
 10
-68.874873
 20
12.266025
 11
-64.989113
 21
11.37194
  0
LINE
  8
型材断面
  6
CONTINUOUS
 10
-64.989113
 20
11.37194
 11
-64.989113
 21
13.16011
  0
LINE
  8
型材断面
  6
CONTINUOUS
 10
-68.874873
 20
46.16603
 11
-64.989113
 21
45.271945
  0
LINE
  8
型材断面
  6
CONTINUOUS
 10
-68.874873
 20
46.16603
 11
-64.989113
 21
47.060115
  0
LINE
  8
型材断面
  6
CONTINUOUS
 10
-64.989113
 20
47.060115
 11
-64.989113
 21
45.271945
  0
LINE
  8
型材断面
  6
CONTINUOUS
 10
-99.398747
 20
59.739903
 11
-101.642192
 21
63.625662
  0
LINE
  8
型材断面
  6
CONTINUOUS
 10
-99.398747
 20
59.739903
 11
-97.155303
 21
63.625662
  0
LINE
  8
型材断面
  6
CONTINUOUS
 10
-97.155303
 20
63.625662
 11
-101.642192
 21
63.625662
  0
LINE
  8
型材断面
  6
CONTINUOUS
 10
-99.398747
 20
-1.307848
 11
-101.642192
 21
-5.193607
  0
LINE
  8
型材断面
  6
CONTINUOUS
 10
-99.398747
 20
-1.307848
 11
-97.155303
 21
-5.193607
  0
LINE
  8
型材断面
  6
CONTINUOUS
 10
-97.155303
 20
-5.193607
 11
-101.642192
 21
-5.193607
  0
LINE
  8
型材断面
  6
CONTINUOUS
 10
-68.874873
 20
29.216028
 11
-64.989113
 21
31.459473
  0
LINE
  8
型材断面
  6
CONTINUOUS
 10
-68.874873
 20
29.216028
 11
-64.989113
 21
26.972582
  0
LINE
  8
型材断面
  6
CONTINUOUS
 10
-64.989113
 20
26.972582
 11
-64.989113
 21
31.459473
  0
LINE
  8
型材断面
  6
CONTINUOUS
 10
-129.922623
 20
29.216028
 11
-133.808382
 21
31.459473
  0
LINE
  8
型材断面
  6
CONTINUOUS
 10
-129.922623
 20
29.216028
 11
-133.808382
 21
26.972582
  0
LINE
  8
型材断面
  6
CONTINUOUS
 10
-133.808382
 20
26.972582
 11
-133.808382
 21
31.459473
  0
POLYLINE
  8
型材断面
  6
CONTINUOUS
 66
     1
 70
     1
  0
VERTEX
  8
型材断面
 10
-90.07028
 20
-6.001868
  0
VERTEX
  8
型材断面
 10
-108.625493
 20
-6.001868
  0
VERTEX
  8
型材断面
 10
-108.625493
 20
-10.793902
  0
VERTEX
  8
型材断面
 10
-90.07028
 20
-10.793902
  0
SEQEND
  0
POLYLINE
  8
型材断面
  6
CONTINUOUS
 66
     1
 70
     1
  0
VERTEX
  8
型材断面
 10
-90.07028
 20
69.259575
  0
VERTEX
  8
型材断面
 10
-108.625493
 20
69.259575
  0
VERTEX
  8
型材断面
 10
-108.625493
 20
64.46754
  0
VERTEX
  8
型材断面
 10
-90.07028
 20
64.46754
  0
SEQEND
  0
LINE
  8
型材断面
  6
CONTINUOUS
 10
-53.473082
 20
-24.336427
 11
-0.816403
 21
-24.336427
  0
LINE
  8
型材断面
  6
DASHDOT
 10
-76.898747
 20
-96.818555
 11
-76.898747
 21
51.716028
  0
LINE
  8
型材断面
  6
DASHDOT
 10
-121.898747
 20
-96.818555
 11
-121.898747
 21
51.716028
  0
LINE
  8
型材断面
  6
DASHDOT
 10
-99.398747
 20
51.716028
 11
-99.398747
 21
-96.613382
  0
LINE
  8
型材断面
  6
CONTINUOUS
 10
-128.148743
 20
57.966022
 11
-70.648752
 21
57.966022
  0
LINE
  8
型材断面
  6
CONTINUOUS
 10
-70.648752
 20
57.966022
 11
-70.648752
 21
0.466033
  0
LINE
  8
型材断面
  6
CONTINUOUS
 10
-70.648752
 20
0.466033
 11
-128.148743
 21
0.466033
  0
LINE
  8
型材断面
  6
CONTINUOUS
 10
-128.148743
 20
57.966022
 11
-128.148743
 21
0.466033
  0
LINE
  8
型材断面
  6
CONTINUOUS
 10
-99.398747
 20
29.216028
 11
-128.148743
 21
0.466033
  0
LINE
  8
型材断面
  6
CONTINUOUS
 10
-99.398747
 20
29.216028
 11
-70.648752
 21
57.966022
  0
LINE
  8
型材断面
  6
CONTINUOUS
 10
-128.148743
 20
57.966022
 11
-70.648752
 21
0.466033
  0
LINE
  8
型材断面
  6
DOT
 10
-80.898747
 20
51.716028
 11
-80.898747
 21
6.716028
  0
LINE
  8
型材断面
  6
DOT
 10
-78.898747
 20
51.716028
 11
-78.898747
 21
6.716028
  0
LINE
  8
型材断面
  6
CONTINUOUS
 10
-70.648747
 20
-86.407622
 11
-70.595715
 21
-86.354587
  0
LINE
  8
型材断面
  6
CONTINUOUS
 10
-72.753745
 20
-96.613382
 11
-72.753745
 21
-90.758382
  0
LINE
  8
型材断面
  6
CONTINUOUS
 10
-72.753745
 20
-90.758382
 11
-73.016597
 21
-90.495532
  0
LINE
  8
型材断面
  6
CONTINUOUS
 10
-70.648747
 20
-86.478355
 11
-70.648747
 21
-89.79555
  0
LINE
  8
型材断面
  6
CONTINUOUS
 10
-71.898747
 20
-89.795532
 11
-71.898747
 21
-90.495532
  0
LINE
  8
型材断面
  6
CONTINUOUS
 10
-74.003745
 20
-96.613382
 11
-74.003745
 21
-97.118383
  0
LINE
  8
型材断面
  6
CONTINUOUS
 10
-126.04375
 20
-96.613382
 11
-126.04375
 21
-90.758382
  0
LINE
  8
型材断面
  6
CONTINUOUS
 10
-126.04375
 20
-90.758382
 11
-125.780897
 21
-90.495532
  0
LINE
  8
型材断面
  6
CONTINUOUS
 10
-128.148747
 20
-86.478355
 11
-128.148747
 21
-89.79555
  0
LINE
  8
型材断面
  6
CONTINUOUS
 10
-126.898747
 20
-89.795532
 11
-126.898747
 21
-90.495532
  0
LINE
  8
型材断面
  6
CONTINUOUS
 10
-124.79375
 20
-96.613382
 11
-124.79375
 21
-97.118383
  0
LINE
  8
型材断面
  6
CONTINUOUS
 10
-70.648747
 20
-86.478355
 11
-128.148747
 21
-86.478355
  0
LINE
  8
型材断面
  6
CONTINUOUS
 10
-70.648747
 20
-89.79555
 11
-128.148747
 21
-89.79555
  0
LINE
  8
型材断面
  6
CONTINUOUS
 10
-71.898747
 20
-90.495532
 11
-126.898747
 21
-90.495532
  0
LINE
  8
型材断面
  6
CONTINUOUS
 10
-72.753745
 20
-90.758403
 11
-126.04375
 21
-90.758403
  0
LINE
  8
型材断面
  6
CONTINUOUS
 10
-72.753745
 20
-96.613382
 11
-126.04375
 21
-96.613382
  0
LINE
  8
型材断面
  6
CONTINUOUS
 10
-74.003745
 20
-97.118383
 11
-124.79375
 21
-97.118383
  0
LINE
  8
型材断面
  6
CONTINUOUS
 10
-128.148747
 20
-86.407622
 11
-99.398745
 21
-57.657625
  0
LINE
  8
型材断面
  6
CONTINUOUS
 10
-70.648747
 20
-86.407622
 11
-99.398745
 21
-57.657625
  0
LINE
  8
型材断面
  6
CONTINUOUS
 10
-70.595715
 20
-86.354587
 11
-99.398747
 21
-57.55156
  0
LINE
  8
型材断面
  6
CONTINUOUS
 10
-128.20178
 20
-86.354587
 11
-99.398747
 21
-57.55156
  0
LINE
  8
型材断面
  6
CONTINUOUS
 10
-99.398747
 20
-58.824942
 11
-99.398747
 21
-57.410728
  0
LINE
  8
型材断面
  6
CONTINUOUS
 10
-99.398747
 20
-58.824942
 11
-99.398747
 21
-57.410728
  0
LINE
  8
型材断面
  6
CONTINUOUS
 10
-101.648747
 20
-59.660728
 11
-101.578038
 21
-59.731437
  0
LINE
  8
型材断面
  6
CONTINUOUS
 10
-101.578038
 20
-59.731437
 11
-100.305245
 21
-59.731437
  0
LINE
  8
型材断面
  6
CONTINUOUS
 10
-99.398747
 20
-57.410728
 11
-101.648747
 21
-59.660728
  0
LINE
  8
型材断面
  6
CONTINUOUS
 10
-99.398747
 20
-58.82494
 11
-100.305245
 21
-59.731437
  0
LINE
  8
型材断面
  6
CONTINUOUS
 10
-97.14816
 20
-59.660728
 11
-97.21887
 21
-59.731437
  0
LINE
  8
型材断面
  6
CONTINUOUS
 10
-97.21887
 20
-59.731437
 11
-98.491662
 21
-59.731437
  0
LINE
  8
型材断面
  6
CONTINUOUS
 10
-99.398747
 20
-58.82494
 11
-98.49225
 21
-59.731437
  0
LINE
  8
型材断面
  6
CONTINUOUS
 10
-99.398747
 20
-57.410728
 11
-97.148452
 21
-59.661023
  0
LINE
  8
型材断面
  6
CONTINUOUS
 10
36.701128
 20
-86.407622
 11
36.75416
 21
-86.354587
  0
LINE
  8
型材断面
  6
CONTINUOUS
 10
34.59613
 20
-96.613382
 11
34.59613
 21
-90.758382
  0
LINE
  8
型材断面
  6
CONTINUOUS
 10
34.59613
 20
-90.758382
 11
34.333278
 21
-90.495532
  0
LINE
  8
型材断面
  6
CONTINUOUS
 10
36.701128
 20
-86.478355
 11
36.701128
 21
-89.79555
  0
LINE
  8
型材断面
  6
CONTINUOUS
 10
35.451128
 20
-89.795532
 11
35.451128
 21
-90.495532
  0
LINE
  8
型材断面
  6
CONTINUOUS
 10
33.34613
 20
-96.613382
 11
33.34613
 21
-97.118383
  0
LINE
  8
型材断面
  6
CONTINUOUS
 10
-18.693875
 20
-96.613382
 11
-18.693875
 21
-90.758382
  0
LINE
  8
型材断面
  6
CONTINUOUS
 10
-18.693875
 20
-90.758382
 11
-18.431023
 21
-90.495532
  0
LINE
  8
型材断面
  6
CONTINUOUS
 10
-20.798873
 20
-86.478355
 11
-20.798873
 21
-89.79555
  0
LINE
  8
型材断面
  6
CONTINUOUS
 10
-19.548873
 20
-89.795532
 11
-19.548873
 21
-90.495532
  0
LINE
  8
型材断面
  6
CONTINUOUS
 10
-17.443875
 20
-96.613382
 11
-17.443875
 21
-97.118383
  0
LINE
  8
型材断面
  6
CONTINUOUS
 10
36.701128
 20
-86.478355
 11
-20.798873
 21
-86.478355
  0
LINE
  8
型材断面
  6
CONTINUOUS
 10
36.701128
 20
-89.79555
 11
-20.798873
 21
-89.79555
  0
LINE
  8
型材断面
  6
CONTINUOUS
 10
35.451128
 20
-90.495532
 11
-19.548873
 21
-90.495532
  0
LINE
  8
型材断面
  6
CONTINUOUS
 10
34.59613
 20
-90.758403
 11
-18.693875
 21
-90.758403
  0
LINE
  8
型材断面
  6
CONTINUOUS
 10
34.59613
 20
-96.613382
 11
-18.693875
 21
-96.613382
  0
LINE
  8
型材断面
  6
CONTINUOUS
 10
33.34613
 20
-97.118383
 11
-17.443875
 21
-97.118383
  0
LINE
  8
型材断面
  6
CONTINUOUS
 10
-20.798873
 20
-86.407622
 11
7.95113
 21
-57.657625
  0
LINE
  8
型材断面
  6
CONTINUOUS
 10
36.701128
 20
-86.407622
 11
7.95113
 21
-57.657625
  0
LINE
  8
型材断面
  6
CONTINUOUS
 10
36.75416
 20
-86.354587
 11
7.951128
 21
-57.55156
  0
LINE
  8
型材断面
  6
CONTINUOUS
 10
-20.851905
 20
-86.354587
 11
7.951128
 21
-57.55156
  0
LINE
  8
型材断面
  6
CONTINUOUS
 10
7.951128
 20
-58.824942
 11
7.951128
 21
-57.410728
  0
LINE
  8
型材断面
  6
CONTINUOUS
 10
7.951128
 20
-58.824942
 11
7.951128
 21
-57.410728
  0
LINE
  8
型材断面
  6
CONTINUOUS
 10
5.701128
 20
-59.660728
 11
5.771838
 21
-59.731437
  0
LINE
  8
型材断面
  6
CONTINUOUS
 10
5.771838
 20
-59.731437
 11
7.04463
 21
-59.731437
  0
LINE
  8
型材断面
  6
CONTINUOUS
 10
7.951128
 20
-57.410728
 11
5.701128
 21
-59.660728
  0
LINE
  8
型材断面
  6
CONTINUOUS
 10
7.951128
 20
-58.82494
 11
7.04463
 21
-59.731437
  0
LINE
  8
型材断面
  6
CONTINUOUS
 10
10.201715
 20
-59.660728
 11
10.131005
 21
-59.731437
  0
LINE
  8
型材断面
  6
CONTINUOUS
 10
10.131005
 20
-59.731437
 11
8.858213
 21
-59.731437
  0
LINE
  8
型材断面
  6
CONTINUOUS
 10
7.951128
 20
-58.82494
 11
8.857625
 21
-59.731437
  0
LINE
  8
型材断面
  6
CONTINUOUS
 10
7.951128
 20
-57.410728
 11
10.201423
 21
-59.661023
  0
LINE
  8
型材断面
  6
DOT
 10
36.701128
 20
-75.407622
 11
36.75416
 21
-75.354587
  0
LINE
  8
型材断面
  6
DOT
 10
36.701128
 20
-75.478355
 11
36.701128
 21
-78.79555
  0
LINE
  8
型材断面
  6
DOT
 10
35.451128
 20
-78.795532
 11
35.451128
 21
-79.495532
  0
LINE
  8
型材断面
  6
DOT
 10
-20.798873
 20
-75.478355
 11
-20.798873
 21
-78.79555
  0
LINE
  8
型材断面
  6
DOT
 10
-19.548873
 20
-78.795532
 11
-19.548873
 21
-79.495532
  0
LINE
  8
型材断面
  6
DOT
 10
36.701128
 20
-75.478355
 11
-20.798873
 21
-75.478355
  0
LINE
  8
型材断面
  6
DOT
 10
36.701128
 20
-78.79555
 11
-20.798873
 21
-78.79555
  0
LINE
  8
型材断面
  6
DOT
 10
35.451128
 20
-79.495532
 11
-19.548873
 21
-79.495532
  0
LINE
  8
型材断面
  6
DOT
 10
-20.798873
 20
-75.407622
 11
7.95113
 21
-46.657625
  0
LINE
  8
型材断面
  6
DOT
 10
36.701128
 20
-75.407622
 11
7.95113
 21
-46.657625
  0
LINE
  8
型材断面
  6
DOT
 10
36.75416
 20
-75.354587
 11
7.951128
 21
-46.55156
  0
LINE
  8
型材断面
  6
DOT
 10
-20.851905
 20
-75.354587
 11
7.951128
 21
-46.55156
  0
LINE
  8
型材断面
  6
DOT
 10
7.951128
 20
-47.824942
 11
7.951128
 21
-46.410728
  0
LINE
  8
型材断面
  6
DOT
 10
7.951128
 20
-47.824942
 11
7.951128
 21
-46.410728
  0
LINE
  8
型材断面
  6
DOT
 10
5.701128
 20
-48.660728
 11
5.771838
 21
-48.731437
  0
LINE
  8
型材断面
  6
DOT
 10
5.771838
 20
-48.731437
 11
7.04463
 21
-48.731437
  0
LINE
  8
型材断面
  6
DOT
 10
7.951128
 20
-46.410728
 11
5.701128
 21
-48.660728
  0
LINE
  8
型材断面
  6
DOT
 10
7.951128
 20
-47.82494
 11
7.04463
 21
-48.731437
  0
LINE
  8
型材断面
  6
DOT
 10
10.201715
 20
-48.660728
 11
10.131005
 21
-48.731437
  0
LINE
  8
型材断面
  6
DOT
 10
10.131005
 20
-48.731437
 11
8.858213
 21
-48.731437
  0
LINE
  8
型材断面
  6
DOT
 10
7.951128
 20
-47.82494
 11
8.857625
 21
-48.731437
  0
LINE
  8
型材断面
  6
DOT
 10
7.951128
 20
-46.410728
 11
10.201423
 21
-48.661023
  0
INSERT
  2
*GRP_0016
  8
型材断面
  6
DOT
 10
0.0
 20
0.0
  0
INSERT
  2
*GRP_0017
  8
型材断面
  6
DOT
 10
0.0
 20
0.0
  0
LINE
  8
型材断面
  6
CONTINUOUS
 10
101.66573
 20
-58.593025
 11
125.597352
 21
-58.593025
  0
LINE
  8
型材断面
  6
CONTINUOUS
 10
-100.804428
 20
29.216028
 11
-101.648747
 21
28.37171
  0
LINE
  8
型材断面
  6
CONTINUOUS
 10
-101.648747
 20
28.37171
 11
-101.648747
 21
26.966028
  0
LINE
  8
型材断面
  6
CONTINUOUS
 10
-101.648747
 20
26.966028
 11
-100.24307
 21
26.966028
  0
LINE
  8
型材断面
  6
CONTINUOUS
 10
-99.398747
 20
27.810347
 11
-100.24307
 21
26.966028
  0
LINE
  8
型材断面
  6
CONTINUOUS
 10
-99.398747
 20
29.216028
 11
-101.64875
 21
26.966028
  0
LINE
  8
型材断面
  6
CONTINUOUS
 10
-97.14875
 20
31.46603
 11
-98.554425
 21
31.466028
  0
LINE
  8
型材断面
  6
CONTINUOUS
 10
-99.398747
 20
30.621708
 11
-98.554425
 21
31.466028
  0
LINE
  8
型材断面
  6
CONTINUOUS
 10
-97.14875
 20
31.46603
 11
-97.148747
 21
30.060345
  0
LINE
  8
型材断面
  6
CONTINUOUS
 10
-97.993067
 20
29.216028
 11
-97.148747
 21
30.060345
  0
LINE
  8
型材断面
  6
CONTINUOUS
 10
-99.398747
 20
29.216028
 11
-97.148743
 21
31.46603
  0
LINE
  8
型材断面
  6
CONTINUOUS
 10
-99.398747
 20
27.810347
 11
-98.554425
 21
26.966028
  0
LINE
  8
型材断面
  6
CONTINUOUS
 10
-97.148747
 20
26.966028
 11
-98.554425
 21
26.966028
  0
LINE
  8
型材断面
  6
CONTINUOUS
 10
-97.148747
 20
26.966028
 11
-97.148747
 21
28.37171
  0
LINE
  8
型材断面
  6
CONTINUOUS
 10
-97.993067
 20
29.216028
 11
-97.148747
 21
28.37171
  0
LINE
  8
型材断面
  6
CONTINUOUS
 10
-101.648745
 20
31.46603
 11
-100.24307
 21
31.466028
  0
LINE
  8
型材断面
  6
CONTINUOUS
 10
-99.398747
 20
30.621708
 11
-100.24307
 21
31.466028
  0
LINE
  8
型材断面
  6
CONTINUOUS
 10
-101.648745
 20
31.46603
 11
-101.648747
 21
30.060345
  0
LINE
  8
型材断面
  6
CONTINUOUS
 10
-100.804428
 20
29.216028
 11
-101.648747
 21
30.060345
  0
LINE
  8
型材断面
  6
CONTINUOUS
 10
-99.398747
 20
29.216028
 11
-101.648745
 21
31.466022
  0
LINE
  8
型材断面
  6
CONTINUOUS
 10
-99.398747
 20
29.216028
 11
-97.148745
 21
26.966028
  0
LINE
  8
ガラス
  6
CONTINUOUS
 10
-97.40148
 20
15.729895
 11
-101.274115
 21
11.85726
  0
LINE
  8
ガラス
  6
CONTINUOUS
 10
-98.281802
 20
14.131538
 11
-99.675757
 21
12.737582
  0
LINE
  8
ガラス
  6
CONTINUOUS
 10
-98.999838
 20
14.849573
 11
-100.393793
 21
13.455617
  0
LINE
  8
ガラス
  6
CONTINUOUS
 10
-81.345405
 20
31.1417
 11
-85.21804
 21
27.269065
  0
LINE
  8
ガラス
  6
CONTINUOUS
 10
-82.225727
 20
29.543342
 11
-83.619682
 21
28.149388
  0
LINE
  8
ガラス
  6
CONTINUOUS
 10
-82.943762
 20
30.261377
 11
-84.337717
 21
28.867423
  0
LINE
  8
ガラス
  6
CONTINUOUS
 10
-113.589502
 20
31.1417
 11
-117.462137
 21
27.269065
  0
LINE
  8
ガラス
  6
CONTINUOUS
 10
-114.469825
 20
29.543342
 11
-115.86378
 21
28.149388
  0
LINE
  8
ガラス
  6
CONTINUOUS
 10
-115.18786
 20
30.261377
 11
-116.581815
 21
28.867423
  0
LINE
  8
ガラス
  6
CONTINUOUS
 10
-97.40148
 20
-75.052225
 11
-101.274115
 21
-78.92486
  0
LINE
  8
ガラス
  6
CONTINUOUS
 10
-98.281802
 20
-76.650583
 11
-99.675757
 21
-78.044538
  0
LINE
  8
ガラス
  6
CONTINUOUS
 10
-98.999838
 20
-75.932547
 11
-100.393793
 21
-77.326502
  0
LINE
  8
ガラス
  6
CONTINUOUS
 10
-97.40148
 20
47.90368
 11
-101.274115
 21
44.031045
  0
LINE
  8
ガラス
  6
CONTINUOUS
 10
-98.281802
 20
46.305322
 11
-99.675757
 21
44.911368
  0
LINE
  8
ガラス
  6
CONTINUOUS
 10
-98.999838
 20
47.023358
 11
-100.393793
 21
45.629402
  0
LINE
  8
ガラス
  6
CONTINUOUS
 10
163.460047
 20
-86.98947
 11
139.798515
 21
-53.527015
  0
LINE
  8
ガラス
  6
CONTINUOUS
 10
139.798515
 20
-53.527015
 11
116.136982
 21
-86.98947
  0
LINE
  8
ガラス
  6
CONTINUOUS
 10
163.460047
 20
-86.98947
 11
116.136982
 21
-86.98947
  0
LINE
  8
ゴム等
  6
CONTINUOUS
 10
-99.398747
 20
24.764178
 11
-121.332013
 21
2.830912
  0
LINE
  8
ゴム等
  6
CONTINUOUS
 10
-99.398747
 20
26.02675
 11
-123.852663
 21
1.572835
  0
LINE
  8
ゴム等
  6
CONTINUOUS
 10
-99.398747
 20
27.618917
 11
-126.36407
 21
0.653595
  0
LINE
  8
ゴム等
  6
CONTINUOUS
 10
-103.850598
 20
29.216028
 11
-125.783863
 21
7.282762
  0
LINE
  8
ゴム等
  6
CONTINUOUS
 10
-102.588025
 20
29.216028
 11
-127.04194
 21
4.762112
  0
LINE
  8
ゴム等
  6
CONTINUOUS
 10
-100.995857
 20
29.216028
 11
-127.96118
 21
2.250705
  0
LINE
  8
ゴム等
  6
CONTINUOUS
 10
-99.398747
 20
24.764178
 11
-77.465482
 21
2.830912
  0
LINE
  8
ゴム等
  6
CONTINUOUS
 10
-121.332013
 20
2.830912
 11
-77.465482
 21
2.830912
  0
LINE
  8
ゴム等
  6
CONTINUOUS
 10
-99.398747
 20
26.02675
 11
-74.944833
 21
1.572835
  0
LINE
  8
ゴム等
  6
CONTINUOUS
 10
-123.852663
 20
1.572835
 11
-74.944833
 21
1.572835
  0
LINE
  8
ゴム等
  6
CONTINUOUS
 10
-99.398747
 20
27.618917
 11
-72.433425
 21
0.653595
  0
LINE
  8
ゴム等
  6
CONTINUOUS
 10
-126.36407
 20
0.653595
 11
-72.433425
 21
0.653595
  0
LINE
  8
ゴム等
  6
CONTINUOUS
 10
-94.946897
 20
29.216028
 11
-73.013633
 21
7.282762
  0
LINE
  8
ゴム等
  6
CONTINUOUS
 10
-96.20947
 20
29.216028
 11
-71.755555
 21
4.762112
  0
LINE
  8
ゴム等
  6
CONTINUOUS
 10
-97.801638
 20
29.216028
 11
-70.836315
 21
2.250705
  0
LINE
  8
ゴム等
  6
CONTINUOUS
 10
-73.013633
 20
7.282762
 11
-73.013633
 21
51.149293
  0
LINE
  8
ゴム等
  6
CONTINUOUS
 10
-94.946897
 20
29.216028
 11
-73.013633
 21
51.149293
  0
LINE
  8
ゴム等
  6
CONTINUOUS
 10
-96.20947
 20
29.216028
 11
-71.755555
 21
53.669943
  0
LINE
  8
ゴム等
  6
CONTINUOUS
 10
-71.755555
 20
4.762112
 11
-71.755555
 21
53.669943
  0
LINE
  8
ゴム等
  6
CONTINUOUS
 10
-97.801638
 20
29.216028
 11
-70.836315
 21
56.18135
  0
LINE
  8
ゴム等
  6
CONTINUOUS
 10
-70.836315
 20
2.250705
 11
-70.836315
 21
56.18135
  0
LINE
  8
ゴム等
  6
CONTINUOUS
 10
-99.398747
 20
33.667878
 11
-77.465482
 21
55.601143
  0
LINE
  8
ゴム等
  6
CONTINUOUS
 10
-99.398747
 20
32.405305
 11
-74.944833
 21
56.85922
  0
LINE
  8
ゴム等
  6
CONTINUOUS
 10
-99.398747
 20
30.813138
 11
-72.433425
 21
57.77846
  0
LINE
  8
ゴム等
  6
CONTINUOUS
 10
-99.398747
 20
33.667878
 11
-121.332013
 21
55.601143
  0
LINE
  8
ゴム等
  6
CONTINUOUS
 10
-77.465482
 20
55.601143
 11
-121.332013
 21
55.601143
  0
LINE
  8
ゴム等
  6
CONTINUOUS
 10
-74.944833
 20
56.85922
 11
-123.852663
 21
56.85922
  0
LINE
  8
ゴム等
  6
CONTINUOUS
 10
-99.398747
 20
32.405305
 11
-123.852663
 21
56.85922
  0
LINE
  8
ゴム等
  6
CONTINUOUS
 10
-99.398747
 20
30.813138
 11
-126.36407
 21
57.77846
  0
LINE
  8
ゴム等
  6
CONTINUOUS
 10
-72.433425
 20
57.77846
 11
-126.36407
 21
57.77846
  0
LINE
  8
ゴム等
  6
CONTINUOUS
 10
-125.783863
 20
7.282762
 11
-125.783863
 21
51.149293
  0
LINE
  8
ゴム等
  6
CONTINUOUS
 10
-103.850598
 20
29.216028
 11
-125.783863
 21
51.149293
  0
LINE
  8
ゴム等
  6
CONTINUOUS
 10
-102.588025
 20
29.216028
 11
-127.04194
 21
53.669943
  0
LINE
  8
ゴム等
  6
CONTINUOUS
 10
-127.04194
 20
4.762112
 11
-127.04194
 21
53.669943
  0
LINE
  8
ゴム等
  6
CONTINUOUS
 10
-127.96118
 20
2.250705
 11
-127.96118
 21
56.18135
  0
LINE
  8
ゴム等
  6
CONTINUOUS
 10
-100.995857
 20
29.216028
 11
-127.96118
 21
56.18135
  0
LINE
  8
ゴム等
  6
CONTINUOUS
 10
-70.836315
 20
56.18135
 11
-71.755555
 21
53.669943
  0
LINE
  8
ゴム等
  6
CONTINUOUS
 10
-71.755555
 20
53.669943
 11
-73.013633
 21
51.149293
  0
LINE
  8
ゴム等
  6
CONTINUOUS
 10
-72.433425
 20
57.77846
 11
-74.944833
 21
56.85922
  0
LINE
  8
ゴム等
  6
CONTINUOUS
 10
-74.944833
 20
56.85922
 11
-77.465482
 21
55.601143
  0
LINE
  8
ゴム等
  6
CONTINUOUS
 10
-127.96118
 20
56.18135
 11
-127.04194
 21
53.669943
  0
LINE
  8
ゴム等
  6
CONTINUOUS
 10
-127.04194
 20
53.669943
 11
-125.783863
 21
51.149293
  0
LINE
  8
ゴム等
  6
CONTINUOUS
 10
-126.36407
 20
57.77846
 11
-123.852663
 21
56.85922
  0
LINE
  8
ゴム等
  6
CONTINUOUS
 10
-123.852663
 20
56.85922
 11
-121.332013
 21
55.601143
  0
LINE
  8
ゴム等
  6
CONTINUOUS
 10
-70.836315
 20
2.250705
 11
-71.755555
 21
4.762112
  0
LINE
  8
ゴム等
  6
CONTINUOUS
 10
-71.755555
 20
4.762112
 11
-73.013633
 21
7.282762
  0
LINE
  8
ゴム等
  6
CONTINUOUS
 10
-72.433425
 20
0.653595
 11
-74.944833
 21
1.572835
  0
LINE
  8
ゴム等
  6
CONTINUOUS
 10
-74.944833
 20
1.572835
 11
-77.465482
 21
2.830912
  0
LINE
  8
ゴム等
  6
CONTINUOUS
 10
-127.96118
 20
2.250705
 11
-127.04194
 21
4.762112
  0
LINE
  8
ゴム等
  6
CONTINUOUS
 10
-127.04194
 20
4.762112
 11
-125.783863
 21
7.282762
  0
LINE
  8
ゴム等
  6
CONTINUOUS
 10
-126.36407
 20
0.653595
 11
-123.852663
 21
1.572835
  0
LINE
  8
ゴム等
  6
CONTINUOUS
 10
-123.852663
 20
1.572835
 11
-121.332013
 21
2.830912
  0
LINE
  8
ゴム等
  6
CONTINUOUS
 10
-77.462972
 20
-84.743657
 11
-74.944845
 21
-85.336
  0
LINE
  8
ゴム等
  6
CONTINUOUS
 10
-74.944845
 20
-85.336
 11
-72.43344
 21
-86.25524
  0
LINE
  8
ゴム等
  6
CONTINUOUS
 10
-126.364055
 20
-86.25524
 11
-123.85265
 21
-85.336
  0
LINE
  8
ゴム等
  6
CONTINUOUS
 10
-123.85265
 20
-85.336
 11
-121.334523
 21
-84.743657
  0
LINE
  8
ゴム等
  6
CONTINUOUS
 10
-77.462972
 20
-84.743657
 11
-121.334523
 21
-84.743657
  0
LINE
  8
ゴム等
  6
CONTINUOUS
 10
-74.944845
 20
-85.336
 11
-123.85265
 21
-85.336
  0
LINE
  8
ゴム等
  6
CONTINUOUS
 10
-72.43344
 20
-86.25524
 11
-126.364055
 21
-86.25524
  0
LINE
  8
ゴム等
  6
CONTINUOUS
 10
-121.334523
 20
-84.743657
 11
-99.398747
 21
-62.807885
  0
LINE
  8
ゴム等
  6
CONTINUOUS
 10
-77.462972
 20
-84.743657
 11
-99.398747
 21
-62.807885
  0
LINE
  8
ゴム等
  6
CONTINUOUS
 10
-74.944845
 20
-85.336
 11
-99.398747
 21
-60.8821
  0
LINE
  8
ゴム等
  6
CONTINUOUS
 10
-123.85265
 20
-85.336
 11
-99.398747
 21
-60.8821
  0
LINE
  8
ゴム等
  6
CONTINUOUS
 10
-126.364055
 20
-86.25524
 11
-99.398747
 21
-59.289935
  0
LINE
  8
ゴム等
  6
CONTINUOUS
 10
-72.43344
 20
-86.25524
 11
-99.398747
 21
-59.289935
  0
LINE
  8
ゴム等
  6
CONTINUOUS
 10
29.886902
 20
-84.743657
 11
32.40503
 21
-85.336
  0
LINE
  8
ゴム等
  6
CONTINUOUS
 10
32.40503
 20
-85.336
 11
34.916435
 21
-86.25524
  0
LINE
  8
ゴム等
  6
CONTINUOUS
 10
-19.01418
 20
-86.25524
 11
-16.502775
 21
-85.336
  0
LINE
  8
ゴム等
  6
CONTINUOUS
 10
-16.502775
 20
-85.336
 11
-13.984648
 21
-84.743657
  0
LINE
  8
ゴム等
  6
CONTINUOUS
 10
29.886902
 20
-84.743657
 11
-13.984648
 21
-84.743657
  0
LINE
  8
ゴム等
  6
CONTINUOUS
 10
32.40503
 20
-85.336
 11
-16.502775
 21
-85.336
  0
LINE
  8
ゴム等
  6
CONTINUOUS
 10
34.916435
 20
-86.25524
 11
-19.01418
 21
-86.25524
  0
LINE
  8
ゴム等
  6
CONTINUOUS
 10
-13.984648
 20
-84.743657
 11
7.951128
 21
-62.807885
  0
LINE
  8
ゴム等
  6
CONTINUOUS
 10
29.886902
 20
-84.743657
 11
7.951128
 21
-62.807885
  0
LINE
  8
ゴム等
  6
CONTINUOUS
 10
32.40503
 20
-85.336
 11
7.951128
 21
-60.8821
  0
LINE
  8
ゴム等
  6
CONTINUOUS
 10
-16.502775
 20
-85.336
 11
7.951128
 21
-60.8821
  0
LINE
  8
ゴム等
  6
CONTINUOUS
 10
-19.01418
 20
-86.25524
 11
7.951128
 21
-59.289935
  0
LINE
  8
ゴム等
  6
CONTINUOUS
 10
34.916435
 20
-86.25524
 11
7.951128
 21
-59.289935
  0
LINE
  8
ゴム等
  6
DOT
 10
29.886902
 20
-73.743657
 11
32.40503
 21
-74.336
  0
LINE
  8
ゴム等
  6
DOT
 10
32.40503
 20
-74.336
 11
34.916435
 21
-75.25524
  0
LINE
  8
ゴム等
  6
DOT
 10
-19.01418
 20
-75.25524
 11
-16.502775
 21
-74.336
  0
LINE
  8
ゴム等
  6
DOT
 10
-16.502775
 20
-74.336
 11
-13.984648
 21
-73.743657
  0
LINE
  8
ゴム等
  6
DOT
 10
29.886902
 20
-73.743657
 11
-13.984648
 21
-73.743657
  0
LINE
  8
ゴム等
  6
DOT
 10
32.40503
 20
-74.336
 11
-16.502775
 21
-74.336
  0
LINE
  8
ゴム等
  6
DOT
 10
34.916435
 20
-75.25524
 11
-19.01418
 21
-75.25524
  0
LINE
  8
ゴム等
  6
DOT
 10
-13.984648
 20
-73.743657
 11
7.951128
 21
-51.807885
  0
LINE
  8
ゴム等
  6
DOT
 10
29.886902
 20
-73.743657
 11
7.951128
 21
-51.807885
  0
LINE
  8
ゴム等
  6
DOT
 10
32.40503
 20
-74.336
 11
7.951128
 21
-49.8821
  0
LINE
  8
ゴム等
  6
DOT
 10
-16.502775
 20
-74.336
 11
7.951128
 21
-49.8821
  0
LINE
  8
ゴム等
  6
DOT
 10
-19.01418
 20
-75.25524
 11
7.951128
 21
-48.289935
  0
LINE
  8
ゴム等
  6
DOT
 10
34.916435
 20
-75.25524
 11
7.951128
 21
-48.289935
  0
TEXT
  7
TextStyle03
  8
文字
  6
CONTINUOUS
 10
-40.15
 20
2.275
  1
は排水穴位置を示す
 40
3.0
 72
     5
 11
-10.15
 21
2.275
  0
TEXT
  7
TextStyle03
  8
文字
  6
CONTINUOUS
 10
-40.15
 20
-5.575
  1
はケーシング位置を示す
 40
3.0
 72
     5
 11
-3.4
 21
-5.575
  0
TEXT
  7
TextStyle03
  8
文字
  6
CONTINUOUS
 10
-40.15
 20
-8.95
  1
４ヶ所中1ヶ所に設定
 40
3.0
 72
     5
 11
-8.4625
 21
-8.95
  0
TEXT
  7
TextStyle03
  8
文字
  6
CONTINUOUS
 10
-51.7
 20
14.1
  1
ﾊﾞﾗﾝｽｽﾃｰ
 40
3.0
 72
     5
 11
-38.3875
 21
14.1
  0
TEXT
  7
TextStyle03
  8
文字
  6
CONTINUOUS
 10
-128.275
 20
74.925
  1
アンカーピッチ
 40
3.0
 72
     5
 11
-105.025
 21
74.925
  0
TEXT
  7
TextStyle03
  8
文字
  6
CONTINUOUS
 10
-151.925
 20
-3.175
  1
アンカーピッチ
 40
3.0
 50
90.0
 72
     5
 11
-151.925
 21
20.075
  0
TEXT
  7
TextStyle03
  8
文字
  6
CONTINUOUS
 10
-45.75
 20
-16.1
  1
アンカー数量　６ヶ所
 40
3.0
 72
     5
 11
-12.375
 21
-16.1
  0
TEXT
  7
TextStyle03
  8
文字
  6
CONTINUOUS
 10
-107.65
 20
-9.8
  1
可動装置側
 40
3.0
 72
     5
 11
-91.15
 21
-9.8
  0
TEXT
  7
TextStyle03
  8
文字
  6
CONTINUOUS
 10
-107.65
 20
65.45
  1
可動装置側
 40
3.0
 72
     5
 11
-91.15
 21
65.45
  0
TEXT
  7
TextStyle03
  8
文字
  6
CONTINUOUS
 10
-45.775
 20
-22.925
  1
アームユニット数　２ヶ所
 40
3.0
 72
     5
 11
-5.65
 21
-22.925
  0
TEXT
  7
TextStyle03
  8
文字
  6
CONTINUOUS
 10
70.05
 20
97.375
  1
ＮＳコード：ＮＳ４Ｇ
 40
5.0
 72
     5
 11
125.675
 21
97.375
  0
TEXT
  7
TextStyle03
  8
文字
  6
CONTINUOUS
 10
71.65
 20
120.5
  1
シリーズ：ＤＦ４
 40
5.0
 72
     5
 11
116.025
 21
120.5
  0
TEXT
  7
TextStyle03
  8
文字
  6
CONTINUOUS
 10
71.65
 20
114.875
  1
　　　　　四角錘（上下可動）900×900タイプ
 40
5.0
 72
     5
 11
189.15
 21
114.875
  0
TEXT
  7
TextStyle03
  8
文字
  6
CONTINUOUS
 10
71.65
 20
109.25
  1
図面名　：外観姿図
 40
5.0
 72
     5
 11
121.65
 21
109.25
  0
TEXT
  7
TextStyle03
  8
文字
  6
CONTINUOUS
 10
71.65
 20
103.625
  1
　　　　　　
 40
5.0
 72
     5
 11
104.775
 21
103.625
  0
TEXT
  7
TextStyle03
  8
文字
  6
CONTINUOUS
 10
146.825
 20
-85.3
  1
×４枚
 40
3.0
 72
     5
 11
156.575
 21
-85.3
  0
TEXT
  7
TextStyle03
  8
文字
  6
CONTINUOUS
 10
105.25
 20
-57.35
  1
ガラス寸法
 40
3.0
 72
     5
 11
121.75
 21
-57.35
  0
INSERT
  2
*DIM_0002
  8
寸法
  6
CONTINUOUS
 10
0.0
 20
0.0
  0
INSERT
  2
*GRP_0004
  8
寸法
  6
CONTINUOUS
 10
0.0
 20
0.0
  0
INSERT
  2
*DIM_0005
  8
寸法
  6
CONTINUOUS
 10
0.0
 20
0.0
  0
INSERT
  2
*DIM_0006
  8
寸法
  6
CONTINUOUS
 10
0.0
 20
0.0
  0
INSERT
  2
*DIM_0007
  8
寸法
  6
CONTINUOUS
 10
0.0
 20
0.0
  0
INSERT
  2
*DIM_0008
  8
寸法
  6
CONTINUOUS
 10
0.0
 20
0.0
  0
INSERT
  2
*DIM_0009
  8
寸法
  6
CONTINUOUS
 10
0.0
 20
0.0
  0
CIRCLE
  8
寸法
  6
CONTINUOUS
 10
-140.917105
 20
29.216028
 40
1.73792
  0
INSERT
  2
*DIM_0010
  8
寸法
  6
CONTINUOUS
 10
0.0
 20
0.0
  0
INSERT
  2
*DIM_0011
  8
寸法
  6
CONTINUOUS
 10
0.0
 20
0.0
  0
INSERT
  2
*DIM_0012
  8
寸法
  6
CONTINUOUS
 10
0.0
 20
0.0
  0
INSERT
  2
*DIM_0013
  8
寸法
  6
CONTINUOUS
 10
0.0
 20
0.0
  0
INSERT
  2
*DIM_0014
  8
寸法
  6
CONTINUOUS
 10
0.0
 20
0.0
  0
INSERT
  2
*DIM_0015
  8
寸法
  6
CONTINUOUS
 10
0.0
 20
0.0
  0
INSERT
  2
*DIM_0018
  8
寸法
  6
CONTINUOUS
 10
0.0
 20
0.0
  0
INSERT
  2
*DIM_0019
  8
寸法
  6
CONTINUOUS
 10
0.0
 20
0.0
  0
INSERT
  2
*DIM_0020
  8
寸法
  6
CONTINUOUS
 10
0.0
 20
0.0
  0
INSERT
  2
*DIM_0021
  8
寸法
  6
CONTINUOUS
 10
0.0
 20
0.0
  0
ENDSEC
  0
EOF
