  0
SECTION
  2
HEADER
  9
$EXTMIN
 10
-210.0
 20
-148.5
  9
$EXTMAX
 10
210.0
 20
148.5
  9
$PDMODE
 70
    32
  9
$PDSIZE
 40
0.3
  9
$LTSCALE
 40
10.0
  0
ENDSEC
  0
SECTION
  2
TABLES
  0
TABLE
  2
LTYPE
 70
    15
  0
LTYPE
  2
CONTINUOUS
 70
    64
  3
実線
 72
    65
 73
     0
 40
0.0
  0
LTYPE
  2
DASHED
 70
    64
  3
破線A
 72
    65
 73
     2
 40
0.6
 49
0.4
 49
-0.2
  0
LTYPE
  2
DASHEDX2
 70
    64
  3
破線B
 72
    65
 73
     2
 40
1.3
 49
0.9
 49
-0.4
  0
LTYPE
  2
DASHDOT
 70
    64
  3
１点鎖線A
 72
    65
 73
     4
 40
0.5375
 49
0.375
 49
-0.05
 49
0.0625
 49
-0.05
  0
LTYPE
  2
DASHDOTX2
 70
    64
  3
１点鎖線B
 72
    65
 73
     4
 40
1.075
 49
0.75
 49
-0.1
 49
0.125
 49
-0.1
  0
LTYPE
  2
DIVIDE2
 70
    64
  3
２点鎖線A
 72
    65
 73
     6
 40
0.5125
 49
0.3
 49
-0.0375
 49
0.05
 49
-0.0375
 49
0.05
 49
-0.0375
  0
LTYPE
  2
DIVIDE
 70
    64
  3
２点鎖線B
 72
    65
 73
     6
 40
1.05
 49
0.55
 49
-0.1
 49
0.1
 49
-0.1
 49
0.1
 49
-0.1
  0
LTYPE
  2
DOT
 70
    64
  3
点線A
 72
    65
 73
     2
 40
0.1125
 49
0.0625
 49
-0.05
  0
LTYPE
  2
DOTX2
 70
    64
  3
点線B
 72
    65
 73
     2
 40
0.275
 49
0.15
 49
-0.125
  0
LTYPE
  2
CONTINUOUS
 70
    64
  3
実線
 72
    65
 73
     0
 40
0.0
  0
LTYPE
  2
CONTINUOUS
 70
    64
  3
実線
 72
    65
 73
     0
 40
0.0
  0
LTYPE
  2
CONTINUOUS
 70
    64
  3
実線
 72
    65
 73
     0
 40
0.0
  0
LTYPE
  2
CONTINUOUS
 70
    64
  3
実線
 72
    65
 73
     0
 40
0.0
  0
LTYPE
  2
CONTINUOUS
 70
    64
  3
実線
 72
    65
 73
     0
 40
0.0
  0
LTYPE
  2
CONTINUOUS
 70
    64
  3
実線
 72
    65
 73
     0
 40
0.0
  0
ENDTAB
  0
TABLE
  2
LAYER
 70
    34
  0
LAYER
  2
通り芯
 70
     0
 62
    15
  6
CONTINUOUS
  0
LAYER
  2
補助線
 70
     0
 62
    16
  6
DOT
  0
LAYER
  2
躯体
 70
     0
 62
    31
  6
CONTINUOUS
  0
LAYER
  2
型材
 70
     0
 62
    32
  6
CONTINUOUS
  0
LAYER
  2
型材断面
 70
     0
 62
    47
  6
CONTINUOUS
  0
LAYER
  2
ガラス
 70
     0
 62
    48
  6
CONTINUOUS
  0
LAYER
  2
ゴム等
 70
     0
 62
    63
  6
CONTINUOUS
  0
LAYER
  2
ボルト／ビス
 70
     0
 62
    64
  6
CONTINUOUS
  0
LAYER
  2
文字
 70
     0
 62
    79
  6
CONTINUOUS
  0
LAYER
  2
寸法
 70
     0
 62
    80
  6
CONTINUOUS
  0
LAYER
  2
ﾊｯﾁﾝｸﾞ
 70
     0
 62
    95
  6
CONTINUOUS
  0
LAYER
  2
別途部材
 70
     0
 62
    96
  6
CONTINUOUS
  0
LAYER
  2
曲げ物
 70
     0
 62
   111
  6
CONTINUOUS
  0
LAYER
  2
鉄骨等
 70
     0
 62
   112
  6
CONTINUOUS
  0
LAYER
  2
St
 70
     0
 62
   127
  6
CONTINUOUS
  0
LAYER
  2
その他部品等
 70
     0
 62
   128
  6
CONTINUOUS
  0
LAYER
  2
ｶﾞｽｹｯﾄ
 70
     0
 62
   143
  6
CONTINUOUS
  0
LAYER
  2
ｽｹｯﾁ
 70
     0
 62
    14
  6
CONTINUOUS
  0
LAYER
  2
0
 70
     0
 62
    17
  6
CONTINUOUS
  0
LAYER
  2
1
 70
     0
 62
    30
  6
CONTINUOUS
  0
LAYER
  2
4
 70
     0
 62
    33
  6
CONTINUOUS
  0
LAYER
  2
ﾚｲﾔ3
 70
     0
 62
    46
  6
CONTINUOUS
  0
LAYER
  2
外形線
 70
     0
 62
    49
  6
CONTINUOUS
  0
LAYER
  2
部品
 70
     0
 62
    14
  6
CONTINUOUS
  0
LAYER
  2
サッシ芯
 70
     0
 62
    17
  6
DASHDOTX2
  0
LAYER
  2
寸法線
 70
     0
 62
    62
  6
CONTINUOUS
  0
LAYER
  2
姿図外形線
 70
     0
 62
    65
  6
CONTINUOUS
  0
LAYER
  2
姿補助線
 70
     0
 62
    30
  6
CONTINUOUS
  0
LAYER
  2
透視線
 70
     0
 62
    78
  6
DOT
  0
LAYER
  2
用紙
 70
     0
 62
    81
  6
CONTINUOUS
  0
LAYER
  2
実線図枠
 70
     0
 62
    94
  6
CONTINUOUS
  0
LAYER
  2
補助図枠
 70
     0
 62
    97
  6
CONTINUOUS
  0
LAYER
  2
建具記号
 70
     0
 62
   110
  6
CONTINUOUS
  0
LAYER
  2
補助文字
 70
     0
 62
   113
  6
CONTINUOUS
  0
ENDTAB
  0
TABLE
  2
STYLE
 70
    10
  0
STYLE
  2
STANDARD
 70
     0
 40
1.0
 41
1.0
 42
1.0
 50
0.0
 71
     0
  3
TXT
  4
BIGFONT
  0
STYLE
  2
TATE
 70
     4
 40
1.0
 41
1.0
 42
1.0
 50
0.0
 71
     0
  3
TXT
  4
BIGFONT
  0
STYLE
  2
TextStyle03
 70
     0
 40
1.0
 41
1.0
 42
1.0
 50
0.0
 71
     0
  3
MONOTXT
  4
BIGFONT
  0
STYLE
  2
TextStyle04
 70
     0
 40
1.0
 41
1.0
 42
1.0
 50
0.0
 71
     0
  3
MONOTXT
  4
BIGFONT
  0
STYLE
  2
TextStyle05
 70
     0
 40
1.0
 41
1.0
 42
1.0
 50
0.0
 71
     0
  3
MONOTXT
  4
BIGFONT
  0
STYLE
  2
TextStyle06
 70
     0
 40
1.0
 41
1.0
 42
1.0
 50
0.0
 71
     0
  3
MONOTXT
  4
BIGFONT
  0
STYLE
  2
TextStyle07
 70
     0
 40
1.0
 41
1.0
 42
1.0
 50
0.0
 71
     0
  3
MONOTXT
  4
BIGFONT
  0
STYLE
  2
TextStyle08
 70
     0
 40
1.0
 41
1.0
 42
1.0
 50
0.0
 71
     0
  3
MONOTXT
  4
BIGFONT
  0
STYLE
  2
TextStyle09
 70
     0
 40
1.0
 41
1.0
 42
1.0
 50
0.0
 71
     0
  3
MONOTXT
  4
BIGFONT
  0
STYLE
  2
TextStyle10
 70
     0
 40
1.0
 41
1.0
 42
1.0
 50
0.0
 71
     0
  3
MONOTXT
  4
BIGFONT
  0
ENDTAB
  0
ENDSEC
  0
SECTION
  2
BLOCKS
  0
BLOCK
  2
*GRP_0001
 70
    65
 10
0.0
 20
0.0
  0
LINE
  8
型材断面
  6
CONTINUOUS
 10
195.0
 20
133.5
 11
195.0
 21
-133.5
  0
LINE
  8
型材断面
  6
CONTINUOUS
 10
195.0
 20
-133.5
 11
-185.0
 21
-133.5
  0
LINE
  8
型材断面
  6
CONTINUOUS
 10
-185.0
 20
-133.5
 11
-185.0
 21
133.5
  0
LINE
  8
型材断面
  6
CONTINUOUS
 10
195.0
 20
133.5
 11
-185.0
 21
133.5
  0
LINE
  8
型材断面
  6
CONTINUOUS
 10
145.0
 20
-133.5
 11
145.0
 21
-118.5
  0
LINE
  8
型材断面
  6
CONTINUOUS
 10
195.0
 20
-118.5
 11
145.0
 21
-118.5
  0
ENDBLK
  0
BLOCK
  2
*DIM_0002
 70
    65
 10
0.0
 20
0.0
  0
LINE
  8
寸法
  6
BYBLOCK
 62
     0
 10
-112.48957
 20
-18.248485
 11
-32.48957
 21
-18.248485
  0
POINT
  8
寸法
 62
     0
 10
-32.48957
 20
-18.248485
  0
TEXT
  7
TextStyle03
  8
寸法
  6
CONTINUOUS
 62
     0
 10
-84.21875
 20
-17.875
  1
呼称寸法＝2400
 40
3.0
 72
     5
 11
-60.78125
 21
-17.875
  0
ENDBLK
  0
BLOCK
  2
*DIM_0003
 70
    65
 10
0.0
 20
0.0
  0
LINE
  8
寸法
  6
BYBLOCK
 62
     0
 10
-97.48957
 20
20.24755
 11
-97.48957
 21
10.870788
  0
LINE
  8
寸法
  6
BYBLOCK
 62
     0
 10
-47.48957
 20
20.24755
 11
-47.48957
 21
10.870788
  0
LINE
  8
寸法
  6
BYBLOCK
 62
     0
 10
-97.48957
 20
10.870788
 11
-47.48957
 21
10.870788
  0
POINT
  8
寸法
 62
     0
 10
-97.48957
 20
10.870788
  0
POINT
  8
寸法
 62
     0
 10
-47.48957
 20
10.870788
  0
TEXT
  7
TextStyle03
  8
寸法
  6
CONTINUOUS
 62
     0
 10
-75.80625
 20
11.25
  1
1500
 40
3.0
 72
     5
 11
-69.24375
 21
11.25
  0
ENDBLK
  0
BLOCK
  2
*DIM_0004
 70
    65
 10
0.0
 20
0.0
  0
LINE
  8
寸法
  6
BYBLOCK
 62
     0
 10
16.911362
 20
25.44755
 11
16.911362
 21
68.780885
  0
POINT
  8
寸法
 62
     0
 10
16.911362
 20
68.780885
  0
TEXT
  7
TextStyle03
  8
寸法
  6
CONTINUOUS
 62
     0
 10
16.525
 20
35.38125
  1
呼称寸法＝1300
 40
3.0
 50
90.0
 72
     5
 11
16.525
 21
58.81875
  0
ENDBLK
  0
BLOCK
  2
*DIM_0005
 70
    65
 10
0.0
 20
0.0
  0
LINE
  8
寸法
  6
BYBLOCK
 62
     0
 10
-105.822902
 20
76.158987
 11
-105.822902
 21
87.28247
  0
LINE
  8
寸法
  6
BYBLOCK
 62
     0
 10
-89.156238
 20
76.158987
 11
-89.156238
 21
87.28247
  0
LINE
  8
寸法
  6
BYBLOCK
 62
     0
 10
-105.822902
 20
87.28247
 11
-89.156238
 21
87.28247
  0
POINT
  8
寸法
 62
     0
 10
-105.822902
 20
87.28247
  0
POINT
  8
寸法
 62
     0
 10
-89.156238
 20
87.28247
  0
TEXT
  7
TextStyle03
  8
寸法
  6
CONTINUOUS
 62
     0
 10
-99.9625
 20
87.65
  1
500
 40
3.0
 72
     5
 11
-95.0875
 21
87.65
  0
ENDBLK
  0
BLOCK
  2
*DIM_0006
 70
    65
 10
0.0
 20
0.0
  0
LINE
  8
寸法
  6
BYBLOCK
 62
     0
 10
-72.48957
 20
76.158987
 11
-72.48957
 21
87.28247
  0
LINE
  8
寸法
  6
BYBLOCK
 62
     0
 10
-89.156238
 20
87.28247
 11
-72.48957
 21
87.28247
  0
POINT
  8
寸法
 62
     0
 10
-72.48957
 20
87.28247
  0
TEXT
  7
TextStyle03
  8
寸法
  6
CONTINUOUS
 62
     0
 10
-83.2875
 20
87.65
  1
500
 40
3.0
 72
     5
 11
-78.4125
 21
87.65
  0
ENDBLK
  0
BLOCK
  2
*DIM_0007
 70
    65
 10
0.0
 20
0.0
  0
LINE
  8
寸法
  6
BYBLOCK
 62
     0
 10
-55.822902
 20
76.158987
 11
-55.822902
 21
87.28247
  0
LINE
  8
寸法
  6
BYBLOCK
 62
     0
 10
-72.48957
 20
87.28247
 11
-55.822902
 21
87.28247
  0
POINT
  8
寸法
 62
     0
 10
-55.822902
 20
87.28247
  0
TEXT
  7
TextStyle03
  8
寸法
  6
CONTINUOUS
 62
     0
 10
-66.6125
 20
87.65
  1
500
 40
3.0
 72
     5
 11
-61.7375
 21
87.65
  0
ENDBLK
  0
BLOCK
  2
*DIM_0008
 70
    65
 10
0.0
 20
0.0
  0
LINE
  8
寸法
  6
BYBLOCK
 62
     0
 10
-39.156238
 20
76.158987
 11
-39.156238
 21
87.28247
  0
LINE
  8
寸法
  6
BYBLOCK
 62
     0
 10
-55.822902
 20
87.28247
 11
-39.156238
 21
87.28247
  0
POINT
  8
寸法
 62
     0
 10
-39.156238
 20
87.28247
  0
TEXT
  7
TextStyle03
  8
寸法
  6
CONTINUOUS
 62
     0
 10
-49.9625
 20
87.65
  1
500
 40
3.0
 72
     5
 11
-45.0875
 21
87.65
  0
ENDBLK
  0
BLOCK
  2
*DIM_0009
 70
    65
 10
0.0
 20
0.0
  0
LINE
  8
寸法
  6
BYBLOCK
 62
     0
 10
-32.48957
 20
69.780885
 11
-32.48957
 21
87.28247
  0
LINE
  8
寸法
  6
BYBLOCK
 62
     0
 10
-39.156238
 20
87.28247
 11
-32.48957
 21
87.28247
  0
POINT
  8
寸法
 62
     0
 10
-32.48957
 20
87.28247
  0
TEXT
  7
TextStyle03
  8
寸法
  6
CONTINUOUS
 62
     0
 10
-38.2875
 20
87.65
  1
200
 40
3.0
 72
     5
 11
-33.4125
 21
87.65
  0
ENDBLK
  0
BLOCK
  2
*DIM_0010
 70
    65
 10
0.0
 20
0.0
  0
LINE
  8
寸法
  6
BYBLOCK
 62
     0
 10
-112.48957
 20
69.780885
 11
-112.48957
 21
87.28247
  0
LINE
  8
寸法
  6
BYBLOCK
 62
     0
 10
-105.822902
 20
87.28247
 11
-112.48957
 21
87.28247
  0
POINT
  8
寸法
 62
     0
 10
-105.822902
 20
87.28247
  0
POINT
  8
寸法
 62
     0
 10
-112.48957
 20
87.28247
  0
TEXT
  7
TextStyle03
  8
寸法
  6
CONTINUOUS
 62
     0
 10
-111.6125
 20
87.65
  1
200
 40
3.0
 72
     5
 11
-106.7375
 21
87.65
  0
ENDBLK
  0
BLOCK
  2
*DIM_0011
 70
    65
 10
0.0
 20
0.0
  0
LINE
  8
寸法
  6
BYBLOCK
 62
     0
 10
-120.414735
 20
63.780885
 11
-139.620465
 21
63.780885
  0
LINE
  8
寸法
  6
BYBLOCK
 62
     0
 10
-120.414735
 20
47.114218
 11
-139.620465
 21
47.114218
  0
LINE
  8
寸法
  6
BYBLOCK
 62
     0
 10
-139.620465
 20
63.780885
 11
-139.620465
 21
47.114218
  0
POINT
  8
寸法
 62
     0
 10
-139.620465
 20
63.780885
  0
POINT
  8
寸法
 62
     0
 10
-139.620465
 20
47.114218
  0
TEXT
  7
TextStyle03
  8
寸法
  6
CONTINUOUS
 62
     0
 10
-140.0
 20
52.9875
  1
500
 40
3.0
 50
90.0
 72
     5
 11
-140.0
 21
57.8625
  0
ENDBLK
  0
BLOCK
  2
*DIM_0012
 70
    65
 10
0.0
 20
0.0
  0
LINE
  8
寸法
  6
BYBLOCK
 62
     0
 10
-120.414735
 20
30.44755
 11
-139.620465
 21
30.44755
  0
LINE
  8
寸法
  6
BYBLOCK
 62
     0
 10
-139.620465
 20
47.114218
 11
-139.620465
 21
30.44755
  0
POINT
  8
寸法
 62
     0
 10
-139.620465
 20
30.44755
  0
TEXT
  7
TextStyle03
  8
寸法
  6
CONTINUOUS
 62
     0
 10
-140.0
 20
36.3375
  1
500
 40
3.0
 50
90.0
 72
     5
 11
-140.0
 21
41.2125
  0
ENDBLK
  0
BLOCK
  2
*DIM_0013
 70
    65
 10
0.0
 20
0.0
  0
LINE
  8
寸法
  6
BYBLOCK
 62
     0
 10
-120.414735
 20
68.780885
 11
-139.620465
 21
68.780885
  0
LINE
  8
寸法
  6
BYBLOCK
 62
     0
 10
-139.620465
 20
63.780885
 11
-139.620465
 21
68.780885
  0
POINT
  8
寸法
 62
     0
 10
-139.620465
 20
63.780885
  0
POINT
  8
寸法
 62
     0
 10
-139.620465
 20
68.780885
  0
TEXT
  7
TextStyle03
  8
寸法
  6
CONTINUOUS
 62
     0
 10
-140.0
 20
63.8375
  1
150
 40
3.0
 50
90.0
 72
     5
 11
-140.0
 21
68.7125
  0
ENDBLK
  0
BLOCK
  2
*DIM_0014
 70
    65
 10
0.0
 20
0.0
  0
LINE
  8
寸法
  6
BYBLOCK
 62
     0
 10
-120.414735
 20
25.44755
 11
-139.620465
 21
25.44755
  0
LINE
  8
寸法
  6
BYBLOCK
 62
     0
 10
-139.620465
 20
30.44755
 11
-139.620465
 21
25.44755
  0
POINT
  8
寸法
 62
     0
 10
-139.620465
 20
30.44755
  0
POINT
  8
寸法
 62
     0
 10
-139.620465
 20
25.44755
  0
TEXT
  7
TextStyle03
  8
寸法
  6
CONTINUOUS
 62
     0
 10
-140.0
 20
25.4875
  1
150
 40
3.0
 50
90.0
 72
     5
 11
-140.0
 21
30.3625
  0
ENDBLK
  0
BLOCK
  2
*DIM_0015
 70
    65
 10
0.0
 20
0.0
  0
LINE
  8
寸法
  6
BYBLOCK
 62
     0
 10
-24.140327
 20
65.080885
 11
-17.319538
 21
65.080885
  0
LINE
  8
寸法
  6
BYBLOCK
 62
     0
 10
-17.319538
 20
68.780885
 11
-17.319538
 21
65.080885
  0
POINT
  8
寸法
 62
     0
 10
-17.319538
 20
68.780885
  0
POINT
  8
寸法
 62
     0
 10
-17.319538
 20
65.080885
  0
TEXT
  7
TextStyle03
  8
寸法
  6
CONTINUOUS
 62
     0
 10
-17.725
 20
69.7375
  1
111
 40
3.0
 50
90.0
 72
     5
 11
-17.725
 21
74.6125
  0
ENDBLK
  0
BLOCK
  2
*DIM_0016
 70
    65
 10
0.0
 20
0.0
  0
LINE
  8
寸法
  6
BYBLOCK
 62
     0
 10
-24.140327
 20
29.14755
 11
-17.319538
 21
29.14755
  0
LINE
  8
寸法
  6
BYBLOCK
 62
     0
 10
-17.319538
 20
25.44755
 11
-17.319538
 21
29.14755
  0
POINT
  8
寸法
 62
     0
 10
-17.319538
 20
25.44755
  0
POINT
  8
寸法
 62
     0
 10
-17.319538
 20
29.14755
  0
TEXT
  7
TextStyle03
  8
寸法
  6
CONTINUOUS
 62
     0
 10
-17.725
 20
19.6125
  1
111
 40
3.0
 50
90.0
 72
     5
 11
-17.725
 21
24.4875
  0
ENDBLK
  0
BLOCK
  2
*GRP_0017
 70
    65
 10
0.0
 20
0.0
  0
POLYLINE
  8
寸法
  6
BYBLOCK
 62
     0
 66
     1
  0
VERTEX
  8
寸法
 10
-34.590622
 20
56.628457
  0
VERTEX
  8
寸法
 10
-33.374838
 20
57.844245
  0
VERTEX
  8
寸法
 10
-21.9623
 20
57.844245
  0
SEQEND
  0
ENDBLK
  0
BLOCK
  2
*DIM_0018
 70
    65
 10
0.0
 20
0.0
  0
LINE
  8
寸法
  6
CONTINUOUS
 10
-116.656238
 20
-67.369775
 11
-116.656238
 21
-12.918062
  0
LINE
  8
寸法
  6
CONTINUOUS
 10
-28.322902
 20
-67.369775
 11
-28.322902
 21
-12.918062
  0
LINE
  8
寸法
  6
CONTINUOUS
 10
-116.656238
 20
-12.918062
 11
-28.322902
 21
-12.918062
  0
POINT
  8
寸法
 10
-116.656238
 20
-12.918062
  0
POINT
  8
寸法
 10
-28.322902
 20
-12.918062
  0
TEXT
  7
TextStyle03
  8
寸法
  6
CONTINUOUS
 10
-75.78125
 20
-12.55
  1
2650
 40
3.0
 72
     5
 11
-69.21875
 21
-12.55
  0
ENDBLK
  0
BLOCK
  2
*DIM_0019
 70
    65
 10
0.0
 20
0.0
  0
LINE
  8
寸法
  6
CONTINUOUS
 10
-112.48957
 20
-18.248485
 11
-116.656238
 21
-18.248485
  0
POINT
  8
寸法
 10
-112.48957
 20
-18.248485
  0
POINT
  8
寸法
 10
-116.656238
 20
-18.248485
  0
TEXT
  7
TextStyle03
  8
寸法
  6
CONTINUOUS
 10
-122.0625
 20
-17.875
  1
125
 40
3.0
 72
     5
 11
-117.1875
 21
-17.875
  0
ENDBLK
  0
BLOCK
  2
*DIM_0020
 70
    65
 10
0.0
 20
0.0
  0
LINE
  8
寸法
  6
CONTINUOUS
 10
-32.48957
 20
-18.248485
 11
-28.322902
 21
-18.248485
  0
POINT
  8
寸法
 10
-32.48957
 20
-18.248485
  0
POINT
  8
寸法
 10
-28.322902
 20
-18.248485
  0
TEXT
  7
TextStyle03
  8
寸法
  6
CONTINUOUS
 10
-27.8125
 20
-17.875
  1
125
 40
3.0
 72
     5
 11
-22.9375
 21
-17.875
  0
ENDBLK
  0
BLOCK
  2
*DIM_0021
 70
    65
 10
0.0
 20
0.0
  0
LINE
  8
寸法
  6
CONTINUOUS
 10
-28.726235
 20
-75.12646
 11
-4.958353
 21
-75.12646
  0
LINE
  8
寸法
  6
CONTINUOUS
 10
-27.322902
 20
-68.369775
 11
-4.958353
 21
-68.369775
  0
LINE
  8
寸法
  6
CONTINUOUS
 10
-4.958353
 20
-75.12646
 11
-4.958353
 21
-68.369775
  0
POINT
  8
寸法
 10
-4.958353
 20
-75.12646
  0
POINT
  8
寸法
 10
-4.958353
 20
-68.369775
  0
TEXT
  7
TextStyle03
  8
寸法
  6
CONTINUOUS
 10
-1.975
 20
-75.875
  1
202.7
 40
3.0
 50
90.0
 72
     5
 11
-1.975
 21
-67.625
  0
ENDBLK
  0
BLOCK
  2
*DIM_0022
 70
    65
 10
0.0
 20
0.0
  0
LINE
  8
寸法
  6
CONTINUOUS
 10
-55.035065
 20
-42.300612
 11
-4.958353
 21
-42.300612
  0
LINE
  8
寸法
  6
CONTINUOUS
 10
-4.958353
 20
-68.369775
 11
-4.958353
 21
-42.300612
  0
POINT
  8
寸法
 10
-4.958353
 20
-42.300612
  0
TEXT
  7
TextStyle03
  8
寸法
  6
CONTINUOUS
 10
-5.35
 20
-57.7875
  1
782
 40
3.0
 50
90.0
 72
     5
 11
-5.35
 21
-52.9125
  0
ENDBLK
  0
BLOCK
  2
*DIM_0023
 70
    65
 10
0.0
 20
0.0
  0
LINE
  8
寸法
  6
CONTINUOUS
 10
54.64456
 20
72.947552
 11
11.704325
 21
72.947552
  0
LINE
  8
寸法
  6
CONTINUOUS
 10
54.64456
 20
21.280885
 11
11.704325
 21
21.280885
  0
LINE
  8
寸法
  6
CONTINUOUS
 10
11.704325
 20
72.947552
 11
11.704325
 21
21.280885
  0
POINT
  8
寸法
 10
11.704325
 20
72.947552
  0
POINT
  8
寸法
 10
11.704325
 20
21.280885
  0
TEXT
  7
TextStyle03
  8
寸法
  6
CONTINUOUS
 10
11.325
 20
43.81875
  1
1550
 40
3.0
 50
90.0
 72
     5
 11
11.325
 21
50.38125
  0
ENDBLK
  0
BLOCK
  2
*DIM_0024
 70
    65
 10
0.0
 20
0.0
  0
LINE
  8
寸法
  6
CONTINUOUS
 10
16.911362
 20
68.780885
 11
16.911362
 21
72.947552
  0
POINT
  8
寸法
 10
16.911362
 20
68.780885
  0
POINT
  8
寸法
 10
16.911362
 20
72.947552
  0
TEXT
  7
TextStyle03
  8
寸法
  6
CONTINUOUS
 10
16.525
 20
73.4625
  1
125
 40
3.0
 50
90.0
 72
     5
 11
16.525
 21
78.3375
  0
ENDBLK
  0
BLOCK
  2
*DIM_0025
 70
    65
 10
0.0
 20
0.0
  0
LINE
  8
寸法
  6
CONTINUOUS
 10
16.911362
 20
25.44755
 11
16.911362
 21
21.280885
  0
POINT
  8
寸法
 10
16.911362
 20
25.44755
  0
POINT
  8
寸法
 10
16.911362
 20
21.280885
  0
TEXT
  7
TextStyle03
  8
寸法
  6
CONTINUOUS
 10
16.525
 20
15.8625
  1
125
 40
3.0
 50
90.0
 72
     5
 11
16.525
 21
20.7375
  0
ENDBLK
  0
BLOCK
  2
*DIM_0026
 70
    65
 10
0.0
 20
0.0
  0
LINE
  8
寸法
  6
CONTINUOUS
 10
62.401245
 20
21.684217
 11
62.401245
 21
3.22439
  0
LINE
  8
寸法
  6
CONTINUOUS
 10
55.64456
 20
20.280885
 11
55.64456
 21
3.22439
  0
LINE
  8
寸法
  6
CONTINUOUS
 10
62.401245
 20
3.22439
 11
55.64456
 21
3.22439
  0
POINT
  8
寸法
 10
62.401245
 20
3.22439
  0
POINT
  8
寸法
 10
55.64456
 20
3.22439
  0
TEXT
  7
TextStyle03
  8
寸法
  6
CONTINUOUS
 10
54.875
 20
0.2
  1
202.7
 40
3.0
 72
     5
 11
63.125
 21
0.2
  0
ENDBLK
  0
BLOCK
  2
*DIM_0027
 70
    65
 10
0.0
 20
0.0
  0
LINE
  8
寸法
  6
CONTINUOUS
 10
29.575385
 20
46.114215
 11
29.575385
 21
3.22439
  0
LINE
  8
寸法
  6
CONTINUOUS
 10
55.64456
 20
3.22439
 11
29.575385
 21
3.22439
  0
POINT
  8
寸法
 10
29.575385
 20
3.22439
  0
TEXT
  7
TextStyle03
  8
寸法
  6
CONTINUOUS
 10
40.1625
 20
3.575
  1
782
 40
3.0
 72
     5
 11
45.0375
 21
3.575
  0
ENDBLK
  0
BLOCK
  2
*GRP_0028
 70
    65
 10
0.0
 20
0.0
  0
LINE
  8
型材断面
  6
DOT
 10
26.282712
 20
-55.036442
 11
26.282712
 21
-57.247905
  0
LINE
  8
型材断面
  6
DOT
 10
27.116045
 20
-57.247893
 11
27.116045
 21
-57.71456
  0
LINE
  8
型材断面
  6
DOT
 10
114.616048
 20
-55.036442
 11
114.616048
 21
-57.247905
  0
LINE
  8
型材断面
  6
DOT
 10
113.782715
 20
-57.247893
 11
113.782715
 21
-57.71456
  0
LINE
  8
型材断面
  6
DOT
 10
26.282712
 20
-57.247905
 11
114.616048
 21
-57.247905
  0
LINE
  8
型材断面
  6
DOT
 10
27.116045
 20
-57.71456
 11
113.782715
 21
-57.71456
  0
LINE
  8
型材断面
  6
DOT
 10
26.282712
 20
-55.036442
 11
114.616048
 21
-55.036442
  0
LINE
  8
型材断面
  6
DOT
 10
26.247358
 20
-54.95393
 11
50.717997
 21
-30.483295
  0
LINE
  8
型材断面
  6
DOT
 10
26.282712
 20
-54.989287
 11
50.788708
 21
-30.483295
  0
LINE
  8
型材断面
  6
DOT
 10
53.994875
 20
-28.96728
 11
86.903885
 21
-28.96728
  0
LINE
  8
型材断面
  6
DOT
 10
51.968465
 20
-30.146292
 11
88.930295
 21
-30.146292
  0
LINE
  8
型材断面
  6
DOT
 10
114.651403
 20
-54.95393
 11
90.180762
 21
-30.483295
  0
LINE
  8
型材断面
  6
DOT
 10
114.616048
 20
-54.989287
 11
90.110052
 21
-30.483295
  0
LINE
  8
ゴム等
  6
DOT
 10
27.472508
 20
-54.887698
 11
29.146777
 21
-54.274873
  0
LINE
  8
ゴム等
  6
DOT
 10
29.146777
 20
-54.274873
 11
30.82553
 21
-53.879978
  0
LINE
  8
ゴム等
  6
DOT
 10
113.426253
 20
-54.887698
 11
111.751982
 21
-54.274873
  0
LINE
  8
ゴム等
  6
DOT
 10
111.751982
 20
-54.274873
 11
110.07323
 21
-53.879978
  0
LINE
  8
ゴム等
  6
DOT
 10
29.146777
 20
-54.274873
 11
111.751982
 21
-54.274873
  0
LINE
  8
ゴム等
  6
DOT
 10
27.472508
 20
-54.887698
 11
113.426253
 21
-54.887698
  0
LINE
  8
ゴム等
  6
DOT
 10
30.82553
 20
-53.879978
 11
69.150485
 21
-53.879978
  0
LINE
  8
ゴム等
  6
DOT
 10
71.748275
 20
-53.879978
 11
110.07323
 21
-53.879978
  0
LINE
  8
ゴム等
  6
DOT
 10
69.150485
 20
-53.879978
 11
70.016045
 21
-54.274873
  0
LINE
  8
ゴム等
  6
DOT
 10
70.882715
 20
-54.274873
 11
71.748275
 21
-53.879978
  0
LINE
  8
ゴム等
  6
DOT
 10
52.328207
 20
-28.84943
 11
53.994875
 21
-28.84943
  0
LINE
  8
ゴム等
  6
DOT
 10
53.994875
 20
-28.84943
 11
53.994875
 21
-30.09158
  0
LINE
  8
ゴム等
  6
DOT
 10
52.070318
 20
-30.04444
 11
53.994875
 21
-30.04444
  0
LINE
  8
ゴム等
  6
DOT
 10
53.994875
 20
-30.09158
 11
52.023178
 21
-30.09158
  0
LINE
  8
ゴム等
  6
DOT
 10
50.69434
 20
-30.483295
 11
51.63146
 21
-30.483295
  0
LINE
  8
ゴム等
  6
DOT
 10
50.69434
 20
-30.483295
 11
52.328207
 21
-28.84943
  0
LINE
  8
ゴム等
  6
DOT
 10
51.63146
 20
-30.483295
 11
52.070318
 21
-30.04444
  0
LINE
  8
ゴム等
  6
DOT
 10
52.213915
 20
-30.146292
 11
52.58762
 21
-30.834033
  0
LINE
  8
ゴム等
  6
DOT
 10
52.58762
 20
-30.834033
 11
53.032925
 21
-31.672583
  0
LINE
  8
ゴム等
  6
DOT
 10
30.82553
 20
-53.879978
 11
53.032925
 21
-31.672583
  0
LINE
  8
ゴム等
  6
DOT
 10
29.146777
 20
-54.274873
 11
52.58762
 21
-30.834033
  0
LINE
  8
ゴム等
  6
DOT
 10
27.472508
 20
-54.887698
 11
52.213915
 21
-30.146292
  0
LINE
  8
ゴム等
  6
DOT
 10
88.570552
 20
-28.84943
 11
86.903885
 21
-28.84943
  0
LINE
  8
ゴム等
  6
DOT
 10
86.903885
 20
-28.84943
 11
86.903885
 21
-30.09158
  0
LINE
  8
ゴム等
  6
DOT
 10
88.828442
 20
-30.04444
 11
86.903885
 21
-30.04444
  0
LINE
  8
ゴム等
  6
DOT
 10
86.903885
 20
-30.09158
 11
88.875583
 21
-30.09158
  0
LINE
  8
ゴム等
  6
DOT
 10
90.20442
 20
-30.483295
 11
89.2673
 21
-30.483295
  0
LINE
  8
ゴム等
  6
DOT
 10
90.20442
 20
-30.483295
 11
88.570552
 21
-28.84943
  0
LINE
  8
ゴム等
  6
DOT
 10
89.2673
 20
-30.483295
 11
88.828442
 21
-30.04444
  0
LINE
  8
ゴム等
  6
DOT
 10
88.684845
 20
-30.146292
 11
88.31114
 21
-30.834033
  0
LINE
  8
ゴム等
  6
DOT
 10
88.31114
 20
-30.834033
 11
87.865835
 21
-31.672583
  0
LINE
  8
ゴム等
  6
DOT
 10
110.07323
 20
-53.879978
 11
87.865835
 21
-31.672583
  0
LINE
  8
ゴム等
  6
DOT
 10
52.58762
 20
-30.834033
 11
88.31114
 21
-30.834033
  0
LINE
  8
ゴム等
  6
DOT
 10
111.751982
 20
-54.274873
 11
88.31114
 21
-30.834033
  0
LINE
  8
ゴム等
  6
DOT
 10
113.426253
 20
-54.887698
 11
88.684845
 21
-30.146292
  0
LINE
  8
ゴム等
  6
DOT
 10
69.150485
 20
-53.879978
 11
69.150485
 21
-31.672583
  0
LINE
  8
ゴム等
  6
DOT
 10
71.748275
 20
-53.879978
 11
71.748275
 21
-31.672583
  0
LINE
  8
ゴム等
  6
DOT
 10
70.882715
 20
-54.274873
 11
70.882715
 21
-30.834033
  0
LINE
  8
ゴム等
  6
DOT
 10
70.016045
 20
-54.274873
 11
70.016045
 21
-30.834033
  0
LINE
  8
ゴム等
  6
DOT
 10
53.032925
 20
-31.672583
 11
69.150485
 21
-31.672583
  0
LINE
  8
ゴム等
  6
DOT
 10
71.748275
 20
-31.672583
 11
87.865835
 21
-31.672583
  0
LINE
  8
ゴム等
  6
DOT
 10
69.150485
 20
-31.672583
 11
70.016045
 21
-30.834033
  0
LINE
  8
ゴム等
  6
DOT
 10
70.882715
 20
-30.834033
 11
71.748275
 21
-31.672583
  0
ENDBLK
  0
BLOCK
  2
*GRP_0029
 70
    65
 10
0.0
 20
0.0
  0
LINE
  8
補助線
  6
DOT
 62
    64
 10
108.784775
 20
-72.523752
 11
108.90057
 21
-72.643623
  0
LINE
  8
補助線
  6
DOT
 62
    64
 10
108.902607
 20
-72.525792
 11
108.782738
 21
-72.641585
  0
LINE
  8
補助線
  6
DOT
 62
    64
 10
101.188445
 20
-64.660322
 11
101.072647
 21
-64.540452
  0
LINE
  8
補助線
  6
DOT
 62
    64
 10
101.19048
 20
-64.542487
 11
101.07061
 21
-64.658288
  0
LINE
  8
補助線
  6
DOT
 62
    64
 10
93.476277
 20
-56.677057
 11
93.36048
 21
-56.557193
  0
LINE
  8
補助線
  6
DOT
 62
    64
 10
93.478312
 20
-56.559227
 11
93.358445
 21
-56.675025
  0
LINE
  8
型材断面
  6
DOT
 10
109.673615
 20
-72.244438
 11
109.6614
 21
-72.951437
  0
LINE
  8
型材断面
  6
DOT
 10
109.6614
 20
-72.951437
 11
109.181922
 21
-73.414632
  0
LINE
  8
型材断面
  6
DOT
 10
109.181922
 20
-73.414632
 11
108.474922
 21
-73.402415
  0
LINE
  8
型材断面
  6
DOT
 10
93.786125
 20
-55.798395
 11
93.079125
 21
-55.786185
  0
LINE
  8
型材断面
  6
DOT
 10
93.079125
 20
-55.786185
 11
92.599647
 21
-56.249377
  0
LINE
  8
型材断面
  6
DOT
 10
92.599647
 20
-56.249377
 11
92.587437
 21
-56.956377
  0
LINE
  8
型材断面
  6
DOT
 10
109.673615
 20
-72.244438
 11
93.786205
 21
-55.798398
  0
LINE
  8
型材断面
  6
DOT
 10
108.474922
 20
-73.402415
 11
92.58744
 21
-56.956305
  0
LINE
  8
ボルト／ビス
  6
DOT
 62
    64
 10
109.064133
 20
-72.369747
 11
109.13868
 21
-72.66851
  0
LINE
  8
ボルト／ビス
  6
DOT
 62
    64
 10
109.064133
 20
-72.369747
 11
108.768128
 21
-72.28493
  0
LINE
  8
ボルト／ビス
  6
DOT
 62
    64
 10
108.621213
 20
-72.797628
 11
108.917217
 21
-72.882448
  0
LINE
  8
ボルト／ビス
  6
DOT
 62
    64
 10
108.621213
 20
-72.797628
 11
108.546665
 21
-72.498867
  0
CIRCLE
  8
ボルト／ビス
  6
DOT
 62
    64
 10
108.842672
 20
-72.583687
 40
0.266668
  0
LINE
  8
ボルト／ビス
  6
DOT
 62
    64
 10
108.768128
 20
-72.28493
 11
108.546665
 21
-72.498867
  0
LINE
  8
ボルト／ビス
  6
DOT
 62
    64
 10
109.13868
 20
-72.66851
 11
108.917217
 21
-72.882448
  0
LINE
  8
ボルト／ビス
  6
DOT
 62
    64
 10
101.352008
 20
-64.38645
 11
101.056
 21
-64.301627
  0
LINE
  8
ボルト／ビス
  6
DOT
 62
    64
 10
101.352008
 20
-64.38645
 11
101.426555
 21
-64.685207
  0
LINE
  8
ボルト／ビス
  6
DOT
 62
    64
 10
100.909085
 20
-64.814325
 11
100.83454
 21
-64.515565
  0
LINE
  8
ボルト／ビス
  6
DOT
 62
    64
 10
100.909085
 20
-64.814325
 11
101.20509
 21
-64.899147
  0
CIRCLE
  8
ボルト／ビス
  6
DOT
 62
    64
 10
101.130545
 20
-64.600388
 40
0.266668
  0
LINE
  8
ボルト／ビス
  6
DOT
 62
    64
 10
101.426555
 20
-64.685207
 11
101.20509
 21
-64.899147
  0
LINE
  8
ボルト／ビス
  6
DOT
 62
    64
 10
101.056
 20
-64.301627
 11
100.83454
 21
-64.515565
  0
LINE
  8
ボルト／ビス
  6
DOT
 62
    64
 10
93.63984
 20
-56.403185
 11
93.34383
 21
-56.318365
  0
LINE
  8
ボルト／ビス
  6
DOT
 62
    64
 10
93.63984
 20
-56.403185
 11
93.714385
 21
-56.701945
  0
LINE
  8
ボルト／ビス
  6
DOT
 62
    64
 10
93.196918
 20
-56.831065
 11
93.122372
 21
-56.532302
  0
LINE
  8
ボルト／ビス
  6
DOT
 62
    64
 10
93.196918
 20
-56.831065
 11
93.492928
 21
-56.915885
  0
CIRCLE
  8
ボルト／ビス
  6
DOT
 62
    64
 10
93.41838
 20
-56.617125
 40
0.266668
  0
LINE
  8
ボルト／ビス
  6
DOT
 62
    64
 10
93.714385
 20
-56.701945
 11
93.492928
 21
-56.915885
  0
LINE
  8
ボルト／ビス
  6
DOT
 62
    64
 10
93.34383
 20
-56.318365
 11
93.122372
 21
-56.532302
  0
ENDBLK
  0
BLOCK
  2
*GRP_0030
 70
    65
 10
0.0
 20
0.0
  0
LINE
  8
補助線
  6
DOT
 62
    64
 10
93.476315
 20
-72.523752
 11
93.360522
 21
-72.643623
  0
LINE
  8
補助線
  6
DOT
 62
    64
 10
93.358485
 20
-72.525792
 11
93.478355
 21
-72.641585
  0
LINE
  8
補助線
  6
DOT
 62
    64
 10
101.072645
 20
-64.660322
 11
101.188445
 21
-64.540452
  0
LINE
  8
補助線
  6
DOT
 62
    64
 10
101.070613
 20
-64.542487
 11
101.19048
 21
-64.658288
  0
LINE
  8
補助線
  6
DOT
 62
    64
 10
108.784815
 20
-56.677057
 11
108.900612
 21
-56.557193
  0
LINE
  8
補助線
  6
DOT
 62
    64
 10
108.78278
 20
-56.559227
 11
108.902648
 21
-56.675025
  0
LINE
  8
型材断面
  6
DOT
 10
92.587475
 20
-72.244438
 11
92.599692
 21
-72.951437
  0
LINE
  8
型材断面
  6
DOT
 10
92.599692
 20
-72.951437
 11
93.07917
 21
-73.414632
  0
LINE
  8
型材断面
  6
DOT
 10
93.07917
 20
-73.414632
 11
93.78617
 21
-73.402415
  0
LINE
  8
型材断面
  6
DOT
 10
108.474965
 20
-55.798395
 11
109.181965
 21
-55.786185
  0
LINE
  8
型材断面
  6
DOT
 10
109.181965
 20
-55.786185
 11
109.661445
 21
-56.249377
  0
LINE
  8
型材断面
  6
DOT
 10
109.661445
 20
-56.249377
 11
109.673655
 21
-56.956377
  0
LINE
  8
型材断面
  6
DOT
 10
92.587475
 20
-72.244438
 11
108.474885
 21
-55.798398
  0
LINE
  8
型材断面
  6
DOT
 10
93.78617
 20
-73.402415
 11
109.673653
 21
-56.956305
  0
LINE
  8
ボルト／ビス
  6
DOT
 62
    64
 10
93.19696
 20
-72.369747
 11
93.122413
 21
-72.66851
  0
LINE
  8
ボルト／ビス
  6
DOT
 62
    64
 10
93.19696
 20
-72.369747
 11
93.492965
 21
-72.28493
  0
LINE
  8
ボルト／ビス
  6
DOT
 62
    64
 10
93.63988
 20
-72.797628
 11
93.343875
 21
-72.882448
  0
LINE
  8
ボルト／ビス
  6
DOT
 62
    64
 10
93.63988
 20
-72.797628
 11
93.714425
 21
-72.498867
  0
CIRCLE
  8
ボルト／ビス
  6
DOT
 62
    64
 10
93.41842
 20
-72.583687
 40
0.266668
  0
LINE
  8
ボルト／ビス
  6
DOT
 62
    64
 10
93.492965
 20
-72.28493
 11
93.714425
 21
-72.498867
  0
LINE
  8
ボルト／ビス
  6
DOT
 62
    64
 10
93.122413
 20
-72.66851
 11
93.343875
 21
-72.882448
  0
LINE
  8
ボルト／ビス
  6
DOT
 62
    64
 10
100.909085
 20
-64.38645
 11
101.205092
 21
-64.301627
  0
LINE
  8
ボルト／ビス
  6
DOT
 62
    64
 10
100.909085
 20
-64.38645
 11
100.834538
 21
-64.685207
  0
LINE
  8
ボルト／ビス
  6
DOT
 62
    64
 10
101.352008
 20
-64.814325
 11
101.426553
 21
-64.515565
  0
LINE
  8
ボルト／ビス
  6
DOT
 62
    64
 10
101.352008
 20
-64.814325
 11
101.056
 21
-64.899147
  0
CIRCLE
  8
ボルト／ビス
  6
DOT
 62
    64
 10
101.130547
 20
-64.600388
 40
0.266668
  0
LINE
  8
ボルト／ビス
  6
DOT
 62
    64
 10
100.834538
 20
-64.685207
 11
101.056
 21
-64.899147
  0
LINE
  8
ボルト／ビス
  6
DOT
 62
    64
 10
101.205092
 20
-64.301627
 11
101.426553
 21
-64.515565
  0
LINE
  8
ボルト／ビス
  6
DOT
 62
    64
 10
108.621253
 20
-56.403185
 11
108.91726
 21
-56.318365
  0
LINE
  8
ボルト／ビス
  6
DOT
 62
    64
 10
108.621253
 20
-56.403185
 11
108.546708
 21
-56.701945
  0
LINE
  8
ボルト／ビス
  6
DOT
 62
    64
 10
109.064175
 20
-56.831065
 11
109.13872
 21
-56.532302
  0
LINE
  8
ボルト／ビス
  6
DOT
 62
    64
 10
109.064175
 20
-56.831065
 11
108.768165
 21
-56.915885
  0
CIRCLE
  8
ボルト／ビス
  6
DOT
 62
    64
 10
108.842713
 20
-56.617125
 40
0.266668
  0
LINE
  8
ボルト／ビス
  6
DOT
 62
    64
 10
108.546708
 20
-56.701945
 11
108.768165
 21
-56.915885
  0
LINE
  8
ボルト／ビス
  6
DOT
 62
    64
 10
108.91726
 20
-56.318365
 11
109.13872
 21
-56.532302
  0
ENDBLK
  0
BLOCK
  2
*GRP_0031
 70
    65
 10
0.0
 20
0.0
  0
LINE
  8
補助線
  6
DOT
 62
    64
 10
32.113985
 20
-72.523752
 11
31.99819
 21
-72.643623
  0
LINE
  8
補助線
  6
DOT
 62
    64
 10
31.996153
 20
-72.525792
 11
32.116022
 21
-72.641585
  0
LINE
  8
補助線
  6
DOT
 62
    64
 10
39.710315
 20
-64.660322
 11
39.826113
 21
-64.540452
  0
LINE
  8
補助線
  6
DOT
 62
    64
 10
39.70828
 20
-64.542487
 11
39.82815
 21
-64.658288
  0
LINE
  8
補助線
  6
DOT
 62
    64
 10
47.422482
 20
-56.677057
 11
47.53828
 21
-56.557193
  0
LINE
  8
補助線
  6
DOT
 62
    64
 10
47.420448
 20
-56.559227
 11
47.540315
 21
-56.675025
  0
LINE
  8
型材断面
  6
DOT
 10
31.225145
 20
-72.244438
 11
31.23736
 21
-72.951437
  0
LINE
  8
型材断面
  6
DOT
 10
31.23736
 20
-72.951437
 11
31.716837
 21
-73.414632
  0
LINE
  8
型材断面
  6
DOT
 10
31.716837
 20
-73.414632
 11
32.423838
 21
-73.402415
  0
LINE
  8
型材断面
  6
DOT
 10
47.112635
 20
-55.798395
 11
47.819635
 21
-55.786185
  0
LINE
  8
型材断面
  6
DOT
 10
47.819635
 20
-55.786185
 11
48.299113
 21
-56.249377
  0
LINE
  8
型材断面
  6
DOT
 10
48.299113
 20
-56.249377
 11
48.311322
 21
-56.956377
  0
LINE
  8
型材断面
  6
DOT
 10
31.225145
 20
-72.244438
 11
47.112555
 21
-55.798398
  0
LINE
  8
型材断面
  6
DOT
 10
32.423838
 20
-73.402415
 11
48.31132
 21
-56.956305
  0
LINE
  8
ボルト／ビス
  6
DOT
 62
    64
 10
31.834627
 20
-72.369747
 11
31.76008
 21
-72.66851
  0
LINE
  8
ボルト／ビス
  6
DOT
 62
    64
 10
31.834627
 20
-72.369747
 11
32.130632
 21
-72.28493
  0
LINE
  8
ボルト／ビス
  6
DOT
 62
    64
 10
32.277548
 20
-72.797628
 11
31.981543
 21
-72.882448
  0
LINE
  8
ボルト／ビス
  6
DOT
 62
    64
 10
32.277548
 20
-72.797628
 11
32.352095
 21
-72.498867
  0
CIRCLE
  8
ボルト／ビス
  6
DOT
 62
    64
 10
32.056087
 20
-72.583687
 40
0.266668
  0
LINE
  8
ボルト／ビス
  6
DOT
 62
    64
 10
32.130632
 20
-72.28493
 11
32.352095
 21
-72.498867
  0
LINE
  8
ボルト／ビス
  6
DOT
 62
    64
 10
31.76008
 20
-72.66851
 11
31.981543
 21
-72.882448
  0
LINE
  8
ボルト／ビス
  6
DOT
 62
    64
 10
39.546753
 20
-64.38645
 11
39.84276
 21
-64.301627
  0
LINE
  8
ボルト／ビス
  6
DOT
 62
    64
 10
39.546753
 20
-64.38645
 11
39.472205
 21
-64.685207
  0
LINE
  8
ボルト／ビス
  6
DOT
 62
    64
 10
39.989675
 20
-64.814325
 11
40.06422
 21
-64.515565
  0
LINE
  8
ボルト／ビス
  6
DOT
 62
    64
 10
39.989675
 20
-64.814325
 11
39.69367
 21
-64.899147
  0
CIRCLE
  8
ボルト／ビス
  6
DOT
 62
    64
 10
39.768215
 20
-64.600388
 40
0.266668
  0
LINE
  8
ボルト／ビス
  6
DOT
 62
    64
 10
39.472205
 20
-64.685207
 11
39.69367
 21
-64.899147
  0
LINE
  8
ボルト／ビス
  6
DOT
 62
    64
 10
39.84276
 20
-64.301627
 11
40.06422
 21
-64.515565
  0
LINE
  8
ボルト／ビス
  6
DOT
 62
    64
 10
47.25892
 20
-56.403185
 11
47.55493
 21
-56.318365
  0
LINE
  8
ボルト／ビス
  6
DOT
 62
    64
 10
47.25892
 20
-56.403185
 11
47.184375
 21
-56.701945
  0
LINE
  8
ボルト／ビス
  6
DOT
 62
    64
 10
47.701843
 20
-56.831065
 11
47.776388
 21
-56.532302
  0
LINE
  8
ボルト／ビス
  6
DOT
 62
    64
 10
47.701843
 20
-56.831065
 11
47.405832
 21
-56.915885
  0
CIRCLE
  8
ボルト／ビス
  6
DOT
 62
    64
 10
47.48038
 20
-56.617125
 40
0.266668
  0
LINE
  8
ボルト／ビス
  6
DOT
 62
    64
 10
47.184375
 20
-56.701945
 11
47.405832
 21
-56.915885
  0
LINE
  8
ボルト／ビス
  6
DOT
 62
    64
 10
47.55493
 20
-56.318365
 11
47.776388
 21
-56.532302
  0
ENDBLK
  0
BLOCK
  2
*GRP_0032
 70
    65
 10
0.0
 20
0.0
  0
LINE
  8
補助線
  6
DOT
 62
    64
 10
47.422445
 20
-72.523752
 11
47.538237
 21
-72.643623
  0
LINE
  8
補助線
  6
DOT
 62
    64
 10
47.540275
 20
-72.525792
 11
47.420405
 21
-72.641585
  0
LINE
  8
補助線
  6
DOT
 62
    64
 10
39.826115
 20
-64.660322
 11
39.710315
 21
-64.540452
  0
LINE
  8
補助線
  6
DOT
 62
    64
 10
39.828147
 20
-64.542487
 11
39.70828
 21
-64.658288
  0
LINE
  8
補助線
  6
DOT
 62
    64
 10
32.113945
 20
-56.677057
 11
31.998148
 21
-56.557193
  0
LINE
  8
補助線
  6
DOT
 62
    64
 10
32.11598
 20
-56.559227
 11
31.996112
 21
-56.675025
  0
LINE
  8
型材断面
  6
DOT
 10
48.311285
 20
-72.244438
 11
48.299067
 21
-72.951437
  0
LINE
  8
型材断面
  6
DOT
 10
48.299067
 20
-72.951437
 11
47.81959
 21
-73.414632
  0
LINE
  8
型材断面
  6
DOT
 10
47.81959
 20
-73.414632
 11
47.11259
 21
-73.402415
  0
LINE
  8
型材断面
  6
DOT
 10
32.423795
 20
-55.798395
 11
31.716795
 21
-55.786185
  0
LINE
  8
型材断面
  6
DOT
 10
31.716795
 20
-55.786185
 11
31.237315
 21
-56.249377
  0
LINE
  8
型材断面
  6
DOT
 10
31.237315
 20
-56.249377
 11
31.225105
 21
-56.956377
  0
LINE
  8
型材断面
  6
DOT
 10
48.311285
 20
-72.244438
 11
32.423875
 21
-55.798398
  0
LINE
  8
型材断面
  6
DOT
 10
47.11259
 20
-73.402415
 11
31.225108
 21
-56.956305
  0
LINE
  8
ボルト／ビス
  6
DOT
 62
    64
 10
47.7018
 20
-72.369747
 11
47.776347
 21
-72.66851
  0
LINE
  8
ボルト／ビス
  6
DOT
 62
    64
 10
47.7018
 20
-72.369747
 11
47.405795
 21
-72.28493
  0
LINE
  8
ボルト／ビス
  6
DOT
 62
    64
 10
47.25888
 20
-72.797628
 11
47.554885
 21
-72.882448
  0
LINE
  8
ボルト／ビス
  6
DOT
 62
    64
 10
47.25888
 20
-72.797628
 11
47.184335
 21
-72.498867
  0
CIRCLE
  8
ボルト／ビス
  6
DOT
 62
    64
 10
47.48034
 20
-72.583687
 40
0.266668
  0
LINE
  8
ボルト／ビス
  6
DOT
 62
    64
 10
47.405795
 20
-72.28493
 11
47.184335
 21
-72.498867
  0
LINE
  8
ボルト／ビス
  6
DOT
 62
    64
 10
47.776347
 20
-72.66851
 11
47.554885
 21
-72.882448
  0
LINE
  8
ボルト／ビス
  6
DOT
 62
    64
 10
39.989675
 20
-64.38645
 11
39.693668
 21
-64.301627
  0
LINE
  8
ボルト／ビス
  6
DOT
 62
    64
 10
39.989675
 20
-64.38645
 11
40.064222
 21
-64.685207
  0
LINE
  8
ボルト／ビス
  6
DOT
 62
    64
 10
39.546753
 20
-64.814325
 11
39.472207
 21
-64.515565
  0
LINE
  8
ボルト／ビス
  6
DOT
 62
    64
 10
39.546753
 20
-64.814325
 11
39.84276
 21
-64.899147
  0
CIRCLE
  8
ボルト／ビス
  6
DOT
 62
    64
 10
39.768212
 20
-64.600388
 40
0.266668
  0
LINE
  8
ボルト／ビス
  6
DOT
 62
    64
 10
40.064222
 20
-64.685207
 11
39.84276
 21
-64.899147
  0
LINE
  8
ボルト／ビス
  6
DOT
 62
    64
 10
39.693668
 20
-64.301627
 11
39.472207
 21
-64.515565
  0
LINE
  8
ボルト／ビス
  6
DOT
 62
    64
 10
32.277507
 20
-56.403185
 11
31.9815
 21
-56.318365
  0
LINE
  8
ボルト／ビス
  6
DOT
 62
    64
 10
32.277507
 20
-56.403185
 11
32.352052
 21
-56.701945
  0
LINE
  8
ボルト／ビス
  6
DOT
 62
    64
 10
31.834585
 20
-56.831065
 11
31.76004
 21
-56.532302
  0
LINE
  8
ボルト／ビス
  6
DOT
 62
    64
 10
31.834585
 20
-56.831065
 11
32.130595
 21
-56.915885
  0
CIRCLE
  8
ボルト／ビス
  6
DOT
 62
    64
 10
32.056048
 20
-56.617125
 40
0.266668
  0
LINE
  8
ボルト／ビス
  6
DOT
 62
    64
 10
32.352052
 20
-56.701945
 11
32.130595
 21
-56.915885
  0
LINE
  8
ボルト／ビス
  6
DOT
 62
    64
 10
31.9815
 20
-56.318365
 11
31.76004
 21
-56.532302
  0
ENDBLK
  0
BLOCK
  2
*DIM_0033
 70
    65
 10
0.0
 20
0.0
  0
LINE
  8
寸法
  6
BYBLOCK
 62
     0
 10
115.841345
 20
-57.71456
 11
127.802902
 21
-57.71456
  0
LINE
  8
寸法
  6
BYBLOCK
 62
     0
 10
115.841345
 20
-71.047893
 11
127.802902
 21
-71.047893
  0
LINE
  8
寸法
  6
BYBLOCK
 62
     0
 10
127.802902
 20
-57.71456
 11
127.802902
 21
-71.047893
  0
POINT
  8
寸法
 62
     0
 10
127.802902
 20
-57.71456
  0
POINT
  8
寸法
 62
     0
 10
127.802902
 20
-71.047893
  0
TEXT
  7
TextStyle03
  8
寸法
  6
CONTINUOUS
 62
     0
 10
132.525
 20
-73.5125
  1
上昇高さ400
 40
3.0
 50
90.0
 72
     5
 11
132.525
 21
-55.1375
  0
ENDBLK
  0
BLOCK
  2
*DIM_0034
 70
    65
 10
0.0
 20
0.0
  0
LINE
  8
寸法
  6
CONTINUOUS
 10
136.166707
 20
-5.304958
 11
142.454335
 21
-5.304958
  0
LINE
  8
寸法
  6
CONTINUOUS
 10
113.725685
 20
26.431435
 11
142.454335
 21
26.431435
  0
LINE
  8
寸法
  6
CONTINUOUS
 10
142.454335
 20
-5.304958
 11
142.454335
 21
26.431435
  0
POINT
  8
寸法
 10
142.454335
 20
-5.304958
  0
POINT
  8
寸法
 10
142.454335
 20
26.431435
  0
TEXT
  7
TextStyle03
  8
寸法
  6
CONTINUOUS
 10
142.05
 20
6.45
  1
952.1
 40
3.0
 50
90.0
 72
     5
 11
142.05
 21
14.7
  0
ENDBLK
  0
BLOCK
  2
*DIM_0035
 70
    65
 10
0.0
 20
0.0
  0
LINE
  8
寸法
  6
CONTINUOUS
 10
90.284663
 20
-6.304958
 11
90.284663
 21
-13.509725
  0
LINE
  8
寸法
  6
CONTINUOUS
 10
135.166707
 20
-6.304958
 11
135.166707
 21
-13.509725
  0
LINE
  8
寸法
  6
CONTINUOUS
 10
90.284663
 20
-13.509725
 11
135.166707
 21
-13.509725
  0
POINT
  8
寸法
 10
90.284663
 20
-13.509725
  0
POINT
  8
寸法
 10
135.166707
 20
-13.509725
  0
TEXT
  7
TextStyle03
  8
寸法
  6
CONTINUOUS
 10
107.73125
 20
-13.125
  1
1346.5
 40
3.0
 72
     5
 11
117.66875
 21
-13.125
  0
ENDBLK
  0
BLOCK
  2
*DIM_0036
 70
    65
 10
0.0
 20
0.0
  0
LINE
  8
寸法
  6
CONTINUOUS
 10
111.902463
 20
84.665137
 11
111.902463
 21
89.275085
  0
LINE
  8
寸法
  6
CONTINUOUS
 10
128.851327
 20
84.665137
 11
128.851327
 21
89.275085
  0
LINE
  8
寸法
  6
CONTINUOUS
 10
111.902463
 20
89.275085
 11
128.851327
 21
89.275085
  0
POINT
  8
寸法
 10
111.902463
 20
89.275085
  0
POINT
  8
寸法
 10
128.851327
 20
89.275085
  0
TEXT
  7
TextStyle03
  8
寸法
  6
CONTINUOUS
 10
116.25
 20
89.65
  1
508.5
 40
3.0
 72
     5
 11
124.5
 21
89.65
  0
ENDBLK
  0
BLOCK
  2
*DIM_0037
 70
    65
 10
0.0
 20
0.0
  0
LINE
  8
寸法
  6
CONTINUOUS
 10
129.851327
 20
83.665137
 11
136.858158
 21
83.665137
  0
LINE
  8
寸法
  6
CONTINUOUS
 10
129.851327
 20
51.03147
 11
136.858158
 21
51.03147
  0
LINE
  8
寸法
  6
CONTINUOUS
 10
136.858158
 20
83.665137
 11
136.858158
 21
51.03147
  0
POINT
  8
寸法
 10
136.858158
 20
83.665137
  0
POINT
  8
寸法
 10
136.858158
 20
51.03147
  0
TEXT
  7
TextStyle03
  8
寸法
  6
CONTINUOUS
 10
136.475
 20
64.8875
  1
979
 40
3.0
 50
90.0
 72
     5
 11
136.475
 21
69.7625
  0
ENDBLK
  0
BLOCK
  2
*DIM_0038
 70
    65
 10
0.0
 20
0.0
  0
LINE
  8
寸法
  6
CONTINUOUS
 10
88.82697
 20
50.03147
 11
88.82697
 21
44.57894
  0
LINE
  8
寸法
  6
CONTINUOUS
 10
128.851327
 20
50.03147
 11
128.851327
 21
44.57894
  0
LINE
  8
寸法
  6
CONTINUOUS
 10
88.82697
 20
44.57894
 11
128.851327
 21
44.57894
  0
POINT
  8
寸法
 10
88.82697
 20
44.57894
  0
POINT
  8
寸法
 10
128.851327
 20
44.57894
  0
TEXT
  7
TextStyle03
  8
寸法
  6
CONTINUOUS
 10
103.85625
 20
44.95
  1
1200.7
 40
3.0
 72
     5
 11
113.79375
 21
44.95
  0
ENDBLK
  0
ENDSEC
  0
SECTION
  2
ENTITIES
  0
POLYLINE
  8
通り芯
  6
CONTINUOUS
 66
     1
 70
     1
  0
VERTEX
  8
通り芯
 10
-210.0
 20
-148.5
  0
VERTEX
  8
通り芯
 10
210.0
 20
-148.5
  0
VERTEX
  8
通り芯
 10
210.0
 20
148.5
  0
VERTEX
  8
通り芯
 10
-210.0
 20
148.5
  0
SEQEND
  0
INSERT
  2
*GRP_0001
  8
型材断面
  6
CONTINUOUS
 10
0.0
 20
0.0
  0
LINE
  8
型材断面
  6
CONTINUOUS
 10
-27.140327
 20
65.080885
 11
-24.54982
 21
64.484828
  0
LINE
  8
型材断面
  6
CONTINUOUS
 10
-27.140327
 20
65.080885
 11
-24.54982
 21
65.676943
  0
LINE
  8
型材断面
  6
CONTINUOUS
 10
-24.54982
 20
65.676943
 11
-24.54982
 21
64.484828
  0
LINE
  8
型材断面
  6
CONTINUOUS
 10
-27.140327
 20
29.14755
 11
-24.54982
 21
29.743607
  0
LINE
  8
型材断面
  6
CONTINUOUS
 10
-27.140327
 20
29.14755
 11
-24.54982
 21
28.551492
  0
LINE
  8
型材断面
  6
CONTINUOUS
 10
-24.54982
 20
28.551492
 11
-24.54982
 21
29.743607
  0
LINE
  8
型材断面
  6
CONTINUOUS
 10
-117.838813
 20
65.080885
 11
-120.42932
 21
64.484828
  0
LINE
  8
型材断面
  6
CONTINUOUS
 10
-117.838813
 20
65.080885
 11
-120.42932
 21
65.676943
  0
LINE
  8
型材断面
  6
CONTINUOUS
 10
-120.42932
 20
65.676943
 11
-120.42932
 21
64.484828
  0
LINE
  8
型材断面
  6
CONTINUOUS
 10
-117.838813
 20
29.14755
 11
-120.42932
 21
29.743607
  0
LINE
  8
型材断面
  6
CONTINUOUS
 10
-117.838813
 20
29.14755
 11
-120.42932
 21
28.551492
  0
LINE
  8
型材断面
  6
CONTINUOUS
 10
-120.42932
 20
28.551492
 11
-120.42932
 21
29.743607
  0
LINE
  8
型材断面
  6
CONTINUOUS
 10
-24.244643
 20
3.874755
 11
-23.648585
 21
1.28425
  0
LINE
  8
型材断面
  6
CONTINUOUS
 10
-24.244643
 20
3.874755
 11
-24.8407
 21
1.28425
  0
LINE
  8
型材断面
  6
CONTINUOUS
 10
-24.8407
 20
1.28425
 11
-23.648585
 21
1.28425
  0
LINE
  8
型材断面
  6
CONTINUOUS
 10
-27.601293
 20
-2.159695
 11
10.47402
 21
-2.159695
  0
LINE
  8
型材断面
  6
DASHDOT
 10
-32.48957
 20
-75.769908
 11
-32.48957
 21
68.780885
  0
LINE
  8
型材断面
  6
DASHDOT
 10
-112.48957
 20
-75.769908
 11
-112.48957
 21
68.780885
  0
LINE
  8
型材断面
  6
DASHDOT
 10
62.528025
 20
25.44755
 11
-112.48957
 21
25.44755
  0
LINE
  8
型材断面
  6
DASHDOT
 10
62.528025
 20
68.780885
 11
-112.48957
 21
68.780885
  0
LINE
  8
型材断面
  6
CONTINUOUS
 10
-92.362512
 20
45.57461
 11
-92.362512
 21
46.51173
  0
LINE
  8
型材断面
  6
CONTINUOUS
 10
-92.362512
 20
45.57461
 11
-91.425393
 21
45.57461
  0
LINE
  8
型材断面
  6
CONTINUOUS
 10
-91.760025
 20
47.114218
 11
-92.362512
 21
46.51173
  0
LINE
  8
型材断面
  6
CONTINUOUS
 10
-92.362512
 20
45.57461
 11
-90.822905
 21
47.114218
  0
LINE
  8
型材断面
  6
CONTINUOUS
 10
-91.425393
 20
45.57461
 11
-91.080795
 21
45.919208
  0
LINE
  8
型材断面
  6
CONTINUOUS
 10
-91.080795
 20
45.919208
 11
-90.822905
 21
47.114218
  0
LINE
  8
型材断面
  6
CONTINUOUS
 10
-92.362512
 20
48.653825
 11
-92.362512
 21
47.716705
  0
LINE
  8
型材断面
  6
CONTINUOUS
 10
-92.362512
 20
48.653825
 11
-91.425393
 21
48.653825
  0
LINE
  8
型材断面
  6
CONTINUOUS
 10
-91.760025
 20
47.114218
 11
-92.362512
 21
47.716705
  0
LINE
  8
型材断面
  6
CONTINUOUS
 10
-92.362512
 20
48.653825
 11
-90.822905
 21
47.114218
  0
LINE
  8
型材断面
  6
CONTINUOUS
 10
-91.425393
 20
48.653825
 11
-91.080795
 21
48.309228
  0
LINE
  8
型材断面
  6
CONTINUOUS
 10
-91.080795
 20
48.309228
 11
-90.822905
 21
47.114218
  0
LINE
  8
型材断面
  6
CONTINUOUS
 10
-52.616627
 20
45.57461
 11
-52.616627
 21
46.51173
  0
LINE
  8
型材断面
  6
CONTINUOUS
 10
-52.616627
 20
45.57461
 11
-53.553748
 21
45.57461
  0
LINE
  8
型材断面
  6
CONTINUOUS
 10
-53.219115
 20
47.114218
 11
-52.616627
 21
46.51173
  0
LINE
  8
型材断面
  6
CONTINUOUS
 10
-52.616627
 20
45.57461
 11
-54.156235
 21
47.114218
  0
LINE
  8
型材断面
  6
CONTINUOUS
 10
-53.553748
 20
45.57461
 11
-53.898345
 21
45.919208
  0
LINE
  8
型材断面
  6
CONTINUOUS
 10
-53.898345
 20
45.919208
 11
-54.156235
 21
47.114218
  0
LINE
  8
型材断面
  6
CONTINUOUS
 10
-52.616627
 20
48.653825
 11
-52.616627
 21
47.716705
  0
LINE
  8
型材断面
  6
CONTINUOUS
 10
-52.616627
 20
48.653825
 11
-53.553748
 21
48.653825
  0
LINE
  8
型材断面
  6
CONTINUOUS
 10
-53.219115
 20
47.114218
 11
-52.616627
 21
47.716705
  0
LINE
  8
型材断面
  6
CONTINUOUS
 10
-52.616627
 20
48.653825
 11
-54.156235
 21
47.114218
  0
LINE
  8
型材断面
  6
CONTINUOUS
 10
-53.553748
 20
48.653825
 11
-53.898345
 21
48.309228
  0
LINE
  8
型材断面
  6
CONTINUOUS
 10
-53.898345
 20
48.309228
 11
-54.156235
 21
47.114218
  0
LINE
  8
型材断面
  6
CONTINUOUS
 10
-116.656235
 20
72.947547
 11
-28.322905
 21
72.947547
  0
LINE
  8
型材断面
  6
CONTINUOUS
 10
-28.322905
 20
72.947547
 11
-28.322905
 21
21.280888
  0
LINE
  8
型材断面
  6
CONTINUOUS
 10
-28.322905
 20
21.280888
 11
-116.656235
 21
21.280888
  0
LINE
  8
型材断面
  6
CONTINUOUS
 10
-116.656235
 20
72.947547
 11
-116.656235
 21
21.280888
  0
LINE
  8
型材断面
  6
CONTINUOUS
 10
-90.822905
 20
47.114218
 11
-116.656235
 21
21.280888
  0
LINE
  8
型材断面
  6
CONTINUOUS
 10
-90.822905
 20
47.114218
 11
-116.656235
 21
72.947547
  0
LINE
  8
型材断面
  6
DOT
 10
-111.156238
 20
68.780885
 11
-111.156238
 21
25.44755
  0
LINE
  8
型材断面
  6
DOT
 10
-109.822905
 20
68.780885
 11
-109.822905
 21
25.44755
  0
LINE
  8
型材断面
  6
CONTINUOUS
 10
-54.156235
 20
47.114218
 11
-28.322905
 21
72.947547
  0
LINE
  8
型材断面
  6
CONTINUOUS
 10
-54.156235
 20
47.114218
 11
-28.322905
 21
21.280888
  0
LINE
  8
型材断面
  6
DOT
 10
-35.156235
 20
68.780885
 11
-35.156235
 21
25.44755
  0
LINE
  8
型材断面
  6
DOT
 10
-33.822902
 20
68.780885
 11
-33.822902
 21
25.44755
  0
LINE
  8
型材断面
  6
CONTINUOUS
 10
-89.061975
 20
48.229817
 11
-55.917165
 21
48.229817
  0
LINE
  8
型材断面
  6
CONTINUOUS
 10
-89.061975
 20
45.998618
 11
-55.917165
 21
45.998618
  0
LINE
  8
型材断面
  6
DASHDOT
 10
-72.48957
 20
68.780885
 11
-72.48957
 21
-75.12646
  0
LINE
  8
型材断面
  6
CONTINUOUS
 10
-115.252905
 20
-75.12646
 11
-115.252905
 21
-71.223125
  0
LINE
  8
型材断面
  6
CONTINUOUS
 10
-115.252905
 20
-71.223125
 11
-115.07767
 21
-71.047893
  0
LINE
  8
型材断面
  6
CONTINUOUS
 10
-116.656238
 20
-68.369775
 11
-116.656238
 21
-70.581238
  0
LINE
  8
型材断面
  6
CONTINUOUS
 10
-115.822905
 20
-70.581225
 11
-115.822905
 21
-71.047893
  0
LINE
  8
型材断面
  6
CONTINUOUS
 10
-114.419572
 20
-75.12646
 11
-114.419572
 21
-75.463125
  0
LINE
  8
型材断面
  6
CONTINUOUS
 10
-29.726235
 20
-75.12646
 11
-29.726235
 21
-71.223125
  0
LINE
  8
型材断面
  6
CONTINUOUS
 10
-29.726235
 20
-71.223125
 11
-29.90147
 21
-71.047893
  0
LINE
  8
型材断面
  6
CONTINUOUS
 10
-28.322902
 20
-68.369775
 11
-28.322902
 21
-70.581238
  0
LINE
  8
型材断面
  6
CONTINUOUS
 10
-29.156235
 20
-70.581225
 11
-29.156235
 21
-71.047893
  0
LINE
  8
型材断面
  6
CONTINUOUS
 10
-30.559567
 20
-75.12646
 11
-30.559567
 21
-75.463125
  0
LINE
  8
型材断面
  6
CONTINUOUS
 10
-115.252905
 20
-71.22314
 11
-29.726235
 21
-71.22314
  0
LINE
  8
型材断面
  6
CONTINUOUS
 10
-115.252905
 20
-75.12646
 11
-29.726235
 21
-75.12646
  0
LINE
  8
型材断面
  6
CONTINUOUS
 10
-114.419572
 20
-75.463125
 11
-30.559567
 21
-75.463125
  0
LINE
  8
型材断面
  6
CONTINUOUS
 10
-116.656238
 20
-70.581238
 11
-28.322902
 21
-70.581238
  0
LINE
  8
型材断面
  6
CONTINUOUS
 10
-115.822905
 20
-71.047893
 11
-29.156235
 21
-71.047893
  0
LINE
  8
型材断面
  6
CONTINUOUS
 10
-116.656238
 20
-68.369775
 11
-28.322902
 21
-68.369775
  0
LINE
  8
型材断面
  6
CONTINUOUS
 10
-116.691593
 20
-68.287262
 11
-92.220953
 21
-43.816627
  0
LINE
  8
型材断面
  6
CONTINUOUS
 10
-116.656238
 20
-68.32262
 11
-92.150242
 21
-43.816627
  0
LINE
  8
型材断面
  6
CONTINUOUS
 10
-88.944075
 20
-42.300612
 11
-56.035065
 21
-42.300612
  0
LINE
  8
型材断面
  6
CONTINUOUS
 10
-90.970485
 20
-43.479625
 11
-54.008655
 21
-43.479625
  0
LINE
  8
型材断面
  6
CONTINUOUS
 10
-28.287547
 20
-68.287262
 11
-52.758187
 21
-43.816627
  0
LINE
  8
型材断面
  6
CONTINUOUS
 10
-28.322902
 20
-68.32262
 11
-52.828898
 21
-43.816627
  0
LINE
  8
型材断面
  6
DASHDOT
 10
-112.48957
 20
47.114218
 11
62.401245
 21
47.114218
  0
LINE
  8
型材断面
  6
CONTINUOUS
 10
55.597405
 20
72.947552
 11
55.56205
 21
72.982907
  0
LINE
  8
型材断面
  6
CONTINUOUS
 10
62.401245
 20
71.54422
 11
58.497912
 21
71.54422
  0
LINE
  8
型材断面
  6
CONTINUOUS
 10
58.497912
 20
71.54422
 11
58.32268
 21
71.368985
  0
LINE
  8
型材断面
  6
CONTINUOUS
 10
55.64456
 20
72.947552
 11
57.856025
 21
72.947552
  0
LINE
  8
型材断面
  6
CONTINUOUS
 10
57.856012
 20
72.114218
 11
58.32268
 21
72.114218
  0
LINE
  8
型材断面
  6
CONTINUOUS
 10
62.401245
 20
70.710887
 11
62.737912
 21
70.710887
  0
LINE
  8
型材断面
  6
CONTINUOUS
 10
62.401245
 20
22.684217
 11
58.497912
 21
22.684217
  0
LINE
  8
型材断面
  6
CONTINUOUS
 10
58.497912
 20
22.684217
 11
58.32268
 21
22.859453
  0
LINE
  8
型材断面
  6
CONTINUOUS
 10
55.64456
 20
21.280885
 11
57.856025
 21
21.280885
  0
LINE
  8
型材断面
  6
CONTINUOUS
 10
57.856012
 20
22.114218
 11
58.32268
 21
22.114218
  0
LINE
  8
型材断面
  6
CONTINUOUS
 10
62.401245
 20
23.51755
 11
62.737912
 21
23.51755
  0
LINE
  8
型材断面
  6
CONTINUOUS
 10
55.64456
 20
72.947552
 11
55.64456
 21
21.280885
  0
LINE
  8
型材断面
  6
CONTINUOUS
 10
57.856025
 20
72.947552
 11
57.856025
 21
21.280885
  0
LINE
  8
型材断面
  6
CONTINUOUS
 10
58.32268
 20
72.114218
 11
58.32268
 21
22.114218
  0
LINE
  8
型材断面
  6
CONTINUOUS
 10
58.497925
 20
71.54422
 11
58.497925
 21
22.684217
  0
LINE
  8
型材断面
  6
CONTINUOUS
 10
62.401245
 20
71.54422
 11
62.401245
 21
22.684217
  0
LINE
  8
型材断面
  6
CONTINUOUS
 10
62.737912
 20
70.710887
 11
62.737912
 21
23.51755
  0
LINE
  8
型材断面
  6
CONTINUOUS
 10
55.597405
 20
21.280885
 11
29.764075
 21
47.11422
  0
LINE
  8
型材断面
  6
CONTINUOUS
 10
55.597405
 20
72.947552
 11
29.764075
 21
47.11422
  0
LINE
  8
型材断面
  6
CONTINUOUS
 10
55.56205
 20
72.982907
 11
29.693365
 21
47.114218
  0
LINE
  8
型材断面
  6
CONTINUOUS
 10
55.56205
 20
21.24553
 11
29.693365
 21
47.114218
  0
LINE
  8
型材断面
  6
CONTINUOUS
 10
30.400195
 20
47.114215
 11
29.457385
 21
47.114215
  0
LINE
  8
型材断面
  6
CONTINUOUS
 10
30.400195
 20
47.114215
 11
29.457385
 21
47.114215
  0
LINE
  8
型材断面
  6
CONTINUOUS
 10
30.957385
 20
45.614215
 11
31.004525
 21
45.661355
  0
LINE
  8
型材断面
  6
CONTINUOUS
 10
31.004525
 20
45.661355
 11
31.004525
 21
46.509882
  0
LINE
  8
型材断面
  6
CONTINUOUS
 10
29.457385
 20
47.114215
 11
30.957385
 21
45.614215
  0
LINE
  8
型材断面
  6
CONTINUOUS
 10
30.400193
 20
47.114215
 11
31.004525
 21
46.509882
  0
LINE
  8
型材断面
  6
CONTINUOUS
 10
30.957385
 20
48.614605
 11
31.004525
 21
48.567465
  0
LINE
  8
型材断面
  6
CONTINUOUS
 10
31.004525
 20
48.567465
 11
31.004525
 21
47.718937
  0
LINE
  8
型材断面
  6
CONTINUOUS
 10
30.400193
 20
47.114215
 11
31.004525
 21
47.718545
  0
LINE
  8
型材断面
  6
CONTINUOUS
 10
29.457385
 20
47.114215
 11
30.95758
 21
48.61441
  0
LINE
  8
型材断面
  6
CONTINUOUS
 10
30.676113
 20
48.214945
 11
30.735102
 21
48.155955
  0
LINE
  8
型材断面
  6
CONTINUOUS
 10
30.676113
 20
48.214945
 11
29.575385
 21
47.114215
  0
LINE
  8
型材断面
  6
CONTINUOUS
 10
30.676113
 20
46.013485
 11
30.735102
 21
46.072475
  0
LINE
  8
型材断面
  6
CONTINUOUS
 10
30.676113
 20
46.013485
 11
29.575385
 21
47.114215
  0
LINE
  8
型材断面
  6
CONTINUOUS
 10
27.686045
 20
-75.12646
 11
27.686045
 21
-71.223125
  0
LINE
  8
型材断面
  6
CONTINUOUS
 10
27.686045
 20
-71.223125
 11
27.86128
 21
-71.047893
  0
LINE
  8
型材断面
  6
CONTINUOUS
 10
26.282712
 20
-68.369775
 11
26.282712
 21
-70.581238
  0
LINE
  8
型材断面
  6
CONTINUOUS
 10
27.116045
 20
-70.581225
 11
27.116045
 21
-71.047893
  0
LINE
  8
型材断面
  6
CONTINUOUS
 10
28.519377
 20
-75.12646
 11
28.519377
 21
-75.463125
  0
LINE
  8
型材断面
  6
CONTINUOUS
 10
113.212715
 20
-75.12646
 11
113.212715
 21
-71.223125
  0
LINE
  8
型材断面
  6
CONTINUOUS
 10
113.212715
 20
-71.223125
 11
113.03748
 21
-71.047893
  0
LINE
  8
型材断面
  6
CONTINUOUS
 10
114.616048
 20
-68.369775
 11
114.616048
 21
-70.581238
  0
LINE
  8
型材断面
  6
CONTINUOUS
 10
113.782715
 20
-70.581225
 11
113.782715
 21
-71.047893
  0
LINE
  8
型材断面
  6
CONTINUOUS
 10
112.379383
 20
-75.12646
 11
112.379383
 21
-75.463125
  0
LINE
  8
型材断面
  6
CONTINUOUS
 10
27.686045
 20
-71.22314
 11
113.212715
 21
-71.22314
  0
LINE
  8
型材断面
  6
CONTINUOUS
 10
27.686045
 20
-75.12646
 11
113.212715
 21
-75.12646
  0
LINE
  8
型材断面
  6
CONTINUOUS
 10
28.519377
 20
-75.463125
 11
112.379383
 21
-75.463125
  0
LINE
  8
型材断面
  6
CONTINUOUS
 10
26.282712
 20
-70.581238
 11
114.616048
 21
-70.581238
  0
LINE
  8
型材断面
  6
CONTINUOUS
 10
27.116045
 20
-71.047893
 11
113.782715
 21
-71.047893
  0
LINE
  8
型材断面
  6
CONTINUOUS
 10
26.282712
 20
-68.369775
 11
114.616048
 21
-68.369775
  0
LINE
  8
型材断面
  6
CONTINUOUS
 10
26.247358
 20
-68.287262
 11
50.717997
 21
-43.816627
  0
LINE
  8
型材断面
  6
CONTINUOUS
 10
26.282712
 20
-68.32262
 11
50.788708
 21
-43.816627
  0
LINE
  8
型材断面
  6
CONTINUOUS
 10
53.994875
 20
-42.300612
 11
86.903885
 21
-42.300612
  0
LINE
  8
型材断面
  6
CONTINUOUS
 10
51.968465
 20
-43.479625
 11
88.930295
 21
-43.479625
  0
LINE
  8
型材断面
  6
CONTINUOUS
 10
114.651403
 20
-68.287262
 11
90.180762
 21
-43.816627
  0
LINE
  8
型材断面
  6
CONTINUOUS
 10
114.616048
 20
-68.32262
 11
90.110052
 21
-43.816627
  0
INSERT
  2
*GRP_0028
  8
型材断面
  6
CONTINUOUS
 10
0.0
 20
0.0
  0
INSERT
  2
*GRP_0029
  8
型材断面
  6
DOT
 10
0.0
 20
0.0
  0
INSERT
  2
*GRP_0030
  8
型材断面
  6
DOT
 10
0.0
 20
0.0
  0
INSERT
  2
*GRP_0031
  8
型材断面
  6
DOT
 10
0.0
 20
0.0
  0
INSERT
  2
*GRP_0032
  8
型材断面
  6
DOT
 10
0.0
 20
0.0
  0
LINE
  8
型材断面
  6
CONTINUOUS
 10
88.571827
 20
28.606363
 11
104.526243
 21
28.606363
  0
LINE
  8
型材断面
  6
CONTINUOUS
 10
88.571827
 20
84.27221
 11
104.526243
 21
84.27221
  0
LINE
  8
ガラス
  6
CONTINUOUS
 10
128.851327
 20
51.03147
 11
88.82697
 21
51.03147
  0
LINE
  8
ガラス
  6
CONTINUOUS
 10
88.82697
 20
51.03147
 11
111.902463
 21
83.665137
  0
LINE
  8
ガラス
  6
CONTINUOUS
 10
111.902463
 20
83.665137
 11
128.851327
 21
83.665137
  0
LINE
  8
ガラス
  6
CONTINUOUS
 10
128.851327
 20
51.03147
 11
128.851327
 21
83.665137
  0
LINE
  8
ガラス
  6
CONTINUOUS
 10
135.166707
 20
-5.304958
 11
112.725685
 21
26.431435
  0
LINE
  8
ガラス
  6
CONTINUOUS
 10
112.725685
 20
26.431435
 11
90.284663
 21
-5.304958
  0
LINE
  8
ガラス
  6
CONTINUOUS
 10
135.166707
 20
-5.304958
 11
90.284663
 21
-5.304958
  0
LINE
  8
ガラス
  6
CONTINUOUS
 10
-83.211992
 20
60.533338
 11
-87.084625
 21
56.660702
  0
LINE
  8
ガラス
  6
CONTINUOUS
 10
-84.092313
 20
58.93498
 11
-85.48627
 21
57.541025
  0
LINE
  8
ガラス
  6
CONTINUOUS
 10
-84.810347
 20
59.653012
 11
-86.204305
 21
58.25906
  0
LINE
  8
ガラス
  6
CONTINUOUS
 10
-58.900558
 20
60.533338
 11
-62.77319
 21
56.660702
  0
LINE
  8
ガラス
  6
CONTINUOUS
 10
-59.780878
 20
58.93498
 11
-61.174835
 21
57.541025
  0
LINE
  8
ガラス
  6
CONTINUOUS
 10
-60.498913
 20
59.653012
 11
-61.89287
 21
58.25906
  0
LINE
  8
ガラス
  6
CONTINUOUS
 10
-83.211992
 20
36.515992
 11
-87.084625
 21
32.643357
  0
LINE
  8
ガラス
  6
CONTINUOUS
 10
-84.092313
 20
34.917635
 11
-85.48627
 21
33.52368
  0
LINE
  8
ガラス
  6
CONTINUOUS
 10
-84.810347
 20
35.635668
 11
-86.204305
 21
34.241715
  0
LINE
  8
ガラス
  6
CONTINUOUS
 10
-58.900558
 20
36.515992
 11
-62.77319
 21
32.643357
  0
LINE
  8
ガラス
  6
CONTINUOUS
 10
-59.780878
 20
34.917635
 11
-61.174835
 21
33.52368
  0
LINE
  8
ガラス
  6
CONTINUOUS
 10
-60.498913
 20
35.635668
 11
-61.89287
 21
34.241715
  0
LINE
  8
ガラス
  6
CONTINUOUS
 10
-102.201253
 20
49.050535
 11
-106.073885
 21
45.1779
  0
LINE
  8
ガラス
  6
CONTINUOUS
 10
-103.081573
 20
47.452177
 11
-104.47553
 21
46.058223
  0
LINE
  8
ガラス
  6
CONTINUOUS
 10
-103.799608
 20
48.17021
 11
-105.193565
 21
46.776258
  0
LINE
  8
ガラス
  6
CONTINUOUS
 10
-37.805192
 20
49.050535
 11
-41.677825
 21
45.1779
  0
LINE
  8
ガラス
  6
CONTINUOUS
 10
-38.685513
 20
47.452177
 11
-40.07947
 21
46.058223
  0
LINE
  8
ガラス
  6
CONTINUOUS
 10
-39.403547
 20
48.17021
 11
-40.797505
 21
46.776258
  0
LINE
  8
ガラス
  6
CONTINUOUS
 10
-83.211992
 20
-54.266555
 11
-87.084625
 21
-58.13919
  0
LINE
  8
ガラス
  6
CONTINUOUS
 10
-84.092313
 20
-55.864912
 11
-85.48627
 21
-57.258867
  0
LINE
  8
ガラス
  6
CONTINUOUS
 10
-84.810347
 20
-55.14688
 11
-86.204305
 21
-56.540833
  0
LINE
  8
ガラス
  6
CONTINUOUS
 10
-58.900558
 20
-54.266555
 11
-62.77319
 21
-58.13919
  0
LINE
  8
ガラス
  6
CONTINUOUS
 10
-59.780878
 20
-55.864912
 11
-61.174835
 21
-57.258867
  0
LINE
  8
ガラス
  6
CONTINUOUS
 10
-60.498913
 20
-55.14688
 11
-61.89287
 21
-56.540833
  0
LINE
  8
ガラス
  6
CONTINUOUS
 10
47.501605
 20
49.050535
 11
43.628973
 21
45.1779
  0
LINE
  8
ガラス
  6
CONTINUOUS
 10
46.621285
 20
47.452177
 11
45.227327
 21
46.058223
  0
LINE
  8
ガラス
  6
CONTINUOUS
 10
45.90325
 20
48.17021
 11
44.509293
 21
46.776258
  0
LINE
  8
ゴム等
  6
CONTINUOUS
 10
-73.788465
 20
45.061617
 11
-72.922905
 21
45.459588
  0
LINE
  8
ゴム等
  6
CONTINUOUS
 10
-72.056235
 20
45.459588
 11
-71.190675
 21
45.061617
  0
LINE
  8
ゴム等
  6
CONTINUOUS
 10
-73.788465
 20
49.166818
 11
-72.922905
 21
48.768848
  0
LINE
  8
ゴム等
  6
CONTINUOUS
 10
-72.056235
 20
48.768848
 11
-71.190675
 21
49.166818
  0
LINE
  8
ゴム等
  6
CONTINUOUS
 10
-72.056235
 20
72.20968
 11
-71.190675
 21
71.37096
  0
LINE
  8
ゴム等
  6
CONTINUOUS
 10
-73.788465
 20
71.37096
 11
-72.922905
 21
72.20968
  0
LINE
  8
ゴム等
  6
CONTINUOUS
 10
-72.056235
 20
22.018755
 11
-71.190675
 21
22.857475
  0
LINE
  8
ゴム等
  6
CONTINUOUS
 10
-73.788465
 20
22.857475
 11
-72.922905
 21
22.018755
  0
LINE
  8
ゴム等
  6
CONTINUOUS
 10
-90.873765
 20
48.229817
 11
-90.35135
 21
48.768848
  0
LINE
  8
ゴム等
  6
CONTINUOUS
 10
-90.35135
 20
48.768848
 11
-89.907605
 21
49.166818
  0
LINE
  8
ゴム等
  6
CONTINUOUS
 10
-90.873765
 20
45.998618
 11
-90.35135
 21
45.459588
  0
LINE
  8
ゴム等
  6
CONTINUOUS
 10
-90.35135
 20
45.459588
 11
-89.907605
 21
45.061617
  0
LINE
  8
ゴム等
  6
CONTINUOUS
 10
-91.080795
 20
45.919208
 11
-89.061975
 21
45.919208
  0
LINE
  8
ゴム等
  6
CONTINUOUS
 10
-89.061975
 20
45.919208
 11
-89.061975
 21
47.114218
  0
LINE
  8
ゴム等
  6
CONTINUOUS
 10
-91.080795
 20
48.309228
 11
-89.061975
 21
48.309228
  0
LINE
  8
ゴム等
  6
CONTINUOUS
 10
-89.061975
 20
48.309228
 11
-89.061975
 21
47.114218
  0
LINE
  8
ゴム等
  6
CONTINUOUS
 10
-54.62779
 20
48.768848
 11
-55.071535
 21
49.166818
  0
LINE
  8
ゴム等
  6
CONTINUOUS
 10
-54.62779
 20
45.459588
 11
-55.071535
 21
45.061617
  0
LINE
  8
ゴム等
  6
CONTINUOUS
 10
-53.898345
 20
45.919208
 11
-55.917165
 21
45.919208
  0
LINE
  8
ゴム等
  6
CONTINUOUS
 10
-55.917165
 20
45.919208
 11
-55.917165
 21
47.114218
  0
LINE
  8
ゴム等
  6
CONTINUOUS
 10
-53.898345
 20
48.309228
 11
-55.917165
 21
48.309228
  0
LINE
  8
ゴム等
  6
CONTINUOUS
 10
-55.917165
 20
48.309228
 11
-55.917165
 21
47.114218
  0
LINE
  8
ゴム等
  6
CONTINUOUS
 10
-54.62779
 20
48.768848
 11
-54.105375
 21
48.229817
  0
LINE
  8
ゴム等
  6
CONTINUOUS
 10
-54.62779
 20
45.459588
 11
-54.105375
 21
45.998618
  0
LINE
  8
ゴム等
  6
CONTINUOUS
 10
-89.907605
 20
45.061617
 11
-112.111748
 21
22.857475
  0
LINE
  8
ゴム等
  6
CONTINUOUS
 10
-73.788465
 20
22.857475
 11
-112.111748
 21
22.857475
  0
LINE
  8
ゴム等
  6
CONTINUOUS
 10
-90.35135
 20
45.459588
 11
-113.79218
 21
22.018755
  0
LINE
  8
ゴム等
  6
CONTINUOUS
 10
-90.873765
 20
45.998618
 11
-115.466453
 21
21.40593
  0
LINE
  8
ゴム等
  6
CONTINUOUS
 10
-93.790805
 20
47.114218
 11
-115.079648
 21
25.825375
  0
LINE
  8
ゴム等
  6
CONTINUOUS
 10
-92.94909
 20
47.114218
 11
-115.918365
 21
24.14494
  0
LINE
  8
ゴム等
  6
CONTINUOUS
 10
-91.887645
 20
47.114218
 11
-116.531193
 21
22.47067
  0
LINE
  8
ゴム等
  6
CONTINUOUS
 10
-115.079648
 20
25.825375
 11
-115.079648
 21
68.40306
  0
LINE
  8
ゴム等
  6
CONTINUOUS
 10
-93.790805
 20
47.114218
 11
-115.079648
 21
68.40306
  0
LINE
  8
ゴム等
  6
CONTINUOUS
 10
-92.94909
 20
47.114218
 11
-115.918365
 21
70.083495
  0
LINE
  8
ゴム等
  6
CONTINUOUS
 10
-115.918365
 20
24.14494
 11
-115.918365
 21
70.083495
  0
LINE
  8
ゴム等
  6
CONTINUOUS
 10
-116.531193
 20
22.47067
 11
-116.531193
 21
71.757765
  0
LINE
  8
ゴム等
  6
CONTINUOUS
 10
-91.887645
 20
47.114218
 11
-116.531193
 21
71.757765
  0
LINE
  8
ゴム等
  6
CONTINUOUS
 10
-89.907605
 20
49.166818
 11
-112.111748
 21
71.37096
  0
LINE
  8
ゴム等
  6
CONTINUOUS
 10
-73.788465
 20
71.37096
 11
-112.111748
 21
71.37096
  0
LINE
  8
ゴム等
  6
CONTINUOUS
 10
-90.35135
 20
48.768848
 11
-113.79218
 21
72.20968
  0
LINE
  8
ゴム等
  6
CONTINUOUS
 10
-90.873765
 20
48.229817
 11
-115.466453
 21
72.822505
  0
LINE
  8
ゴム等
  6
CONTINUOUS
 10
-71.190675
 20
71.37096
 11
-32.867393
 21
71.37096
  0
LINE
  8
ゴム等
  6
CONTINUOUS
 10
-55.071535
 20
49.166818
 11
-32.867393
 21
71.37096
  0
LINE
  8
ゴム等
  6
CONTINUOUS
 10
-113.79218
 20
72.20968
 11
-31.18696
 21
72.20968
  0
LINE
  8
ゴム等
  6
CONTINUOUS
 10
-54.62779
 20
48.768848
 11
-31.18696
 21
72.20968
  0
LINE
  8
ゴム等
  6
CONTINUOUS
 10
-115.466453
 20
72.822505
 11
-29.512687
 21
72.822505
  0
LINE
  8
ゴム等
  6
CONTINUOUS
 10
-54.105375
 20
48.229817
 11
-29.512687
 21
72.822505
  0
LINE
  8
ゴム等
  6
CONTINUOUS
 10
-51.188335
 20
47.114218
 11
-29.899492
 21
68.40306
  0
LINE
  8
ゴム等
  6
CONTINUOUS
 10
-52.03005
 20
47.114218
 11
-29.060775
 21
70.083495
  0
LINE
  8
ゴム等
  6
CONTINUOUS
 10
-53.091495
 20
47.114218
 11
-28.447948
 21
71.757765
  0
LINE
  8
ゴム等
  6
CONTINUOUS
 10
-51.188335
 20
47.114218
 11
-29.899492
 21
25.825375
  0
LINE
  8
ゴム等
  6
CONTINUOUS
 10
-29.899492
 20
68.40306
 11
-29.899492
 21
25.825375
  0
LINE
  8
ゴム等
  6
CONTINUOUS
 10
-29.060775
 20
70.083495
 11
-29.060775
 21
24.14494
  0
LINE
  8
ゴム等
  6
CONTINUOUS
 10
-52.03005
 20
47.114218
 11
-29.060775
 21
24.14494
  0
LINE
  8
ゴム等
  6
CONTINUOUS
 10
-53.091495
 20
47.114218
 11
-28.447948
 21
22.47067
  0
LINE
  8
ゴム等
  6
CONTINUOUS
 10
-28.447948
 20
71.757765
 11
-28.447948
 21
22.47067
  0
LINE
  8
ゴム等
  6
CONTINUOUS
 10
-71.190675
 20
22.857475
 11
-32.867393
 21
22.857475
  0
LINE
  8
ゴム等
  6
CONTINUOUS
 10
-55.071535
 20
45.061617
 11
-32.867393
 21
22.857475
  0
LINE
  8
ゴム等
  6
CONTINUOUS
 10
-54.62779
 20
45.459588
 11
-31.18696
 21
22.018755
  0
LINE
  8
ゴム等
  6
CONTINUOUS
 10
-113.79218
 20
22.018755
 11
-31.18696
 21
22.018755
  0
LINE
  8
ゴム等
  6
CONTINUOUS
 10
-54.105375
 20
45.998618
 11
-29.512687
 21
21.40593
  0
LINE
  8
ゴム等
  6
CONTINUOUS
 10
-115.466453
 20
21.40593
 11
-29.512687
 21
21.40593
  0
LINE
  8
ゴム等
  6
CONTINUOUS
 10
-71.190675
 20
45.061617
 11
-71.190675
 21
22.857475
  0
LINE
  8
ゴム等
  6
CONTINUOUS
 10
-73.788465
 20
45.061617
 11
-73.788465
 21
22.857475
  0
LINE
  8
ゴム等
  6
CONTINUOUS
 10
-72.922905
 20
45.459588
 11
-72.922905
 21
22.018755
  0
LINE
  8
ゴム等
  6
CONTINUOUS
 10
-72.056235
 20
45.459588
 11
-72.056235
 21
22.018755
  0
LINE
  8
ゴム等
  6
CONTINUOUS
 10
-72.922905
 20
48.768848
 11
-72.922905
 21
72.20968
  0
LINE
  8
ゴム等
  6
CONTINUOUS
 10
-72.056235
 20
48.768848
 11
-72.056235
 21
72.20968
  0
LINE
  8
ゴム等
  6
CONTINUOUS
 10
-71.190675
 20
49.166818
 11
-71.190675
 21
71.37096
  0
LINE
  8
ゴム等
  6
CONTINUOUS
 10
-73.788465
 20
49.166818
 11
-73.788465
 21
71.37096
  0
LINE
  8
ゴム等
  6
CONTINUOUS
 10
-90.35135
 20
45.459588
 11
-54.62779
 21
45.459588
  0
LINE
  8
ゴム等
  6
CONTINUOUS
 10
-90.35135
 20
48.768848
 11
-54.62779
 21
48.768848
  0
LINE
  8
ゴム等
  6
CONTINUOUS
 10
-55.071535
 20
49.166818
 11
-71.190675
 21
49.166818
  0
LINE
  8
ゴム等
  6
CONTINUOUS
 10
-55.071535
 20
45.061617
 11
-71.190675
 21
45.061617
  0
LINE
  8
ゴム等
  6
CONTINUOUS
 10
-89.907605
 20
49.166818
 11
-73.788465
 21
49.166818
  0
LINE
  8
ゴム等
  6
CONTINUOUS
 10
-89.907605
 20
45.061617
 11
-73.788465
 21
45.061617
  0
LINE
  8
ゴム等
  6
CONTINUOUS
 10
-28.447948
 20
71.757765
 11
-29.060775
 21
70.083495
  0
LINE
  8
ゴム等
  6
CONTINUOUS
 10
-29.060775
 20
70.083495
 11
-29.899492
 21
68.40306
  0
LINE
  8
ゴム等
  6
CONTINUOUS
 10
-29.512687
 20
72.822505
 11
-31.18696
 21
72.20968
  0
LINE
  8
ゴム等
  6
CONTINUOUS
 10
-31.18696
 20
72.20968
 11
-32.867393
 21
71.37096
  0
LINE
  8
ゴム等
  6
CONTINUOUS
 10
-28.447948
 20
22.47067
 11
-29.060775
 21
24.14494
  0
LINE
  8
ゴム等
  6
CONTINUOUS
 10
-29.060775
 20
24.14494
 11
-29.899492
 21
25.825375
  0
LINE
  8
ゴム等
  6
CONTINUOUS
 10
-29.512687
 20
21.40593
 11
-31.18696
 21
22.018755
  0
LINE
  8
ゴム等
  6
CONTINUOUS
 10
-31.18696
 20
22.018755
 11
-32.867393
 21
22.857475
  0
LINE
  8
ゴム等
  6
CONTINUOUS
 10
-116.531193
 20
22.47067
 11
-115.918365
 21
24.14494
  0
LINE
  8
ゴム等
  6
CONTINUOUS
 10
-115.918365
 20
24.14494
 11
-115.079648
 21
25.825375
  0
LINE
  8
ゴム等
  6
CONTINUOUS
 10
-115.466453
 20
21.40593
 11
-113.79218
 21
22.018755
  0
LINE
  8
ゴム等
  6
CONTINUOUS
 10
-113.79218
 20
22.018755
 11
-112.111748
 21
22.857475
  0
LINE
  8
ゴム等
  6
CONTINUOUS
 10
-116.531193
 20
71.757765
 11
-115.918365
 21
70.083495
  0
LINE
  8
ゴム等
  6
CONTINUOUS
 10
-115.918365
 20
70.083495
 11
-115.079648
 21
68.40306
  0
LINE
  8
ゴム等
  6
CONTINUOUS
 10
-115.466453
 20
72.822505
 11
-113.79218
 21
72.20968
  0
LINE
  8
ゴム等
  6
CONTINUOUS
 10
-113.79218
 20
72.20968
 11
-112.111748
 21
71.37096
  0
LINE
  8
ゴム等
  6
CONTINUOUS
 10
-115.466443
 20
-68.22103
 11
-113.792173
 21
-67.608205
  0
LINE
  8
ゴム等
  6
CONTINUOUS
 10
-113.792173
 20
-67.608205
 11
-112.11342
 21
-67.21331
  0
LINE
  8
ゴム等
  6
CONTINUOUS
 10
-29.512698
 20
-68.22103
 11
-31.186967
 21
-67.608205
  0
LINE
  8
ゴム等
  6
CONTINUOUS
 10
-31.186967
 20
-67.608205
 11
-32.86572
 21
-67.21331
  0
LINE
  8
ゴム等
  6
CONTINUOUS
 10
-113.792173
 20
-67.608205
 11
-31.186967
 21
-67.608205
  0
LINE
  8
ゴム等
  6
CONTINUOUS
 10
-115.466443
 20
-68.22103
 11
-29.512698
 21
-68.22103
  0
LINE
  8
ゴム等
  6
CONTINUOUS
 10
-112.11342
 20
-67.21331
 11
-73.788465
 21
-67.21331
  0
LINE
  8
ゴム等
  6
CONTINUOUS
 10
-71.190675
 20
-67.21331
 11
-32.86572
 21
-67.21331
  0
LINE
  8
ゴム等
  6
CONTINUOUS
 10
-73.788465
 20
-67.21331
 11
-72.922905
 21
-67.608205
  0
LINE
  8
ゴム等
  6
CONTINUOUS
 10
-72.056235
 20
-67.608205
 11
-71.190675
 21
-67.21331
  0
LINE
  8
ゴム等
  6
CONTINUOUS
 10
-90.610743
 20
-42.182762
 11
-88.944075
 21
-42.182762
  0
LINE
  8
ゴム等
  6
CONTINUOUS
 10
-88.944075
 20
-42.182762
 11
-88.944075
 21
-43.424913
  0
LINE
  8
ゴム等
  6
CONTINUOUS
 10
-90.868632
 20
-43.377772
 11
-88.944075
 21
-43.377772
  0
LINE
  8
ゴム等
  6
CONTINUOUS
 10
-88.944075
 20
-43.424913
 11
-90.915773
 21
-43.424913
  0
LINE
  8
ゴム等
  6
CONTINUOUS
 10
-92.24461
 20
-43.816627
 11
-91.30749
 21
-43.816627
  0
LINE
  8
ゴム等
  6
CONTINUOUS
 10
-92.24461
 20
-43.816627
 11
-90.610743
 21
-42.182762
  0
LINE
  8
ゴム等
  6
CONTINUOUS
 10
-91.30749
 20
-43.816627
 11
-90.868632
 21
-43.377772
  0
LINE
  8
ゴム等
  6
CONTINUOUS
 10
-90.725035
 20
-43.479625
 11
-90.35133
 21
-44.167365
  0
LINE
  8
ゴム等
  6
CONTINUOUS
 10
-90.35133
 20
-44.167365
 11
-89.906025
 21
-45.005915
  0
LINE
  8
ゴム等
  6
CONTINUOUS
 10
-112.11342
 20
-67.21331
 11
-89.906025
 21
-45.005915
  0
LINE
  8
ゴム等
  6
CONTINUOUS
 10
-113.792173
 20
-67.608205
 11
-90.35133
 21
-44.167365
  0
LINE
  8
ゴム等
  6
CONTINUOUS
 10
-115.466443
 20
-68.22103
 11
-90.725035
 21
-43.479625
  0
LINE
  8
ゴム等
  6
CONTINUOUS
 10
-54.368397
 20
-42.182762
 11
-56.035065
 21
-42.182762
  0
LINE
  8
ゴム等
  6
CONTINUOUS
 10
-56.035065
 20
-42.182762
 11
-56.035065
 21
-43.424913
  0
LINE
  8
ゴム等
  6
CONTINUOUS
 10
-54.110508
 20
-43.377772
 11
-56.035065
 21
-43.377772
  0
LINE
  8
ゴム等
  6
CONTINUOUS
 10
-56.035065
 20
-43.424913
 11
-54.063368
 21
-43.424913
  0
LINE
  8
ゴム等
  6
CONTINUOUS
 10
-52.73453
 20
-43.816627
 11
-53.67165
 21
-43.816627
  0
LINE
  8
ゴム等
  6
CONTINUOUS
 10
-52.73453
 20
-43.816627
 11
-54.368397
 21
-42.182762
  0
LINE
  8
ゴム等
  6
CONTINUOUS
 10
-53.67165
 20
-43.816627
 11
-54.110508
 21
-43.377772
  0
LINE
  8
ゴム等
  6
CONTINUOUS
 10
-54.254105
 20
-43.479625
 11
-54.62781
 21
-44.167365
  0
LINE
  8
ゴム等
  6
CONTINUOUS
 10
-54.62781
 20
-44.167365
 11
-55.073115
 21
-45.005915
  0
LINE
  8
ゴム等
  6
CONTINUOUS
 10
-32.86572
 20
-67.21331
 11
-55.073115
 21
-45.005915
  0
LINE
  8
ゴム等
  6
CONTINUOUS
 10
-90.35133
 20
-44.167365
 11
-54.62781
 21
-44.167365
  0
LINE
  8
ゴム等
  6
CONTINUOUS
 10
-31.186967
 20
-67.608205
 11
-54.62781
 21
-44.167365
  0
LINE
  8
ゴム等
  6
CONTINUOUS
 10
-29.512698
 20
-68.22103
 11
-54.254105
 21
-43.479625
  0
LINE
  8
ゴム等
  6
CONTINUOUS
 10
-73.788465
 20
-67.21331
 11
-73.788465
 21
-45.005915
  0
LINE
  8
ゴム等
  6
CONTINUOUS
 10
-71.190675
 20
-67.21331
 11
-71.190675
 21
-45.005915
  0
LINE
  8
ゴム等
  6
CONTINUOUS
 10
-72.056235
 20
-67.608205
 11
-72.056235
 21
-44.167365
  0
LINE
  8
ゴム等
  6
CONTINUOUS
 10
-72.922905
 20
-67.608205
 11
-72.922905
 21
-44.167365
  0
LINE
  8
ゴム等
  6
CONTINUOUS
 10
-89.906025
 20
-45.005915
 11
-73.788465
 21
-45.005915
  0
LINE
  8
ゴム等
  6
CONTINUOUS
 10
-71.190675
 20
-45.005915
 11
-55.073115
 21
-45.005915
  0
LINE
  8
ゴム等
  6
CONTINUOUS
 10
-73.788465
 20
-45.005915
 11
-72.922905
 21
-44.167365
  0
LINE
  8
ゴム等
  6
CONTINUOUS
 10
-72.056235
 20
-44.167365
 11
-71.190675
 21
-45.005915
  0
LINE
  8
ゴム等
  6
CONTINUOUS
 10
54.488095
 20
68.404735
 11
54.88299
 21
70.083488
  0
LINE
  8
ゴム等
  6
CONTINUOUS
 10
54.88299
 20
70.083488
 11
55.495817
 21
71.757757
  0
LINE
  8
ゴム等
  6
CONTINUOUS
 10
55.495817
 20
22.47068
 11
54.88299
 21
24.14495
  0
LINE
  8
ゴム等
  6
CONTINUOUS
 10
54.88299
 20
24.14495
 11
54.488095
 21
25.823703
  0
LINE
  8
ゴム等
  6
CONTINUOUS
 10
33.197582
 20
47.114218
 11
54.488095
 21
68.404735
  0
LINE
  8
ゴム等
  6
CONTINUOUS
 10
31.913725
 20
47.114218
 11
54.88299
 21
70.083488
  0
LINE
  8
ゴム等
  6
CONTINUOUS
 10
30.852283
 20
47.114218
 11
55.495817
 21
71.757757
  0
LINE
  8
ゴム等
  6
CONTINUOUS
 10
33.197582
 20
47.114218
 11
54.488095
 21
25.823703
  0
LINE
  8
ゴム等
  6
CONTINUOUS
 10
54.488095
 20
68.404735
 11
54.488095
 21
25.823703
  0
LINE
  8
ゴム等
  6
CONTINUOUS
 10
54.88299
 20
70.083488
 11
54.88299
 21
24.14495
  0
LINE
  8
ゴム等
  6
CONTINUOUS
 10
31.913725
 20
47.114218
 11
54.88299
 21
24.14495
  0
LINE
  8
ゴム等
  6
CONTINUOUS
 10
30.852283
 20
47.114218
 11
55.495817
 21
22.47068
  0
LINE
  8
ゴム等
  6
CONTINUOUS
 10
55.495817
 20
71.757757
 11
55.495817
 21
22.47068
  0
LINE
  8
ゴム等
  6
CONTINUOUS
 10
27.472508
 20
-68.22103
 11
29.146777
 21
-67.608205
  0
LINE
  8
ゴム等
  6
CONTINUOUS
 10
29.146777
 20
-67.608205
 11
30.82553
 21
-67.21331
  0
LINE
  8
ゴム等
  6
CONTINUOUS
 10
113.426253
 20
-68.22103
 11
111.751982
 21
-67.608205
  0
LINE
  8
ゴム等
  6
CONTINUOUS
 10
111.751982
 20
-67.608205
 11
110.07323
 21
-67.21331
  0
LINE
  8
ゴム等
  6
CONTINUOUS
 10
29.146777
 20
-67.608205
 11
111.751982
 21
-67.608205
  0
LINE
  8
ゴム等
  6
CONTINUOUS
 10
27.472508
 20
-68.22103
 11
113.426253
 21
-68.22103
  0
LINE
  8
ゴム等
  6
CONTINUOUS
 10
30.82553
 20
-67.21331
 11
69.150485
 21
-67.21331
  0
LINE
  8
ゴム等
  6
CONTINUOUS
 10
71.748275
 20
-67.21331
 11
110.07323
 21
-67.21331
  0
LINE
  8
ゴム等
  6
CONTINUOUS
 10
69.150485
 20
-67.21331
 11
70.016045
 21
-67.608205
  0
LINE
  8
ゴム等
  6
CONTINUOUS
 10
70.882715
 20
-67.608205
 11
71.748275
 21
-67.21331
  0
LINE
  8
ゴム等
  6
CONTINUOUS
 10
52.328207
 20
-42.182762
 11
53.994875
 21
-42.182762
  0
LINE
  8
ゴム等
  6
CONTINUOUS
 10
53.994875
 20
-42.182762
 11
53.994875
 21
-43.424913
  0
LINE
  8
ゴム等
  6
CONTINUOUS
 10
52.070318
 20
-43.377772
 11
53.994875
 21
-43.377772
  0
LINE
  8
ゴム等
  6
CONTINUOUS
 10
53.994875
 20
-43.424913
 11
52.023178
 21
-43.424913
  0
LINE
  8
ゴム等
  6
CONTINUOUS
 10
50.69434
 20
-43.816627
 11
51.63146
 21
-43.816627
  0
LINE
  8
ゴム等
  6
CONTINUOUS
 10
50.69434
 20
-43.816627
 11
52.328207
 21
-42.182762
  0
LINE
  8
ゴム等
  6
CONTINUOUS
 10
51.63146
 20
-43.816627
 11
52.070318
 21
-43.377772
  0
LINE
  8
ゴム等
  6
CONTINUOUS
 10
52.213915
 20
-43.479625
 11
52.58762
 21
-44.167365
  0
LINE
  8
ゴム等
  6
CONTINUOUS
 10
52.58762
 20
-44.167365
 11
53.032925
 21
-45.005915
  0
LINE
  8
ゴム等
  6
CONTINUOUS
 10
30.82553
 20
-67.21331
 11
53.032925
 21
-45.005915
  0
LINE
  8
ゴム等
  6
CONTINUOUS
 10
29.146777
 20
-67.608205
 11
52.58762
 21
-44.167365
  0
LINE
  8
ゴム等
  6
CONTINUOUS
 10
27.472508
 20
-68.22103
 11
52.213915
 21
-43.479625
  0
LINE
  8
ゴム等
  6
CONTINUOUS
 10
88.570552
 20
-42.182762
 11
86.903885
 21
-42.182762
  0
LINE
  8
ゴム等
  6
CONTINUOUS
 10
86.903885
 20
-42.182762
 11
86.903885
 21
-43.424913
  0
LINE
  8
ゴム等
  6
CONTINUOUS
 10
88.828442
 20
-43.377772
 11
86.903885
 21
-43.377772
  0
LINE
  8
ゴム等
  6
CONTINUOUS
 10
86.903885
 20
-43.424913
 11
88.875583
 21
-43.424913
  0
LINE
  8
ゴム等
  6
CONTINUOUS
 10
90.20442
 20
-43.816627
 11
89.2673
 21
-43.816627
  0
LINE
  8
ゴム等
  6
CONTINUOUS
 10
90.20442
 20
-43.816627
 11
88.570552
 21
-42.182762
  0
LINE
  8
ゴム等
  6
CONTINUOUS
 10
89.2673
 20
-43.816627
 11
88.828442
 21
-43.377772
  0
LINE
  8
ゴム等
  6
CONTINUOUS
 10
88.684845
 20
-43.479625
 11
88.31114
 21
-44.167365
  0
LINE
  8
ゴム等
  6
CONTINUOUS
 10
88.31114
 20
-44.167365
 11
87.865835
 21
-45.005915
  0
LINE
  8
ゴム等
  6
CONTINUOUS
 10
110.07323
 20
-67.21331
 11
87.865835
 21
-45.005915
  0
LINE
  8
ゴム等
  6
CONTINUOUS
 10
52.58762
 20
-44.167365
 11
88.31114
 21
-44.167365
  0
LINE
  8
ゴム等
  6
CONTINUOUS
 10
111.751982
 20
-67.608205
 11
88.31114
 21
-44.167365
  0
LINE
  8
ゴム等
  6
CONTINUOUS
 10
113.426253
 20
-68.22103
 11
88.684845
 21
-43.479625
  0
LINE
  8
ゴム等
  6
CONTINUOUS
 10
69.150485
 20
-67.21331
 11
69.150485
 21
-45.005915
  0
LINE
  8
ゴム等
  6
CONTINUOUS
 10
71.748275
 20
-67.21331
 11
71.748275
 21
-45.005915
  0
LINE
  8
ゴム等
  6
CONTINUOUS
 10
70.882715
 20
-67.608205
 11
70.882715
 21
-44.167365
  0
LINE
  8
ゴム等
  6
CONTINUOUS
 10
70.016045
 20
-67.608205
 11
70.016045
 21
-44.167365
  0
LINE
  8
ゴム等
  6
CONTINUOUS
 10
53.032925
 20
-45.005915
 11
69.150485
 21
-45.005915
  0
LINE
  8
ゴム等
  6
CONTINUOUS
 10
71.748275
 20
-45.005915
 11
87.865835
 21
-45.005915
  0
LINE
  8
ゴム等
  6
CONTINUOUS
 10
69.150485
 20
-45.005915
 11
70.016045
 21
-44.167365
  0
LINE
  8
ゴム等
  6
CONTINUOUS
 10
70.882715
 20
-44.167365
 11
71.748275
 21
-45.005915
  0
TEXT
  7
TextStyle03
  8
文字
  6
CONTINUOUS
 10
-21.2
 20
9.8
  1
は排水穴位置を示す
 40
3.0
 72
     5
 11
8.8
 21
9.8
  0
TEXT
  7
TextStyle03
  8
文字
  6
CONTINUOUS
 10
-139.75
 20
87.775
  1
アンカーピッチ
 40
3.0
 72
     5
 11
-116.5
 21
87.775
  0
TEXT
  7
TextStyle03
  8
文字
  6
CONTINUOUS
 10
-139.75
 20
-0.325
  1
アンカーピッチ
 40
3.0
 50
90.0
 72
     5
 11
-139.75
 21
22.925
  0
TEXT
  7
TextStyle03
  8
文字
  6
CONTINUOUS
 10
-21.4
 20
2.55
  1
はケーシング位置を示す
 40
3.0
 72
     5
 11
15.35
 21
2.55
  0
TEXT
  7
TextStyle03
  8
文字
  6
CONTINUOUS
 10
-21.4
 20
-0.825
  1
４ヶ所中1ヶ所に設定
 40
3.0
 72
     5
 11
10.2875
 21
-0.825
  0
TEXT
  7
TextStyle03
  8
文字
  6
CONTINUOUS
 10
-27.5
 20
-6.425
  1
アームユニット数　４ヶ所
 40
3.0
 72
     5
 11
12.625
 21
-6.425
  0
TEXT
  7
TextStyle03
  8
文字
  6
CONTINUOUS
 10
56.125
 20
124.075
  1
シリーズ：ＤＦＹ
 40
5.0
 72
     5
 11
100.5
 21
124.075
  0
TEXT
  7
TextStyle03
  8
文字
  6
CONTINUOUS
 10
56.125
 20
118.45
  1
　　　　　山型四角錘（上下可動）1300×2400タイプ
 40
5.0
 72
     5
 11
190.5
 21
118.45
  0
TEXT
  7
TextStyle03
  8
文字
  6
CONTINUOUS
 10
56.125
 20
112.825
  1
図面名　：外観姿図
 40
5.0
 72
     5
 11
106.125
 21
112.825
  0
TEXT
  7
TextStyle03
  8
文字
  6
CONTINUOUS
 10
56.125
 20
107.2
  1

 40
5.0
 41
1.125
  0
TEXT
  7
TextStyle03
  8
文字
  6
CONTINUOUS
 10
56.125
 20
101.575
  1
ＮＳコード：ＮＳ４Ｙ
 40
5.0
 72
     5
 11
111.75
 21
101.575
  0
TEXT
  7
TextStyle03
  8
文字
  6
CONTINUOUS
 10
-21.05
 20
56.45
  1
バランスステー
 40
3.0
 72
     5
 11
2.2
 21
56.45
  0
TEXT
  7
TextStyle03
  8
文字
  6
CONTINUOUS
 10
154.525
 20
64.475
  1
×　右２枚
 40
4.0
 72
     5
 11
176.525
 21
64.475
  0
TEXT
  7
TextStyle03
  8
文字
  6
CONTINUOUS
 10
154.525
 20
59.975
  1
×　左２枚
 40
4.0
 72
     5
 11
176.525
 21
59.975
  0
TEXT
  7
TextStyle03
  8
文字
  6
CONTINUOUS
 10
154.525
 20
5.325
  1
×　２枚
 40
4.0
 72
     5
 11
172.025
 21
5.325
  0
TEXT
  7
TextStyle03
  8
文字
  6
CONTINUOUS
 10
87.825
 20
29.425
  1
ガラス寸法
 40
3.0
 72
     5
 11
104.325
 21
29.425
  0
TEXT
  7
TextStyle03
  8
文字
  6
CONTINUOUS
 10
87.825
 20
85.075
  1
ガラス寸法
 40
3.0
 72
     5
 11
104.325
 21
85.075
  0
INSERT
  2
*DIM_0002
  8
寸法
  6
CONTINUOUS
 10
0.0
 20
0.0
  0
LINE
  8
寸法
  6
CONTINUOUS
 10
-47.48957
 20
21.24755
 11
-46.113937
 21
18.864885
  0
LINE
  8
寸法
  6
CONTINUOUS
 10
-47.48957
 20
21.24755
 11
-48.865203
 21
18.864885
  0
LINE
  8
寸法
  6
CONTINUOUS
 10
-48.865203
 20
18.864885
 11
-46.113937
 21
18.864885
  0
LINE
  8
寸法
  6
CONTINUOUS
 10
-97.48957
 20
21.24755
 11
-98.865203
 21
18.864885
  0
LINE
  8
寸法
  6
CONTINUOUS
 10
-97.48957
 20
21.24755
 11
-96.113937
 21
18.864885
  0
LINE
  8
寸法
  6
CONTINUOUS
 10
-96.113937
 20
18.864885
 11
-98.865203
 21
18.864885
  0
INSERT
  2
*DIM_0003
  8
寸法
  6
CONTINUOUS
 10
0.0
 20
0.0
  0
LINE
  8
寸法
  6
CONTINUOUS
 10
-47.48957
 20
72.980885
 11
-46.113937
 21
75.36355
  0
LINE
  8
寸法
  6
CONTINUOUS
 10
-47.48957
 20
72.980885
 11
-48.865203
 21
75.36355
  0
LINE
  8
寸法
  6
CONTINUOUS
 10
-48.865203
 20
75.36355
 11
-46.113937
 21
75.36355
  0
LINE
  8
寸法
  6
CONTINUOUS
 10
-97.48957
 20
72.980885
 11
-98.865203
 21
75.36355
  0
LINE
  8
寸法
  6
CONTINUOUS
 10
-97.48957
 20
72.980885
 11
-96.113937
 21
75.36355
  0
LINE
  8
寸法
  6
CONTINUOUS
 10
-96.113937
 20
75.36355
 11
-98.865203
 21
75.36355
  0
LINE
  8
寸法
  6
CONTINUOUS
 10
-28.289577
 20
47.114218
 11
-25.906912
 21
45.738585
  0
LINE
  8
寸法
  6
CONTINUOUS
 10
-28.289577
 20
47.114218
 11
-25.906912
 21
48.48985
  0
LINE
  8
寸法
  6
CONTINUOUS
 10
-25.906912
 20
48.48985
 11
-25.906912
 21
45.738585
  0
LINE
  8
寸法
  6
CONTINUOUS
 10
-116.689563
 20
47.114218
 11
-119.072228
 21
45.738585
  0
LINE
  8
寸法
  6
CONTINUOUS
 10
-116.689563
 20
47.114218
 11
-119.072228
 21
48.48985
  0
LINE
  8
寸法
  6
CONTINUOUS
 10
-119.072228
 20
48.48985
 11
-119.072228
 21
45.738585
  0
INSERT
  2
*DIM_0004
  8
寸法
  6
CONTINUOUS
 10
0.0
 20
0.0
  0
LINE
  8
寸法
  6
CONTINUOUS
 10
-24.251805
 20
12.236767
 11
-22.876173
 21
9.854103
  0
LINE
  8
寸法
  6
CONTINUOUS
 10
-24.251805
 20
12.236767
 11
-25.627437
 21
9.854103
  0
LINE
  8
寸法
  6
CONTINUOUS
 10
-25.627437
 20
9.854103
 11
-22.876173
 21
9.854103
  0
LINE
  8
寸法
  6
CONTINUOUS
 10
-27.601293
 20
8.202147
 11
10.47402
 21
8.202147
  0
INSERT
  2
*DIM_0005
  8
寸法
  6
CONTINUOUS
 10
0.0
 20
0.0
  0
INSERT
  2
*DIM_0006
  8
寸法
  6
CONTINUOUS
 10
0.0
 20
0.0
  0
INSERT
  2
*DIM_0007
  8
寸法
  6
CONTINUOUS
 10
0.0
 20
0.0
  0
INSERT
  2
*DIM_0008
  8
寸法
  6
CONTINUOUS
 10
0.0
 20
0.0
  0
INSERT
  2
*DIM_0009
  8
寸法
  6
CONTINUOUS
 10
0.0
 20
0.0
  0
INSERT
  2
*DIM_0010
  8
寸法
  6
CONTINUOUS
 10
0.0
 20
0.0
  0
INSERT
  2
*DIM_0011
  8
寸法
  6
CONTINUOUS
 10
0.0
 20
0.0
  0
INSERT
  2
*DIM_0012
  8
寸法
  6
CONTINUOUS
 10
0.0
 20
0.0
  0
INSERT
  2
*DIM_0013
  8
寸法
  6
CONTINUOUS
 10
0.0
 20
0.0
  0
INSERT
  2
*DIM_0014
  8
寸法
  6
CONTINUOUS
 10
0.0
 20
0.0
  0
INSERT
  2
*DIM_0015
  8
寸法
  6
CONTINUOUS
 10
0.0
 20
0.0
  0
INSERT
  2
*DIM_0016
  8
寸法
  6
CONTINUOUS
 10
0.0
 20
0.0
  0
LINE
  8
寸法
  6
CONTINUOUS
 10
-27.601293
 20
-8.039232
 11
10.47402
 21
-8.039232
  0
INSERT
  2
*GRP_0017
  8
寸法
  6
CONTINUOUS
 10
0.0
 20
0.0
  0
INSERT
  2
*DIM_0018
  8
寸法
  6
CONTINUOUS
 10
0.0
 20
0.0
  0
INSERT
  2
*DIM_0019
  8
寸法
  6
CONTINUOUS
 10
0.0
 20
0.0
  0
INSERT
  2
*DIM_0020
  8
寸法
  6
CONTINUOUS
 10
0.0
 20
0.0
  0
INSERT
  2
*DIM_0021
  8
寸法
  6
CONTINUOUS
 10
0.0
 20
0.0
  0
INSERT
  2
*DIM_0022
  8
寸法
  6
CONTINUOUS
 10
0.0
 20
0.0
  0
INSERT
  2
*DIM_0023
  8
寸法
  6
CONTINUOUS
 10
0.0
 20
0.0
  0
INSERT
  2
*DIM_0024
  8
寸法
  6
CONTINUOUS
 10
0.0
 20
0.0
  0
INSERT
  2
*DIM_0025
  8
寸法
  6
CONTINUOUS
 10
0.0
 20
0.0
  0
INSERT
  2
*DIM_0026
  8
寸法
  6
CONTINUOUS
 10
0.0
 20
0.0
  0
INSERT
  2
*DIM_0027
  8
寸法
  6
CONTINUOUS
 10
0.0
 20
0.0
  0
INSERT
  2
*DIM_0033
  8
寸法
  6
CONTINUOUS
 10
0.0
 20
0.0
  0
INSERT
  2
*DIM_0034
  8
寸法
  6
CONTINUOUS
 10
0.0
 20
0.0
  0
INSERT
  2
*DIM_0035
  8
寸法
  6
CONTINUOUS
 10
0.0
 20
0.0
  0
INSERT
  2
*DIM_0036
  8
寸法
  6
CONTINUOUS
 10
0.0
 20
0.0
  0
INSERT
  2
*DIM_0037
  8
寸法
  6
CONTINUOUS
 10
0.0
 20
0.0
  0
INSERT
  2
*DIM_0038
  8
寸法
  6
CONTINUOUS
 10
0.0
 20
0.0
  0
ENDSEC
  0
EOF
