  0
SECTION
  2
HEADER
  9
$EXTMIN
 10
-210.0
 20
-148.5
  9
$EXTMAX
 10
210.0
 20
148.5
  9
$PDMODE
 70
    32
  9
$PDSIZE
 40
0.3
  9
$LTSCALE
 40
10.0
  0
ENDSEC
  0
SECTION
  2
TABLES
  0
TABLE
  2
LTYPE
 70
    15
  0
LTYPE
  2
CONTINUOUS
 70
    64
  3
実線
 72
    65
 73
     0
 40
0.0
  0
LTYPE
  2
DASHED
 70
    64
  3
破線A
 72
    65
 73
     2
 40
0.6
 49
0.4
 49
-0.2
  0
LTYPE
  2
DASHEDX2
 70
    64
  3
破線B
 72
    65
 73
     2
 40
1.3
 49
0.9
 49
-0.4
  0
LTYPE
  2
DASHDOT
 70
    64
  3
１点鎖線A
 72
    65
 73
     4
 40
0.5375
 49
0.375
 49
-0.05
 49
0.0625
 49
-0.05
  0
LTYPE
  2
DASHDOTX2
 70
    64
  3
１点鎖線B
 72
    65
 73
     4
 40
1.075
 49
0.75
 49
-0.1
 49
0.125
 49
-0.1
  0
LTYPE
  2
DIVIDE2
 70
    64
  3
２点鎖線A
 72
    65
 73
     6
 40
0.5125
 49
0.3
 49
-0.0375
 49
0.05
 49
-0.0375
 49
0.05
 49
-0.0375
  0
LTYPE
  2
DIVIDE
 70
    64
  3
２点鎖線B
 72
    65
 73
     6
 40
1.05
 49
0.55
 49
-0.1
 49
0.1
 49
-0.1
 49
0.1
 49
-0.1
  0
LTYPE
  2
DOT
 70
    64
  3
点線A
 72
    65
 73
     2
 40
0.1125
 49
0.0625
 49
-0.05
  0
LTYPE
  2
DOTX2
 70
    64
  3
点線B
 72
    65
 73
     2
 40
0.275
 49
0.15
 49
-0.125
  0
LTYPE
  2
CONTINUOUS
 70
    64
  3
実線
 72
    65
 73
     0
 40
0.0
  0
LTYPE
  2
CONTINUOUS
 70
    64
  3
実線
 72
    65
 73
     0
 40
0.0
  0
LTYPE
  2
CONTINUOUS
 70
    64
  3
実線
 72
    65
 73
     0
 40
0.0
  0
LTYPE
  2
CONTINUOUS
 70
    64
  3
実線
 72
    65
 73
     0
 40
0.0
  0
LTYPE
  2
CONTINUOUS
 70
    64
  3
実線
 72
    65
 73
     0
 40
0.0
  0
LTYPE
  2
CONTINUOUS
 70
    64
  3
実線
 72
    65
 73
     0
 40
0.0
  0
ENDTAB
  0
TABLE
  2
LAYER
 70
    34
  0
LAYER
  2
通り芯
 70
     0
 62
    15
  6
CONTINUOUS
  0
LAYER
  2
補助線
 70
     0
 62
    16
  6
DOT
  0
LAYER
  2
躯体
 70
     0
 62
    31
  6
CONTINUOUS
  0
LAYER
  2
型材
 70
     0
 62
    32
  6
CONTINUOUS
  0
LAYER
  2
型材断面
 70
     0
 62
    47
  6
CONTINUOUS
  0
LAYER
  2
ガラス
 70
     0
 62
    48
  6
CONTINUOUS
  0
LAYER
  2
ゴム等
 70
     0
 62
    63
  6
CONTINUOUS
  0
LAYER
  2
ボルト／ビス
 70
     0
 62
    64
  6
CONTINUOUS
  0
LAYER
  2
文字
 70
     0
 62
    79
  6
CONTINUOUS
  0
LAYER
  2
寸法
 70
     0
 62
    80
  6
CONTINUOUS
  0
LAYER
  2
ﾊｯﾁﾝｸﾞ
 70
     0
 62
    95
  6
CONTINUOUS
  0
LAYER
  2
別途部材
 70
     0
 62
    96
  6
CONTINUOUS
  0
LAYER
  2
曲げ物
 70
     0
 62
   111
  6
CONTINUOUS
  0
LAYER
  2
鉄骨等
 70
     0
 62
   112
  6
CONTINUOUS
  0
LAYER
  2
St
 70
     0
 62
   127
  6
CONTINUOUS
  0
LAYER
  2
その他部品等
 70
     0
 62
   128
  6
CONTINUOUS
  0
LAYER
  2
ｶﾞｽｹｯﾄ
 70
     0
 62
   143
  6
CONTINUOUS
  0
LAYER
  2
ｽｹｯﾁ
 70
     0
 62
    14
  6
CONTINUOUS
  0
LAYER
  2
0
 70
     0
 62
    17
  6
CONTINUOUS
  0
LAYER
  2
1
 70
     0
 62
    30
  6
CONTINUOUS
  0
LAYER
  2
4
 70
     0
 62
    33
  6
CONTINUOUS
  0
LAYER
  2
ﾚｲﾔ3
 70
     0
 62
    46
  6
CONTINUOUS
  0
LAYER
  2
外形線
 70
     0
 62
    49
  6
CONTINUOUS
  0
LAYER
  2
部品
 70
     0
 62
    14
  6
CONTINUOUS
  0
LAYER
  2
サッシ芯
 70
     0
 62
    17
  6
DASHDOTX2
  0
LAYER
  2
寸法線
 70
     0
 62
    62
  6
CONTINUOUS
  0
LAYER
  2
姿図外形線
 70
     0
 62
    65
  6
CONTINUOUS
  0
LAYER
  2
姿補助線
 70
     0
 62
    30
  6
CONTINUOUS
  0
LAYER
  2
透視線
 70
     0
 62
    78
  6
DOT
  0
LAYER
  2
用紙
 70
     0
 62
    81
  6
CONTINUOUS
  0
LAYER
  2
実線図枠
 70
     0
 62
    94
  6
CONTINUOUS
  0
LAYER
  2
補助図枠
 70
     0
 62
    97
  6
CONTINUOUS
  0
LAYER
  2
建具記号
 70
     0
 62
   110
  6
CONTINUOUS
  0
LAYER
  2
補助文字
 70
     0
 62
   113
  6
CONTINUOUS
  0
ENDTAB
  0
TABLE
  2
STYLE
 70
    10
  0
STYLE
  2
STANDARD
 70
     0
 40
1.0
 41
1.0
 42
1.0
 50
0.0
 71
     0
  3
TXT
  4
BIGFONT
  0
STYLE
  2
TATE
 70
     4
 40
1.0
 41
1.0
 42
1.0
 50
0.0
 71
     0
  3
TXT
  4
BIGFONT
  0
STYLE
  2
TextStyle03
 70
     0
 40
1.0
 41
1.0
 42
1.0
 50
0.0
 71
     0
  3
MONOTXT
  4
BIGFONT
  0
STYLE
  2
TextStyle04
 70
     0
 40
1.0
 41
1.0
 42
1.0
 50
0.0
 71
     0
  3
MONOTXT
  4
BIGFONT
  0
STYLE
  2
TextStyle05
 70
     0
 40
1.0
 41
1.0
 42
1.0
 50
0.0
 71
     0
  3
MONOTXT
  4
BIGFONT
  0
STYLE
  2
TextStyle06
 70
     0
 40
1.0
 41
1.0
 42
1.0
 50
0.0
 71
     0
  3
MONOTXT
  4
BIGFONT
  0
STYLE
  2
TextStyle07
 70
     0
 40
1.0
 41
1.0
 42
1.0
 50
0.0
 71
     0
  3
MONOTXT
  4
BIGFONT
  0
STYLE
  2
TextStyle08
 70
     0
 40
1.0
 41
1.0
 42
1.0
 50
0.0
 71
     0
  3
MONOTXT
  4
BIGFONT
  0
STYLE
  2
TextStyle09
 70
     0
 40
1.0
 41
1.0
 42
1.0
 50
0.0
 71
     0
  3
MONOTXT
  4
BIGFONT
  0
STYLE
  2
TextStyle10
 70
     0
 40
1.0
 41
1.0
 42
1.0
 50
0.0
 71
     0
  3
MONOTXT
  4
BIGFONT
  0
ENDTAB
  0
ENDSEC
  0
SECTION
  2
BLOCKS
  0
BLOCK
  2
*GRP_0001
 70
    65
 10
0.0
 20
0.0
  0
LINE
  8
型材断面
  6
CONTINUOUS
 10
195.0
 20
133.5
 11
195.0
 21
-133.5
  0
LINE
  8
型材断面
  6
CONTINUOUS
 10
195.0
 20
-133.5
 11
-185.0
 21
-133.5
  0
LINE
  8
型材断面
  6
CONTINUOUS
 10
-185.0
 20
-133.5
 11
-185.0
 21
133.5
  0
LINE
  8
型材断面
  6
CONTINUOUS
 10
195.0
 20
133.5
 11
-185.0
 21
133.5
  0
LINE
  8
型材断面
  6
CONTINUOUS
 10
145.0
 20
-133.5
 11
145.0
 21
-118.5
  0
LINE
  8
型材断面
  6
CONTINUOUS
 10
195.0
 20
-118.5
 11
145.0
 21
-118.5
  0
ENDBLK
  0
BLOCK
  2
*DIM_0002
 70
    65
 10
0.0
 20
0.0
  0
LINE
  8
寸法
  6
CONTINUOUS
 62
     0
 10
-116.68957
 20
-65.593127
 11
-116.68957
 21
-13.186362
  0
LINE
  8
寸法
  6
CONTINUOUS
 62
     0
 10
-28.28957
 20
-65.593127
 11
-28.28957
 21
-13.186362
  0
LINE
  8
寸法
  6
CONTINUOUS
 62
     0
 10
-116.68957
 20
-13.186362
 11
-28.28957
 21
-13.186362
  0
POINT
  8
寸法
 62
     0
 10
-116.68957
 20
-13.186362
  0
POINT
  8
寸法
 62
     0
 10
-28.28957
 20
-13.186362
  0
TEXT
  7
TextStyle03
  8
寸法
  6
CONTINUOUS
 62
     0
 10
-75.78125
 20
-12.825
  1
2652
 40
3.0
 72
     5
 11
-69.21875
 21
-12.825
  0
ENDBLK
  0
BLOCK
  2
*DIM_0003
 70
    65
 10
0.0
 20
0.0
  0
LINE
  8
寸法
  6
BYBLOCK
 62
     0
 10
-116.68957
 20
-18.248485
 11
-112.48957
 21
-18.248485
  0
POINT
  8
寸法
 62
     0
 10
-116.68957
 20
-18.248485
  0
POINT
  8
寸法
 62
     0
 10
-112.48957
 20
-18.248485
  0
TEXT
  7
TextStyle03
  8
寸法
  6
CONTINUOUS
 62
     0
 10
-122.0875
 20
-17.875
  1
126
 40
3.0
 72
     5
 11
-117.2125
 21
-17.875
  0
ENDBLK
  0
BLOCK
  2
*DIM_0004
 70
    65
 10
0.0
 20
0.0
  0
LINE
  8
寸法
  6
BYBLOCK
 62
     0
 10
-32.48957
 20
-18.248485
 11
-28.28957
 21
-18.248485
  0
POINT
  8
寸法
 62
     0
 10
-28.28957
 20
-18.248485
  0
TEXT
  7
TextStyle03
  8
寸法
  6
CONTINUOUS
 62
     0
 10
-27.7875
 20
-17.875
  1
126
 40
3.0
 72
     5
 11
-22.9125
 21
-17.875
  0
ENDBLK
  0
BLOCK
  2
*DIM_0005
 70
    65
 10
0.0
 20
0.0
  0
LINE
  8
寸法
  6
BYBLOCK
 62
     0
 10
-112.48957
 20
-18.248485
 11
-32.48957
 21
-18.248485
  0
POINT
  8
寸法
 62
     0
 10
-32.48957
 20
-18.248485
  0
TEXT
  7
TextStyle03
  8
寸法
  6
CONTINUOUS
 62
     0
 10
-84.21875
 20
-17.875
  1
呼称寸法＝2400
 40
3.0
 72
     5
 11
-60.78125
 21
-17.875
  0
ENDBLK
  0
BLOCK
  2
*DIM_0006
 70
    65
 10
0.0
 20
0.0
  0
LINE
  8
寸法
  6
BYBLOCK
 62
     0
 10
-51.156245
 20
-42.608725
 11
-4.911362
 21
-42.608725
  0
LINE
  8
寸法
  6
BYBLOCK
 62
     0
 10
-4.911362
 20
-68.593127
 11
-4.911362
 21
-42.608725
  0
POINT
  8
寸法
 62
     0
 10
-4.911362
 20
-42.608725
  0
TEXT
  7
TextStyle03
  8
寸法
  6
CONTINUOUS
 62
     0
 10
-5.3
 20
-59.75
  1
779.5
 40
3.0
 50
90.0
 72
     5
 11
-5.3
 21
-51.5
  0
ENDBLK
  0
BLOCK
  2
*DIM_0007
 70
    65
 10
0.0
 20
0.0
  0
LINE
  8
寸法
  6
BYBLOCK
 62
     0
 10
-97.48957
 20
20.24755
 11
-97.48957
 21
10.870788
  0
LINE
  8
寸法
  6
BYBLOCK
 62
     0
 10
-47.48957
 20
20.24755
 11
-47.48957
 21
10.870788
  0
LINE
  8
寸法
  6
BYBLOCK
 62
     0
 10
-97.48957
 20
10.870788
 11
-47.48957
 21
10.870788
  0
POINT
  8
寸法
 62
     0
 10
-97.48957
 20
10.870788
  0
POINT
  8
寸法
 62
     0
 10
-47.48957
 20
10.870788
  0
TEXT
  7
TextStyle03
  8
寸法
  6
CONTINUOUS
 62
     0
 10
-75.80625
 20
11.25
  1
1500
 40
3.0
 72
     5
 11
-69.24375
 21
11.25
  0
ENDBLK
  0
BLOCK
  2
*DIM_0008
 70
    65
 10
0.0
 20
0.0
  0
LINE
  8
寸法
  6
BYBLOCK
 62
     0
 10
52.867913
 20
72.980885
 11
12.01591
 21
72.980885
  0
LINE
  8
寸法
  6
BYBLOCK
 62
     0
 10
52.867913
 20
21.24755
 11
12.01591
 21
21.24755
  0
LINE
  8
寸法
  6
BYBLOCK
 62
     0
 10
12.01591
 20
72.980885
 11
12.01591
 21
21.24755
  0
POINT
  8
寸法
 62
     0
 10
12.01591
 20
72.980885
  0
POINT
  8
寸法
 62
     0
 10
12.01591
 20
21.24755
  0
TEXT
  7
TextStyle03
  8
寸法
  6
CONTINUOUS
 62
     0
 10
11.625
 20
43.81875
  1
1552
 40
3.0
 50
90.0
 72
     5
 11
11.625
 21
50.38125
  0
ENDBLK
  0
BLOCK
  2
*DIM_0009
 70
    65
 10
0.0
 20
0.0
  0
LINE
  8
寸法
  6
BYBLOCK
 62
     0
 10
16.911362
 20
21.24755
 11
16.911362
 21
25.44755
  0
POINT
  8
寸法
 62
     0
 10
16.911362
 20
21.24755
  0
POINT
  8
寸法
 62
     0
 10
16.911362
 20
25.44755
  0
TEXT
  7
TextStyle03
  8
寸法
  6
CONTINUOUS
 62
     0
 10
16.525
 20
15.8375
  1
126
 40
3.0
 50
90.0
 72
     5
 11
16.525
 21
20.7125
  0
ENDBLK
  0
BLOCK
  2
*DIM_0010
 70
    65
 10
0.0
 20
0.0
  0
LINE
  8
寸法
  6
BYBLOCK
 62
     0
 10
16.911362
 20
68.780885
 11
16.911362
 21
72.980885
  0
POINT
  8
寸法
 62
     0
 10
16.911362
 20
72.980885
  0
TEXT
  7
TextStyle03
  8
寸法
  6
CONTINUOUS
 62
     0
 10
16.525
 20
73.4875
  1
126
 40
3.0
 50
90.0
 72
     5
 11
16.525
 21
78.3625
  0
ENDBLK
  0
BLOCK
  2
*DIM_0011
 70
    65
 10
0.0
 20
0.0
  0
LINE
  8
寸法
  6
BYBLOCK
 62
     0
 10
16.911362
 20
25.44755
 11
16.911362
 21
68.780885
  0
POINT
  8
寸法
 62
     0
 10
16.911362
 20
68.780885
  0
TEXT
  7
TextStyle03
  8
寸法
  6
CONTINUOUS
 62
     0
 10
16.525
 20
35.38125
  1
呼称寸法＝1300
 40
3.0
 50
90.0
 72
     5
 11
16.525
 21
58.81875
  0
ENDBLK
  0
BLOCK
  2
*DIM_0012
 70
    65
 10
0.0
 20
0.0
  0
LINE
  8
寸法
  6
BYBLOCK
 62
     0
 10
29.883515
 20
44.114218
 11
29.883515
 21
3.095455
  0
LINE
  8
寸法
  6
BYBLOCK
 62
     0
 10
55.867913
 20
3.095455
 11
29.883515
 21
3.095455
  0
POINT
  8
寸法
 62
     0
 10
29.883515
 20
3.095455
  0
TEXT
  7
TextStyle03
  8
寸法
  6
CONTINUOUS
 62
     0
 10
38.75
 20
3.45
  1
779.5
 40
3.0
 72
     5
 11
47.0
 21
3.45
  0
ENDBLK
  0
BLOCK
  2
*DIM_0013
 70
    65
 10
0.0
 20
0.0
  0
LINE
  8
寸法
  6
BYBLOCK
 62
     0
 10
-105.822902
 20
76.158987
 11
-105.822902
 21
87.28247
  0
LINE
  8
寸法
  6
BYBLOCK
 62
     0
 10
-89.156238
 20
76.158987
 11
-89.156238
 21
87.28247
  0
LINE
  8
寸法
  6
BYBLOCK
 62
     0
 10
-105.822902
 20
87.28247
 11
-89.156238
 21
87.28247
  0
POINT
  8
寸法
 62
     0
 10
-105.822902
 20
87.28247
  0
POINT
  8
寸法
 62
     0
 10
-89.156238
 20
87.28247
  0
TEXT
  7
TextStyle03
  8
寸法
  6
CONTINUOUS
 62
     0
 10
-99.9625
 20
87.65
  1
500
 40
3.0
 72
     5
 11
-95.0875
 21
87.65
  0
ENDBLK
  0
BLOCK
  2
*DIM_0014
 70
    65
 10
0.0
 20
0.0
  0
LINE
  8
寸法
  6
BYBLOCK
 62
     0
 10
-72.48957
 20
76.158987
 11
-72.48957
 21
87.28247
  0
LINE
  8
寸法
  6
BYBLOCK
 62
     0
 10
-89.156238
 20
87.28247
 11
-72.48957
 21
87.28247
  0
POINT
  8
寸法
 62
     0
 10
-72.48957
 20
87.28247
  0
TEXT
  7
TextStyle03
  8
寸法
  6
CONTINUOUS
 62
     0
 10
-83.2875
 20
87.65
  1
500
 40
3.0
 72
     5
 11
-78.4125
 21
87.65
  0
ENDBLK
  0
BLOCK
  2
*DIM_0015
 70
    65
 10
0.0
 20
0.0
  0
LINE
  8
寸法
  6
BYBLOCK
 62
     0
 10
-55.822902
 20
76.158987
 11
-55.822902
 21
87.28247
  0
LINE
  8
寸法
  6
BYBLOCK
 62
     0
 10
-72.48957
 20
87.28247
 11
-55.822902
 21
87.28247
  0
POINT
  8
寸法
 62
     0
 10
-55.822902
 20
87.28247
  0
TEXT
  7
TextStyle03
  8
寸法
  6
CONTINUOUS
 62
     0
 10
-66.6125
 20
87.65
  1
500
 40
3.0
 72
     5
 11
-61.7375
 21
87.65
  0
ENDBLK
  0
BLOCK
  2
*DIM_0016
 70
    65
 10
0.0
 20
0.0
  0
LINE
  8
寸法
  6
BYBLOCK
 62
     0
 10
-39.156238
 20
76.158987
 11
-39.156238
 21
87.28247
  0
LINE
  8
寸法
  6
BYBLOCK
 62
     0
 10
-55.822902
 20
87.28247
 11
-39.156238
 21
87.28247
  0
POINT
  8
寸法
 62
     0
 10
-39.156238
 20
87.28247
  0
TEXT
  7
TextStyle03
  8
寸法
  6
CONTINUOUS
 62
     0
 10
-49.9625
 20
87.65
  1
500
 40
3.0
 72
     5
 11
-45.0875
 21
87.65
  0
ENDBLK
  0
BLOCK
  2
*DIM_0017
 70
    65
 10
0.0
 20
0.0
  0
LINE
  8
寸法
  6
BYBLOCK
 62
     0
 10
-32.48957
 20
69.780885
 11
-32.48957
 21
87.28247
  0
LINE
  8
寸法
  6
BYBLOCK
 62
     0
 10
-39.156238
 20
87.28247
 11
-32.48957
 21
87.28247
  0
POINT
  8
寸法
 62
     0
 10
-32.48957
 20
87.28247
  0
TEXT
  7
TextStyle03
  8
寸法
  6
CONTINUOUS
 62
     0
 10
-38.2875
 20
87.65
  1
200
 40
3.0
 72
     5
 11
-33.4125
 21
87.65
  0
ENDBLK
  0
BLOCK
  2
*DIM_0018
 70
    65
 10
0.0
 20
0.0
  0
LINE
  8
寸法
  6
BYBLOCK
 62
     0
 10
-112.48957
 20
69.780885
 11
-112.48957
 21
87.28247
  0
LINE
  8
寸法
  6
BYBLOCK
 62
     0
 10
-105.822902
 20
87.28247
 11
-112.48957
 21
87.28247
  0
POINT
  8
寸法
 62
     0
 10
-105.822902
 20
87.28247
  0
POINT
  8
寸法
 62
     0
 10
-112.48957
 20
87.28247
  0
TEXT
  7
TextStyle03
  8
寸法
  6
CONTINUOUS
 62
     0
 10
-111.6125
 20
87.65
  1
200
 40
3.0
 72
     5
 11
-106.7375
 21
87.65
  0
ENDBLK
  0
BLOCK
  2
*DIM_0019
 70
    65
 10
0.0
 20
0.0
  0
LINE
  8
寸法
  6
BYBLOCK
 62
     0
 10
-120.414735
 20
63.780885
 11
-139.620465
 21
63.780885
  0
LINE
  8
寸法
  6
BYBLOCK
 62
     0
 10
-120.414735
 20
47.114218
 11
-139.620465
 21
47.114218
  0
LINE
  8
寸法
  6
BYBLOCK
 62
     0
 10
-139.620465
 20
63.780885
 11
-139.620465
 21
47.114218
  0
POINT
  8
寸法
 62
     0
 10
-139.620465
 20
63.780885
  0
POINT
  8
寸法
 62
     0
 10
-139.620465
 20
47.114218
  0
TEXT
  7
TextStyle03
  8
寸法
  6
CONTINUOUS
 62
     0
 10
-140.0
 20
52.9875
  1
500
 40
3.0
 50
90.0
 72
     5
 11
-140.0
 21
57.8625
  0
ENDBLK
  0
BLOCK
  2
*DIM_0020
 70
    65
 10
0.0
 20
0.0
  0
LINE
  8
寸法
  6
BYBLOCK
 62
     0
 10
-120.414735
 20
30.44755
 11
-139.620465
 21
30.44755
  0
LINE
  8
寸法
  6
BYBLOCK
 62
     0
 10
-139.620465
 20
47.114218
 11
-139.620465
 21
30.44755
  0
POINT
  8
寸法
 62
     0
 10
-139.620465
 20
30.44755
  0
TEXT
  7
TextStyle03
  8
寸法
  6
CONTINUOUS
 62
     0
 10
-140.0
 20
36.3375
  1
500
 40
3.0
 50
90.0
 72
     5
 11
-140.0
 21
41.2125
  0
ENDBLK
  0
BLOCK
  2
*DIM_0021
 70
    65
 10
0.0
 20
0.0
  0
LINE
  8
寸法
  6
BYBLOCK
 62
     0
 10
-120.414735
 20
68.780885
 11
-139.620465
 21
68.780885
  0
LINE
  8
寸法
  6
BYBLOCK
 62
     0
 10
-139.620465
 20
63.780885
 11
-139.620465
 21
68.780885
  0
POINT
  8
寸法
 62
     0
 10
-139.620465
 20
63.780885
  0
POINT
  8
寸法
 62
     0
 10
-139.620465
 20
68.780885
  0
TEXT
  7
TextStyle03
  8
寸法
  6
CONTINUOUS
 62
     0
 10
-140.0
 20
63.8375
  1
150
 40
3.0
 50
90.0
 72
     5
 11
-140.0
 21
68.7125
  0
ENDBLK
  0
BLOCK
  2
*DIM_0022
 70
    65
 10
0.0
 20
0.0
  0
LINE
  8
寸法
  6
BYBLOCK
 62
     0
 10
-120.414735
 20
25.44755
 11
-139.620465
 21
25.44755
  0
LINE
  8
寸法
  6
BYBLOCK
 62
     0
 10
-139.620465
 20
30.44755
 11
-139.620465
 21
25.44755
  0
POINT
  8
寸法
 62
     0
 10
-139.620465
 20
30.44755
  0
POINT
  8
寸法
 62
     0
 10
-139.620465
 20
25.44755
  0
TEXT
  7
TextStyle03
  8
寸法
  6
CONTINUOUS
 62
     0
 10
-140.0
 20
25.4875
  1
150
 40
3.0
 50
90.0
 72
     5
 11
-140.0
 21
30.3625
  0
ENDBLK
  0
BLOCK
  2
*DIM_0023
 70
    65
 10
0.0
 20
0.0
  0
LINE
  8
寸法
  6
BYBLOCK
 62
     0
 10
93.388328
 20
-10.201797
 11
93.388328
 21
-14.917595
  0
LINE
  8
寸法
  6
BYBLOCK
 62
     0
 10
138.994557
 20
-10.201797
 11
138.994557
 21
-14.917595
  0
LINE
  8
寸法
  6
BYBLOCK
 62
     0
 10
93.388328
 20
-14.917595
 11
138.994557
 21
-14.917595
  0
POINT
  8
寸法
 62
     0
 10
93.388328
 20
-14.917595
  0
POINT
  8
寸法
 62
     0
 10
138.994557
 20
-14.917595
  0
TEXT
  7
TextStyle03
  8
寸法
  6
CONTINUOUS
 62
     0
 10
111.20625
 20
-14.55
  1
1368.2
 40
3.0
 72
     5
 11
121.14375
 21
-14.55
  0
ENDBLK
  0
BLOCK
  2
*DIM_0024
 70
    65
 10
0.0
 20
0.0
  0
LINE
  8
寸法
  6
BYBLOCK
 62
     0
 10
119.14959
 20
82.192915
 11
119.14959
 21
85.679188
  0
LINE
  8
寸法
  6
BYBLOCK
 62
     0
 10
136.384663
 20
82.192915
 11
136.384663
 21
85.679188
  0
LINE
  8
寸法
  6
BYBLOCK
 62
     0
 10
119.14959
 20
85.679188
 11
136.384663
 21
85.679188
  0
POINT
  8
寸法
 62
     0
 10
119.14959
 20
85.679188
  0
POINT
  8
寸法
 62
     0
 10
136.384663
 20
85.679188
  0
TEXT
  7
TextStyle03
  8
寸法
  6
CONTINUOUS
 62
     0
 10
123.625
 20
86.05
  1
517.1
 40
3.0
 72
     5
 11
131.875
 21
86.05
  0
ENDBLK
  0
BLOCK
  2
*DIM_0025
 70
    65
 10
0.0
 20
0.0
  0
LINE
  8
寸法
  6
BYBLOCK
 62
     0
 10
95.998222
 20
43.452073
 11
95.998222
 21
38.511262
  0
LINE
  8
寸法
  6
BYBLOCK
 62
     0
 10
136.384663
 20
43.452073
 11
136.384663
 21
38.511262
  0
LINE
  8
寸法
  6
BYBLOCK
 62
     0
 10
95.998222
 20
38.511262
 11
136.384663
 21
38.511262
  0
POINT
  8
寸法
 62
     0
 10
95.998222
 20
38.511262
  0
POINT
  8
寸法
 62
     0
 10
136.384663
 20
38.511262
  0
TEXT
  7
TextStyle03
  8
寸法
  6
CONTINUOUS
 62
     0
 10
111.20625
 20
38.875
  1
1211.6
 40
3.0
 72
     5
 11
121.14375
 21
38.875
  0
ENDBLK
  0
BLOCK
  2
*DIM_0026
 70
    65
 10
0.0
 20
0.0
  0
LINE
  8
寸法
  6
BYBLOCK
 62
     0
 10
92.998222
 20
46.452073
 11
86.825017
 21
46.452073
  0
LINE
  8
寸法
  6
BYBLOCK
 62
     0
 10
116.14959
 20
79.192915
 11
86.825017
 21
79.192915
  0
LINE
  8
寸法
  6
BYBLOCK
 62
     0
 10
86.825017
 20
46.452073
 11
86.825017
 21
79.192915
  0
POINT
  8
寸法
 62
     0
 10
86.825017
 20
46.452073
  0
POINT
  8
寸法
 62
     0
 10
86.825017
 20
79.192915
  0
TEXT
  7
TextStyle03
  8
寸法
  6
CONTINUOUS
 62
     0
 10
86.45
 20
58.7
  1
982.2
 40
3.0
 50
90.0
 72
     5
 11
86.45
 21
66.95
  0
ENDBLK
  0
BLOCK
  2
*DIM_0027
 70
    65
 10
0.0
 20
0.0
  0
ARC
  8
寸法
  6
BYBLOCK
 62
     0
 10
95.998222
 20
46.452073
 40
19.858867
 50
0.0
 51
54.735498
  0
POINT
  8
寸法
 62
     0
 10
107.463775
 20
62.666748
  0
POINT
  8
寸法
 62
     0
 10
115.85709
 20
46.452073
  0
TEXT
  7
TextStyle03
  8
寸法
  6
CONTINUOUS
 62
     0
 10
110.895707
 20
61.647225
  1
54.7355
 40
3.0
 50
297.37
 72
     5
 11
116.240125
 21
51.323571
  0
TEXT
  7
TextStyle03
  8
寸法
  6
CONTINUOUS
 62
     0
 10
116.323115
 20
51.17644
  1
ﾟ
 40
3.0
 50
297.37
 41
0.5625
  0
ENDBLK
  0
BLOCK
  2
*DIM_0028
 70
    65
 10
0.0
 20
0.0
  0
ARC
  8
寸法
  6
BYBLOCK
 62
     0
 10
93.388328
 20
-7.201797
 40
16.311538
 50
0.0
 51
54.735506
  0
POINT
  8
寸法
 62
     0
 10
102.805823
 20
6.1165
  0
POINT
  8
寸法
 62
     0
 10
109.699865
 20
-7.201797
  0
TEXT
  7
TextStyle03
  8
寸法
  6
CONTINUOUS
 62
     0
 10
105.145707
 20
6.372225
  1
54.7355
 40
3.0
 50
297.37
 72
     5
 11
110.490125
 21
-3.951429
  0
TEXT
  7
TextStyle03
  8
寸法
  6
CONTINUOUS
 62
     0
 10
110.573115
 20
-4.12356
  1
ﾟ
 40
3.0
 50
297.37
 41
0.5625
  0
ENDBLK
  0
BLOCK
  2
*DIM_0029
 70
    65
 10
0.0
 20
0.0
  0
ARC
  8
寸法
  6
BYBLOCK
 62
     0
 10
138.994558
 20
-7.201797
 40
16.311538
 50
125.264494
 51
180.0
  0
POINT
  8
寸法
 62
     0
 10
129.577062
 20
6.1165
  0
POINT
  8
寸法
 62
     0
 10
122.68302
 20
-7.201797
  0
TEXT
  7
TextStyle03
  8
寸法
  6
CONTINUOUS
 62
     0
 10
121.109875
 20
-5.451429
  1
54.7355
 40
3.0
 50
62.63
 72
     5
 11
126.454293
 21
4.872225
  0
TEXT
  7
TextStyle03
  8
寸法
  6
CONTINUOUS
 62
     0
 10
126.537283
 20
5.019356
  1
ﾟ
 40
3.0
 50
62.63
 41
0.5625
  0
ENDBLK
  0
BLOCK
  2
*DIM_0030
 70
    65
 10
0.0
 20
0.0
  0
LINE
  8
寸法
  6
BYBLOCK
 62
     0
 10
90.388328
 20
-7.201797
 11
86.271985
 21
-7.201797
  0
LINE
  8
寸法
  6
BYBLOCK
 62
     0
 10
113.191443
 20
25.046548
 11
86.271985
 21
25.046548
  0
LINE
  8
寸法
  6
BYBLOCK
 62
     0
 10
86.271985
 20
-7.201797
 11
86.271985
 21
25.046548
  0
POINT
  8
寸法
 62
     0
 10
86.271985
 20
-7.201797
  0
POINT
  8
寸法
 62
     0
 10
86.271985
 20
25.046548
  0
TEXT
  7
TextStyle03
  8
寸法
  6
CONTINUOUS
 62
     0
 10
85.875
 20
4.775
  1
967.5
 40
3.0
 50
90.0
 72
     5
 11
85.875
 21
13.025
  0
ENDBLK
  0
BLOCK
  2
*GRP_0031
 70
    65
 10
0.0
 20
0.0
  0
LINE
  8
補助線
  6
DOT
 62
    64
 10
107.543407
 20
-72.523752
 11
107.659202
 21
-72.643623
  0
LINE
  8
補助線
  6
DOT
 62
    64
 10
107.66124
 20
-72.525792
 11
107.54137
 21
-72.641585
  0
LINE
  8
補助線
  6
DOT
 62
    64
 10
99.947077
 20
-64.660322
 11
99.83128
 21
-64.540452
  0
LINE
  8
補助線
  6
DOT
 62
    64
 10
99.949113
 20
-64.542487
 11
99.829242
 21
-64.658288
  0
LINE
  8
補助線
  6
DOT
 62
    64
 10
92.23491
 20
-56.677057
 11
92.119112
 21
-56.557193
  0
LINE
  8
補助線
  6
DOT
 62
    64
 10
92.236945
 20
-56.559227
 11
92.117078
 21
-56.675025
  0
LINE
  8
型材断面
  6
DOT
 10
108.432248
 20
-72.244438
 11
108.420032
 21
-72.951437
  0
LINE
  8
型材断面
  6
DOT
 10
108.420032
 20
-72.951437
 11
107.940555
 21
-73.414632
  0
LINE
  8
型材断面
  6
DOT
 10
107.940555
 20
-73.414632
 11
107.233555
 21
-73.402415
  0
LINE
  8
型材断面
  6
DOT
 10
92.544758
 20
-55.798395
 11
91.837758
 21
-55.786185
  0
LINE
  8
型材断面
  6
DOT
 10
91.837758
 20
-55.786185
 11
91.35828
 21
-56.249377
  0
LINE
  8
型材断面
  6
DOT
 10
91.35828
 20
-56.249377
 11
91.34607
 21
-56.956377
  0
LINE
  8
型材断面
  6
DOT
 10
108.432248
 20
-72.244438
 11
92.544838
 21
-55.798398
  0
LINE
  8
型材断面
  6
DOT
 10
107.233555
 20
-73.402415
 11
91.346073
 21
-56.956305
  0
LINE
  8
ボルト／ビス
  6
DOT
 62
    64
 10
107.822765
 20
-72.369747
 11
107.897313
 21
-72.66851
  0
LINE
  8
ボルト／ビス
  6
DOT
 62
    64
 10
107.822765
 20
-72.369747
 11
107.52676
 21
-72.28493
  0
LINE
  8
ボルト／ビス
  6
DOT
 62
    64
 10
107.379845
 20
-72.797628
 11
107.67585
 21
-72.882448
  0
LINE
  8
ボルト／ビス
  6
DOT
 62
    64
 10
107.379845
 20
-72.797628
 11
107.305298
 21
-72.498867
  0
CIRCLE
  8
ボルト／ビス
  6
DOT
 62
    64
 10
107.601305
 20
-72.583687
 40
0.266668
  0
LINE
  8
ボルト／ビス
  6
DOT
 62
    64
 10
107.52676
 20
-72.28493
 11
107.305298
 21
-72.498867
  0
LINE
  8
ボルト／ビス
  6
DOT
 62
    64
 10
107.897313
 20
-72.66851
 11
107.67585
 21
-72.882448
  0
LINE
  8
ボルト／ビス
  6
DOT
 62
    64
 10
100.11064
 20
-64.38645
 11
99.814632
 21
-64.301627
  0
LINE
  8
ボルト／ビス
  6
DOT
 62
    64
 10
100.11064
 20
-64.38645
 11
100.185188
 21
-64.685207
  0
LINE
  8
ボルト／ビス
  6
DOT
 62
    64
 10
99.667718
 20
-64.814325
 11
99.593173
 21
-64.515565
  0
LINE
  8
ボルト／ビス
  6
DOT
 62
    64
 10
99.667718
 20
-64.814325
 11
99.963723
 21
-64.899147
  0
CIRCLE
  8
ボルト／ビス
  6
DOT
 62
    64
 10
99.889178
 20
-64.600388
 40
0.266668
  0
LINE
  8
ボルト／ビス
  6
DOT
 62
    64
 10
100.185188
 20
-64.685207
 11
99.963723
 21
-64.899147
  0
LINE
  8
ボルト／ビス
  6
DOT
 62
    64
 10
99.814632
 20
-64.301627
 11
99.593173
 21
-64.515565
  0
LINE
  8
ボルト／ビス
  6
DOT
 62
    64
 10
92.398473
 20
-56.403185
 11
92.102463
 21
-56.318365
  0
LINE
  8
ボルト／ビス
  6
DOT
 62
    64
 10
92.398473
 20
-56.403185
 11
92.473018
 21
-56.701945
  0
LINE
  8
ボルト／ビス
  6
DOT
 62
    64
 10
91.95555
 20
-56.831065
 11
91.881005
 21
-56.532302
  0
LINE
  8
ボルト／ビス
  6
DOT
 62
    64
 10
91.95555
 20
-56.831065
 11
92.25156
 21
-56.915885
  0
CIRCLE
  8
ボルト／ビス
  6
DOT
 62
    64
 10
92.177012
 20
-56.617125
 40
0.266668
  0
LINE
  8
ボルト／ビス
  6
DOT
 62
    64
 10
92.473018
 20
-56.701945
 11
92.25156
 21
-56.915885
  0
LINE
  8
ボルト／ビス
  6
DOT
 62
    64
 10
92.102463
 20
-56.318365
 11
91.881005
 21
-56.532302
  0
ENDBLK
  0
BLOCK
  2
*GRP_0032
 70
    65
 10
0.0
 20
0.0
  0
LINE
  8
補助線
  6
DOT
 62
    64
 10
92.234948
 20
-72.523752
 11
92.119155
 21
-72.643623
  0
LINE
  8
補助線
  6
DOT
 62
    64
 10
92.117117
 20
-72.525792
 11
92.236988
 21
-72.641585
  0
LINE
  8
補助線
  6
DOT
 62
    64
 10
99.831278
 20
-64.660322
 11
99.947077
 21
-64.540452
  0
LINE
  8
補助線
  6
DOT
 62
    64
 10
99.829245
 20
-64.542487
 11
99.949113
 21
-64.658288
  0
LINE
  8
補助線
  6
DOT
 62
    64
 10
107.543448
 20
-56.677057
 11
107.659245
 21
-56.557193
  0
LINE
  8
補助線
  6
DOT
 62
    64
 10
107.541412
 20
-56.559227
 11
107.66128
 21
-56.675025
  0
LINE
  8
型材断面
  6
DOT
 10
91.346107
 20
-72.244438
 11
91.358325
 21
-72.951437
  0
LINE
  8
型材断面
  6
DOT
 10
91.358325
 20
-72.951437
 11
91.837802
 21
-73.414632
  0
LINE
  8
型材断面
  6
DOT
 10
91.837802
 20
-73.414632
 11
92.544802
 21
-73.402415
  0
LINE
  8
型材断面
  6
DOT
 10
107.233598
 20
-55.798395
 11
107.940597
 21
-55.786185
  0
LINE
  8
型材断面
  6
DOT
 10
107.940597
 20
-55.786185
 11
108.420077
 21
-56.249377
  0
LINE
  8
型材断面
  6
DOT
 10
108.420077
 20
-56.249377
 11
108.432287
 21
-56.956377
  0
LINE
  8
型材断面
  6
DOT
 10
91.346107
 20
-72.244438
 11
107.233518
 21
-55.798398
  0
LINE
  8
型材断面
  6
DOT
 10
92.544802
 20
-73.402415
 11
108.432285
 21
-56.956305
  0
LINE
  8
ボルト／ビス
  6
DOT
 62
    64
 10
91.955593
 20
-72.369747
 11
91.881045
 21
-72.66851
  0
LINE
  8
ボルト／ビス
  6
DOT
 62
    64
 10
91.955593
 20
-72.369747
 11
92.251598
 21
-72.28493
  0
LINE
  8
ボルト／ビス
  6
DOT
 62
    64
 10
92.398512
 20
-72.797628
 11
92.102507
 21
-72.882448
  0
LINE
  8
ボルト／ビス
  6
DOT
 62
    64
 10
92.398512
 20
-72.797628
 11
92.473057
 21
-72.498867
  0
CIRCLE
  8
ボルト／ビス
  6
DOT
 62
    64
 10
92.177052
 20
-72.583687
 40
0.266668
  0
LINE
  8
ボルト／ビス
  6
DOT
 62
    64
 10
92.251598
 20
-72.28493
 11
92.473057
 21
-72.498867
  0
LINE
  8
ボルト／ビス
  6
DOT
 62
    64
 10
91.881045
 20
-72.66851
 11
92.102507
 21
-72.882448
  0
LINE
  8
ボルト／ビス
  6
DOT
 62
    64
 10
99.667718
 20
-64.38645
 11
99.963725
 21
-64.301627
  0
LINE
  8
ボルト／ビス
  6
DOT
 62
    64
 10
99.667718
 20
-64.38645
 11
99.59317
 21
-64.685207
  0
LINE
  8
ボルト／ビス
  6
DOT
 62
    64
 10
100.11064
 20
-64.814325
 11
100.185185
 21
-64.515565
  0
LINE
  8
ボルト／ビス
  6
DOT
 62
    64
 10
100.11064
 20
-64.814325
 11
99.814632
 21
-64.899147
  0
CIRCLE
  8
ボルト／ビス
  6
DOT
 62
    64
 10
99.88918
 20
-64.600388
 40
0.266668
  0
LINE
  8
ボルト／ビス
  6
DOT
 62
    64
 10
99.59317
 20
-64.685207
 11
99.814632
 21
-64.899147
  0
LINE
  8
ボルト／ビス
  6
DOT
 62
    64
 10
99.963725
 20
-64.301627
 11
100.185185
 21
-64.515565
  0
LINE
  8
ボルト／ビス
  6
DOT
 62
    64
 10
107.379885
 20
-56.403185
 11
107.675893
 21
-56.318365
  0
LINE
  8
ボルト／ビス
  6
DOT
 62
    64
 10
107.379885
 20
-56.403185
 11
107.30534
 21
-56.701945
  0
LINE
  8
ボルト／ビス
  6
DOT
 62
    64
 10
107.822808
 20
-56.831065
 11
107.897352
 21
-56.532302
  0
LINE
  8
ボルト／ビス
  6
DOT
 62
    64
 10
107.822808
 20
-56.831065
 11
107.526798
 21
-56.915885
  0
CIRCLE
  8
ボルト／ビス
  6
DOT
 62
    64
 10
107.601345
 20
-56.617125
 40
0.266668
  0
LINE
  8
ボルト／ビス
  6
DOT
 62
    64
 10
107.30534
 20
-56.701945
 11
107.526798
 21
-56.915885
  0
LINE
  8
ボルト／ビス
  6
DOT
 62
    64
 10
107.675893
 20
-56.318365
 11
107.897352
 21
-56.532302
  0
ENDBLK
  0
BLOCK
  2
*GRP_0033
 70
    65
 10
0.0
 20
0.0
  0
LINE
  8
補助線
  6
DOT
 62
    64
 10
30.872617
 20
-72.523752
 11
30.756823
 21
-72.643623
  0
LINE
  8
補助線
  6
DOT
 62
    64
 10
30.754785
 20
-72.525792
 11
30.874655
 21
-72.641585
  0
LINE
  8
補助線
  6
DOT
 62
    64
 10
38.468947
 20
-64.660322
 11
38.584745
 21
-64.540452
  0
LINE
  8
補助線
  6
DOT
 62
    64
 10
38.466913
 20
-64.542487
 11
38.586782
 21
-64.658288
  0
LINE
  8
補助線
  6
DOT
 62
    64
 10
46.181115
 20
-56.677057
 11
46.296912
 21
-56.557193
  0
LINE
  8
補助線
  6
DOT
 62
    64
 10
46.17908
 20
-56.559227
 11
46.298948
 21
-56.675025
  0
LINE
  8
型材断面
  6
DOT
 10
29.983777
 20
-72.244438
 11
29.995992
 21
-72.951437
  0
LINE
  8
型材断面
  6
DOT
 10
29.995992
 20
-72.951437
 11
30.47547
 21
-73.414632
  0
LINE
  8
型材断面
  6
DOT
 10
30.47547
 20
-73.414632
 11
31.18247
 21
-73.402415
  0
LINE
  8
型材断面
  6
DOT
 10
45.871268
 20
-55.798395
 11
46.578268
 21
-55.786185
  0
LINE
  8
型材断面
  6
DOT
 10
46.578268
 20
-55.786185
 11
47.057745
 21
-56.249377
  0
LINE
  8
型材断面
  6
DOT
 10
47.057745
 20
-56.249377
 11
47.069955
 21
-56.956377
  0
LINE
  8
型材断面
  6
DOT
 10
29.983777
 20
-72.244438
 11
45.871188
 21
-55.798398
  0
LINE
  8
型材断面
  6
DOT
 10
31.18247
 20
-73.402415
 11
47.069952
 21
-56.956305
  0
LINE
  8
ボルト／ビス
  6
DOT
 62
    64
 10
30.59326
 20
-72.369747
 11
30.518713
 21
-72.66851
  0
LINE
  8
ボルト／ビス
  6
DOT
 62
    64
 10
30.59326
 20
-72.369747
 11
30.889265
 21
-72.28493
  0
LINE
  8
ボルト／ビス
  6
DOT
 62
    64
 10
31.03618
 20
-72.797628
 11
30.740175
 21
-72.882448
  0
LINE
  8
ボルト／ビス
  6
DOT
 62
    64
 10
31.03618
 20
-72.797628
 11
31.110728
 21
-72.498867
  0
CIRCLE
  8
ボルト／ビス
  6
DOT
 62
    64
 10
30.81472
 20
-72.583687
 40
0.266668
  0
LINE
  8
ボルト／ビス
  6
DOT
 62
    64
 10
30.889265
 20
-72.28493
 11
31.110728
 21
-72.498867
  0
LINE
  8
ボルト／ビス
  6
DOT
 62
    64
 10
30.518713
 20
-72.66851
 11
30.740175
 21
-72.882448
  0
LINE
  8
ボルト／ビス
  6
DOT
 62
    64
 10
38.305385
 20
-64.38645
 11
38.601392
 21
-64.301627
  0
LINE
  8
ボルト／ビス
  6
DOT
 62
    64
 10
38.305385
 20
-64.38645
 11
38.230838
 21
-64.685207
  0
LINE
  8
ボルト／ビス
  6
DOT
 62
    64
 10
38.748308
 20
-64.814325
 11
38.822853
 21
-64.515565
  0
LINE
  8
ボルト／ビス
  6
DOT
 62
    64
 10
38.748308
 20
-64.814325
 11
38.452303
 21
-64.899147
  0
CIRCLE
  8
ボルト／ビス
  6
DOT
 62
    64
 10
38.526848
 20
-64.600388
 40
0.266668
  0
LINE
  8
ボルト／ビス
  6
DOT
 62
    64
 10
38.230838
 20
-64.685207
 11
38.452303
 21
-64.899147
  0
LINE
  8
ボルト／ビス
  6
DOT
 62
    64
 10
38.601392
 20
-64.301627
 11
38.822853
 21
-64.515565
  0
LINE
  8
ボルト／ビス
  6
DOT
 62
    64
 10
46.017553
 20
-56.403185
 11
46.313563
 21
-56.318365
  0
LINE
  8
ボルト／ビス
  6
DOT
 62
    64
 10
46.017553
 20
-56.403185
 11
45.943008
 21
-56.701945
  0
LINE
  8
ボルト／ビス
  6
DOT
 62
    64
 10
46.460475
 20
-56.831065
 11
46.53502
 21
-56.532302
  0
LINE
  8
ボルト／ビス
  6
DOT
 62
    64
 10
46.460475
 20
-56.831065
 11
46.164465
 21
-56.915885
  0
CIRCLE
  8
ボルト／ビス
  6
DOT
 62
    64
 10
46.239012
 20
-56.617125
 40
0.266668
  0
LINE
  8
ボルト／ビス
  6
DOT
 62
    64
 10
45.943008
 20
-56.701945
 11
46.164465
 21
-56.915885
  0
LINE
  8
ボルト／ビス
  6
DOT
 62
    64
 10
46.313563
 20
-56.318365
 11
46.53502
 21
-56.532302
  0
ENDBLK
  0
BLOCK
  2
*GRP_0034
 70
    65
 10
0.0
 20
0.0
  0
LINE
  8
補助線
  6
DOT
 62
    64
 10
46.181077
 20
-72.523752
 11
46.29687
 21
-72.643623
  0
LINE
  8
補助線
  6
DOT
 62
    64
 10
46.298907
 20
-72.525792
 11
46.179038
 21
-72.641585
  0
LINE
  8
補助線
  6
DOT
 62
    64
 10
38.584748
 20
-64.660322
 11
38.468947
 21
-64.540452
  0
LINE
  8
補助線
  6
DOT
 62
    64
 10
38.58678
 20
-64.542487
 11
38.466913
 21
-64.658288
  0
LINE
  8
補助線
  6
DOT
 62
    64
 10
30.872578
 20
-56.677057
 11
30.75678
 21
-56.557193
  0
LINE
  8
補助線
  6
DOT
 62
    64
 10
30.874612
 20
-56.559227
 11
30.754745
 21
-56.675025
  0
LINE
  8
型材断面
  6
DOT
 10
47.069917
 20
-72.244438
 11
47.0577
 21
-72.951437
  0
LINE
  8
型材断面
  6
DOT
 10
47.0577
 20
-72.951437
 11
46.578223
 21
-73.414632
  0
LINE
  8
型材断面
  6
DOT
 10
46.578223
 20
-73.414632
 11
45.871222
 21
-73.402415
  0
LINE
  8
型材断面
  6
DOT
 10
31.182428
 20
-55.798395
 11
30.475427
 21
-55.786185
  0
LINE
  8
型材断面
  6
DOT
 10
30.475427
 20
-55.786185
 11
29.995947
 21
-56.249377
  0
LINE
  8
型材断面
  6
DOT
 10
29.995947
 20
-56.249377
 11
29.983737
 21
-56.956377
  0
LINE
  8
型材断面
  6
DOT
 10
47.069917
 20
-72.244438
 11
31.182508
 21
-55.798398
  0
LINE
  8
型材断面
  6
DOT
 10
45.871222
 20
-73.402415
 11
29.98374
 21
-56.956305
  0
LINE
  8
ボルト／ビス
  6
DOT
 62
    64
 10
46.460433
 20
-72.369747
 11
46.53498
 21
-72.66851
  0
LINE
  8
ボルト／ビス
  6
DOT
 62
    64
 10
46.460433
 20
-72.369747
 11
46.164428
 21
-72.28493
  0
LINE
  8
ボルト／ビス
  6
DOT
 62
    64
 10
46.017512
 20
-72.797628
 11
46.313517
 21
-72.882448
  0
LINE
  8
ボルト／ビス
  6
DOT
 62
    64
 10
46.017512
 20
-72.797628
 11
45.942967
 21
-72.498867
  0
CIRCLE
  8
ボルト／ビス
  6
DOT
 62
    64
 10
46.238973
 20
-72.583687
 40
0.266668
  0
LINE
  8
ボルト／ビス
  6
DOT
 62
    64
 10
46.164428
 20
-72.28493
 11
45.942967
 21
-72.498867
  0
LINE
  8
ボルト／ビス
  6
DOT
 62
    64
 10
46.53498
 20
-72.66851
 11
46.313517
 21
-72.882448
  0
LINE
  8
ボルト／ビス
  6
DOT
 62
    64
 10
38.748308
 20
-64.38645
 11
38.4523
 21
-64.301627
  0
LINE
  8
ボルト／ビス
  6
DOT
 62
    64
 10
38.748308
 20
-64.38645
 11
38.822855
 21
-64.685207
  0
LINE
  8
ボルト／ビス
  6
DOT
 62
    64
 10
38.305385
 20
-64.814325
 11
38.23084
 21
-64.515565
  0
LINE
  8
ボルト／ビス
  6
DOT
 62
    64
 10
38.305385
 20
-64.814325
 11
38.601392
 21
-64.899147
  0
CIRCLE
  8
ボルト／ビス
  6
DOT
 62
    64
 10
38.526845
 20
-64.600388
 40
0.266668
  0
LINE
  8
ボルト／ビス
  6
DOT
 62
    64
 10
38.822855
 20
-64.685207
 11
38.601392
 21
-64.899147
  0
LINE
  8
ボルト／ビス
  6
DOT
 62
    64
 10
38.4523
 20
-64.301627
 11
38.23084
 21
-64.515565
  0
LINE
  8
ボルト／ビス
  6
DOT
 62
    64
 10
31.03614
 20
-56.403185
 11
30.740133
 21
-56.318365
  0
LINE
  8
ボルト／ビス
  6
DOT
 62
    64
 10
31.03614
 20
-56.403185
 11
31.110685
 21
-56.701945
  0
LINE
  8
ボルト／ビス
  6
DOT
 62
    64
 10
30.593217
 20
-56.831065
 11
30.518672
 21
-56.532302
  0
LINE
  8
ボルト／ビス
  6
DOT
 62
    64
 10
30.593217
 20
-56.831065
 11
30.889228
 21
-56.915885
  0
CIRCLE
  8
ボルト／ビス
  6
DOT
 62
    64
 10
30.81468
 20
-56.617125
 40
0.266668
  0
LINE
  8
ボルト／ビス
  6
DOT
 62
    64
 10
31.110685
 20
-56.701945
 11
30.889228
 21
-56.915885
  0
LINE
  8
ボルト／ビス
  6
DOT
 62
    64
 10
30.740133
 20
-56.318365
 11
30.518672
 21
-56.532302
  0
ENDBLK
  0
BLOCK
  2
*GRP_0035
 70
    65
 10
0.0
 20
0.0
  0
POLYLINE
  8
寸法
  6
BYBLOCK
 62
     0
 66
     1
  0
VERTEX
  8
寸法
 10
-36.257132
 20
56.628457
  0
VERTEX
  8
寸法
 10
-35.041348
 20
57.844245
  0
VERTEX
  8
寸法
 10
-23.62881
 20
57.844245
  0
SEQEND
  0
ENDBLK
  0
BLOCK
  2
*DIM_0036
 70
    65
 10
0.0
 20
0.0
  0
LINE
  8
寸法
  6
BYBLOCK
 62
     0
 10
-24.140327
 20
65.080885
 11
-17.319538
 21
65.080885
  0
LINE
  8
寸法
  6
BYBLOCK
 62
     0
 10
-17.319538
 20
68.780885
 11
-17.319538
 21
65.080885
  0
POINT
  8
寸法
 62
     0
 10
-17.319538
 20
68.780885
  0
POINT
  8
寸法
 62
     0
 10
-17.319538
 20
65.080885
  0
TEXT
  7
TextStyle03
  8
寸法
  6
CONTINUOUS
 62
     0
 10
-17.725
 20
69.7375
  1
111
 40
3.0
 50
90.0
 72
     5
 11
-17.725
 21
74.6125
  0
ENDBLK
  0
BLOCK
  2
*DIM_0037
 70
    65
 10
0.0
 20
0.0
  0
LINE
  8
寸法
  6
BYBLOCK
 62
     0
 10
-24.140327
 20
29.14755
 11
-17.319538
 21
29.14755
  0
LINE
  8
寸法
  6
BYBLOCK
 62
     0
 10
-17.319538
 20
25.44755
 11
-17.319538
 21
29.14755
  0
POINT
  8
寸法
 62
     0
 10
-17.319538
 20
25.44755
  0
POINT
  8
寸法
 62
     0
 10
-17.319538
 20
29.14755
  0
TEXT
  7
TextStyle03
  8
寸法
  6
CONTINUOUS
 62
     0
 10
-17.725
 20
19.6125
  1
111
 40
3.0
 50
90.0
 72
     5
 11
-17.725
 21
24.4875
  0
ENDBLK
  0
BLOCK
  2
*DIM_0038
 70
    65
 10
0.0
 20
0.0
  0
LINE
  8
寸法
  6
BYBLOCK
 62
     0
 10
115.841345
 20
-57.393127
 11
127.802902
 21
-57.393127
  0
LINE
  8
寸法
  6
BYBLOCK
 62
     0
 10
115.841345
 20
-70.72646
 11
127.802902
 21
-70.72646
  0
LINE
  8
寸法
  6
BYBLOCK
 62
     0
 10
127.802902
 20
-57.393127
 11
127.802902
 21
-70.72646
  0
POINT
  8
寸法
 62
     0
 10
127.802902
 20
-57.393127
  0
POINT
  8
寸法
 62
     0
 10
127.802902
 20
-70.72646
  0
TEXT
  7
TextStyle03
  8
寸法
  6
CONTINUOUS
 62
     0
 10
132.525
 20
-74.80625
  1
上昇　356以上
 40
3.0
 50
90.0
 72
     5
 11
132.525
 21
-53.24375
  0
ENDBLK
  0
BLOCK
  2
*DIM_0039
 70
    65
 10
0.0
 20
0.0
  0
LINE
  8
寸法
  6
CONTINUOUS
 10
-23.28957
 20
-68.593127
 11
-4.911362
 21
-68.593127
  0
LINE
  8
寸法
  6
CONTINUOUS
 10
-24.726387
 20
-75.12646
 11
-4.911362
 21
-75.12646
  0
LINE
  8
寸法
  6
CONTINUOUS
 10
-4.911362
 20
-68.593127
 11
-4.911362
 21
-75.12646
  0
POINT
  8
寸法
 10
-4.911362
 20
-68.593127
  0
POINT
  8
寸法
 10
-4.911362
 20
-75.12646
  0
TEXT
  7
TextStyle03
  8
寸法
  6
CONTINUOUS
 10
-1.925
 20
-74.3125
  1
196
 40
3.0
 50
90.0
 72
     5
 11
-1.925
 21
-69.4375
  0
ENDBLK
  0
BLOCK
  2
*DIM_0040
 70
    65
 10
0.0
 20
0.0
  0
LINE
  8
寸法
  6
CONTINUOUS
 10
55.867913
 20
16.24755
 11
55.867913
 21
3.095455
  0
LINE
  8
寸法
  6
CONTINUOUS
 10
62.401245
 20
17.684368
 11
62.401245
 21
3.095455
  0
LINE
  8
寸法
  6
CONTINUOUS
 10
55.867913
 20
3.095455
 11
62.401245
 21
3.095455
  0
POINT
  8
寸法
 10
55.867913
 20
3.095455
  0
POINT
  8
寸法
 10
62.401245
 20
3.095455
  0
TEXT
  7
TextStyle03
  8
寸法
  6
CONTINUOUS
 10
56.6875
 20
0.075
  1
196
 40
3.0
 72
     5
 11
61.5625
 21
0.075
  0
ENDBLK
  0
ENDSEC
  0
SECTION
  2
ENTITIES
  0
POLYLINE
  8
通り芯
  6
CONTINUOUS
 66
     1
 70
     1
  0
VERTEX
  8
通り芯
 10
-210.0
 20
-148.5
  0
VERTEX
  8
通り芯
 10
210.0
 20
-148.5
  0
VERTEX
  8
通り芯
 10
210.0
 20
148.5
  0
VERTEX
  8
通り芯
 10
-210.0
 20
148.5
  0
SEQEND
  0
INSERT
  2
*GRP_0001
  8
型材断面
  6
CONTINUOUS
 10
0.0
 20
0.0
  0
LINE
  8
型材断面
  6
CONTINUOUS
 62
    47
 10
55.867913
 20
21.24755
 11
58.001245
 21
21.24755
  0
LINE
  8
型材断面
  6
CONTINUOUS
 10
55.867913
 20
21.24755
 11
55.809048
 21
21.188685
  0
LINE
  8
型材断面
  6
CONTINUOUS
 62
    47
 10
58.001245
 20
21.814218
 11
58.517913
 21
21.814218
  0
LINE
  8
型材断面
  6
CONTINUOUS
 62
    47
 10
-116.68957
 20
-68.593127
 11
-116.68957
 21
-70.72646
  0
LINE
  8
型材断面
  6
CONTINUOUS
 10
-116.68957
 20
-68.593127
 11
-116.748435
 21
-68.534263
  0
LINE
  8
型材断面
  6
CONTINUOUS
 62
    47
 10
-116.122902
 20
-70.72646
 11
-116.122902
 21
-71.243127
  0
LINE
  8
型材断面
  6
CONTINUOUS
 10
-116.68957
 20
-68.593127
 11
-72.48957
 21
-68.593127
  0
LINE
  8
型材断面
  6
CONTINUOUS
 62
    47
 10
-116.122902
 20
-71.243127
 11
-72.48957
 21
-71.243127
  0
LINE
  8
型材断面
  6
CONTINUOUS
 62
    47
 10
-116.68957
 20
-70.72646
 11
-72.48957
 21
-70.72646
  0
LINE
  8
型材断面
  6
CONTINUOUS
 10
-116.689563
 20
21.24755
 11
-72.48957
 21
21.24755
  0
LINE
  8
型材断面
  6
CONTINUOUS
 10
-108.202852
 20
27.14755
 11
-73.73957
 21
27.14755
  0
LINE
  8
型材断面
  6
CONTINUOUS
 10
-107.986185
 20
27.364218
 11
-73.73957
 21
27.364218
  0
LINE
  8
型材断面
  6
CONTINUOUS
 10
-110.895435
 20
24.45497
 11
-73.73957
 21
24.45497
  0
LINE
  8
型材断面
  6
CONTINUOUS
 10
-110.848295
 20
24.50211
 11
-73.73957
 21
24.50211
  0
LINE
  8
型材断面
  6
CONTINUOUS
 10
-110.742847
 20
24.607555
 11
-73.73957
 21
24.607555
  0
LINE
  8
型材断面
  6
CONTINUOUS
 10
-110.592847
 20
24.757555
 11
-73.73957
 21
24.757555
  0
LINE
  8
型材断面
  6
CONTINUOUS
 10
55.809048
 20
21.188685
 11
29.883515
 21
47.114218
  0
LINE
  8
型材断面
  6
CONTINUOUS
 10
31.39953
 20
45.574607
 11
31.39953
 21
46.511728
  0
LINE
  8
型材断面
  6
CONTINUOUS
 10
30.797042
 20
47.114218
 11
31.39953
 21
46.511728
  0
LINE
  8
型材断面
  6
CONTINUOUS
 10
31.39953
 20
45.574607
 11
29.859922
 21
47.114218
  0
LINE
  8
型材断面
  6
CONTINUOUS
 10
31.39953
 20
48.653828
 11
31.39953
 21
47.716707
  0
LINE
  8
型材断面
  6
CONTINUOUS
 10
30.797042
 20
47.114218
 11
31.39953
 21
47.716707
  0
LINE
  8
型材断面
  6
CONTINUOUS
 10
31.39953
 20
48.653828
 11
29.859922
 21
47.114218
  0
LINE
  8
型材断面
  6
CONTINUOUS
 10
55.867913
 20
21.973508
 11
31.39953
 21
46.441887
  0
LINE
  8
型材断面
  6
CONTINUOUS
 10
55.867913
 20
21.24755
 11
55.867913
 21
47.114218
  0
LINE
  8
型材断面
  6
CONTINUOUS
 62
    47
 10
58.517913
 20
21.814218
 11
58.517913
 21
47.114218
  0
LINE
  8
型材断面
  6
CONTINUOUS
 62
    47
 10
58.001245
 20
21.24755
 11
58.001245
 21
47.114218
  0
LINE
  8
型材断面
  6
CONTINUOUS
 62
    47
 10
55.867913
 20
72.980885
 11
58.001245
 21
72.980885
  0
LINE
  8
型材断面
  6
CONTINUOUS
 10
55.867913
 20
72.980885
 11
55.809048
 21
73.03975
  0
LINE
  8
型材断面
  6
CONTINUOUS
 62
    47
 10
58.001245
 20
72.414218
 11
58.517913
 21
72.414218
  0
LINE
  8
型材断面
  6
CONTINUOUS
 10
55.809048
 20
73.03975
 11
29.883515
 21
47.114218
  0
LINE
  8
型材断面
  6
CONTINUOUS
 10
55.867913
 20
72.254927
 11
31.39953
 21
47.786548
  0
LINE
  8
型材断面
  6
CONTINUOUS
 10
55.867913
 20
72.980885
 11
55.867913
 21
47.114218
  0
LINE
  8
型材断面
  6
CONTINUOUS
 62
    47
 10
58.517913
 20
72.414218
 11
58.517913
 21
47.114218
  0
LINE
  8
型材断面
  6
CONTINUOUS
 62
    47
 10
58.001245
 20
72.980885
 11
58.001245
 21
47.114218
  0
LINE
  8
型材断面
  6
CONTINUOUS
 10
-116.689563
 20
21.24755
 11
-116.689563
 21
47.114218
  0
LINE
  8
型材断面
  6
CONTINUOUS
 10
-113.435005
 20
27.088818
 11
-113.435005
 21
47.114218
  0
LINE
  8
型材断面
  6
CONTINUOUS
 10
-113.482145
 20
27.04168
 11
-113.482145
 21
47.114218
  0
LINE
  8
型材断面
  6
CONTINUOUS
 10
-113.329558
 20
27.194265
 11
-113.329558
 21
47.114218
  0
LINE
  8
型材断面
  6
CONTINUOUS
 10
-113.179558
 20
27.344265
 11
-113.179558
 21
47.114218
  0
LINE
  8
型材断面
  6
CONTINUOUS
 10
-110.789563
 20
29.73426
 11
-110.789563
 21
47.114218
  0
LINE
  8
型材断面
  6
CONTINUOUS
 10
-110.572895
 20
29.950928
 11
-110.572895
 21
47.114218
  0
LINE
  8
型材断面
  6
CONTINUOUS
 10
-116.689563
 20
21.24755
 11
-90.822895
 21
47.114218
  0
LINE
  8
型材断面
  6
CONTINUOUS
 10
-92.362503
 20
45.57461
 11
-92.362503
 21
46.51173
  0
LINE
  8
型材断面
  6
CONTINUOUS
 10
-92.362503
 20
45.57461
 11
-91.425382
 21
45.57461
  0
LINE
  8
型材断面
  6
CONTINUOUS
 10
-91.760015
 20
47.114218
 11
-92.362503
 21
46.51173
  0
LINE
  8
型材断面
  6
CONTINUOUS
 10
-92.362503
 20
45.57461
 11
-90.822895
 21
47.114218
  0
LINE
  8
型材断面
  6
CONTINUOUS
 10
-91.425382
 20
45.57461
 11
-91.080785
 21
45.919208
  0
LINE
  8
型材断面
  6
CONTINUOUS
 10
-91.080785
 20
45.919208
 11
-90.822895
 21
47.114218
  0
LINE
  8
型材断面
  6
CONTINUOUS
 10
-116.689563
 20
22.03851
 11
-92.362503
 21
46.365567
  0
LINE
  8
型材断面
  6
CONTINUOUS
 10
-115.898605
 20
21.24755
 11
-91.571545
 21
45.57461
  0
LINE
  8
型材断面
  6
CONTINUOUS
 10
-89.061965
 20
45.99917
 11
-72.48957
 21
45.99917
  0
LINE
  8
型材断面
  6
CONTINUOUS
 10
-116.689563
 20
72.980885
 11
-72.48957
 21
72.980885
  0
LINE
  8
型材断面
  6
CONTINUOUS
 10
-108.202852
 20
67.080885
 11
-73.73957
 21
67.080885
  0
LINE
  8
型材断面
  6
CONTINUOUS
 10
-107.986185
 20
66.864218
 11
-73.73957
 21
66.864218
  0
LINE
  8
型材断面
  6
CONTINUOUS
 10
-110.895435
 20
69.773465
 11
-73.73957
 21
69.773465
  0
LINE
  8
型材断面
  6
CONTINUOUS
 10
-110.848295
 20
69.726325
 11
-73.73957
 21
69.726325
  0
LINE
  8
型材断面
  6
CONTINUOUS
 10
-110.742847
 20
69.62088
 11
-73.73957
 21
69.62088
  0
LINE
  8
型材断面
  6
CONTINUOUS
 10
-110.592847
 20
69.47088
 11
-73.73957
 21
69.47088
  0
LINE
  8
型材断面
  6
CONTINUOUS
 10
-116.689563
 20
72.980885
 11
-116.689563
 21
47.114218
  0
LINE
  8
型材断面
  6
CONTINUOUS
 10
-113.435005
 20
67.139617
 11
-113.435005
 21
47.114218
  0
LINE
  8
型材断面
  6
CONTINUOUS
 10
-113.482145
 20
67.186755
 11
-113.482145
 21
47.114218
  0
LINE
  8
型材断面
  6
CONTINUOUS
 10
-113.329558
 20
67.03417
 11
-113.329558
 21
47.114218
  0
LINE
  8
型材断面
  6
CONTINUOUS
 10
-113.179558
 20
66.88417
 11
-113.179558
 21
47.114218
  0
LINE
  8
型材断面
  6
CONTINUOUS
 10
-110.789563
 20
64.494175
 11
-110.789563
 21
47.114218
  0
LINE
  8
型材断面
  6
CONTINUOUS
 10
-110.572895
 20
64.277507
 11
-110.572895
 21
47.114218
  0
LINE
  8
型材断面
  6
CONTINUOUS
 10
-116.689563
 20
72.980885
 11
-90.822895
 21
47.114218
  0
LINE
  8
型材断面
  6
CONTINUOUS
 10
-92.362503
 20
48.653825
 11
-92.362503
 21
47.716705
  0
LINE
  8
型材断面
  6
CONTINUOUS
 10
-92.362503
 20
48.653825
 11
-91.425382
 21
48.653825
  0
LINE
  8
型材断面
  6
CONTINUOUS
 10
-91.760015
 20
47.114218
 11
-92.362503
 21
47.716705
  0
LINE
  8
型材断面
  6
CONTINUOUS
 10
-92.362503
 20
48.653825
 11
-90.822895
 21
47.114218
  0
LINE
  8
型材断面
  6
CONTINUOUS
 10
-91.425382
 20
48.653825
 11
-91.080785
 21
48.309228
  0
LINE
  8
型材断面
  6
CONTINUOUS
 10
-91.080785
 20
48.309228
 11
-90.822895
 21
47.114218
  0
LINE
  8
型材断面
  6
CONTINUOUS
 10
-116.689563
 20
72.189925
 11
-92.362503
 21
47.862867
  0
LINE
  8
型材断面
  6
CONTINUOUS
 10
-115.898605
 20
72.980885
 11
-91.571545
 21
48.653825
  0
LINE
  8
型材断面
  6
CONTINUOUS
 10
-89.061965
 20
48.229265
 11
-72.48957
 21
48.229265
  0
LINE
  8
型材断面
  6
CONTINUOUS
 10
-28.289577
 20
21.24755
 11
-72.48957
 21
21.24755
  0
LINE
  8
型材断面
  6
CONTINUOUS
 10
-36.776288
 20
27.14755
 11
-71.23957
 21
27.14755
  0
LINE
  8
型材断面
  6
CONTINUOUS
 10
-36.992955
 20
27.364218
 11
-71.23957
 21
27.364218
  0
LINE
  8
型材断面
  6
CONTINUOUS
 10
-34.083705
 20
24.45497
 11
-71.23957
 21
24.45497
  0
LINE
  8
型材断面
  6
CONTINUOUS
 10
-34.130845
 20
24.50211
 11
-71.23957
 21
24.50211
  0
LINE
  8
型材断面
  6
CONTINUOUS
 10
-34.236293
 20
24.607555
 11
-71.23957
 21
24.607555
  0
LINE
  8
型材断面
  6
CONTINUOUS
 10
-34.386293
 20
24.757555
 11
-71.23957
 21
24.757555
  0
LINE
  8
型材断面
  6
CONTINUOUS
 10
-28.289577
 20
21.24755
 11
-28.289577
 21
47.114218
  0
LINE
  8
型材断面
  6
CONTINUOUS
 10
-31.544135
 20
27.088818
 11
-31.544135
 21
47.114218
  0
LINE
  8
型材断面
  6
CONTINUOUS
 10
-31.496995
 20
27.04168
 11
-31.496995
 21
47.114218
  0
LINE
  8
型材断面
  6
CONTINUOUS
 10
-31.649582
 20
27.194265
 11
-31.649582
 21
47.114218
  0
LINE
  8
型材断面
  6
CONTINUOUS
 10
-31.799582
 20
27.344265
 11
-31.799582
 21
47.114218
  0
LINE
  8
型材断面
  6
CONTINUOUS
 10
-34.189577
 20
29.73426
 11
-34.189577
 21
47.114218
  0
LINE
  8
型材断面
  6
CONTINUOUS
 10
-34.406245
 20
29.950928
 11
-34.406245
 21
47.114218
  0
LINE
  8
型材断面
  6
CONTINUOUS
 10
-28.289577
 20
21.24755
 11
-54.156245
 21
47.114218
  0
LINE
  8
型材断面
  6
CONTINUOUS
 10
-52.616637
 20
45.57461
 11
-52.616637
 21
46.51173
  0
LINE
  8
型材断面
  6
CONTINUOUS
 10
-52.616637
 20
45.57461
 11
-53.553758
 21
45.57461
  0
LINE
  8
型材断面
  6
CONTINUOUS
 10
-53.219125
 20
47.114218
 11
-52.616637
 21
46.51173
  0
LINE
  8
型材断面
  6
CONTINUOUS
 10
-52.616637
 20
45.57461
 11
-54.156245
 21
47.114218
  0
LINE
  8
型材断面
  6
CONTINUOUS
 10
-53.553758
 20
45.57461
 11
-53.898355
 21
45.919208
  0
LINE
  8
型材断面
  6
CONTINUOUS
 10
-53.898355
 20
45.919208
 11
-54.156245
 21
47.114218
  0
LINE
  8
型材断面
  6
CONTINUOUS
 10
-28.289577
 20
22.03851
 11
-52.616637
 21
46.365567
  0
LINE
  8
型材断面
  6
CONTINUOUS
 10
-29.080535
 20
21.24755
 11
-53.407595
 21
45.57461
  0
LINE
  8
型材断面
  6
CONTINUOUS
 10
-55.917175
 20
45.99917
 11
-72.48957
 21
45.99917
  0
LINE
  8
型材断面
  6
CONTINUOUS
 10
-28.289577
 20
72.980885
 11
-72.48957
 21
72.980885
  0
LINE
  8
型材断面
  6
CONTINUOUS
 10
-36.776288
 20
67.080885
 11
-71.23957
 21
67.080885
  0
LINE
  8
型材断面
  6
CONTINUOUS
 10
-36.992955
 20
66.864218
 11
-71.23957
 21
66.864218
  0
LINE
  8
型材断面
  6
CONTINUOUS
 10
-34.083705
 20
69.773465
 11
-71.23957
 21
69.773465
  0
LINE
  8
型材断面
  6
CONTINUOUS
 10
-34.130845
 20
69.726325
 11
-71.23957
 21
69.726325
  0
LINE
  8
型材断面
  6
CONTINUOUS
 10
-34.236293
 20
69.62088
 11
-71.23957
 21
69.62088
  0
LINE
  8
型材断面
  6
CONTINUOUS
 10
-34.386293
 20
69.47088
 11
-71.23957
 21
69.47088
  0
LINE
  8
型材断面
  6
CONTINUOUS
 10
-28.289577
 20
72.980885
 11
-28.289577
 21
47.114218
  0
LINE
  8
型材断面
  6
CONTINUOUS
 10
-31.544135
 20
67.139617
 11
-31.544135
 21
47.114218
  0
LINE
  8
型材断面
  6
CONTINUOUS
 10
-31.496995
 20
67.186755
 11
-31.496995
 21
47.114218
  0
LINE
  8
型材断面
  6
CONTINUOUS
 10
-31.649582
 20
67.03417
 11
-31.649582
 21
47.114218
  0
LINE
  8
型材断面
  6
CONTINUOUS
 10
-31.799582
 20
66.88417
 11
-31.799582
 21
47.114218
  0
LINE
  8
型材断面
  6
CONTINUOUS
 10
-34.189577
 20
64.494175
 11
-34.189577
 21
47.114218
  0
LINE
  8
型材断面
  6
CONTINUOUS
 10
-34.406245
 20
64.277507
 11
-34.406245
 21
47.114218
  0
LINE
  8
型材断面
  6
CONTINUOUS
 10
-28.289577
 20
72.980885
 11
-54.156245
 21
47.114218
  0
LINE
  8
型材断面
  6
CONTINUOUS
 10
-52.616637
 20
48.653825
 11
-52.616637
 21
47.716705
  0
LINE
  8
型材断面
  6
CONTINUOUS
 10
-52.616637
 20
48.653825
 11
-53.553758
 21
48.653825
  0
LINE
  8
型材断面
  6
CONTINUOUS
 10
-53.219125
 20
47.114218
 11
-52.616637
 21
47.716705
  0
LINE
  8
型材断面
  6
CONTINUOUS
 10
-52.616637
 20
48.653825
 11
-54.156245
 21
47.114218
  0
LINE
  8
型材断面
  6
CONTINUOUS
 10
-53.553758
 20
48.653825
 11
-53.898355
 21
48.309228
  0
LINE
  8
型材断面
  6
CONTINUOUS
 10
-53.898355
 20
48.309228
 11
-54.156245
 21
47.114218
  0
LINE
  8
型材断面
  6
CONTINUOUS
 10
-28.289577
 20
72.189925
 11
-52.616637
 21
47.862867
  0
LINE
  8
型材断面
  6
CONTINUOUS
 10
-29.080535
 20
72.980885
 11
-53.407595
 21
48.653825
  0
LINE
  8
型材断面
  6
CONTINUOUS
 10
-55.917175
 20
48.229265
 11
-72.48957
 21
48.229265
  0
LINE
  8
型材断面
  6
CONTINUOUS
 10
-115.963613
 20
-68.593127
 11
-91.495225
 21
-44.12474
  0
LINE
  8
型材断面
  6
CONTINUOUS
 10
-116.748435
 20
-68.534263
 11
-90.822895
 21
-42.608725
  0
LINE
  8
型材断面
  6
CONTINUOUS
 10
-89.062032
 20
-43.725195
 11
-72.48957
 21
-43.725195
  0
LINE
  8
型材断面
  6
CONTINUOUS
 10
-91.0885
 20
-43.787795
 11
-72.48957
 21
-43.787795
  0
LINE
  8
型材断面
  6
CONTINUOUS
 10
-90.822895
 20
-42.608725
 11
-72.48957
 21
-42.608725
  0
LINE
  8
型材断面
  6
CONTINUOUS
 62
    47
 10
-28.28957
 20
-68.593127
 11
-28.28957
 21
-70.72646
  0
LINE
  8
型材断面
  6
CONTINUOUS
 10
-28.28957
 20
-68.593127
 11
-28.230705
 21
-68.534263
  0
LINE
  8
型材断面
  6
CONTINUOUS
 62
    47
 10
-28.856238
 20
-70.72646
 11
-28.856238
 21
-71.243127
  0
LINE
  8
型材断面
  6
CONTINUOUS
 10
-28.28957
 20
-68.593127
 11
-72.48957
 21
-68.593127
  0
LINE
  8
型材断面
  6
CONTINUOUS
 62
    47
 10
-28.856238
 20
-71.243127
 11
-72.48957
 21
-71.243127
  0
LINE
  8
型材断面
  6
CONTINUOUS
 62
    47
 10
-28.28957
 20
-70.72646
 11
-72.48957
 21
-70.72646
  0
LINE
  8
型材断面
  6
CONTINUOUS
 10
-29.015528
 20
-68.593127
 11
-53.483915
 21
-44.12474
  0
LINE
  8
型材断面
  6
CONTINUOUS
 10
-28.230705
 20
-68.534263
 11
-54.156245
 21
-42.608725
  0
LINE
  8
型材断面
  6
CONTINUOUS
 10
-55.917108
 20
-43.725195
 11
-72.48957
 21
-43.725195
  0
LINE
  8
型材断面
  6
CONTINUOUS
 10
-53.89064
 20
-43.787795
 11
-72.48957
 21
-43.787795
  0
LINE
  8
型材断面
  6
CONTINUOUS
 10
-54.156245
 20
-42.608725
 11
-72.48957
 21
-42.608725
  0
LINE
  8
型材断面
  6
CONTINUOUS
 62
    47
 10
25.008013
 20
-68.593127
 11
25.008013
 21
-70.72646
  0
LINE
  8
型材断面
  6
CONTINUOUS
 10
25.008013
 20
-68.593127
 11
24.949148
 21
-68.534263
  0
LINE
  8
型材断面
  6
CONTINUOUS
 62
    47
 10
25.57468
 20
-70.72646
 11
25.57468
 21
-71.243127
  0
LINE
  8
型材断面
  6
CONTINUOUS
 10
25.008013
 20
-68.593127
 11
69.208013
 21
-68.593127
  0
LINE
  8
型材断面
  6
CONTINUOUS
 62
    47
 10
25.57468
 20
-71.243127
 11
69.208013
 21
-71.243127
  0
LINE
  8
型材断面
  6
CONTINUOUS
 62
    47
 10
25.008013
 20
-70.72646
 11
69.208013
 21
-70.72646
  0
LINE
  8
型材断面
  6
CONTINUOUS
 10
25.73397
 20
-68.593127
 11
50.202357
 21
-44.12474
  0
LINE
  8
型材断面
  6
CONTINUOUS
 10
24.949148
 20
-68.534263
 11
50.874688
 21
-42.608725
  0
LINE
  8
型材断面
  6
CONTINUOUS
 10
52.63555
 20
-43.725195
 11
69.208013
 21
-43.725195
  0
LINE
  8
型材断面
  6
CONTINUOUS
 10
50.609082
 20
-43.787795
 11
69.208013
 21
-43.787795
  0
LINE
  8
型材断面
  6
CONTINUOUS
 10
50.874688
 20
-42.608725
 11
69.208013
 21
-42.608725
  0
LINE
  8
型材断面
  6
CONTINUOUS
 62
    47
 10
113.408013
 20
-68.593127
 11
113.408013
 21
-70.72646
  0
LINE
  8
型材断面
  6
CONTINUOUS
 10
113.408013
 20
-68.593127
 11
113.466878
 21
-68.534263
  0
LINE
  8
型材断面
  6
CONTINUOUS
 62
    47
 10
112.841345
 20
-70.72646
 11
112.841345
 21
-71.243127
  0
LINE
  8
型材断面
  6
CONTINUOUS
 10
113.408013
 20
-68.593127
 11
69.208013
 21
-68.593127
  0
LINE
  8
型材断面
  6
CONTINUOUS
 62
    47
 10
112.841345
 20
-71.243127
 11
69.208013
 21
-71.243127
  0
LINE
  8
型材断面
  6
CONTINUOUS
 62
    47
 10
113.408013
 20
-70.72646
 11
69.208013
 21
-70.72646
  0
LINE
  8
型材断面
  6
CONTINUOUS
 10
112.682055
 20
-68.593127
 11
88.213667
 21
-44.12474
  0
LINE
  8
型材断面
  6
CONTINUOUS
 10
113.466878
 20
-68.534263
 11
87.541338
 21
-42.608725
  0
LINE
  8
型材断面
  6
CONTINUOUS
 10
85.780475
 20
-43.725195
 11
69.208013
 21
-43.725195
  0
LINE
  8
型材断面
  6
CONTINUOUS
 10
87.806942
 20
-43.787795
 11
69.208013
 21
-43.787795
  0
LINE
  8
型材断面
  6
CONTINUOUS
 10
87.541338
 20
-42.608725
 11
69.208013
 21
-42.608725
  0
LINE
  8
型材断面
  6
DOT
 62
    47
 10
25.008013
 20
-55.259795
 11
25.008013
 21
-57.393127
  0
LINE
  8
型材断面
  6
DOT
 10
25.008013
 20
-55.259795
 11
24.949148
 21
-55.20093
  0
LINE
  8
型材断面
  6
DOT
 62
    47
 10
25.57468
 20
-57.393127
 11
25.57468
 21
-57.909795
  0
LINE
  8
型材断面
  6
DOT
 10
25.008013
 20
-55.259795
 11
69.208013
 21
-55.259795
  0
LINE
  8
型材断面
  6
DOT
 62
    47
 10
25.57468
 20
-57.909795
 11
69.208013
 21
-57.909795
  0
LINE
  8
型材断面
  6
DOT
 62
    47
 10
25.008013
 20
-57.393127
 11
69.208013
 21
-57.393127
  0
LINE
  8
型材断面
  6
DOT
 10
25.73397
 20
-55.259795
 11
50.202357
 21
-30.791407
  0
LINE
  8
型材断面
  6
DOT
 10
24.949148
 20
-55.20093
 11
50.874688
 21
-29.275392
  0
LINE
  8
型材断面
  6
DOT
 10
52.63555
 20
-30.391863
 11
69.208013
 21
-30.391863
  0
LINE
  8
型材断面
  6
DOT
 10
50.609082
 20
-30.454463
 11
69.208013
 21
-30.454463
  0
LINE
  8
型材断面
  6
DOT
 10
50.874688
 20
-29.275392
 11
69.208013
 21
-29.275392
  0
LINE
  8
型材断面
  6
DOT
 62
    47
 10
113.408013
 20
-55.259795
 11
113.408013
 21
-57.393127
  0
LINE
  8
型材断面
  6
DOT
 10
113.408013
 20
-55.259795
 11
113.466878
 21
-55.20093
  0
LINE
  8
型材断面
  6
DOT
 62
    47
 10
112.841345
 20
-57.393127
 11
112.841345
 21
-57.909795
  0
LINE
  8
型材断面
  6
DOT
 10
113.408013
 20
-55.259795
 11
69.208013
 21
-55.259795
  0
LINE
  8
型材断面
  6
DOT
 62
    47
 10
112.841345
 20
-57.909795
 11
69.208013
 21
-57.909795
  0
LINE
  8
型材断面
  6
DOT
 62
    47
 10
113.408013
 20
-57.393127
 11
69.208013
 21
-57.393127
  0
LINE
  8
型材断面
  6
DOT
 10
112.682055
 20
-55.259795
 11
88.213667
 21
-30.791407
  0
LINE
  8
型材断面
  6
DOT
 10
113.466878
 20
-55.20093
 11
87.541338
 21
-29.275392
  0
LINE
  8
型材断面
  6
DOT
 10
85.780475
 20
-30.391863
 11
69.208013
 21
-30.391863
  0
LINE
  8
型材断面
  6
DOT
 10
87.806942
 20
-30.454463
 11
69.208013
 21
-30.454463
  0
LINE
  8
型材断面
  6
DOT
 10
87.541338
 20
-29.275392
 11
69.208013
 21
-29.275392
  0
INSERT
  2
*GRP_0031
  8
型材断面
  6
DOT
 10
0.0
 20
0.0
  0
INSERT
  2
*GRP_0032
  8
型材断面
  6
DOT
 10
0.0
 20
0.0
  0
INSERT
  2
*GRP_0033
  8
型材断面
  6
DOT
 10
0.0
 20
0.0
  0
INSERT
  2
*GRP_0034
  8
型材断面
  6
DOT
 10
0.0
 20
0.0
  0
LINE
  8
型材断面
  6
DOT
 10
-36.955667
 20
66.864218
 11
-36.955667
 21
27.14755
  0
LINE
  8
型材断面
  6
DOT
 10
-35.622335
 20
66.864218
 11
-35.622335
 21
27.14755
  0
LINE
  8
型材断面
  6
DOT
 10
-108.023473
 20
66.864218
 11
-108.023473
 21
27.14755
  0
LINE
  8
型材断面
  6
DOT
 10
-109.356805
 20
66.864218
 11
-109.356805
 21
27.14755
  0
LINE
  8
型材断面
  6
CONTINUOUS
 10
-27.140327
 20
65.080885
 11
-24.54982
 21
64.484828
  0
LINE
  8
型材断面
  6
CONTINUOUS
 10
-27.140327
 20
65.080885
 11
-24.54982
 21
65.676943
  0
LINE
  8
型材断面
  6
CONTINUOUS
 10
-24.54982
 20
65.676943
 11
-24.54982
 21
64.484828
  0
LINE
  8
型材断面
  6
CONTINUOUS
 10
-27.140327
 20
29.14755
 11
-24.54982
 21
29.743607
  0
LINE
  8
型材断面
  6
CONTINUOUS
 10
-27.140327
 20
29.14755
 11
-24.54982
 21
28.551492
  0
LINE
  8
型材断面
  6
CONTINUOUS
 10
-24.54982
 20
28.551492
 11
-24.54982
 21
29.743607
  0
LINE
  8
型材断面
  6
CONTINUOUS
 10
-117.838813
 20
65.080885
 11
-120.42932
 21
64.484828
  0
LINE
  8
型材断面
  6
CONTINUOUS
 10
-117.838813
 20
65.080885
 11
-120.42932
 21
65.676943
  0
LINE
  8
型材断面
  6
CONTINUOUS
 10
-120.42932
 20
65.676943
 11
-120.42932
 21
64.484828
  0
LINE
  8
型材断面
  6
CONTINUOUS
 10
-117.838813
 20
29.14755
 11
-120.42932
 21
29.743607
  0
LINE
  8
型材断面
  6
CONTINUOUS
 10
-117.838813
 20
29.14755
 11
-120.42932
 21
28.551492
  0
LINE
  8
型材断面
  6
CONTINUOUS
 10
-120.42932
 20
28.551492
 11
-120.42932
 21
29.743607
  0
LINE
  8
型材断面
  6
CONTINUOUS
 10
-24.244643
 20
3.874755
 11
-23.648585
 21
1.28425
  0
LINE
  8
型材断面
  6
CONTINUOUS
 10
-24.244643
 20
3.874755
 11
-24.8407
 21
1.28425
  0
LINE
  8
型材断面
  6
CONTINUOUS
 10
-24.8407
 20
1.28425
 11
-23.648585
 21
1.28425
  0
LINE
  8
型材断面
  6
CONTINUOUS
 10
-27.601293
 20
-2.159695
 11
10.47402
 21
-2.159695
  0
LINE
  8
型材断面
  6
DASHDOT
 10
-32.48957
 20
-75.769908
 11
-32.48957
 21
68.780885
  0
LINE
  8
型材断面
  6
DASHDOT
 10
-72.48957
 20
-75.769908
 11
-72.48957
 21
68.780885
  0
LINE
  8
型材断面
  6
DASHDOT
 10
-112.48957
 20
-75.769908
 11
-112.48957
 21
68.780885
  0
LINE
  8
型材断面
  6
CONTINUOUS
 10
-114.752753
 20
-75.12646
 11
-114.752753
 21
-75.463125
  0
LINE
  8
型材断面
  6
CONTINUOUS
 10
-115.252753
 20
-75.12646
 11
-115.252753
 21
-71.243127
  0
LINE
  8
型材断面
  6
CONTINUOUS
 10
-115.252753
 20
-75.12646
 11
-72.48957
 21
-75.12646
  0
LINE
  8
型材断面
  6
CONTINUOUS
 10
-114.752753
 20
-75.463125
 11
-72.48957
 21
-75.463125
  0
LINE
  8
型材断面
  6
CONTINUOUS
 10
-30.226387
 20
-75.12646
 11
-30.226387
 21
-75.463125
  0
LINE
  8
型材断面
  6
CONTINUOUS
 10
-29.726387
 20
-75.12646
 11
-29.726387
 21
-71.243127
  0
LINE
  8
型材断面
  6
CONTINUOUS
 10
-29.726387
 20
-75.12646
 11
-72.48957
 21
-75.12646
  0
LINE
  8
型材断面
  6
CONTINUOUS
 10
-30.226387
 20
-75.463125
 11
-72.48957
 21
-75.463125
  0
LINE
  8
型材断面
  6
CONTINUOUS
 10
26.94483
 20
-75.12646
 11
26.94483
 21
-75.463125
  0
LINE
  8
型材断面
  6
CONTINUOUS
 10
26.44483
 20
-75.12646
 11
26.44483
 21
-71.243127
  0
LINE
  8
型材断面
  6
CONTINUOUS
 10
26.44483
 20
-75.12646
 11
69.208013
 21
-75.12646
  0
LINE
  8
型材断面
  6
CONTINUOUS
 10
26.94483
 20
-75.463125
 11
69.208013
 21
-75.463125
  0
LINE
  8
型材断面
  6
CONTINUOUS
 10
111.471195
 20
-75.12646
 11
111.471195
 21
-75.463125
  0
LINE
  8
型材断面
  6
CONTINUOUS
 10
111.971195
 20
-75.12646
 11
111.971195
 21
-71.243127
  0
LINE
  8
型材断面
  6
CONTINUOUS
 10
111.971195
 20
-75.12646
 11
69.208013
 21
-75.12646
  0
LINE
  8
型材断面
  6
CONTINUOUS
 10
111.471195
 20
-75.463125
 11
69.208013
 21
-75.463125
  0
LINE
  8
型材断面
  6
DASHDOT
 10
62.528025
 20
25.44755
 11
-112.48957
 21
25.44755
  0
LINE
  8
型材断面
  6
DASHDOT
 10
62.528025
 20
68.780885
 11
-112.48957
 21
68.780885
  0
LINE
  8
型材断面
  6
DASHDOT
 10
62.528025
 20
47.114218
 11
-112.48957
 21
47.114218
  0
LINE
  8
型材断面
  6
CONTINUOUS
 10
62.401245
 20
23.184368
 11
62.73791
 21
23.184368
  0
LINE
  8
型材断面
  6
CONTINUOUS
 10
62.401245
 20
22.684368
 11
58.517913
 21
22.684368
  0
LINE
  8
型材断面
  6
CONTINUOUS
 10
62.73791
 20
23.184368
 11
62.73791
 21
47.114218
  0
LINE
  8
型材断面
  6
CONTINUOUS
 10
62.401245
 20
22.684368
 11
62.401245
 21
47.114218
  0
LINE
  8
型材断面
  6
CONTINUOUS
 10
62.401245
 20
71.044067
 11
62.73791
 21
71.044067
  0
LINE
  8
型材断面
  6
CONTINUOUS
 10
62.401245
 20
71.544067
 11
58.517913
 21
71.544067
  0
LINE
  8
型材断面
  6
CONTINUOUS
 10
62.73791
 20
71.044067
 11
62.73791
 21
47.114218
  0
LINE
  8
型材断面
  6
CONTINUOUS
 10
62.401245
 20
71.544067
 11
62.401245
 21
47.114218
  0
LINE
  8
ゴム等
  6
CONTINUOUS
 10
54.76141
 20
25.329747
 11
55.097307
 21
24.022582
  0
LINE
  8
ゴム等
  6
CONTINUOUS
 10
55.097307
 20
24.022582
 11
55.149028
 21
23.783403
  0
LINE
  8
ゴム等
  6
CONTINUOUS
 10
55.149028
 20
23.783403
 11
55.867913
 21
21.973508
  0
LINE
  8
ゴム等
  6
CONTINUOUS
 10
-112.60737
 20
-67.486622
 11
-113.914535
 21
-67.82252
  0
LINE
  8
ゴム等
  6
CONTINUOUS
 10
-113.914535
 20
-67.82252
 11
-114.153718
 21
-67.87424
  0
LINE
  8
ゴム等
  6
CONTINUOUS
 10
-114.153718
 20
-67.87424
 11
-115.963613
 21
-68.593127
  0
LINE
  8
ゴム等
  6
CONTINUOUS
 10
-113.914535
 20
-67.82252
 11
-72.48957
 21
-67.82252
  0
LINE
  8
ゴム等
  6
CONTINUOUS
 10
-114.153718
 20
-67.87424
 11
-72.48957
 21
-67.87424
  0
LINE
  8
ゴム等
  6
CONTINUOUS
 10
-112.641972
 20
22.70843
 11
-113.91463
 21
22.06807
  0
LINE
  8
ゴム等
  6
CONTINUOUS
 10
-113.91463
 20
22.06807
 11
-114.100115
 21
21.952295
  0
LINE
  8
ゴム等
  6
CONTINUOUS
 10
-114.1538
 20
21.942872
 11
-115.898605
 21
21.24755
  0
LINE
  8
ゴム等
  6
CONTINUOUS
 10
-115.228683
 20
25.29514
 11
-115.869045
 21
24.022485
  0
LINE
  8
ゴム等
  6
CONTINUOUS
 10
-115.869045
 20
24.022485
 11
-115.984818
 21
23.837
  0
LINE
  8
ゴム等
  6
CONTINUOUS
 10
-115.99424
 20
23.783315
 11
-116.689563
 21
22.03851
  0
LINE
  8
ゴム等
  6
CONTINUOUS
 10
-114.1538
 20
21.942872
 11
-72.48957
 21
21.942872
  0
LINE
  8
ゴム等
  6
CONTINUOUS
 10
-113.91463
 20
22.06807
 11
-72.48957
 21
22.06807
  0
LINE
  8
ゴム等
  6
CONTINUOUS
 10
-73.022902
 20
22.06807
 11
-73.73957
 21
22.70843
  0
LINE
  8
ゴム等
  6
CONTINUOUS
 10
-112.641972
 20
22.70843
 11
-73.73957
 21
22.70843
  0
LINE
  8
ゴム等
  6
CONTINUOUS
 10
-73.022902
 20
-67.82252
 11
-73.73957
 21
-67.486622
  0
LINE
  8
ゴム等
  6
CONTINUOUS
 10
-112.60737
 20
-67.486622
 11
-73.73957
 21
-67.486622
  0
LINE
  8
ゴム等
  6
CONTINUOUS
 10
55.149028
 20
23.783403
 11
31.81821
 21
47.114218
  0
LINE
  8
ゴム等
  6
CONTINUOUS
 10
55.097307
 20
24.022582
 11
32.00567
 21
47.114218
  0
LINE
  8
ゴム等
  6
CONTINUOUS
 10
54.76141
 20
25.329747
 11
32.976937
 21
47.114218
  0
LINE
  8
ゴム等
  6
CONTINUOUS
 10
54.76141
 20
25.329747
 11
54.76141
 21
47.114218
  0
LINE
  8
ゴム等
  6
CONTINUOUS
 10
55.149028
 20
23.783403
 11
55.149028
 21
47.114218
  0
LINE
  8
ゴム等
  6
CONTINUOUS
 10
55.097307
 20
24.022582
 11
55.097307
 21
47.114218
  0
LINE
  8
ゴム等
  6
CONTINUOUS
 10
54.76141
 20
68.898688
 11
55.097307
 21
70.205853
  0
LINE
  8
ゴム等
  6
CONTINUOUS
 10
55.097307
 20
70.205853
 11
55.149028
 21
70.445032
  0
LINE
  8
ゴム等
  6
CONTINUOUS
 10
55.149028
 20
70.445032
 11
55.867913
 21
72.254927
  0
LINE
  8
ゴム等
  6
CONTINUOUS
 10
55.149028
 20
70.445032
 11
31.81821
 21
47.114218
  0
LINE
  8
ゴム等
  6
CONTINUOUS
 10
55.097307
 20
70.205853
 11
32.00567
 21
47.114218
  0
LINE
  8
ゴム等
  6
CONTINUOUS
 10
54.76141
 20
68.898688
 11
32.976937
 21
47.114218
  0
LINE
  8
ゴム等
  6
CONTINUOUS
 10
54.76141
 20
68.898688
 11
54.76141
 21
47.114218
  0
LINE
  8
ゴム等
  6
CONTINUOUS
 10
55.149028
 20
70.445032
 11
55.149028
 21
47.114218
  0
LINE
  8
ゴム等
  6
CONTINUOUS
 10
55.097307
 20
70.205853
 11
55.097307
 21
47.114218
  0
LINE
  8
ゴム等
  6
CONTINUOUS
 10
-115.869045
 20
24.022485
 11
-115.869045
 21
47.114218
  0
LINE
  8
ゴム等
  6
CONTINUOUS
 10
-115.99424
 20
23.783315
 11
-115.99424
 21
47.114218
  0
LINE
  8
ゴム等
  6
CONTINUOUS
 10
-115.228683
 20
25.29514
 11
-115.228683
 21
47.114218
  0
LINE
  8
ゴム等
  6
CONTINUOUS
 10
-91.080785
 20
45.919208
 11
-89.061965
 21
45.919208
  0
LINE
  8
ゴム等
  6
CONTINUOUS
 10
-89.061965
 20
45.919208
 11
-89.061965
 21
47.114218
  0
LINE
  8
ゴム等
  6
CONTINUOUS
 10
-112.641972
 20
22.70843
 11
-90.28805
 21
45.062353
  0
LINE
  8
ゴム等
  6
CONTINUOUS
 10
-115.228683
 20
25.29514
 11
-93.409605
 21
47.114218
  0
LINE
  8
ゴム等
  6
CONTINUOUS
 10
-115.99424
 20
23.783315
 11
-92.663335
 21
47.114218
  0
LINE
  8
ゴム等
  6
CONTINUOUS
 10
-115.869045
 20
24.022485
 11
-92.77731
 21
47.114218
  0
LINE
  8
ゴム等
  6
CONTINUOUS
 10
-113.91463
 20
22.06807
 11
-90.58602
 21
45.396678
  0
LINE
  8
ゴム等
  6
CONTINUOUS
 10
-114.1538
 20
21.942872
 11
-90.639678
 21
45.456992
  0
LINE
  8
ゴム等
  6
CONTINUOUS
 10
-73.022902
 20
22.06807
 11
-73.022902
 21
45.99917
  0
LINE
  8
ゴム等
  6
CONTINUOUS
 10
-73.73957
 20
22.70843
 11
-73.73957
 21
45.062353
  0
LINE
  8
ゴム等
  6
CONTINUOUS
 10
-90.28805
 20
45.062353
 11
-73.73957
 21
45.062353
  0
LINE
  8
ゴム等
  6
CONTINUOUS
 10
-90.58602
 20
45.396678
 11
-73.022902
 21
45.396678
  0
LINE
  8
ゴム等
  6
CONTINUOUS
 10
-90.639678
 20
45.456992
 11
-73.022902
 21
45.456992
  0
LINE
  8
ゴム等
  6
CONTINUOUS
 10
-112.641972
 20
71.520005
 11
-113.91463
 21
72.160365
  0
LINE
  8
ゴム等
  6
CONTINUOUS
 10
-113.91463
 20
72.160365
 11
-114.100115
 21
72.27614
  0
LINE
  8
ゴム等
  6
CONTINUOUS
 10
-114.1538
 20
72.285563
 11
-115.898605
 21
72.980885
  0
LINE
  8
ゴム等
  6
CONTINUOUS
 10
-115.228683
 20
68.933295
 11
-115.869045
 21
70.20595
  0
LINE
  8
ゴム等
  6
CONTINUOUS
 10
-115.869045
 20
70.20595
 11
-115.984818
 21
70.391435
  0
LINE
  8
ゴム等
  6
CONTINUOUS
 10
-115.99424
 20
70.44512
 11
-116.689563
 21
72.189925
  0
LINE
  8
ゴム等
  6
CONTINUOUS
 10
-114.1538
 20
72.285563
 11
-72.48957
 21
72.285563
  0
LINE
  8
ゴム等
  6
CONTINUOUS
 10
-113.91463
 20
72.160365
 11
-72.48957
 21
72.160365
  0
LINE
  8
ゴム等
  6
CONTINUOUS
 10
-73.022902
 20
72.160365
 11
-73.73957
 21
71.520005
  0
LINE
  8
ゴム等
  6
CONTINUOUS
 10
-112.641972
 20
71.520005
 11
-73.73957
 21
71.520005
  0
LINE
  8
ゴム等
  6
CONTINUOUS
 10
-115.869045
 20
70.20595
 11
-115.869045
 21
47.114218
  0
LINE
  8
ゴム等
  6
CONTINUOUS
 10
-115.99424
 20
70.44512
 11
-115.99424
 21
47.114218
  0
LINE
  8
ゴム等
  6
CONTINUOUS
 10
-115.228683
 20
68.933295
 11
-115.228683
 21
47.114218
  0
LINE
  8
ゴム等
  6
CONTINUOUS
 10
-91.080785
 20
48.309228
 11
-89.061965
 21
48.309228
  0
LINE
  8
ゴム等
  6
CONTINUOUS
 10
-89.061965
 20
48.309228
 11
-89.061965
 21
47.114218
  0
LINE
  8
ゴム等
  6
CONTINUOUS
 10
-112.641972
 20
71.520005
 11
-90.28805
 21
49.166083
  0
LINE
  8
ゴム等
  6
CONTINUOUS
 10
-115.228683
 20
68.933295
 11
-93.409605
 21
47.114218
  0
LINE
  8
ゴム等
  6
CONTINUOUS
 10
-115.99424
 20
70.44512
 11
-92.663335
 21
47.114218
  0
LINE
  8
ゴム等
  6
CONTINUOUS
 10
-115.869045
 20
70.20595
 11
-92.77731
 21
47.114218
  0
LINE
  8
ゴム等
  6
CONTINUOUS
 10
-113.91463
 20
72.160365
 11
-90.58602
 21
48.831757
  0
LINE
  8
ゴム等
  6
CONTINUOUS
 10
-114.1538
 20
72.285563
 11
-90.639678
 21
48.771443
  0
LINE
  8
ゴム等
  6
CONTINUOUS
 10
-73.022902
 20
72.160365
 11
-73.022902
 21
48.229265
  0
LINE
  8
ゴム等
  6
CONTINUOUS
 10
-73.73957
 20
71.520005
 11
-73.73957
 21
49.166083
  0
LINE
  8
ゴム等
  6
CONTINUOUS
 10
-90.28805
 20
49.166083
 11
-73.73957
 21
49.166083
  0
LINE
  8
ゴム等
  6
CONTINUOUS
 10
-90.58602
 20
48.831757
 11
-73.022902
 21
48.831757
  0
LINE
  8
ゴム等
  6
CONTINUOUS
 10
-90.639678
 20
48.771443
 11
-73.022902
 21
48.771443
  0
LINE
  8
ゴム等
  6
CONTINUOUS
 10
-32.337168
 20
22.70843
 11
-31.06451
 21
22.06807
  0
LINE
  8
ゴム等
  6
CONTINUOUS
 10
-31.06451
 20
22.06807
 11
-30.879025
 21
21.952295
  0
LINE
  8
ゴム等
  6
CONTINUOUS
 10
-30.82534
 20
21.942872
 11
-29.080535
 21
21.24755
  0
LINE
  8
ゴム等
  6
CONTINUOUS
 10
-29.750457
 20
25.29514
 11
-29.110095
 21
24.022485
  0
LINE
  8
ゴム等
  6
CONTINUOUS
 10
-29.110095
 20
24.022485
 11
-28.994322
 21
23.837
  0
LINE
  8
ゴム等
  6
CONTINUOUS
 10
-28.9849
 20
23.783315
 11
-28.289577
 21
22.03851
  0
LINE
  8
ゴム等
  6
CONTINUOUS
 10
-30.82534
 20
21.942872
 11
-72.48957
 21
21.942872
  0
LINE
  8
ゴム等
  6
CONTINUOUS
 10
-31.06451
 20
22.06807
 11
-72.48957
 21
22.06807
  0
LINE
  8
ゴム等
  6
CONTINUOUS
 10
-71.956238
 20
22.06807
 11
-71.23957
 21
22.70843
  0
LINE
  8
ゴム等
  6
CONTINUOUS
 10
-32.337168
 20
22.70843
 11
-71.23957
 21
22.70843
  0
LINE
  8
ゴム等
  6
CONTINUOUS
 10
-29.110095
 20
24.022485
 11
-29.110095
 21
47.114218
  0
LINE
  8
ゴム等
  6
CONTINUOUS
 10
-28.9849
 20
23.783315
 11
-28.9849
 21
47.114218
  0
LINE
  8
ゴム等
  6
CONTINUOUS
 10
-29.750457
 20
25.29514
 11
-29.750457
 21
47.114218
  0
LINE
  8
ゴム等
  6
CONTINUOUS
 10
-53.898355
 20
45.919208
 11
-55.917175
 21
45.919208
  0
LINE
  8
ゴム等
  6
CONTINUOUS
 10
-55.917175
 20
45.919208
 11
-55.917175
 21
47.114218
  0
LINE
  8
ゴム等
  6
CONTINUOUS
 10
-32.337168
 20
22.70843
 11
-54.69109
 21
45.062353
  0
LINE
  8
ゴム等
  6
CONTINUOUS
 10
-29.750457
 20
25.29514
 11
-51.569535
 21
47.114218
  0
LINE
  8
ゴム等
  6
CONTINUOUS
 10
-28.9849
 20
23.783315
 11
-52.315805
 21
47.114218
  0
LINE
  8
ゴム等
  6
CONTINUOUS
 10
-29.110095
 20
24.022485
 11
-52.20183
 21
47.114218
  0
LINE
  8
ゴム等
  6
CONTINUOUS
 10
-31.06451
 20
22.06807
 11
-54.39312
 21
45.396678
  0
LINE
  8
ゴム等
  6
CONTINUOUS
 10
-30.82534
 20
21.942872
 11
-54.339462
 21
45.456992
  0
LINE
  8
ゴム等
  6
CONTINUOUS
 10
-71.956238
 20
22.06807
 11
-71.956238
 21
45.99917
  0
LINE
  8
ゴム等
  6
CONTINUOUS
 10
-71.23957
 20
22.70843
 11
-71.23957
 21
45.062353
  0
LINE
  8
ゴム等
  6
CONTINUOUS
 10
-54.69109
 20
45.062353
 11
-71.23957
 21
45.062353
  0
LINE
  8
ゴム等
  6
CONTINUOUS
 10
-54.39312
 20
45.396678
 11
-71.956238
 21
45.396678
  0
LINE
  8
ゴム等
  6
CONTINUOUS
 10
-54.339462
 20
45.456992
 11
-71.956238
 21
45.456992
  0
LINE
  8
ゴム等
  6
CONTINUOUS
 10
-32.337168
 20
71.520005
 11
-31.06451
 21
72.160365
  0
LINE
  8
ゴム等
  6
CONTINUOUS
 10
-31.06451
 20
72.160365
 11
-30.879025
 21
72.27614
  0
LINE
  8
ゴム等
  6
CONTINUOUS
 10
-30.82534
 20
72.285563
 11
-29.080535
 21
72.980885
  0
LINE
  8
ゴム等
  6
CONTINUOUS
 10
-29.750457
 20
68.933295
 11
-29.110095
 21
70.20595
  0
LINE
  8
ゴム等
  6
CONTINUOUS
 10
-29.110095
 20
70.20595
 11
-28.994322
 21
70.391435
  0
LINE
  8
ゴム等
  6
CONTINUOUS
 10
-28.9849
 20
70.44512
 11
-28.289577
 21
72.189925
  0
LINE
  8
ゴム等
  6
CONTINUOUS
 10
-30.82534
 20
72.285563
 11
-72.48957
 21
72.285563
  0
LINE
  8
ゴム等
  6
CONTINUOUS
 10
-31.06451
 20
72.160365
 11
-72.48957
 21
72.160365
  0
LINE
  8
ゴム等
  6
CONTINUOUS
 10
-71.956238
 20
72.160365
 11
-71.23957
 21
71.520005
  0
LINE
  8
ゴム等
  6
CONTINUOUS
 10
-32.337168
 20
71.520005
 11
-71.23957
 21
71.520005
  0
LINE
  8
ゴム等
  6
CONTINUOUS
 10
-29.110095
 20
70.20595
 11
-29.110095
 21
47.114218
  0
LINE
  8
ゴム等
  6
CONTINUOUS
 10
-28.9849
 20
70.44512
 11
-28.9849
 21
47.114218
  0
LINE
  8
ゴム等
  6
CONTINUOUS
 10
-29.750457
 20
68.933295
 11
-29.750457
 21
47.114218
  0
LINE
  8
ゴム等
  6
CONTINUOUS
 10
-53.898355
 20
48.309228
 11
-55.917175
 21
48.309228
  0
LINE
  8
ゴム等
  6
CONTINUOUS
 10
-55.917175
 20
48.309228
 11
-55.917175
 21
47.114218
  0
LINE
  8
ゴム等
  6
CONTINUOUS
 10
-32.337168
 20
71.520005
 11
-54.69109
 21
49.166083
  0
LINE
  8
ゴム等
  6
CONTINUOUS
 10
-29.750457
 20
68.933295
 11
-51.569535
 21
47.114218
  0
LINE
  8
ゴム等
  6
CONTINUOUS
 10
-28.9849
 20
70.44512
 11
-52.315805
 21
47.114218
  0
LINE
  8
ゴム等
  6
CONTINUOUS
 10
-29.110095
 20
70.20595
 11
-52.20183
 21
47.114218
  0
LINE
  8
ゴム等
  6
CONTINUOUS
 10
-31.06451
 20
72.160365
 11
-54.39312
 21
48.831757
  0
LINE
  8
ゴム等
  6
CONTINUOUS
 10
-30.82534
 20
72.285563
 11
-54.339462
 21
48.771443
  0
LINE
  8
ゴム等
  6
CONTINUOUS
 10
-71.956238
 20
72.160365
 11
-71.956238
 21
48.229265
  0
LINE
  8
ゴム等
  6
CONTINUOUS
 10
-71.23957
 20
71.520005
 11
-71.23957
 21
49.166083
  0
LINE
  8
ゴム等
  6
CONTINUOUS
 10
-54.69109
 20
49.166083
 11
-71.23957
 21
49.166083
  0
LINE
  8
ゴム等
  6
CONTINUOUS
 10
-54.39312
 20
48.831757
 11
-71.956238
 21
48.831757
  0
LINE
  8
ゴム等
  6
CONTINUOUS
 10
-54.339462
 20
48.771443
 11
-71.956238
 21
48.771443
  0
LINE
  8
ゴム等
  6
CONTINUOUS
 10
-90.7287
 20
-42.490875
 11
-89.062032
 21
-42.490875
  0
LINE
  8
ゴム等
  6
CONTINUOUS
 10
-89.062032
 20
-42.490875
 11
-89.062032
 21
-43.733025
  0
LINE
  8
ゴム等
  6
CONTINUOUS
 10
-90.98659
 20
-43.685885
 11
-89.062032
 21
-43.685885
  0
LINE
  8
ゴム等
  6
CONTINUOUS
 10
-89.062032
 20
-43.733025
 11
-91.03373
 21
-43.733025
  0
LINE
  8
ゴム等
  6
CONTINUOUS
 10
-92.362568
 20
-44.12474
 11
-91.425447
 21
-44.12474
  0
LINE
  8
ゴム等
  6
CONTINUOUS
 10
-92.362568
 20
-44.12474
 11
-90.7287
 21
-42.490875
  0
LINE
  8
ゴム等
  6
CONTINUOUS
 10
-91.425447
 20
-44.12474
 11
-90.98659
 21
-43.685885
  0
LINE
  8
ゴム等
  6
CONTINUOUS
 10
-90.769578
 20
-44.490038
 11
-90.693297
 21
-44.601217
  0
LINE
  8
ゴム等
  6
CONTINUOUS
 10
-90.693297
 20
-44.601217
 11
-90.36592
 21
-45.24511
  0
LINE
  8
ゴム等
  6
CONTINUOUS
 10
-90.769578
 20
-44.490038
 11
-91.133455
 21
-43.83275
  0
LINE
  8
ゴム等
  6
CONTINUOUS
 10
-114.153718
 20
-67.87424
 11
-90.756462
 21
-44.476985
  0
LINE
  8
ゴム等
  6
CONTINUOUS
 10
-113.914535
 20
-67.82252
 11
-90.693278
 21
-44.601257
  0
LINE
  8
ゴム等
  6
CONTINUOUS
 10
-112.60737
 20
-67.486622
 11
-90.3659
 21
-45.245153
  0
LINE
  8
ゴム等
  6
CONTINUOUS
 10
-73.022902
 20
-67.82252
 11
-73.022902
 21
-43.787795
  0
LINE
  8
ゴム等
  6
CONTINUOUS
 10
-73.73957
 20
-67.486622
 11
-73.73957
 21
-45.24511
  0
LINE
  8
ゴム等
  6
CONTINUOUS
 10
-90.36592
 20
-45.24511
 11
-73.73957
 21
-45.24511
  0
LINE
  8
ゴム等
  6
CONTINUOUS
 10
-90.693297
 20
-44.601217
 11
-73.022902
 21
-44.601217
  0
LINE
  8
ゴム等
  6
CONTINUOUS
 10
-90.769578
 20
-44.490038
 11
-73.022902
 21
-44.490038
  0
LINE
  8
ゴム等
  6
CONTINUOUS
 10
-32.37177
 20
-67.486622
 11
-31.064605
 21
-67.82252
  0
LINE
  8
ゴム等
  6
CONTINUOUS
 10
-31.064605
 20
-67.82252
 11
-30.825422
 21
-67.87424
  0
LINE
  8
ゴム等
  6
CONTINUOUS
 10
-30.825422
 20
-67.87424
 11
-29.015528
 21
-68.593127
  0
LINE
  8
ゴム等
  6
CONTINUOUS
 10
-31.064605
 20
-67.82252
 11
-72.48957
 21
-67.82252
  0
LINE
  8
ゴム等
  6
CONTINUOUS
 10
-30.825422
 20
-67.87424
 11
-72.48957
 21
-67.87424
  0
LINE
  8
ゴム等
  6
CONTINUOUS
 10
-71.956238
 20
-67.82252
 11
-71.23957
 21
-67.486622
  0
LINE
  8
ゴム等
  6
CONTINUOUS
 10
-32.37177
 20
-67.486622
 11
-71.23957
 21
-67.486622
  0
LINE
  8
ゴム等
  6
CONTINUOUS
 10
-54.25044
 20
-42.490875
 11
-55.917108
 21
-42.490875
  0
LINE
  8
ゴム等
  6
CONTINUOUS
 10
-55.917108
 20
-42.490875
 11
-55.917108
 21
-43.733025
  0
LINE
  8
ゴム等
  6
CONTINUOUS
 10
-53.99255
 20
-43.685885
 11
-55.917108
 21
-43.685885
  0
LINE
  8
ゴム等
  6
CONTINUOUS
 10
-55.917108
 20
-43.733025
 11
-53.94541
 21
-43.733025
  0
LINE
  8
ゴム等
  6
CONTINUOUS
 10
-52.616572
 20
-44.12474
 11
-53.553693
 21
-44.12474
  0
LINE
  8
ゴム等
  6
CONTINUOUS
 10
-52.616572
 20
-44.12474
 11
-54.25044
 21
-42.490875
  0
LINE
  8
ゴム等
  6
CONTINUOUS
 10
-53.553693
 20
-44.12474
 11
-53.99255
 21
-43.685885
  0
LINE
  8
ゴム等
  6
CONTINUOUS
 10
-54.209562
 20
-44.490038
 11
-54.285843
 21
-44.601217
  0
LINE
  8
ゴム等
  6
CONTINUOUS
 10
-54.285843
 20
-44.601217
 11
-54.61322
 21
-45.24511
  0
LINE
  8
ゴム等
  6
CONTINUOUS
 10
-54.209562
 20
-44.490038
 11
-53.845685
 21
-43.83275
  0
LINE
  8
ゴム等
  6
CONTINUOUS
 10
-30.825422
 20
-67.87424
 11
-54.222678
 21
-44.476985
  0
LINE
  8
ゴム等
  6
CONTINUOUS
 10
-31.064605
 20
-67.82252
 11
-54.285862
 21
-44.601257
  0
LINE
  8
ゴム等
  6
CONTINUOUS
 10
-32.37177
 20
-67.486622
 11
-54.61324
 21
-45.245153
  0
LINE
  8
ゴム等
  6
CONTINUOUS
 10
-71.956238
 20
-67.82252
 11
-71.956238
 21
-43.787795
  0
LINE
  8
ゴム等
  6
CONTINUOUS
 10
-71.23957
 20
-67.486622
 11
-71.23957
 21
-45.24511
  0
LINE
  8
ゴム等
  6
CONTINUOUS
 10
-54.61322
 20
-45.24511
 11
-71.23957
 21
-45.24511
  0
LINE
  8
ゴム等
  6
CONTINUOUS
 10
-54.285843
 20
-44.601217
 11
-71.956238
 21
-44.601217
  0
LINE
  8
ゴム等
  6
CONTINUOUS
 10
-54.209562
 20
-44.490038
 11
-71.956238
 21
-44.490038
  0
LINE
  8
ゴム等
  6
CONTINUOUS
 10
29.090213
 20
-67.486622
 11
27.783048
 21
-67.82252
  0
LINE
  8
ゴム等
  6
CONTINUOUS
 10
27.783048
 20
-67.82252
 11
27.543865
 21
-67.87424
  0
LINE
  8
ゴム等
  6
CONTINUOUS
 10
27.543865
 20
-67.87424
 11
25.73397
 21
-68.593127
  0
LINE
  8
ゴム等
  6
CONTINUOUS
 10
27.783048
 20
-67.82252
 11
69.208013
 21
-67.82252
  0
LINE
  8
ゴム等
  6
CONTINUOUS
 10
27.543865
 20
-67.87424
 11
69.208013
 21
-67.87424
  0
LINE
  8
ゴム等
  6
CONTINUOUS
 10
68.67468
 20
-67.82252
 11
67.958013
 21
-67.486622
  0
LINE
  8
ゴム等
  6
CONTINUOUS
 10
29.090213
 20
-67.486622
 11
67.958013
 21
-67.486622
  0
LINE
  8
ゴム等
  6
CONTINUOUS
 10
50.968882
 20
-42.490875
 11
52.63555
 21
-42.490875
  0
LINE
  8
ゴム等
  6
CONTINUOUS
 10
52.63555
 20
-42.490875
 11
52.63555
 21
-43.733025
  0
LINE
  8
ゴム等
  6
CONTINUOUS
 10
50.710993
 20
-43.685885
 11
52.63555
 21
-43.685885
  0
LINE
  8
ゴム等
  6
CONTINUOUS
 10
52.63555
 20
-43.733025
 11
50.663853
 21
-43.733025
  0
LINE
  8
ゴム等
  6
CONTINUOUS
 10
49.335015
 20
-44.12474
 11
50.272135
 21
-44.12474
  0
LINE
  8
ゴム等
  6
CONTINUOUS
 10
49.335015
 20
-44.12474
 11
50.968882
 21
-42.490875
  0
LINE
  8
ゴム等
  6
CONTINUOUS
 10
50.272135
 20
-44.12474
 11
50.710993
 21
-43.685885
  0
LINE
  8
ゴム等
  6
CONTINUOUS
 10
50.928005
 20
-44.490038
 11
51.004285
 21
-44.601217
  0
LINE
  8
ゴム等
  6
CONTINUOUS
 10
51.004285
 20
-44.601217
 11
51.331662
 21
-45.24511
  0
LINE
  8
ゴム等
  6
CONTINUOUS
 10
50.928005
 20
-44.490038
 11
50.564127
 21
-43.83275
  0
LINE
  8
ゴム等
  6
CONTINUOUS
 10
27.543865
 20
-67.87424
 11
50.94112
 21
-44.476985
  0
LINE
  8
ゴム等
  6
CONTINUOUS
 10
27.783048
 20
-67.82252
 11
51.004305
 21
-44.601257
  0
LINE
  8
ゴム等
  6
CONTINUOUS
 10
29.090213
 20
-67.486622
 11
51.331682
 21
-45.245153
  0
LINE
  8
ゴム等
  6
CONTINUOUS
 10
68.67468
 20
-67.82252
 11
68.67468
 21
-43.787795
  0
LINE
  8
ゴム等
  6
CONTINUOUS
 10
67.958013
 20
-67.486622
 11
67.958013
 21
-45.24511
  0
LINE
  8
ゴム等
  6
CONTINUOUS
 10
51.331662
 20
-45.24511
 11
67.958013
 21
-45.24511
  0
LINE
  8
ゴム等
  6
CONTINUOUS
 10
51.004285
 20
-44.601217
 11
68.67468
 21
-44.601217
  0
LINE
  8
ゴム等
  6
CONTINUOUS
 10
50.928005
 20
-44.490038
 11
68.67468
 21
-44.490038
  0
LINE
  8
ゴム等
  6
CONTINUOUS
 10
109.325813
 20
-67.486622
 11
110.632978
 21
-67.82252
  0
LINE
  8
ゴム等
  6
CONTINUOUS
 10
110.632978
 20
-67.82252
 11
110.87216
 21
-67.87424
  0
LINE
  8
ゴム等
  6
CONTINUOUS
 10
110.87216
 20
-67.87424
 11
112.682055
 21
-68.593127
  0
LINE
  8
ゴム等
  6
CONTINUOUS
 10
110.632978
 20
-67.82252
 11
69.208013
 21
-67.82252
  0
LINE
  8
ゴム等
  6
CONTINUOUS
 10
110.87216
 20
-67.87424
 11
69.208013
 21
-67.87424
  0
LINE
  8
ゴム等
  6
CONTINUOUS
 10
69.741345
 20
-67.82252
 11
70.458013
 21
-67.486622
  0
LINE
  8
ゴム等
  6
CONTINUOUS
 10
109.325813
 20
-67.486622
 11
70.458013
 21
-67.486622
  0
LINE
  8
ゴム等
  6
CONTINUOUS
 10
87.447142
 20
-42.490875
 11
85.780475
 21
-42.490875
  0
LINE
  8
ゴム等
  6
CONTINUOUS
 10
85.780475
 20
-42.490875
 11
85.780475
 21
-43.733025
  0
LINE
  8
ゴム等
  6
CONTINUOUS
 10
87.705033
 20
-43.685885
 11
85.780475
 21
-43.685885
  0
LINE
  8
ゴム等
  6
CONTINUOUS
 10
85.780475
 20
-43.733025
 11
87.752173
 21
-43.733025
  0
LINE
  8
ゴム等
  6
CONTINUOUS
 10
89.08101
 20
-44.12474
 11
88.14389
 21
-44.12474
  0
LINE
  8
ゴム等
  6
CONTINUOUS
 10
89.08101
 20
-44.12474
 11
87.447142
 21
-42.490875
  0
LINE
  8
ゴム等
  6
CONTINUOUS
 10
88.14389
 20
-44.12474
 11
87.705033
 21
-43.685885
  0
LINE
  8
ゴム等
  6
CONTINUOUS
 10
87.48802
 20
-44.490038
 11
87.41174
 21
-44.601217
  0
LINE
  8
ゴム等
  6
CONTINUOUS
 10
87.41174
 20
-44.601217
 11
87.084362
 21
-45.24511
  0
LINE
  8
ゴム等
  6
CONTINUOUS
 10
87.48802
 20
-44.490038
 11
87.851898
 21
-43.83275
  0
LINE
  8
ゴム等
  6
CONTINUOUS
 10
110.87216
 20
-67.87424
 11
87.474905
 21
-44.476985
  0
LINE
  8
ゴム等
  6
CONTINUOUS
 10
110.632978
 20
-67.82252
 11
87.41172
 21
-44.601257
  0
LINE
  8
ゴム等
  6
CONTINUOUS
 10
109.325813
 20
-67.486622
 11
87.084342
 21
-45.245153
  0
LINE
  8
ゴム等
  6
CONTINUOUS
 10
69.741345
 20
-67.82252
 11
69.741345
 21
-43.787795
  0
LINE
  8
ゴム等
  6
CONTINUOUS
 10
70.458013
 20
-67.486622
 11
70.458013
 21
-45.24511
  0
LINE
  8
ゴム等
  6
CONTINUOUS
 10
87.084362
 20
-45.24511
 11
70.458013
 21
-45.24511
  0
LINE
  8
ゴム等
  6
CONTINUOUS
 10
87.41174
 20
-44.601217
 11
69.741345
 21
-44.601217
  0
LINE
  8
ゴム等
  6
CONTINUOUS
 10
87.48802
 20
-44.490038
 11
69.741345
 21
-44.490038
  0
LINE
  8
ゴム等
  6
DOT
 10
29.090213
 20
-54.15329
 11
27.783048
 21
-54.489188
  0
LINE
  8
ゴム等
  6
DOT
 10
27.783048
 20
-54.489188
 11
27.543865
 21
-54.540907
  0
LINE
  8
ゴム等
  6
DOT
 10
27.543865
 20
-54.540907
 11
25.73397
 21
-55.259795
  0
LINE
  8
ゴム等
  6
DOT
 10
27.783048
 20
-54.489188
 11
69.208013
 21
-54.489188
  0
LINE
  8
ゴム等
  6
DOT
 10
27.543865
 20
-54.540907
 11
69.208013
 21
-54.540907
  0
LINE
  8
ゴム等
  6
DOT
 10
68.67468
 20
-54.489188
 11
67.958013
 21
-54.15329
  0
LINE
  8
ゴム等
  6
DOT
 10
29.090213
 20
-54.15329
 11
67.958013
 21
-54.15329
  0
LINE
  8
ゴム等
  6
DOT
 10
50.968882
 20
-29.157542
 11
52.63555
 21
-29.157542
  0
LINE
  8
ゴム等
  6
DOT
 10
52.63555
 20
-29.157542
 11
52.63555
 21
-30.399693
  0
LINE
  8
ゴム等
  6
DOT
 10
50.710993
 20
-30.352553
 11
52.63555
 21
-30.352553
  0
LINE
  8
ゴム等
  6
DOT
 10
52.63555
 20
-30.399693
 11
50.663853
 21
-30.399693
  0
LINE
  8
ゴム等
  6
DOT
 10
49.335015
 20
-30.791407
 11
50.272135
 21
-30.791407
  0
LINE
  8
ゴム等
  6
DOT
 10
49.335015
 20
-30.791407
 11
50.968882
 21
-29.157542
  0
LINE
  8
ゴム等
  6
DOT
 10
50.272135
 20
-30.791407
 11
50.710993
 21
-30.352553
  0
LINE
  8
ゴム等
  6
DOT
 10
50.928005
 20
-31.156705
 11
51.004285
 21
-31.267885
  0
LINE
  8
ゴム等
  6
DOT
 10
51.004285
 20
-31.267885
 11
51.331662
 21
-31.911777
  0
LINE
  8
ゴム等
  6
DOT
 10
50.928005
 20
-31.156705
 11
50.564127
 21
-30.499417
  0
LINE
  8
ゴム等
  6
DOT
 10
27.543865
 20
-54.540907
 11
50.94112
 21
-31.143653
  0
LINE
  8
ゴム等
  6
DOT
 10
27.783048
 20
-54.489188
 11
51.004305
 21
-31.267925
  0
LINE
  8
ゴム等
  6
DOT
 10
29.090213
 20
-54.15329
 11
51.331682
 21
-31.91182
  0
LINE
  8
ゴム等
  6
DOT
 10
68.67468
 20
-54.489188
 11
68.67468
 21
-30.454463
  0
LINE
  8
ゴム等
  6
DOT
 10
67.958013
 20
-54.15329
 11
67.958013
 21
-31.911777
  0
LINE
  8
ゴム等
  6
DOT
 10
51.331662
 20
-31.911777
 11
67.958013
 21
-31.911777
  0
LINE
  8
ゴム等
  6
DOT
 10
51.004285
 20
-31.267885
 11
68.67468
 21
-31.267885
  0
LINE
  8
ゴム等
  6
DOT
 10
50.928005
 20
-31.156705
 11
68.67468
 21
-31.156705
  0
LINE
  8
ゴム等
  6
DOT
 10
109.325813
 20
-54.15329
 11
110.632978
 21
-54.489188
  0
LINE
  8
ゴム等
  6
DOT
 10
110.632978
 20
-54.489188
 11
110.87216
 21
-54.540907
  0
LINE
  8
ゴム等
  6
DOT
 10
110.87216
 20
-54.540907
 11
112.682055
 21
-55.259795
  0
LINE
  8
ゴム等
  6
DOT
 10
110.632978
 20
-54.489188
 11
69.208013
 21
-54.489188
  0
LINE
  8
ゴム等
  6
DOT
 10
110.87216
 20
-54.540907
 11
69.208013
 21
-54.540907
  0
LINE
  8
ゴム等
  6
DOT
 10
69.741345
 20
-54.489188
 11
70.458013
 21
-54.15329
  0
LINE
  8
ゴム等
  6
DOT
 10
109.325813
 20
-54.15329
 11
70.458013
 21
-54.15329
  0
LINE
  8
ゴム等
  6
DOT
 10
87.447142
 20
-29.157542
 11
85.780475
 21
-29.157542
  0
LINE
  8
ゴム等
  6
DOT
 10
85.780475
 20
-29.157542
 11
85.780475
 21
-30.399693
  0
LINE
  8
ゴム等
  6
DOT
 10
87.705033
 20
-30.352553
 11
85.780475
 21
-30.352553
  0
LINE
  8
ゴム等
  6
DOT
 10
85.780475
 20
-30.399693
 11
87.752173
 21
-30.399693
  0
LINE
  8
ゴム等
  6
DOT
 10
89.08101
 20
-30.791407
 11
88.14389
 21
-30.791407
  0
LINE
  8
ゴム等
  6
DOT
 10
89.08101
 20
-30.791407
 11
87.447142
 21
-29.157542
  0
LINE
  8
ゴム等
  6
DOT
 10
88.14389
 20
-30.791407
 11
87.705033
 21
-30.352553
  0
LINE
  8
ゴム等
  6
DOT
 10
87.48802
 20
-31.156705
 11
87.41174
 21
-31.267885
  0
LINE
  8
ゴム等
  6
DOT
 10
87.41174
 20
-31.267885
 11
87.084362
 21
-31.911777
  0
LINE
  8
ゴム等
  6
DOT
 10
87.48802
 20
-31.156705
 11
87.851898
 21
-30.499417
  0
LINE
  8
ゴム等
  6
DOT
 10
110.87216
 20
-54.540907
 11
87.474905
 21
-31.143653
  0
LINE
  8
ゴム等
  6
DOT
 10
110.632978
 20
-54.489188
 11
87.41172
 21
-31.267925
  0
LINE
  8
ゴム等
  6
DOT
 10
109.325813
 20
-54.15329
 11
87.084342
 21
-31.91182
  0
LINE
  8
ゴム等
  6
DOT
 10
69.741345
 20
-54.489188
 11
69.741345
 21
-30.454463
  0
LINE
  8
ゴム等
  6
DOT
 10
70.458013
 20
-54.15329
 11
70.458013
 21
-31.911777
  0
LINE
  8
ゴム等
  6
DOT
 10
87.084362
 20
-31.911777
 11
70.458013
 21
-31.911777
  0
LINE
  8
ゴム等
  6
DOT
 10
87.41174
 20
-31.267885
 11
69.741345
 21
-31.267885
  0
LINE
  8
ゴム等
  6
DOT
 10
87.48802
 20
-31.156705
 11
69.741345
 21
-31.156705
  0
CIRCLE
  8
ボルト／ビス
  6
CONTINUOUS
 10
-114.586085
 20
-72.073687
 40
0.166668
  0
CIRCLE
  8
ボルト／ビス
  6
CONTINUOUS
 10
-114.586085
 20
-72.073687
 40
0.133333
  0
CIRCLE
  8
ボルト／ビス
  6
CONTINUOUS
 10
-114.586085
 20
-74.217022
 40
0.166668
  0
CIRCLE
  8
ボルト／ビス
  6
CONTINUOUS
 10
-114.586085
 20
-74.217022
 40
0.133333
  0
CIRCLE
  8
ボルト／ビス
  6
CONTINUOUS
 10
-30.393055
 20
-72.073687
 40
0.166668
  0
CIRCLE
  8
ボルト／ビス
  6
CONTINUOUS
 10
-30.393055
 20
-72.073687
 40
0.133333
  0
CIRCLE
  8
ボルト／ビス
  6
CONTINUOUS
 10
-30.393055
 20
-74.217022
 40
0.166668
  0
CIRCLE
  8
ボルト／ビス
  6
CONTINUOUS
 10
-30.393055
 20
-74.217022
 40
0.133333
  0
CIRCLE
  8
ボルト／ビス
  6
CONTINUOUS
 10
27.111498
 20
-72.073687
 40
0.166668
  0
CIRCLE
  8
ボルト／ビス
  6
CONTINUOUS
 10
27.111498
 20
-72.073687
 40
0.133333
  0
CIRCLE
  8
ボルト／ビス
  6
CONTINUOUS
 10
27.111498
 20
-74.217022
 40
0.166668
  0
CIRCLE
  8
ボルト／ビス
  6
CONTINUOUS
 10
27.111498
 20
-74.217022
 40
0.133333
  0
CIRCLE
  8
ボルト／ビス
  6
CONTINUOUS
 10
111.304528
 20
-72.073687
 40
0.166668
  0
CIRCLE
  8
ボルト／ビス
  6
CONTINUOUS
 10
111.304528
 20
-72.073687
 40
0.133333
  0
CIRCLE
  8
ボルト／ビス
  6
CONTINUOUS
 10
111.304528
 20
-74.217022
 40
0.166668
  0
CIRCLE
  8
ボルト／ビス
  6
CONTINUOUS
 10
111.304528
 20
-74.217022
 40
0.133333
  0
CIRCLE
  8
ボルト／ビス
  6
CONTINUOUS
 10
59.348473
 20
23.351035
 40
0.166668
  0
CIRCLE
  8
ボルト／ビス
  6
CONTINUOUS
 10
59.348473
 20
23.351035
 40
0.133333
  0
CIRCLE
  8
ボルト／ビス
  6
CONTINUOUS
 10
61.491807
 20
23.351035
 40
0.166668
  0
CIRCLE
  8
ボルト／ビス
  6
CONTINUOUS
 10
61.491807
 20
23.351035
 40
0.133333
  0
CIRCLE
  8
ボルト／ビス
  6
CONTINUOUS
 10
59.348473
 20
70.8774
 40
0.166668
  0
CIRCLE
  8
ボルト／ビス
  6
CONTINUOUS
 10
59.348473
 20
70.8774
 40
0.133333
  0
CIRCLE
  8
ボルト／ビス
  6
CONTINUOUS
 10
61.491807
 20
70.8774
 40
0.166668
  0
CIRCLE
  8
ボルト／ビス
  6
CONTINUOUS
 10
61.491807
 20
70.8774
 40
0.133333
  0
TEXT
  7
TextStyle03
  8
文字
  6
CONTINUOUS
 10
-21.2
 20
9.8
  1
は排水穴位置を示す
 40
3.0
 72
     5
 11
8.8
 21
9.8
  0
TEXT
  7
TextStyle03
  8
文字
  6
CONTINUOUS
 10
-139.75
 20
87.775
  1
アンカーピッチ
 40
3.0
 72
     5
 11
-116.5
 21
87.775
  0
TEXT
  7
TextStyle03
  8
文字
  6
CONTINUOUS
 10
-139.75
 20
-0.325
  1
アンカーピッチ
 40
3.0
 50
90.0
 72
     5
 11
-139.75
 21
22.925
  0
TEXT
  7
TextStyle03
  8
文字
  6
CONTINUOUS
 10
154.525
 20
11.2
  1
×　２枚
 40
4.0
 72
     5
 11
172.025
 21
11.2
  0
TEXT
  7
TextStyle03
  8
文字
  6
CONTINUOUS
 10
154.525
 20
58.025
  1
×　右２枚
 40
4.0
 72
     5
 11
176.525
 21
58.025
  0
TEXT
  7
TextStyle03
  8
文字
  6
CONTINUOUS
 10
154.525
 20
53.525
  1
×　左２枚
 40
4.0
 72
     5
 11
176.525
 21
53.525
  0
TEXT
  7
TextStyle03
  8
文字
  6
CONTINUOUS
 10
-22.7
 20
56.45
  1
バランスステー
 40
3.0
 72
     5
 11
0.55
 21
56.45
  0
TEXT
  7
TextStyle03
  8
文字
  6
CONTINUOUS
 10
-21.4
 20
2.55
  1
はケーシング位置を示す
 40
3.0
 72
     5
 11
15.35
 21
2.55
  0
TEXT
  7
TextStyle03
  8
文字
  6
CONTINUOUS
 10
-21.4
 20
-0.825
  1
４ヶ所中1ヶ所に設定
 40
3.0
 72
     5
 11
10.2875
 21
-0.825
  0
TEXT
  7
TextStyle03
  8
文字
  6
CONTINUOUS
 10
-27.5
 20
-6.425
  1
アームユニット数　４ヶ所
 40
3.0
 72
     5
 11
12.625
 21
-6.425
  0
TEXT
  7
TextStyle03
  8
文字
  6
CONTINUOUS
 10
56.125
 20
124.075
  1
シリーズ：ＤＦＹ
 40
5.0
 72
     5
 11
100.5
 21
124.075
  0
TEXT
  7
TextStyle03
  8
文字
  6
CONTINUOUS
 10
56.125
 20
118.45
  1
　　　　　山型四角錘（上下可動）1300×2400タイプ
 40
5.0
 72
     5
 11
190.5
 21
118.45
  0
TEXT
  7
TextStyle03
  8
文字
  6
CONTINUOUS
 10
56.125
 20
112.825
  1
図面名　：外観姿図
 40
5.0
 72
     5
 11
106.125
 21
112.825
  0
TEXT
  7
TextStyle03
  8
文字
  6
CONTINUOUS
 10
56.125
 20
107.2
  1

 40
5.0
 41
1.125
  0
TEXT
  7
TextStyle03
  8
文字
  6
CONTINUOUS
 10
56.125
 20
101.575
  1
ＮＳコード：ＮＳ４Ｙ
 40
5.0
 72
     5
 11
111.75
 21
101.575
  0
INSERT
  2
*DIM_0002
  8
寸法
  6
CONTINUOUS
 10
0.0
 20
0.0
  0
INSERT
  2
*DIM_0003
  8
寸法
  6
CONTINUOUS
 10
0.0
 20
0.0
  0
INSERT
  2
*DIM_0004
  8
寸法
  6
CONTINUOUS
 10
0.0
 20
0.0
  0
INSERT
  2
*DIM_0005
  8
寸法
  6
CONTINUOUS
 10
0.0
 20
0.0
  0
INSERT
  2
*DIM_0006
  8
寸法
  6
CONTINUOUS
 10
0.0
 20
0.0
  0
LINE
  8
寸法
  6
CONTINUOUS
 10
-47.48957
 20
21.24755
 11
-46.113937
 21
18.864885
  0
LINE
  8
寸法
  6
CONTINUOUS
 10
-47.48957
 20
21.24755
 11
-48.865203
 21
18.864885
  0
LINE
  8
寸法
  6
CONTINUOUS
 10
-48.865203
 20
18.864885
 11
-46.113937
 21
18.864885
  0
LINE
  8
寸法
  6
CONTINUOUS
 10
-97.48957
 20
21.24755
 11
-98.865203
 21
18.864885
  0
LINE
  8
寸法
  6
CONTINUOUS
 10
-97.48957
 20
21.24755
 11
-96.113937
 21
18.864885
  0
LINE
  8
寸法
  6
CONTINUOUS
 10
-96.113937
 20
18.864885
 11
-98.865203
 21
18.864885
  0
INSERT
  2
*DIM_0007
  8
寸法
  6
CONTINUOUS
 10
0.0
 20
0.0
  0
LINE
  8
寸法
  6
CONTINUOUS
 10
-47.48957
 20
72.980885
 11
-46.113937
 21
75.36355
  0
LINE
  8
寸法
  6
CONTINUOUS
 10
-47.48957
 20
72.980885
 11
-48.865203
 21
75.36355
  0
LINE
  8
寸法
  6
CONTINUOUS
 10
-48.865203
 20
75.36355
 11
-46.113937
 21
75.36355
  0
LINE
  8
寸法
  6
CONTINUOUS
 10
-97.48957
 20
72.980885
 11
-98.865203
 21
75.36355
  0
LINE
  8
寸法
  6
CONTINUOUS
 10
-97.48957
 20
72.980885
 11
-96.113937
 21
75.36355
  0
LINE
  8
寸法
  6
CONTINUOUS
 10
-96.113937
 20
75.36355
 11
-98.865203
 21
75.36355
  0
LINE
  8
寸法
  6
CONTINUOUS
 10
-28.289577
 20
47.114218
 11
-25.906912
 21
45.738585
  0
LINE
  8
寸法
  6
CONTINUOUS
 10
-28.289577
 20
47.114218
 11
-25.906912
 21
48.48985
  0
LINE
  8
寸法
  6
CONTINUOUS
 10
-25.906912
 20
48.48985
 11
-25.906912
 21
45.738585
  0
LINE
  8
寸法
  6
CONTINUOUS
 10
-116.689563
 20
47.114218
 11
-119.072228
 21
45.738585
  0
LINE
  8
寸法
  6
CONTINUOUS
 10
-116.689563
 20
47.114218
 11
-119.072228
 21
48.48985
  0
LINE
  8
寸法
  6
CONTINUOUS
 10
-119.072228
 20
48.48985
 11
-119.072228
 21
45.738585
  0
INSERT
  2
*DIM_0008
  8
寸法
  6
CONTINUOUS
 10
0.0
 20
0.0
  0
INSERT
  2
*DIM_0009
  8
寸法
  6
CONTINUOUS
 10
0.0
 20
0.0
  0
INSERT
  2
*DIM_0010
  8
寸法
  6
CONTINUOUS
 10
0.0
 20
0.0
  0
INSERT
  2
*DIM_0011
  8
寸法
  6
CONTINUOUS
 10
0.0
 20
0.0
  0
INSERT
  2
*DIM_0012
  8
寸法
  6
CONTINUOUS
 10
0.0
 20
0.0
  0
LINE
  8
寸法
  6
CONTINUOUS
 10
-24.251805
 20
12.236767
 11
-22.876173
 21
9.854103
  0
LINE
  8
寸法
  6
CONTINUOUS
 10
-24.251805
 20
12.236767
 11
-25.627437
 21
9.854103
  0
LINE
  8
寸法
  6
CONTINUOUS
 10
-25.627437
 20
9.854103
 11
-22.876173
 21
9.854103
  0
LINE
  8
寸法
  6
CONTINUOUS
 10
-27.601293
 20
8.202147
 11
10.47402
 21
8.202147
  0
INSERT
  2
*DIM_0013
  8
寸法
  6
CONTINUOUS
 10
0.0
 20
0.0
  0
INSERT
  2
*DIM_0014
  8
寸法
  6
CONTINUOUS
 10
0.0
 20
0.0
  0
INSERT
  2
*DIM_0015
  8
寸法
  6
CONTINUOUS
 10
0.0
 20
0.0
  0
INSERT
  2
*DIM_0016
  8
寸法
  6
CONTINUOUS
 10
0.0
 20
0.0
  0
INSERT
  2
*DIM_0017
  8
寸法
  6
CONTINUOUS
 10
0.0
 20
0.0
  0
INSERT
  2
*DIM_0018
  8
寸法
  6
CONTINUOUS
 10
0.0
 20
0.0
  0
INSERT
  2
*DIM_0019
  8
寸法
  6
CONTINUOUS
 10
0.0
 20
0.0
  0
INSERT
  2
*DIM_0020
  8
寸法
  6
CONTINUOUS
 10
0.0
 20
0.0
  0
INSERT
  2
*DIM_0021
  8
寸法
  6
CONTINUOUS
 10
0.0
 20
0.0
  0
INSERT
  2
*DIM_0022
  8
寸法
  6
CONTINUOUS
 10
0.0
 20
0.0
  0
INSERT
  2
*DIM_0023
  8
寸法
  6
CONTINUOUS
 10
0.0
 20
0.0
  0
INSERT
  2
*DIM_0024
  8
寸法
  6
CONTINUOUS
 10
0.0
 20
0.0
  0
INSERT
  2
*DIM_0025
  8
寸法
  6
CONTINUOUS
 10
0.0
 20
0.0
  0
INSERT
  2
*DIM_0026
  8
寸法
  6
CONTINUOUS
 10
0.0
 20
0.0
  0
INSERT
  2
*DIM_0027
  8
寸法
  6
CONTINUOUS
 10
0.0
 20
0.0
  0
INSERT
  2
*DIM_0028
  8
寸法
  6
CONTINUOUS
 10
0.0
 20
0.0
  0
INSERT
  2
*DIM_0029
  8
寸法
  6
CONTINUOUS
 10
0.0
 20
0.0
  0
INSERT
  2
*DIM_0030
  8
寸法
  6
CONTINUOUS
 10
0.0
 20
0.0
  0
INSERT
  2
*GRP_0035
  8
寸法
  6
CONTINUOUS
 10
0.0
 20
0.0
  0
INSERT
  2
*DIM_0036
  8
寸法
  6
CONTINUOUS
 10
0.0
 20
0.0
  0
INSERT
  2
*DIM_0037
  8
寸法
  6
CONTINUOUS
 10
0.0
 20
0.0
  0
LINE
  8
寸法
  6
CONTINUOUS
 10
-27.601293
 20
-8.039232
 11
10.47402
 21
-8.039232
  0
INSERT
  2
*DIM_0038
  8
寸法
  6
CONTINUOUS
 10
0.0
 20
0.0
  0
INSERT
  2
*DIM_0039
  8
寸法
  6
CONTINUOUS
 10
0.0
 20
0.0
  0
INSERT
  2
*DIM_0040
  8
寸法
  6
CONTINUOUS
 10
0.0
 20
0.0
  0
LINE
  8
曲げ物
  6
CONTINUOUS
 10
116.191443
 20
25.046548
 11
93.388328
 21
-7.201797
  0
LINE
  8
曲げ物
  6
CONTINUOUS
 10
116.191443
 20
25.046548
 11
138.994557
 21
-7.201797
  0
LINE
  8
曲げ物
  6
CONTINUOUS
 10
93.388328
 20
-7.201797
 11
138.994557
 21
-7.201797
  0
LINE
  8
曲げ物
  6
CONTINUOUS
 10
136.384663
 20
79.192915
 11
136.384663
 21
46.452073
  0
LINE
  8
曲げ物
  6
CONTINUOUS
 10
119.14959
 20
79.192915
 11
95.998222
 21
46.452073
  0
LINE
  8
曲げ物
  6
CONTINUOUS
 10
136.384663
 20
46.452073
 11
95.998222
 21
46.452073
  0
LINE
  8
曲げ物
  6
CONTINUOUS
 10
136.384663
 20
79.192915
 11
119.14959
 21
79.192915
  0
LINE
  8
曲げ物
  6
CONTINUOUS
 10
119.189328
 20
58.25994
 11
127.050648
 21
66.12126
  0
LINE
  8
曲げ物
  6
CONTINUOUS
 10
124.873215
 20
62.616818
 11
122.69377
 21
60.437372
  0
LINE
  8
曲げ物
  6
CONTINUOUS
 10
123.546205
 20
63.943828
 11
121.36676
 21
61.764382
  0
LINE
  8
曲げ物
  6
CONTINUOUS
 10
111.978392
 20
0.846023
 11
119.839712
 21
8.707343
  0
LINE
  8
曲げ物
  6
CONTINUOUS
 10
117.66228
 20
5.2029
 11
115.482835
 21
3.023455
  0
LINE
  8
曲げ物
  6
CONTINUOUS
 10
116.33527
 20
6.52991
 11
114.155825
 21
4.350465
  0
ENDSEC
  0
EOF
