  0
SECTION
  2
HEADER
  9
$EXTMIN
 10
-210.0
 20
-148.5
  9
$EXTMAX
 10
210.0
 20
148.5
  9
$PDMODE
 70
    32
  9
$PDSIZE
 40
1.5
  9
$LTSCALE
 40
10.0
  0
ENDSEC
  0
SECTION
  2
TABLES
  0
TABLE
  2
LTYPE
 70
    15
  0
LTYPE
  2
CONTINUOUS
 70
    64
  3
実線
 72
    65
 73
     0
 40
0.0
  0
LTYPE
  2
DASHED
 70
    64
  3
破線A
 72
    65
 73
     2
 40
0.6
 49
0.4
 49
-0.2
  0
LTYPE
  2
DASHEDX2
 70
    64
  3
破線B
 72
    65
 73
     2
 40
1.3
 49
0.9
 49
-0.4
  0
LTYPE
  2
DASHDOT
 70
    64
  3
１点鎖線A
 72
    65
 73
     4
 40
0.5375
 49
0.375
 49
-0.05
 49
0.0625
 49
-0.05
  0
LTYPE
  2
DASHDOTX2
 70
    64
  3
１点鎖線B
 72
    65
 73
     4
 40
1.075
 49
0.75
 49
-0.1
 49
0.125
 49
-0.1
  0
LTYPE
  2
DIVIDE2
 70
    64
  3
２点鎖線A
 72
    65
 73
     6
 40
0.5125
 49
0.3
 49
-0.0375
 49
0.05
 49
-0.0375
 49
0.05
 49
-0.0375
  0
LTYPE
  2
DIVIDE
 70
    64
  3
２点鎖線B
 72
    65
 73
     6
 40
1.05
 49
0.55
 49
-0.1
 49
0.1
 49
-0.1
 49
0.1
 49
-0.1
  0
LTYPE
  2
DOT
 70
    64
  3
点線A
 72
    65
 73
     2
 40
0.1125
 49
0.0625
 49
-0.05
  0
LTYPE
  2
DOTX2
 70
    64
  3
点線B
 72
    65
 73
     2
 40
0.275
 49
0.15
 49
-0.125
  0
LTYPE
  2
CONTINUOUS
 70
    64
  3
実線
 72
    65
 73
     0
 40
0.0
  0
LTYPE
  2
CONTINUOUS
 70
    64
  3
実線
 72
    65
 73
     0
 40
0.0
  0
LTYPE
  2
CONTINUOUS
 70
    64
  3
実線
 72
    65
 73
     0
 40
0.0
  0
LTYPE
  2
CONTINUOUS
 70
    64
  3
実線
 72
    65
 73
     0
 40
0.0
  0
LTYPE
  2
CONTINUOUS
 70
    64
  3
実線
 72
    65
 73
     0
 40
0.0
  0
LTYPE
  2
CONTINUOUS
 70
    64
  3
実線
 72
    65
 73
     0
 40
0.0
  0
ENDTAB
  0
TABLE
  2
LAYER
 70
    34
  0
LAYER
  2
通り芯
 70
     0
 62
    15
  6
CONTINUOUS
  0
LAYER
  2
補助線
 70
     0
 62
    16
  6
DOT
  0
LAYER
  2
躯体
 70
     0
 62
    31
  6
CONTINUOUS
  0
LAYER
  2
型材
 70
     0
 62
    32
  6
CONTINUOUS
  0
LAYER
  2
型材断面
 70
     0
 62
    47
  6
CONTINUOUS
  0
LAYER
  2
ガラス
 70
     0
 62
    48
  6
CONTINUOUS
  0
LAYER
  2
ゴム等
 70
     0
 62
    63
  6
CONTINUOUS
  0
LAYER
  2
ボルト／ビス
 70
     0
 62
    64
  6
CONTINUOUS
  0
LAYER
  2
文字
 70
     0
 62
    79
  6
CONTINUOUS
  0
LAYER
  2
寸法
 70
     0
 62
    80
  6
CONTINUOUS
  0
LAYER
  2
ﾊｯﾁﾝｸﾞ
 70
     0
 62
    95
  6
CONTINUOUS
  0
LAYER
  2
別途部材
 70
     0
 62
    96
  6
CONTINUOUS
  0
LAYER
  2
曲げ物
 70
     0
 62
   111
  6
CONTINUOUS
  0
LAYER
  2
鉄骨等
 70
     0
 62
   112
  6
CONTINUOUS
  0
LAYER
  2
St
 70
     0
 62
   127
  6
CONTINUOUS
  0
LAYER
  2
その他部品等
 70
     0
 62
   128
  6
CONTINUOUS
  0
LAYER
  2
ｶﾞｽｹｯﾄ
 70
     0
 62
   143
  6
CONTINUOUS
  0
LAYER
  2
ｽｹｯﾁ
 70
     0
 62
    14
  6
CONTINUOUS
  0
LAYER
  2
0
 70
     0
 62
    17
  6
CONTINUOUS
  0
LAYER
  2
1
 70
     0
 62
    30
  6
CONTINUOUS
  0
LAYER
  2
4
 70
     0
 62
    33
  6
CONTINUOUS
  0
LAYER
  2
ﾚｲﾔ3
 70
     0
 62
    46
  6
CONTINUOUS
  0
LAYER
  2
外形線
 70
     0
 62
    49
  6
CONTINUOUS
  0
LAYER
  2
部品
 70
     0
 62
    14
  6
CONTINUOUS
  0
LAYER
  2
サッシ芯
 70
     0
 62
    17
  6
DASHDOTX2
  0
LAYER
  2
寸法線
 70
     0
 62
    62
  6
CONTINUOUS
  0
LAYER
  2
姿図外形線
 70
     0
 62
    65
  6
CONTINUOUS
  0
LAYER
  2
姿補助線
 70
     0
 62
    30
  6
CONTINUOUS
  0
LAYER
  2
透視線
 70
     0
 62
    78
  6
DOT
  0
LAYER
  2
用紙
 70
     0
 62
    81
  6
CONTINUOUS
  0
LAYER
  2
実線図枠
 70
     0
 62
    94
  6
CONTINUOUS
  0
LAYER
  2
補助図枠
 70
     0
 62
    97
  6
CONTINUOUS
  0
LAYER
  2
建具記号
 70
     0
 62
   110
  6
CONTINUOUS
  0
LAYER
  2
補助文字
 70
     0
 62
   113
  6
CONTINUOUS
  0
ENDTAB
  0
TABLE
  2
STYLE
 70
    10
  0
STYLE
  2
STANDARD
 70
     0
 40
1.0
 41
1.0
 42
1.0
 50
0.0
 71
     0
  3
TXT
  4
BIGFONT
  0
STYLE
  2
TATE
 70
     4
 40
1.0
 41
1.0
 42
1.0
 50
0.0
 71
     0
  3
TXT
  4
BIGFONT
  0
STYLE
  2
TextStyle03
 70
     0
 40
1.0
 41
1.0
 42
1.0
 50
0.0
 71
     0
  3
MONOTXT
  4
BIGFONT
  0
STYLE
  2
TextStyle04
 70
     0
 40
1.0
 41
1.0
 42
1.0
 50
0.0
 71
     0
  3
MONOTXT
  4
BIGFONT
  0
STYLE
  2
TextStyle05
 70
     0
 40
1.0
 41
1.0
 42
1.0
 50
0.0
 71
     0
  3
MONOTXT
  4
BIGFONT
  0
STYLE
  2
TextStyle06
 70
     0
 40
1.0
 41
1.0
 42
1.0
 50
0.0
 71
     0
  3
MONOTXT
  4
BIGFONT
  0
STYLE
  2
TextStyle07
 70
     0
 40
1.0
 41
1.0
 42
1.0
 50
0.0
 71
     0
  3
MONOTXT
  4
BIGFONT
  0
STYLE
  2
TextStyle08
 70
     0
 40
1.0
 41
1.0
 42
1.0
 50
0.0
 71
     0
  3
MONOTXT
  4
BIGFONT
  0
STYLE
  2
TextStyle09
 70
     0
 40
1.0
 41
1.0
 42
1.0
 50
0.0
 71
     0
  3
MONOTXT
  4
BIGFONT
  0
STYLE
  2
TextStyle10
 70
     0
 40
1.0
 41
1.0
 42
1.0
 50
0.0
 71
     0
  3
MONOTXT
  4
BIGFONT
  0
ENDTAB
  0
ENDSEC
  0
SECTION
  2
BLOCKS
  0
BLOCK
  2
*GRP_0001
 70
    65
 10
0.0
 20
0.0
  0
LINE
  8
型材断面
  6
CONTINUOUS
 10
195.0
 20
133.5
 11
195.0
 21
-133.5
  0
LINE
  8
型材断面
  6
CONTINUOUS
 10
195.0
 20
-133.5
 11
-185.0
 21
-133.5
  0
LINE
  8
型材断面
  6
CONTINUOUS
 10
-185.0
 20
-133.5
 11
-185.0
 21
133.5
  0
LINE
  8
型材断面
  6
CONTINUOUS
 10
195.0
 20
133.5
 11
-185.0
 21
133.5
  0
LINE
  8
型材断面
  6
CONTINUOUS
 10
145.0
 20
-133.5
 11
145.0
 21
-118.5
  0
LINE
  8
型材断面
  6
CONTINUOUS
 10
195.0
 20
-118.5
 11
145.0
 21
-118.5
  0
ENDBLK
  0
BLOCK
  2
*DIM_0002
 70
    65
 10
0.0
 20
0.0
  0
LINE
  8
寸法
  6
BYBLOCK
 62
     0
 10
15.81096
 20
75.144522
 11
15.81096
 21
21.811188
  0
POINT
  8
寸法
 62
     0
 10
15.81096
 20
21.811188
  0
TEXT
  7
TextStyle03
  8
寸法
  6
CONTINUOUS
 62
     0
 10
15.425
 20
36.75625
  1
呼称寸法＝1600
 40
3.0
 50
90.0
 72
     5
 11
15.425
 21
60.19375
  0
ENDBLK
  0
BLOCK
  2
*DIM_0003
 70
    65
 10
0.0
 20
0.0
  0
LINE
  8
寸法
  6
BYBLOCK
 62
     0
 10
-97.48957
 20
12.228522
 11
-97.48957
 21
6.775155
  0
LINE
  8
寸法
  6
BYBLOCK
 62
     0
 10
-47.48957
 20
12.228522
 11
-47.48957
 21
6.775155
  0
LINE
  8
寸法
  6
BYBLOCK
 62
     0
 10
-97.48957
 20
6.775155
 11
-47.48957
 21
6.775155
  0
POINT
  8
寸法
 62
     0
 10
-97.48957
 20
6.775155
  0
POINT
  8
寸法
 62
     0
 10
-47.48957
 20
6.775155
  0
TEXT
  7
TextStyle03
  8
寸法
  6
CONTINUOUS
 62
     0
 10
-75.80625
 20
7.15
  1
1500
 40
3.0
 72
     5
 11
-69.24375
 21
7.15
  0
ENDBLK
  0
BLOCK
  2
*DIM_0004
 70
    65
 10
0.0
 20
0.0
  0
LINE
  8
寸法
  6
BYBLOCK
 62
     0
 10
-112.48957
 20
78.144522
 11
-112.48957
 21
95.852232
  0
LINE
  8
寸法
  6
BYBLOCK
 62
     0
 10
-105.822902
 20
82.061188
 11
-105.822902
 21
95.852232
  0
LINE
  8
寸法
  6
BYBLOCK
 62
     0
 10
-112.48957
 20
95.852232
 11
-105.822902
 21
95.852232
  0
POINT
  8
寸法
 62
     0
 10
-112.48957
 20
95.852232
  0
POINT
  8
寸法
 62
     0
 10
-105.822902
 20
95.852232
  0
TEXT
  7
TextStyle03
  8
寸法
  6
CONTINUOUS
 62
     0
 10
-111.6125
 20
96.2
  1
200
 40
3.0
 72
     5
 11
-106.7375
 21
96.2
  0
ENDBLK
  0
BLOCK
  2
*DIM_0005
 70
    65
 10
0.0
 20
0.0
  0
LINE
  8
寸法
  6
BYBLOCK
 62
     0
 10
-89.156238
 20
82.061188
 11
-89.156238
 21
95.852232
  0
LINE
  8
寸法
  6
BYBLOCK
 62
     0
 10
-105.822902
 20
95.852232
 11
-89.156238
 21
95.852232
  0
POINT
  8
寸法
 62
     0
 10
-105.822902
 20
95.852232
  0
POINT
  8
寸法
 62
     0
 10
-89.156238
 20
95.852232
  0
TEXT
  7
TextStyle03
  8
寸法
  6
CONTINUOUS
 62
     0
 10
-99.9625
 20
96.2
  1
500
 40
3.0
 72
     5
 11
-95.0875
 21
96.2
  0
ENDBLK
  0
BLOCK
  2
*DIM_0006
 70
    65
 10
0.0
 20
0.0
  0
LINE
  8
寸法
  6
BYBLOCK
 62
     0
 10
-72.48957
 20
82.061188
 11
-72.48957
 21
95.852232
  0
LINE
  8
寸法
  6
BYBLOCK
 62
     0
 10
-89.156238
 20
95.852232
 11
-72.48957
 21
95.852232
  0
POINT
  8
寸法
 62
     0
 10
-72.48957
 20
95.852232
  0
TEXT
  7
TextStyle03
  8
寸法
  6
CONTINUOUS
 62
     0
 10
-83.2875
 20
96.2
  1
500
 40
3.0
 72
     5
 11
-78.4125
 21
96.2
  0
ENDBLK
  0
BLOCK
  2
*DIM_0007
 70
    65
 10
0.0
 20
0.0
  0
LINE
  8
寸法
  6
BYBLOCK
 62
     0
 10
-55.822902
 20
82.061188
 11
-55.822902
 21
95.852232
  0
LINE
  8
寸法
  6
BYBLOCK
 62
     0
 10
-72.48957
 20
95.852232
 11
-55.822902
 21
95.852232
  0
POINT
  8
寸法
 62
     0
 10
-55.822902
 20
95.852232
  0
TEXT
  7
TextStyle03
  8
寸法
  6
CONTINUOUS
 62
     0
 10
-66.6125
 20
96.2
  1
500
 40
3.0
 72
     5
 11
-61.7375
 21
96.2
  0
ENDBLK
  0
BLOCK
  2
*DIM_0008
 70
    65
 10
0.0
 20
0.0
  0
LINE
  8
寸法
  6
BYBLOCK
 62
     0
 10
-39.156238
 20
82.061188
 11
-39.156238
 21
95.852232
  0
LINE
  8
寸法
  6
BYBLOCK
 62
     0
 10
-55.822902
 20
95.852232
 11
-39.156238
 21
95.852232
  0
POINT
  8
寸法
 62
     0
 10
-39.156238
 20
95.852232
  0
TEXT
  7
TextStyle03
  8
寸法
  6
CONTINUOUS
 62
     0
 10
-49.9625
 20
96.2
  1
500
 40
3.0
 72
     5
 11
-45.0875
 21
96.2
  0
ENDBLK
  0
BLOCK
  2
*DIM_0009
 70
    65
 10
0.0
 20
0.0
  0
LINE
  8
寸法
  6
BYBLOCK
 62
     0
 10
-32.48957
 20
78.144522
 11
-32.48957
 21
95.852232
  0
LINE
  8
寸法
  6
BYBLOCK
 62
     0
 10
-39.156238
 20
95.852232
 11
-32.48957
 21
95.852232
  0
POINT
  8
寸法
 62
     0
 10
-32.48957
 20
95.852232
  0
TEXT
  7
TextStyle03
  8
寸法
  6
CONTINUOUS
 62
     0
 10
-38.2875
 20
96.2
  1
200
 40
3.0
 72
     5
 11
-33.4125
 21
96.2
  0
ENDBLK
  0
BLOCK
  2
*DIM_0010
 70
    65
 10
0.0
 20
0.0
  0
LINE
  8
寸法
  6
BYBLOCK
 62
     0
 10
-118.974417
 20
55.977852
 11
-137.193537
 21
55.977852
  0
LINE
  8
寸法
  6
BYBLOCK
 62
     0
 10
-137.193537
 20
70.977852
 11
-137.193537
 21
55.977852
  0
POINT
  8
寸法
 62
     0
 10
-137.193537
 20
55.977852
  0
TEXT
  7
TextStyle03
  8
寸法
  6
CONTINUOUS
 62
     0
 10
-137.575
 20
61.0125
  1
450
 40
3.0
 50
90.0
 72
     5
 11
-137.575
 21
65.8875
  0
ENDBLK
  0
BLOCK
  2
*DIM_0011
 70
    65
 10
0.0
 20
0.0
  0
LINE
  8
寸法
  6
BYBLOCK
 62
     0
 10
-118.974417
 20
40.977852
 11
-137.193537
 21
40.977852
  0
LINE
  8
寸法
  6
BYBLOCK
 62
     0
 10
-137.193537
 20
55.977852
 11
-137.193537
 21
40.977852
  0
POINT
  8
寸法
 62
     0
 10
-137.193537
 20
40.977852
  0
TEXT
  7
TextStyle03
  8
寸法
  6
CONTINUOUS
 62
     0
 10
-137.575
 20
46.0125
  1
450
 40
3.0
 50
90.0
 72
     5
 11
-137.575
 21
50.8875
  0
ENDBLK
  0
BLOCK
  2
*DIM_0012
 70
    65
 10
0.0
 20
0.0
  0
LINE
  8
寸法
  6
BYBLOCK
 62
     0
 10
-118.974417
 20
25.977852
 11
-137.193537
 21
25.977852
  0
LINE
  8
寸法
  6
BYBLOCK
 62
     0
 10
-137.193537
 20
40.977852
 11
-137.193537
 21
25.977852
  0
POINT
  8
寸法
 62
     0
 10
-137.193537
 20
25.977852
  0
TEXT
  7
TextStyle03
  8
寸法
  6
CONTINUOUS
 62
     0
 10
-137.575
 20
31.0125
  1
450
 40
3.0
 50
90.0
 72
     5
 11
-137.575
 21
35.8875
  0
ENDBLK
  0
BLOCK
  2
*DIM_0013
 70
    65
 10
0.0
 20
0.0
  0
LINE
  8
寸法
  6
BYBLOCK
 62
     0
 10
-118.974417
 20
75.14452
 11
-137.193537
 21
75.14452
  0
LINE
  8
寸法
  6
BYBLOCK
 62
     0
 10
-118.974417
 20
70.977852
 11
-137.193537
 21
70.977852
  0
LINE
  8
寸法
  6
BYBLOCK
 62
     0
 10
-137.193537
 20
75.14452
 11
-137.193537
 21
70.977852
  0
POINT
  8
寸法
 62
     0
 10
-137.193537
 20
75.14452
  0
POINT
  8
寸法
 62
     0
 10
-137.193537
 20
70.977852
  0
TEXT
  7
TextStyle03
  8
寸法
  6
CONTINUOUS
 62
     0
 10
-137.575
 20
70.6125
  1
125
 40
3.0
 50
90.0
 72
     5
 11
-137.575
 21
75.4875
  0
ENDBLK
  0
BLOCK
  2
*DIM_0014
 70
    65
 10
0.0
 20
0.0
  0
LINE
  8
寸法
  6
BYBLOCK
 62
     0
 10
-118.974417
 20
21.811188
 11
-137.193537
 21
21.811188
  0
LINE
  8
寸法
  6
BYBLOCK
 62
     0
 10
-137.193537
 20
25.977852
 11
-137.193537
 21
21.811188
  0
POINT
  8
寸法
 62
     0
 10
-137.193537
 20
21.811188
  0
TEXT
  7
TextStyle03
  8
寸法
  6
CONTINUOUS
 62
     0
 10
-137.575
 20
21.4375
  1
125
 40
3.0
 50
90.0
 72
     5
 11
-137.575
 21
26.3125
  0
ENDBLK
  0
BLOCK
  2
*DIM_0015
 70
    65
 10
0.0
 20
0.0
  0
LINE
  8
寸法
  6
BYBLOCK
 62
     0
 10
-32.48957
 20
-41.23533
 11
-32.48957
 21
-43.62927
  0
LINE
  8
寸法
  6
BYBLOCK
 62
     0
 10
-112.48957
 20
-43.62927
 11
-32.48957
 21
-43.62927
  0
POINT
  8
寸法
 62
     0
 10
-32.48957
 20
-43.62927
  0
TEXT
  7
TextStyle03
  8
寸法
  6
CONTINUOUS
 62
     0
 10
-84.21875
 20
-43.275
  1
呼称寸法＝2400
 40
3.0
 72
     5
 11
-60.78125
 21
-43.275
  0
ENDBLK
  0
BLOCK
  2
*DIM_0016
 70
    65
 10
0.0
 20
0.0
  0
LINE
  8
寸法
  6
BYBLOCK
 62
     0
 10
-24.140327
 20
25.511188
 11
-17.319538
 21
25.511188
  0
LINE
  8
寸法
  6
BYBLOCK
 62
     0
 10
-17.319538
 20
21.811188
 11
-17.319538
 21
25.511188
  0
POINT
  8
寸法
 62
     0
 10
-17.319538
 20
21.811188
  0
POINT
  8
寸法
 62
     0
 10
-17.319538
 20
25.511188
  0
TEXT
  7
TextStyle03
  8
寸法
  6
CONTINUOUS
 62
     0
 10
-17.725
 20
15.9875
  1
111
 40
3.0
 50
90.0
 72
     5
 11
-17.725
 21
20.8625
  0
ENDBLK
  0
BLOCK
  2
*DIM_0017
 70
    65
 10
0.0
 20
0.0
  0
LINE
  8
寸法
  6
BYBLOCK
 62
     0
 10
-24.140327
 20
71.444522
 11
-17.319538
 21
71.444522
  0
LINE
  8
寸法
  6
BYBLOCK
 62
     0
 10
-17.319538
 20
75.144522
 11
-17.319538
 21
71.444522
  0
POINT
  8
寸法
 62
     0
 10
-17.319538
 20
75.144522
  0
POINT
  8
寸法
 62
     0
 10
-17.319538
 20
71.444522
  0
TEXT
  7
TextStyle03
  8
寸法
  6
CONTINUOUS
 62
     0
 10
-17.725
 20
76.1125
  1
111
 40
3.0
 50
90.0
 72
     5
 11
-17.725
 21
80.9875
  0
ENDBLK
  0
BLOCK
  2
*DIM_0018
 70
    65
 10
0.0
 20
0.0
  0
LINE
  8
寸法
  6
CONTINUOUS
 10
-116.656238
 20
-89.75965
 11
-116.656238
 21
-38.296695
  0
LINE
  8
寸法
  6
CONTINUOUS
 10
-28.322902
 20
-89.75965
 11
-28.322902
 21
-38.296695
  0
LINE
  8
寸法
  6
CONTINUOUS
 10
-116.656238
 20
-38.296695
 11
-28.322902
 21
-38.296695
  0
POINT
  8
寸法
 10
-116.656238
 20
-38.296695
  0
POINT
  8
寸法
 10
-28.322902
 20
-38.296695
  0
TEXT
  7
TextStyle03
  8
寸法
  6
CONTINUOUS
 10
-75.78125
 20
-37.925
  1
2650
 40
3.0
 72
     5
 11
-69.21875
 21
-37.925
  0
ENDBLK
  0
BLOCK
  2
*DIM_0019
 70
    65
 10
0.0
 20
0.0
  0
LINE
  8
寸法
  6
CONTINUOUS
 10
-112.48957
 20
-43.62927
 11
-116.656238
 21
-43.62927
  0
POINT
  8
寸法
 10
-112.48957
 20
-43.62927
  0
POINT
  8
寸法
 10
-116.656238
 20
-43.62927
  0
TEXT
  7
TextStyle03
  8
寸法
  6
CONTINUOUS
 10
-122.0625
 20
-43.275
  1
125
 40
3.0
 72
     5
 11
-117.1875
 21
-43.275
  0
ENDBLK
  0
BLOCK
  2
*DIM_0020
 70
    65
 10
0.0
 20
0.0
  0
LINE
  8
寸法
  6
CONTINUOUS
 10
-32.48957
 20
-43.62927
 11
-28.322902
 21
-43.62927
  0
POINT
  8
寸法
 10
-32.48957
 20
-43.62927
  0
POINT
  8
寸法
 10
-28.322902
 20
-43.62927
  0
TEXT
  7
TextStyle03
  8
寸法
  6
CONTINUOUS
 10
-27.8125
 20
-43.275
  1
125
 40
3.0
 72
     5
 11
-22.9375
 21
-43.275
  0
ENDBLK
  0
BLOCK
  2
*DIM_0021
 70
    65
 10
0.0
 20
0.0
  0
LINE
  8
寸法
  6
CONTINUOUS
 10
-28.726235
 20
-97.516335
 11
-5.79409
 21
-97.516335
  0
LINE
  8
寸法
  6
CONTINUOUS
 10
-27.322902
 20
-90.75965
 11
-5.79409
 21
-90.75965
  0
LINE
  8
寸法
  6
CONTINUOUS
 10
-5.79409
 20
-97.516335
 11
-5.79409
 21
-90.75965
  0
POINT
  8
寸法
 10
-5.79409
 20
-97.516335
  0
POINT
  8
寸法
 10
-5.79409
 20
-90.75965
  0
TEXT
  7
TextStyle03
  8
寸法
  6
CONTINUOUS
 10
-2.8
 20
-98.275
  1
202.7
 40
3.0
 50
90.0
 72
     5
 11
-2.8
 21
-90.025
  0
ENDBLK
  0
BLOCK
  2
*DIM_0022
 70
    65
 10
0.0
 20
0.0
  0
LINE
  8
寸法
  6
CONTINUOUS
 10
-60.035063
 20
-59.69049
 11
-5.79409
 21
-59.69049
  0
LINE
  8
寸法
  6
CONTINUOUS
 10
-5.79409
 20
-90.75965
 11
-5.79409
 21
-59.69049
  0
POINT
  8
寸法
 10
-5.79409
 20
-59.69049
  0
TEXT
  7
TextStyle03
  8
寸法
  6
CONTINUOUS
 10
-6.175
 20
-77.6875
  1
932
 40
3.0
 50
90.0
 72
     5
 11
-6.175
 21
-72.8125
  0
ENDBLK
  0
BLOCK
  2
*GRP_0023
 70
    65
 10
0.0
 20
0.0
  0
LINE
  8
型材断面
  6
DOT
 10
27.75136
 20
-75.75965
 11
27.75136
 21
-77.971112
  0
LINE
  8
型材断面
  6
DOT
 10
28.584692
 20
-77.9711
 11
28.584692
 21
-78.437767
  0
LINE
  8
型材断面
  6
DOT
 10
116.084695
 20
-75.75965
 11
116.084695
 21
-77.971112
  0
LINE
  8
型材断面
  6
DOT
 10
115.251362
 20
-77.9711
 11
115.251362
 21
-78.437767
  0
LINE
  8
型材断面
  6
DOT
 10
27.75136
 20
-77.971112
 11
116.084695
 21
-77.971112
  0
LINE
  8
型材断面
  6
DOT
 10
28.584692
 20
-78.437767
 11
115.251362
 21
-78.437767
  0
LINE
  8
型材断面
  6
DOT
 10
27.75136
 20
-75.75965
 11
116.084695
 21
-75.75965
  0
LINE
  8
型材断面
  6
DOT
 10
27.716005
 20
-75.677138
 11
57.186643
 21
-46.206505
  0
LINE
  8
型材断面
  6
DOT
 10
27.75136
 20
-75.712495
 11
57.257352
 21
-46.206505
  0
LINE
  8
型材断面
  6
DOT
 10
60.46352
 20
-44.69049
 11
83.372535
 21
-44.69049
  0
LINE
  8
型材断面
  6
DOT
 10
58.43711
 20
-45.869502
 11
85.398945
 21
-45.869502
  0
LINE
  8
型材断面
  6
DOT
 10
116.12005
 20
-75.677138
 11
86.649412
 21
-46.206505
  0
LINE
  8
型材断面
  6
DOT
 10
116.084695
 20
-75.712495
 11
86.578702
 21
-46.206505
  0
LINE
  8
ゴム等
  6
DOT
 10
28.941155
 20
-75.610905
 11
30.615425
 21
-74.99808
  0
LINE
  8
ゴム等
  6
DOT
 10
30.615425
 20
-74.99808
 11
32.294177
 21
-74.603185
  0
LINE
  8
ゴム等
  6
DOT
 10
114.8949
 20
-75.610905
 11
113.22063
 21
-74.99808
  0
LINE
  8
ゴム等
  6
DOT
 10
113.22063
 20
-74.99808
 11
111.541878
 21
-74.603185
  0
LINE
  8
ゴム等
  6
DOT
 10
30.615425
 20
-74.99808
 11
113.22063
 21
-74.99808
  0
LINE
  8
ゴム等
  6
DOT
 10
28.941155
 20
-75.610905
 11
114.8949
 21
-75.610905
  0
LINE
  8
ゴム等
  6
DOT
 10
32.294177
 20
-74.603185
 11
59.50157
 21
-47.395792
  0
LINE
  8
ゴム等
  6
DOT
 10
30.615425
 20
-74.99808
 11
59.056265
 21
-46.557243
  0
LINE
  8
ゴム等
  6
DOT
 10
28.941155
 20
-75.610905
 11
58.68256
 21
-45.869502
  0
LINE
  8
ゴム等
  6
DOT
 10
111.541878
 20
-74.603185
 11
84.334485
 21
-47.395792
  0
LINE
  8
ゴム等
  6
DOT
 10
113.22063
 20
-74.99808
 11
84.77979
 21
-46.557243
  0
LINE
  8
ゴム等
  6
DOT
 10
59.056265
 20
-46.557243
 11
84.77979
 21
-46.557243
  0
LINE
  8
ゴム等
  6
DOT
 10
114.8949
 20
-75.610905
 11
85.153495
 21
-45.869502
  0
LINE
  8
ゴム等
  6
DOT
 10
58.796853
 20
-44.57264
 11
60.46352
 21
-44.57264
  0
LINE
  8
ゴム等
  6
DOT
 10
60.46352
 20
-44.57264
 11
60.46352
 21
-45.81479
  0
LINE
  8
ゴム等
  6
DOT
 10
58.538962
 20
-45.76765
 11
60.46352
 21
-45.76765
  0
LINE
  8
ゴム等
  6
DOT
 10
60.46352
 20
-45.81479
 11
58.491822
 21
-45.81479
  0
LINE
  8
ゴム等
  6
DOT
 10
57.162985
 20
-46.206505
 11
58.100105
 21
-46.206505
  0
LINE
  8
ゴム等
  6
DOT
 10
57.162985
 20
-46.206505
 11
58.796853
 21
-44.57264
  0
LINE
  8
ゴム等
  6
DOT
 10
58.100105
 20
-46.206505
 11
58.538962
 21
-45.76765
  0
LINE
  8
ゴム等
  6
DOT
 10
58.68256
 20
-45.869502
 11
59.056265
 21
-46.557243
  0
LINE
  8
ゴム等
  6
DOT
 10
59.056265
 20
-46.557243
 11
59.50157
 21
-47.395792
  0
LINE
  8
ゴム等
  6
DOT
 10
85.039202
 20
-44.57264
 11
83.372535
 21
-44.57264
  0
LINE
  8
ゴム等
  6
DOT
 10
83.372535
 20
-44.57264
 11
83.372535
 21
-45.81479
  0
LINE
  8
ゴム等
  6
DOT
 10
85.297092
 20
-45.76765
 11
83.372535
 21
-45.76765
  0
LINE
  8
ゴム等
  6
DOT
 10
83.372535
 20
-45.81479
 11
85.344233
 21
-45.81479
  0
LINE
  8
ゴム等
  6
DOT
 10
86.67307
 20
-46.206505
 11
85.73595
 21
-46.206505
  0
LINE
  8
ゴム等
  6
DOT
 10
86.67307
 20
-46.206505
 11
85.039202
 21
-44.57264
  0
LINE
  8
ゴム等
  6
DOT
 10
85.73595
 20
-46.206505
 11
85.297092
 21
-45.76765
  0
LINE
  8
ゴム等
  6
DOT
 10
85.153495
 20
-45.869502
 11
84.77979
 21
-46.557243
  0
LINE
  8
ゴム等
  6
DOT
 10
84.77979
 20
-46.557243
 11
84.334485
 21
-47.395792
  0
LINE
  8
ゴム等
  6
DOT
 10
59.50157
 20
-47.395792
 11
70.619132
 21
-47.395792
  0
LINE
  8
ゴム等
  6
DOT
 10
73.216922
 20
-47.395792
 11
84.334485
 21
-47.395792
  0
LINE
  8
ゴム等
  6
DOT
 10
70.619132
 20
-47.395792
 11
71.484692
 21
-46.557243
  0
LINE
  8
ゴム等
  6
DOT
 10
72.351362
 20
-46.557243
 11
73.216922
 21
-47.395792
  0
LINE
  8
ゴム等
  6
DOT
 10
72.351362
 20
-46.557243
 11
72.351362
 21
-74.99808
  0
LINE
  8
ゴム等
  6
DOT
 10
71.484692
 20
-46.557243
 11
71.484692
 21
-74.99808
  0
LINE
  8
ゴム等
  6
DOT
 10
70.619132
 20
-47.395792
 11
70.619132
 21
-74.603185
  0
LINE
  8
ゴム等
  6
DOT
 10
73.216922
 20
-47.395792
 11
73.216922
 21
-74.603185
  0
LINE
  8
ゴム等
  6
DOT
 10
32.294177
 20
-74.603185
 11
70.619132
 21
-74.603185
  0
LINE
  8
ゴム等
  6
DOT
 10
73.216922
 20
-74.603185
 11
111.541878
 21
-74.603185
  0
LINE
  8
ゴム等
  6
DOT
 10
70.619132
 20
-74.603185
 11
71.484692
 21
-74.99808
  0
LINE
  8
ゴム等
  6
DOT
 10
72.351362
 20
-74.99808
 11
73.216922
 21
-74.603185
  0
ENDBLK
  0
BLOCK
  2
*GRP_0024
 70
    65
 10
0.0
 20
0.0
  0
LINE
  8
補助線
  6
DOT
 62
    64
 10
110.2494
 20
-94.917795
 11
110.37324
 21
-95.029332
  0
LINE
  8
補助線
  6
DOT
 62
    64
 10
110.367087
 20
-94.911643
 11
110.255552
 21
-95.035483
  0
LINE
  8
補助線
  6
DOT
 62
    64
 10
99.65814
 20
-85.379307
 11
99.534295
 21
-85.267772
  0
LINE
  8
補助線
  6
DOT
 62
    64
 10
99.651982
 20
-85.261618
 11
99.540447
 21
-85.385462
  0
LINE
  8
補助線
  6
DOT
 62
    64
 10
88.942902
 20
-75.72943
 11
88.819055
 21
-75.6179
  0
LINE
  8
補助線
  6
DOT
 62
    64
 10
88.936743
 20
-75.611743
 11
88.825215
 21
-75.735588
  0
LINE
  8
型材断面
  6
DOT
 10
111.116688
 20
-94.577408
 11
111.153617
 21
-95.283547
  0
LINE
  8
型材断面
  6
DOT
 10
111.153617
 20
-95.283547
 11
110.707477
 21
-95.778932
  0
LINE
  8
型材断面
  6
DOT
 10
110.707477
 20
-95.778932
 11
110.001338
 21
-95.81586
  0
LINE
  8
型材断面
  6
DOT
 10
89.190952
 20
-74.831362
 11
88.484813
 21
-74.868305
  0
LINE
  8
型材断面
  6
DOT
 10
88.484813
 20
-74.868305
 11
88.038678
 21
-75.363692
  0
LINE
  8
型材断面
  6
DOT
 10
88.038678
 20
-75.363692
 11
88.075618
 21
-76.069833
  0
LINE
  8
型材断面
  6
DOT
 10
111.116688
 20
-94.577408
 11
89.191245
 21
-74.831347
  0
LINE
  8
型材断面
  6
DOT
 10
110.001338
 20
-95.81586
 11
88.075603
 21
-76.069548
  0
LINE
  8
ボルト／ビス
  6
DOT
 62
    64
 10
110.517382
 20
-94.744755
 11
110.612502
 21
-95.037618
  0
LINE
  8
ボルト／ビス
  6
DOT
 62
    64
 10
110.517382
 20
-94.744755
 11
110.2162
 21
-94.680705
  0
LINE
  8
ボルト／ビス
  6
DOT
 62
    64
 10
110.105257
 20
-95.202372
 11
110.40644
 21
-95.266423
  0
LINE
  8
ボルト／ビス
  6
DOT
 62
    64
 10
110.105257
 20
-95.202372
 11
110.010138
 21
-94.90951
  0
CIRCLE
  8
ボルト／ビス
  6
DOT
 62
    64
 10
110.31132
 20
-94.973563
 40
0.266668
  0
LINE
  8
ボルト／ビス
  6
DOT
 62
    64
 10
110.2162
 20
-94.680705
 11
110.010138
 21
-94.90951
  0
LINE
  8
ボルト／ビス
  6
DOT
 62
    64
 10
110.612502
 20
-95.037618
 11
110.40644
 21
-95.266423
  0
LINE
  8
ボルト／ビス
  6
DOT
 62
    64
 10
99.802283
 20
-85.094735
 11
99.501095
 21
-85.03068
  0
LINE
  8
ボルト／ビス
  6
DOT
 62
    64
 10
99.802283
 20
-85.094735
 11
99.897402
 21
-85.387593
  0
LINE
  8
ボルト／ビス
  6
DOT
 62
    64
 10
99.390152
 20
-85.552347
 11
99.295032
 21
-85.259487
  0
LINE
  8
ボルト／ビス
  6
DOT
 62
    64
 10
99.390152
 20
-85.552347
 11
99.691338
 21
-85.616398
  0
CIRCLE
  8
ボルト／ビス
  6
DOT
 62
    64
 10
99.596215
 20
-85.32354
 40
0.266668
  0
LINE
  8
ボルト／ビス
  6
DOT
 62
    64
 10
99.897402
 20
-85.387593
 11
99.691338
 21
-85.616398
  0
LINE
  8
ボルト／ビス
  6
DOT
 62
    64
 10
99.501095
 20
-85.03068
 11
99.295032
 21
-85.259487
  0
LINE
  8
ボルト／ビス
  6
DOT
 62
    64
 10
89.08704
 20
-75.444858
 11
88.785852
 21
-75.380807
  0
LINE
  8
ボルト／ビス
  6
DOT
 62
    64
 10
89.08704
 20
-75.444858
 11
89.18216
 21
-75.737713
  0
LINE
  8
ボルト／ビス
  6
DOT
 62
    64
 10
88.674918
 20
-75.902475
 11
88.579795
 21
-75.609617
  0
LINE
  8
ボルト／ビス
  6
DOT
 62
    64
 10
88.674918
 20
-75.902475
 11
88.976102
 21
-75.966522
  0
CIRCLE
  8
ボルト／ビス
  6
DOT
 62
    64
 10
88.880977
 20
-75.673665
 40
0.266668
  0
LINE
  8
ボルト／ビス
  6
DOT
 62
    64
 10
89.18216
 20
-75.737713
 11
88.976102
 21
-75.966522
  0
LINE
  8
ボルト／ビス
  6
DOT
 62
    64
 10
88.785852
 20
-75.380807
 11
88.579795
 21
-75.609617
  0
ENDBLK
  0
BLOCK
  2
*GRP_0025
 70
    65
 10
0.0
 20
0.0
  0
LINE
  8
補助線
  6
DOT
 62
    64
 10
88.943032
 20
-94.917795
 11
88.819192
 21
-95.029332
  0
LINE
  8
補助線
  6
DOT
 62
    64
 10
88.825345
 20
-94.911643
 11
88.936882
 21
-95.035483
  0
LINE
  8
補助線
  6
DOT
 62
    64
 10
99.534293
 20
-85.379307
 11
99.658137
 21
-85.267772
  0
LINE
  8
補助線
  6
DOT
 62
    64
 10
99.54045
 20
-85.261618
 11
99.651985
 21
-85.385462
  0
LINE
  8
補助線
  6
DOT
 62
    64
 10
110.249532
 20
-75.72943
 11
110.373378
 21
-75.6179
  0
LINE
  8
補助線
  6
DOT
 62
    64
 10
110.25569
 20
-75.611743
 11
110.367217
 21
-75.735588
  0
LINE
  8
型材断面
  6
DOT
 10
88.075745
 20
-94.577408
 11
88.038818
 21
-95.283547
  0
LINE
  8
型材断面
  6
DOT
 10
88.038818
 20
-95.283547
 11
88.484958
 21
-95.778932
  0
LINE
  8
型材断面
  6
DOT
 10
88.484958
 20
-95.778932
 11
89.191098
 21
-95.81586
  0
LINE
  8
型材断面
  6
DOT
 10
110.001483
 20
-74.831362
 11
110.707623
 21
-74.868305
  0
LINE
  8
型材断面
  6
DOT
 10
110.707623
 20
-74.868305
 11
111.153758
 21
-75.363692
  0
LINE
  8
型材断面
  6
DOT
 10
111.153758
 20
-75.363692
 11
111.116815
 21
-76.069833
  0
LINE
  8
型材断面
  6
DOT
 10
88.075745
 20
-94.577408
 11
110.001188
 21
-74.831347
  0
LINE
  8
型材断面
  6
DOT
 10
89.191098
 20
-95.81586
 11
111.11683
 21
-76.069548
  0
LINE
  8
ボルト／ビス
  6
DOT
 62
    64
 10
88.675052
 20
-94.744755
 11
88.57993
 21
-95.037618
  0
LINE
  8
ボルト／ビス
  6
DOT
 62
    64
 10
88.675052
 20
-94.744755
 11
88.976232
 21
-94.680705
  0
LINE
  8
ボルト／ビス
  6
DOT
 62
    64
 10
89.087175
 20
-95.202372
 11
88.785993
 21
-95.266423
  0
LINE
  8
ボルト／ビス
  6
DOT
 62
    64
 10
89.087175
 20
-95.202372
 11
89.182297
 21
-94.90951
  0
CIRCLE
  8
ボルト／ビス
  6
DOT
 62
    64
 10
88.881113
 20
-94.973563
 40
0.266668
  0
LINE
  8
ボルト／ビス
  6
DOT
 62
    64
 10
88.976232
 20
-94.680705
 11
89.182297
 21
-94.90951
  0
LINE
  8
ボルト／ビス
  6
DOT
 62
    64
 10
88.57993
 20
-95.037618
 11
88.785993
 21
-95.266423
  0
LINE
  8
ボルト／ビス
  6
DOT
 62
    64
 10
99.390152
 20
-85.094735
 11
99.691338
 21
-85.03068
  0
LINE
  8
ボルト／ビス
  6
DOT
 62
    64
 10
99.390152
 20
-85.094735
 11
99.29503
 21
-85.387593
  0
LINE
  8
ボルト／ビス
  6
DOT
 62
    64
 10
99.80228
 20
-85.552347
 11
99.8974
 21
-85.259487
  0
LINE
  8
ボルト／ビス
  6
DOT
 62
    64
 10
99.80228
 20
-85.552347
 11
99.501097
 21
-85.616398
  0
CIRCLE
  8
ボルト／ビス
  6
DOT
 62
    64
 10
99.596218
 20
-85.32354
 40
0.266668
  0
LINE
  8
ボルト／ビス
  6
DOT
 62
    64
 10
99.29503
 20
-85.387593
 11
99.501097
 21
-85.616398
  0
LINE
  8
ボルト／ビス
  6
DOT
 62
    64
 10
99.691338
 20
-85.03068
 11
99.8974
 21
-85.259487
  0
LINE
  8
ボルト／ビス
  6
DOT
 62
    64
 10
110.105393
 20
-75.444858
 11
110.40658
 21
-75.380807
  0
LINE
  8
ボルト／ビス
  6
DOT
 62
    64
 10
110.105393
 20
-75.444858
 11
110.010273
 21
-75.737713
  0
LINE
  8
ボルト／ビス
  6
DOT
 62
    64
 10
110.517518
 20
-75.902475
 11
110.612637
 21
-75.609617
  0
LINE
  8
ボルト／ビス
  6
DOT
 62
    64
 10
110.517518
 20
-75.902475
 11
110.21633
 21
-75.966522
  0
CIRCLE
  8
ボルト／ビス
  6
DOT
 62
    64
 10
110.311455
 20
-75.673665
 40
0.266668
  0
LINE
  8
ボルト／ビス
  6
DOT
 62
    64
 10
110.010273
 20
-75.737713
 11
110.21633
 21
-75.966522
  0
LINE
  8
ボルト／ビス
  6
DOT
 62
    64
 10
110.40658
 20
-75.380807
 11
110.612637
 21
-75.609617
  0
ENDBLK
  0
BLOCK
  2
*GRP_0026
 70
    65
 10
0.0
 20
0.0
  0
LINE
  8
補助線
  6
DOT
 62
    64
 10
33.586655
 20
-94.917795
 11
33.462815
 21
-95.029332
  0
LINE
  8
補助線
  6
DOT
 62
    64
 10
33.468967
 20
-94.911643
 11
33.580502
 21
-95.035483
  0
LINE
  8
補助線
  6
DOT
 62
    64
 10
44.177915
 20
-85.379307
 11
44.30176
 21
-85.267772
  0
LINE
  8
補助線
  6
DOT
 62
    64
 10
44.184072
 20
-85.261618
 11
44.295608
 21
-85.385462
  0
LINE
  8
補助線
  6
DOT
 62
    64
 10
54.893152
 20
-75.72943
 11
55.017
 21
-75.6179
  0
LINE
  8
補助線
  6
DOT
 62
    64
 10
54.899313
 20
-75.611743
 11
55.01084
 21
-75.735588
  0
LINE
  8
型材断面
  6
DOT
 10
32.719368
 20
-94.577408
 11
32.682438
 21
-95.283547
  0
LINE
  8
型材断面
  6
DOT
 10
32.682438
 20
-95.283547
 11
33.128578
 21
-95.778932
  0
LINE
  8
型材断面
  6
DOT
 10
33.128578
 20
-95.778932
 11
33.834718
 21
-95.81586
  0
LINE
  8
型材断面
  6
DOT
 10
54.645103
 20
-74.831362
 11
55.351243
 21
-74.868305
  0
LINE
  8
型材断面
  6
DOT
 10
55.351243
 20
-74.868305
 11
55.797378
 21
-75.363692
  0
LINE
  8
型材断面
  6
DOT
 10
55.797378
 20
-75.363692
 11
55.760438
 21
-76.069833
  0
LINE
  8
型材断面
  6
DOT
 10
32.719368
 20
-94.577408
 11
54.64481
 21
-74.831347
  0
LINE
  8
型材断面
  6
DOT
 10
33.834718
 20
-95.81586
 11
55.760453
 21
-76.069548
  0
LINE
  8
ボルト／ビス
  6
DOT
 62
    64
 10
33.318672
 20
-94.744755
 11
33.223553
 21
-95.037618
  0
LINE
  8
ボルト／ビス
  6
DOT
 62
    64
 10
33.318672
 20
-94.744755
 11
33.619855
 21
-94.680705
  0
LINE
  8
ボルト／ビス
  6
DOT
 62
    64
 10
33.730797
 20
-95.202372
 11
33.429615
 21
-95.266423
  0
LINE
  8
ボルト／ビス
  6
DOT
 62
    64
 10
33.730797
 20
-95.202372
 11
33.825917
 21
-94.90951
  0
CIRCLE
  8
ボルト／ビス
  6
DOT
 62
    64
 10
33.524735
 20
-94.973563
 40
0.266668
  0
LINE
  8
ボルト／ビス
  6
DOT
 62
    64
 10
33.619855
 20
-94.680705
 11
33.825917
 21
-94.90951
  0
LINE
  8
ボルト／ビス
  6
DOT
 62
    64
 10
33.223553
 20
-95.037618
 11
33.429615
 21
-95.266423
  0
LINE
  8
ボルト／ビス
  6
DOT
 62
    64
 10
44.033772
 20
-85.094735
 11
44.33496
 21
-85.03068
  0
LINE
  8
ボルト／ビス
  6
DOT
 62
    64
 10
44.033772
 20
-85.094735
 11
43.938652
 21
-85.387593
  0
LINE
  8
ボルト／ビス
  6
DOT
 62
    64
 10
44.445903
 20
-85.552347
 11
44.541022
 21
-85.259487
  0
LINE
  8
ボルト／ビス
  6
DOT
 62
    64
 10
44.445903
 20
-85.552347
 11
44.144717
 21
-85.616398
  0
CIRCLE
  8
ボルト／ビス
  6
DOT
 62
    64
 10
44.23984
 20
-85.32354
 40
0.266668
  0
LINE
  8
ボルト／ビス
  6
DOT
 62
    64
 10
43.938652
 20
-85.387593
 11
44.144717
 21
-85.616398
  0
LINE
  8
ボルト／ビス
  6
DOT
 62
    64
 10
44.33496
 20
-85.03068
 11
44.541022
 21
-85.259487
  0
LINE
  8
ボルト／ビス
  6
DOT
 62
    64
 10
54.749015
 20
-75.444858
 11
55.050202
 21
-75.380807
  0
LINE
  8
ボルト／ビス
  6
DOT
 62
    64
 10
54.749015
 20
-75.444858
 11
54.653895
 21
-75.737713
  0
LINE
  8
ボルト／ビス
  6
DOT
 62
    64
 10
55.161138
 20
-75.902475
 11
55.25626
 21
-75.609617
  0
LINE
  8
ボルト／ビス
  6
DOT
 62
    64
 10
55.161138
 20
-75.902475
 11
54.859952
 21
-75.966522
  0
CIRCLE
  8
ボルト／ビス
  6
DOT
 62
    64
 10
54.955077
 20
-75.673665
 40
0.266668
  0
LINE
  8
ボルト／ビス
  6
DOT
 62
    64
 10
54.653895
 20
-75.737713
 11
54.859952
 21
-75.966522
  0
LINE
  8
ボルト／ビス
  6
DOT
 62
    64
 10
55.050202
 20
-75.380807
 11
55.25626
 21
-75.609617
  0
ENDBLK
  0
BLOCK
  2
*GRP_0027
 70
    65
 10
0.0
 20
0.0
  0
LINE
  8
補助線
  6
DOT
 62
    64
 10
54.893023
 20
-94.917795
 11
55.016863
 21
-95.029332
  0
LINE
  8
補助線
  6
DOT
 62
    64
 10
55.01071
 20
-94.911643
 11
54.899172
 21
-95.035483
  0
LINE
  8
補助線
  6
DOT
 62
    64
 10
44.301763
 20
-85.379307
 11
44.177917
 21
-85.267772
  0
LINE
  8
補助線
  6
DOT
 62
    64
 10
44.295605
 20
-85.261618
 11
44.18407
 21
-85.385462
  0
LINE
  8
補助線
  6
DOT
 62
    64
 10
33.586522
 20
-75.72943
 11
33.462678
 21
-75.6179
  0
LINE
  8
補助線
  6
DOT
 62
    64
 10
33.580365
 20
-75.611743
 11
33.468837
 21
-75.735588
  0
LINE
  8
型材断面
  6
DOT
 10
55.76031
 20
-94.577408
 11
55.797237
 21
-95.283547
  0
LINE
  8
型材断面
  6
DOT
 10
55.797237
 20
-95.283547
 11
55.351097
 21
-95.778932
  0
LINE
  8
型材断面
  6
DOT
 10
55.351097
 20
-95.778932
 11
54.644958
 21
-95.81586
  0
LINE
  8
型材断面
  6
DOT
 10
33.834572
 20
-74.831362
 11
33.128433
 21
-74.868305
  0
LINE
  8
型材断面
  6
DOT
 10
33.128433
 20
-74.868305
 11
32.682297
 21
-75.363692
  0
LINE
  8
型材断面
  6
DOT
 10
32.682297
 20
-75.363692
 11
32.71924
 21
-76.069833
  0
LINE
  8
型材断面
  6
DOT
 10
55.76031
 20
-94.577408
 11
33.834867
 21
-74.831347
  0
LINE
  8
型材断面
  6
DOT
 10
54.644958
 20
-95.81586
 11
32.719225
 21
-76.069548
  0
LINE
  8
ボルト／ビス
  6
DOT
 62
    64
 10
55.161002
 20
-94.744755
 11
55.256125
 21
-95.037618
  0
LINE
  8
ボルト／ビス
  6
DOT
 62
    64
 10
55.161002
 20
-94.744755
 11
54.859822
 21
-94.680705
  0
LINE
  8
ボルト／ビス
  6
DOT
 62
    64
 10
54.74888
 20
-95.202372
 11
55.050063
 21
-95.266423
  0
LINE
  8
ボルト／ビス
  6
DOT
 62
    64
 10
54.74888
 20
-95.202372
 11
54.653758
 21
-94.90951
  0
CIRCLE
  8
ボルト／ビス
  6
DOT
 62
    64
 10
54.954942
 20
-94.973563
 40
0.266668
  0
LINE
  8
ボルト／ビス
  6
DOT
 62
    64
 10
54.859822
 20
-94.680705
 11
54.653758
 21
-94.90951
  0
LINE
  8
ボルト／ビス
  6
DOT
 62
    64
 10
55.256125
 20
-95.037618
 11
55.050063
 21
-95.266423
  0
LINE
  8
ボルト／ビス
  6
DOT
 62
    64
 10
44.445903
 20
-85.094735
 11
44.144717
 21
-85.03068
  0
LINE
  8
ボルト／ビス
  6
DOT
 62
    64
 10
44.445903
 20
-85.094735
 11
44.541025
 21
-85.387593
  0
LINE
  8
ボルト／ビス
  6
DOT
 62
    64
 10
44.033775
 20
-85.552347
 11
43.938655
 21
-85.259487
  0
LINE
  8
ボルト／ビス
  6
DOT
 62
    64
 10
44.033775
 20
-85.552347
 11
44.334958
 21
-85.616398
  0
CIRCLE
  8
ボルト／ビス
  6
DOT
 62
    64
 10
44.239838
 20
-85.32354
 40
0.266668
  0
LINE
  8
ボルト／ビス
  6
DOT
 62
    64
 10
44.541025
 20
-85.387593
 11
44.334958
 21
-85.616398
  0
LINE
  8
ボルト／ビス
  6
DOT
 62
    64
 10
44.144717
 20
-85.03068
 11
43.938655
 21
-85.259487
  0
LINE
  8
ボルト／ビス
  6
DOT
 62
    64
 10
33.730662
 20
-75.444858
 11
33.429475
 21
-75.380807
  0
LINE
  8
ボルト／ビス
  6
DOT
 62
    64
 10
33.730662
 20
-75.444858
 11
33.825783
 21
-75.737713
  0
LINE
  8
ボルト／ビス
  6
DOT
 62
    64
 10
33.318537
 20
-75.902475
 11
33.223417
 21
-75.609617
  0
LINE
  8
ボルト／ビス
  6
DOT
 62
    64
 10
33.318537
 20
-75.902475
 11
33.619725
 21
-75.966522
  0
CIRCLE
  8
ボルト／ビス
  6
DOT
 62
    64
 10
33.5246
 20
-75.673665
 40
0.266668
  0
LINE
  8
ボルト／ビス
  6
DOT
 62
    64
 10
33.825783
 20
-75.737713
 11
33.619725
 21
-75.966522
  0
LINE
  8
ボルト／ビス
  6
DOT
 62
    64
 10
33.429475
 20
-75.380807
 11
33.223417
 21
-75.609617
  0
ENDBLK
  0
BLOCK
  2
*DIM_0028
 70
    65
 10
0.0
 20
0.0
  0
LINE
  8
寸法
  6
BYBLOCK
 62
     0
 10
120.9371
 20
-78.437767
 11
131.837782
 21
-78.437767
  0
LINE
  8
寸法
  6
BYBLOCK
 62
     0
 10
120.9371
 20
-93.437767
 11
131.837782
 21
-93.437767
  0
LINE
  8
寸法
  6
BYBLOCK
 62
     0
 10
131.837782
 20
-78.437767
 11
131.837782
 21
-93.437767
  0
POINT
  8
寸法
 62
     0
 10
131.837782
 20
-78.437767
  0
POINT
  8
寸法
 62
     0
 10
131.837782
 20
-93.437767
  0
TEXT
  7
TextStyle03
  8
寸法
  6
CONTINUOUS
 62
     0
 10
136.475
 20
-95.4625
  1
上昇高さ450
 40
3.0
 50
90.0
 72
     5
 11
136.475
 21
-77.0875
  0
ENDBLK
  0
BLOCK
  2
*DIM_0029
 70
    65
 10
0.0
 20
0.0
  0
LINE
  8
寸法
  6
CONTINUOUS
 10
102.80536
 20
-17.61126
 11
102.80536
 21
-23.883382
  0
LINE
  8
寸法
  6
CONTINUOUS
 10
157.687405
 20
-17.61126
 11
157.687405
 21
-23.883382
  0
LINE
  8
寸法
  6
CONTINUOUS
 10
102.80536
 20
-23.883382
 11
157.687405
 21
-23.883382
  0
POINT
  8
寸法
 10
102.80536
 20
-23.883382
  0
POINT
  8
寸法
 10
157.687405
 20
-23.883382
  0
TEXT
  7
TextStyle03
  8
寸法
  6
CONTINUOUS
 10
125.25625
 20
-23.5
  1
1646.5
 40
3.0
 72
     5
 11
135.19375
 21
-23.5
  0
ENDBLK
  0
BLOCK
  2
*DIM_0030
 70
    65
 10
0.0
 20
0.0
  0
LINE
  8
寸法
  6
CONTINUOUS
 10
158.687405
 20
-16.61126
 11
163.35214
 21
-16.61126
  0
LINE
  8
寸法
  6
CONTINUOUS
 10
131.246383
 20
22.196198
 11
163.35214
 21
22.196198
  0
LINE
  8
寸法
  6
CONTINUOUS
 10
163.35214
 20
-16.61126
 11
163.35214
 21
22.196198
  0
POINT
  8
寸法
 10
163.35214
 20
-16.61126
  0
POINT
  8
寸法
 10
163.35214
 20
22.196198
  0
TEXT
  7
TextStyle03
  8
寸法
  6
CONTINUOUS
 10
162.95
 20
-2.16875
  1
1164.2
 40
3.0
 50
90.0
 72
     5
 11
162.95
 21
7.76875
  0
ENDBLK
  0
BLOCK
  2
*DIM_0031
 70
    65
 10
0.0
 20
0.0
  0
LINE
  8
寸法
  6
CONTINUOUS
 10
133.211312
 20
83.98722
 11
133.211312
 21
91.322782
  0
LINE
  8
寸法
  6
CONTINUOUS
 10
145.160225
 20
83.98722
 11
145.160225
 21
91.322782
  0
LINE
  8
寸法
  6
CONTINUOUS
 10
133.211312
 20
91.322782
 11
145.160225
 21
91.322782
  0
POINT
  8
寸法
 10
133.211312
 20
91.322782
  0
POINT
  8
寸法
 10
145.160225
 20
91.322782
  0
TEXT
  7
TextStyle03
  8
寸法
  6
CONTINUOUS
 10
135.05
 20
91.675
  1
358.5
 40
3.0
 72
     5
 11
143.3
 21
91.675
  0
ENDBLK
  0
BLOCK
  2
*DIM_0032
 70
    65
 10
0.0
 20
0.0
  0
LINE
  8
寸法
  6
CONTINUOUS
 10
105.135867
 20
42.282553
 11
105.135867
 21
37.116842
  0
LINE
  8
寸法
  6
CONTINUOUS
 10
145.160225
 20
42.282553
 11
145.160225
 21
37.116842
  0
LINE
  8
寸法
  6
CONTINUOUS
 10
105.135867
 20
37.116842
 11
145.160225
 21
37.116842
  0
POINT
  8
寸法
 10
105.135867
 20
37.116842
  0
POINT
  8
寸法
 10
145.160225
 20
37.116842
  0
TEXT
  7
TextStyle03
  8
寸法
  6
CONTINUOUS
 10
120.15625
 20
37.475
  1
1200.7
 40
3.0
 72
     5
 11
130.09375
 21
37.475
  0
ENDBLK
  0
BLOCK
  2
*DIM_0033
 70
    65
 10
0.0
 20
0.0
  0
LINE
  8
寸法
  6
CONTINUOUS
 10
146.160225
 20
82.98722
 11
153.036767
 21
82.98722
  0
LINE
  8
寸法
  6
CONTINUOUS
 10
146.160225
 20
43.282553
 11
153.036767
 21
43.282553
  0
LINE
  8
寸法
  6
CONTINUOUS
 10
153.036767
 20
82.98722
 11
153.036767
 21
43.282553
  0
POINT
  8
寸法
 10
153.036767
 20
82.98722
  0
POINT
  8
寸法
 10
153.036767
 20
43.282553
  0
TEXT
  7
TextStyle03
  8
寸法
  6
CONTINUOUS
 10
152.65
 20
58.15625
  1
1191.1
 40
3.0
 50
90.0
 72
     5
 11
152.65
 21
68.09375
  0
ENDBLK
  0
BLOCK
  2
*DIM_0034
 70
    65
 10
0.0
 20
0.0
  0
LINE
  8
寸法
  6
CONTINUOUS
 10
54.64456
 20
79.31119
 11
10.103053
 21
79.31119
  0
LINE
  8
寸法
  6
CONTINUOUS
 10
54.64456
 20
17.644522
 11
10.103053
 21
17.644522
  0
LINE
  8
寸法
  6
CONTINUOUS
 10
10.103053
 20
79.31119
 11
10.103053
 21
17.644522
  0
POINT
  8
寸法
 10
10.103053
 20
79.31119
  0
POINT
  8
寸法
 10
10.103053
 20
17.644522
  0
TEXT
  7
TextStyle03
  8
寸法
  6
CONTINUOUS
 10
9.725
 20
45.19375
  1
1850
 40
3.0
 50
90.0
 72
     5
 11
9.725
 21
51.75625
  0
ENDBLK
  0
BLOCK
  2
*DIM_0035
 70
    65
 10
0.0
 20
0.0
  0
LINE
  8
寸法
  6
CONTINUOUS
 10
15.81096
 20
75.144522
 11
15.81096
 21
79.31119
  0
POINT
  8
寸法
 10
15.81096
 20
75.144522
  0
POINT
  8
寸法
 10
15.81096
 20
79.31119
  0
TEXT
  7
TextStyle03
  8
寸法
  6
CONTINUOUS
 10
15.425
 20
79.8375
  1
125
 40
3.0
 50
90.0
 72
     5
 11
15.425
 21
84.7125
  0
ENDBLK
  0
BLOCK
  2
*DIM_0036
 70
    65
 10
0.0
 20
0.0
  0
LINE
  8
寸法
  6
CONTINUOUS
 10
15.81096
 20
21.811188
 11
15.81096
 21
17.644522
  0
POINT
  8
寸法
 10
15.81096
 20
21.811188
  0
POINT
  8
寸法
 10
15.81096
 20
17.644522
  0
TEXT
  7
TextStyle03
  8
寸法
  6
CONTINUOUS
 10
15.425
 20
12.2375
  1
125
 40
3.0
 50
90.0
 72
     5
 11
15.425
 21
17.1125
  0
ENDBLK
  0
BLOCK
  2
*DIM_0037
 70
    65
 10
0.0
 20
0.0
  0
LINE
  8
寸法
  6
CONTINUOUS
 10
62.401245
 20
18.047855
 11
62.401245
 21
-1.83363
  0
LINE
  8
寸法
  6
CONTINUOUS
 10
55.64456
 20
16.644522
 11
55.64456
 21
-1.83363
  0
LINE
  8
寸法
  6
CONTINUOUS
 10
62.401245
 20
-1.83363
 11
55.64456
 21
-1.83363
  0
POINT
  8
寸法
 10
62.401245
 20
-1.83363
  0
POINT
  8
寸法
 10
55.64456
 20
-1.83363
  0
TEXT
  7
TextStyle03
  8
寸法
  6
CONTINUOUS
 10
54.875
 20
-4.85
  1
202.7
 40
3.0
 72
     5
 11
63.125
 21
-4.85
  0
ENDBLK
  0
BLOCK
  2
*DIM_0038
 70
    65
 10
0.0
 20
0.0
  0
LINE
  8
寸法
  6
CONTINUOUS
 10
24.575382
 20
47.477852
 11
24.575382
 21
-1.83363
  0
LINE
  8
寸法
  6
CONTINUOUS
 10
55.64456
 20
-1.83363
 11
24.575382
 21
-1.83363
  0
POINT
  8
寸法
 10
24.575382
 20
-1.83363
  0
TEXT
  7
TextStyle03
  8
寸法
  6
CONTINUOUS
 10
37.6625
 20
-1.475
  1
932
 40
3.0
 72
     5
 11
42.5375
 21
-1.475
  0
ENDBLK
  0
BLOCK
  2
*GRP_0039
 70
    65
 10
0.0
 20
0.0
  0
POLYLINE
  8
寸法
  6
BYBLOCK
 62
     0
 66
     1
  0
VERTEX
  8
寸法
 10
-34.333635
 20
57.992095
  0
VERTEX
  8
寸法
 10
-33.11785
 20
59.207883
  0
VERTEX
  8
寸法
 10
-21.705313
 20
59.207883
  0
SEQEND
  0
ENDBLK
  0
ENDSEC
  0
SECTION
  2
ENTITIES
  0
POLYLINE
  8
通り芯
  6
CONTINUOUS
 66
     1
 70
     1
  0
VERTEX
  8
通り芯
 10
-210.0
 20
-148.5
  0
VERTEX
  8
通り芯
 10
210.0
 20
-148.5
  0
VERTEX
  8
通り芯
 10
210.0
 20
148.5
  0
VERTEX
  8
通り芯
 10
-210.0
 20
148.5
  0
SEQEND
  0
INSERT
  2
*GRP_0001
  8
型材断面
  6
CONTINUOUS
 10
0.0
 20
0.0
  0
LINE
  8
型材断面
  6
CONTINUOUS
 10
-27.140327
 20
25.511188
 11
-24.54982
 21
26.107245
  0
LINE
  8
型材断面
  6
CONTINUOUS
 10
-27.140327
 20
25.511188
 11
-24.54982
 21
24.91513
  0
LINE
  8
型材断面
  6
CONTINUOUS
 10
-24.54982
 20
24.91513
 11
-24.54982
 21
26.107245
  0
LINE
  8
型材断面
  6
CONTINUOUS
 10
-27.140327
 20
71.444522
 11
-24.54982
 21
70.848465
  0
LINE
  8
型材断面
  6
CONTINUOUS
 10
-27.140327
 20
71.444522
 11
-24.54982
 21
72.04058
  0
LINE
  8
型材断面
  6
CONTINUOUS
 10
-24.54982
 20
72.04058
 11
-24.54982
 21
70.848465
  0
LINE
  8
型材断面
  6
CONTINUOUS
 10
-117.838813
 20
25.511188
 11
-120.42932
 21
26.107245
  0
LINE
  8
型材断面
  6
CONTINUOUS
 10
-117.838813
 20
25.511188
 11
-120.42932
 21
24.91513
  0
LINE
  8
型材断面
  6
CONTINUOUS
 10
-120.42932
 20
24.91513
 11
-120.42932
 21
26.107245
  0
LINE
  8
型材断面
  6
CONTINUOUS
 10
-117.838813
 20
71.444522
 11
-120.42932
 21
70.848465
  0
LINE
  8
型材断面
  6
CONTINUOUS
 10
-117.838813
 20
71.444522
 11
-120.42932
 21
72.04058
  0
LINE
  8
型材断面
  6
CONTINUOUS
 10
-120.42932
 20
72.04058
 11
-120.42932
 21
70.848465
  0
LINE
  8
型材断面
  6
CONTINUOUS
 10
-24.647008
 20
-5.74884
 11
-24.05095
 21
-8.339345
  0
LINE
  8
型材断面
  6
CONTINUOUS
 10
-24.647008
 20
-5.74884
 11
-25.243065
 21
-8.339345
  0
LINE
  8
型材断面
  6
CONTINUOUS
 10
-25.243065
 20
-8.339345
 11
-24.05095
 21
-8.339345
  0
LINE
  8
型材断面
  6
CONTINUOUS
 10
-28.003658
 20
-11.78329
 11
10.071655
 21
-11.78329
  0
LINE
  8
型材断面
  6
DASHDOT
 10
-112.48957
 20
75.144522
 11
-112.48957
 21
-97.643115
  0
LINE
  8
型材断面
  6
DASHDOT
 10
-32.48957
 20
75.144522
 11
-32.48957
 21
-97.643115
  0
LINE
  8
型材断面
  6
DASHDOT
 10
62.528025
 20
21.811188
 11
-112.48957
 21
21.811188
  0
LINE
  8
型材断面
  6
DASHDOT
 10
62.528025
 20
75.144522
 11
-112.48957
 21
75.144522
  0
LINE
  8
型材断面
  6
CONTINUOUS
 10
-116.656235
 20
79.311185
 11
-116.656235
 21
17.644525
  0
LINE
  8
型材断面
  6
CONTINUOUS
 10
-85.822905
 20
48.477855
 11
-116.656235
 21
17.644525
  0
LINE
  8
型材断面
  6
DOT
 10
-109.822905
 20
75.144522
 11
-109.822905
 21
21.811188
  0
LINE
  8
型材断面
  6
DOT
 10
-111.156238
 20
75.144522
 11
-111.156238
 21
21.811188
  0
LINE
  8
型材断面
  6
CONTINUOUS
 10
-116.656235
 20
79.311185
 11
-85.822905
 21
48.477855
  0
LINE
  8
型材断面
  6
CONTINUOUS
 10
-28.322905
 20
79.311185
 11
-28.322905
 21
17.644525
  0
LINE
  8
型材断面
  6
CONTINUOUS
 10
-59.156235
 20
48.477855
 11
-28.322905
 21
17.644525
  0
LINE
  8
型材断面
  6
DOT
 10
-35.156235
 20
75.144522
 11
-35.156235
 21
21.811188
  0
LINE
  8
型材断面
  6
DOT
 10
-33.822902
 20
75.144522
 11
-33.822902
 21
21.811188
  0
LINE
  8
型材断面
  6
CONTINUOUS
 10
-28.322905
 20
79.311185
 11
-59.156235
 21
48.477855
  0
LINE
  8
型材断面
  6
CONTINUOUS
 10
-116.656235
 20
79.311185
 11
-28.322905
 21
79.311185
  0
LINE
  8
型材断面
  6
CONTINUOUS
 10
-116.656235
 20
17.644525
 11
-28.322905
 21
17.644525
  0
LINE
  8
型材断面
  6
CONTINUOUS
 10
-87.362512
 20
46.938248
 11
-87.362512
 21
47.875367
  0
LINE
  8
型材断面
  6
CONTINUOUS
 10
-87.362512
 20
46.938248
 11
-86.425393
 21
46.938248
  0
LINE
  8
型材断面
  6
CONTINUOUS
 10
-86.760025
 20
48.477855
 11
-87.362512
 21
47.875367
  0
LINE
  8
型材断面
  6
CONTINUOUS
 10
-87.362512
 20
46.938248
 11
-85.822905
 21
48.477855
  0
LINE
  8
型材断面
  6
CONTINUOUS
 10
-86.425393
 20
46.938248
 11
-86.080795
 21
47.282845
  0
LINE
  8
型材断面
  6
CONTINUOUS
 10
-86.080795
 20
47.282845
 11
-85.822905
 21
48.477855
  0
LINE
  8
型材断面
  6
CONTINUOUS
 10
-87.362512
 20
50.017462
 11
-87.362512
 21
49.080343
  0
LINE
  8
型材断面
  6
CONTINUOUS
 10
-87.362512
 20
50.017462
 11
-86.425393
 21
50.017462
  0
LINE
  8
型材断面
  6
CONTINUOUS
 10
-86.760025
 20
48.477855
 11
-87.362512
 21
49.080343
  0
LINE
  8
型材断面
  6
CONTINUOUS
 10
-87.362512
 20
50.017462
 11
-85.822905
 21
48.477855
  0
LINE
  8
型材断面
  6
CONTINUOUS
 10
-86.425393
 20
50.017462
 11
-86.080795
 21
49.672865
  0
LINE
  8
型材断面
  6
CONTINUOUS
 10
-86.080795
 20
49.672865
 11
-85.822905
 21
48.477855
  0
LINE
  8
型材断面
  6
CONTINUOUS
 10
-57.616627
 20
46.938248
 11
-57.616627
 21
47.875367
  0
LINE
  8
型材断面
  6
CONTINUOUS
 10
-57.616627
 20
46.938248
 11
-58.553748
 21
46.938248
  0
LINE
  8
型材断面
  6
CONTINUOUS
 10
-58.219115
 20
48.477855
 11
-57.616627
 21
47.875367
  0
LINE
  8
型材断面
  6
CONTINUOUS
 10
-57.616627
 20
46.938248
 11
-59.156235
 21
48.477855
  0
LINE
  8
型材断面
  6
CONTINUOUS
 10
-58.553748
 20
46.938248
 11
-58.898345
 21
47.282845
  0
LINE
  8
型材断面
  6
CONTINUOUS
 10
-58.898345
 20
47.282845
 11
-59.156235
 21
48.477855
  0
LINE
  8
型材断面
  6
CONTINUOUS
 10
-57.616627
 20
50.017462
 11
-57.616627
 21
49.080343
  0
LINE
  8
型材断面
  6
CONTINUOUS
 10
-57.616627
 20
50.017462
 11
-58.553748
 21
50.017462
  0
LINE
  8
型材断面
  6
CONTINUOUS
 10
-58.219115
 20
48.477855
 11
-57.616627
 21
49.080343
  0
LINE
  8
型材断面
  6
CONTINUOUS
 10
-57.616627
 20
50.017462
 11
-59.156235
 21
48.477855
  0
LINE
  8
型材断面
  6
CONTINUOUS
 10
-58.553748
 20
50.017462
 11
-58.898345
 21
49.672865
  0
LINE
  8
型材断面
  6
CONTINUOUS
 10
-58.898345
 20
49.672865
 11
-59.156235
 21
48.477855
  0
LINE
  8
型材断面
  6
CONTINUOUS
 10
-84.061975
 20
49.593455
 11
-60.917165
 21
49.593455
  0
LINE
  8
型材断面
  6
CONTINUOUS
 10
-84.061975
 20
47.362255
 11
-60.917165
 21
47.362255
  0
LINE
  8
型材断面
  6
DASHDOT
 10
-112.48957
 20
48.477855
 11
62.401245
 21
48.477855
  0
LINE
  8
型材断面
  6
CONTINUOUS
 10
55.597405
 20
79.31119
 11
55.562047
 21
79.346545
  0
LINE
  8
型材断面
  6
CONTINUOUS
 10
62.401245
 20
77.907857
 11
58.49791
 21
77.907857
  0
LINE
  8
型材断面
  6
CONTINUOUS
 10
58.49791
 20
77.907857
 11
58.322677
 21
77.732623
  0
LINE
  8
型材断面
  6
CONTINUOUS
 10
55.64456
 20
79.31119
 11
57.856022
 21
79.31119
  0
LINE
  8
型材断面
  6
CONTINUOUS
 10
57.85601
 20
78.477855
 11
58.322677
 21
78.477855
  0
LINE
  8
型材断面
  6
CONTINUOUS
 10
62.401245
 20
77.074525
 11
62.73791
 21
77.074525
  0
LINE
  8
型材断面
  6
CONTINUOUS
 10
62.401245
 20
19.047855
 11
58.49791
 21
19.047855
  0
LINE
  8
型材断面
  6
CONTINUOUS
 10
58.49791
 20
19.047855
 11
58.322677
 21
19.22309
  0
LINE
  8
型材断面
  6
CONTINUOUS
 10
55.64456
 20
17.644522
 11
57.856022
 21
17.644522
  0
LINE
  8
型材断面
  6
CONTINUOUS
 10
57.85601
 20
18.477855
 11
58.322677
 21
18.477855
  0
LINE
  8
型材断面
  6
CONTINUOUS
 10
62.401245
 20
19.881187
 11
62.73791
 21
19.881187
  0
LINE
  8
型材断面
  6
CONTINUOUS
 10
62.73791
 20
77.074525
 11
62.73791
 21
19.881187
  0
LINE
  8
型材断面
  6
CONTINUOUS
 10
62.401245
 20
77.907857
 11
62.401245
 21
19.047855
  0
LINE
  8
型材断面
  6
CONTINUOUS
 10
58.497925
 20
77.907857
 11
58.497925
 21
19.047855
  0
LINE
  8
型材断面
  6
CONTINUOUS
 10
58.322677
 20
78.477855
 11
58.322677
 21
18.477855
  0
LINE
  8
型材断面
  6
CONTINUOUS
 10
57.856022
 20
79.31119
 11
57.856022
 21
17.644522
  0
LINE
  8
型材断面
  6
CONTINUOUS
 10
55.64456
 20
79.31119
 11
55.64456
 21
17.644522
  0
LINE
  8
型材断面
  6
CONTINUOUS
 10
55.597405
 20
17.644522
 11
24.764072
 21
48.477858
  0
LINE
  8
型材断面
  6
CONTINUOUS
 10
55.597405
 20
79.31119
 11
24.764072
 21
48.477858
  0
LINE
  8
型材断面
  6
CONTINUOUS
 10
55.562047
 20
79.346545
 11
24.693365
 21
48.477855
  0
LINE
  8
型材断面
  6
CONTINUOUS
 10
55.562047
 20
17.609167
 11
24.693365
 21
48.477855
  0
LINE
  8
型材断面
  6
CONTINUOUS
 10
25.400193
 20
48.477852
 11
24.457382
 21
48.477852
  0
LINE
  8
型材断面
  6
CONTINUOUS
 10
25.400193
 20
48.477852
 11
24.457382
 21
48.477852
  0
LINE
  8
型材断面
  6
CONTINUOUS
 10
25.957382
 20
46.977852
 11
26.004522
 21
47.024993
  0
LINE
  8
型材断面
  6
CONTINUOUS
 10
26.004522
 20
47.024993
 11
26.004522
 21
47.87352
  0
LINE
  8
型材断面
  6
CONTINUOUS
 10
24.457382
 20
48.477852
 11
25.957382
 21
46.977852
  0
LINE
  8
型材断面
  6
CONTINUOUS
 10
25.40019
 20
48.477852
 11
26.004522
 21
47.87352
  0
LINE
  8
型材断面
  6
CONTINUOUS
 10
25.957382
 20
49.978242
 11
26.004522
 21
49.931103
  0
LINE
  8
型材断面
  6
CONTINUOUS
 10
26.004522
 20
49.931103
 11
26.004522
 21
49.082575
  0
LINE
  8
型材断面
  6
CONTINUOUS
 10
25.40019
 20
48.477852
 11
26.004522
 21
49.082183
  0
LINE
  8
型材断面
  6
CONTINUOUS
 10
24.457382
 20
48.477852
 11
25.957577
 21
49.978047
  0
LINE
  8
型材断面
  6
CONTINUOUS
 10
25.67611
 20
49.578583
 11
25.7351
 21
49.519593
  0
LINE
  8
型材断面
  6
CONTINUOUS
 10
25.67611
 20
49.578583
 11
24.575382
 21
48.477852
  0
LINE
  8
型材断面
  6
CONTINUOUS
 10
25.67611
 20
47.377123
 11
25.7351
 21
47.436112
  0
LINE
  8
型材断面
  6
CONTINUOUS
 10
25.67611
 20
47.377123
 11
24.575382
 21
48.477852
  0
LINE
  8
型材断面
  6
DASHDOT
 10
-72.48957
 20
75.144522
 11
-72.48957
 21
-97.516335
  0
LINE
  8
型材断面
  6
CONTINUOUS
 10
-115.252905
 20
-97.516335
 11
-115.252905
 21
-93.613
  0
LINE
  8
型材断面
  6
CONTINUOUS
 10
-115.252905
 20
-93.613
 11
-115.07767
 21
-93.437767
  0
LINE
  8
型材断面
  6
CONTINUOUS
 10
-116.656238
 20
-90.75965
 11
-116.656238
 21
-92.971112
  0
LINE
  8
型材断面
  6
CONTINUOUS
 10
-115.822905
 20
-92.9711
 11
-115.822905
 21
-93.437767
  0
LINE
  8
型材断面
  6
CONTINUOUS
 10
-114.419572
 20
-97.516335
 11
-114.419572
 21
-97.853
  0
LINE
  8
型材断面
  6
CONTINUOUS
 10
-29.726235
 20
-97.516335
 11
-29.726235
 21
-93.613
  0
LINE
  8
型材断面
  6
CONTINUOUS
 10
-29.726235
 20
-93.613
 11
-29.90147
 21
-93.437767
  0
LINE
  8
型材断面
  6
CONTINUOUS
 10
-28.322902
 20
-90.75965
 11
-28.322902
 21
-92.971112
  0
LINE
  8
型材断面
  6
CONTINUOUS
 10
-29.156235
 20
-92.9711
 11
-29.156235
 21
-93.437767
  0
LINE
  8
型材断面
  6
CONTINUOUS
 10
-30.559567
 20
-97.516335
 11
-30.559567
 21
-97.853
  0
LINE
  8
型材断面
  6
CONTINUOUS
 10
-115.252905
 20
-93.613015
 11
-29.726235
 21
-93.613015
  0
LINE
  8
型材断面
  6
CONTINUOUS
 10
-115.252905
 20
-97.516335
 11
-29.726235
 21
-97.516335
  0
LINE
  8
型材断面
  6
CONTINUOUS
 10
-114.419572
 20
-97.853
 11
-30.559567
 21
-97.853
  0
LINE
  8
型材断面
  6
CONTINUOUS
 10
-116.656238
 20
-92.971112
 11
-28.322902
 21
-92.971112
  0
LINE
  8
型材断面
  6
CONTINUOUS
 10
-115.822905
 20
-93.437767
 11
-29.156235
 21
-93.437767
  0
LINE
  8
型材断面
  6
CONTINUOUS
 10
-116.656238
 20
-90.75965
 11
-28.322902
 21
-90.75965
  0
LINE
  8
型材断面
  6
CONTINUOUS
 10
-116.691593
 20
-90.677138
 11
-87.220955
 21
-61.206505
  0
LINE
  8
型材断面
  6
CONTINUOUS
 10
-116.656238
 20
-90.712495
 11
-87.150245
 21
-61.206505
  0
LINE
  8
型材断面
  6
CONTINUOUS
 10
-83.944078
 20
-59.69049
 11
-61.035063
 21
-59.69049
  0
LINE
  8
型材断面
  6
CONTINUOUS
 10
-85.970488
 20
-60.869502
 11
-59.008652
 21
-60.869502
  0
LINE
  8
型材断面
  6
CONTINUOUS
 10
-28.287547
 20
-90.677138
 11
-57.758185
 21
-61.206505
  0
LINE
  8
型材断面
  6
CONTINUOUS
 10
-28.322902
 20
-90.712495
 11
-57.828895
 21
-61.206505
  0
LINE
  8
型材断面
  6
CONTINUOUS
 10
29.154693
 20
-97.516335
 11
29.154693
 21
-93.613
  0
LINE
  8
型材断面
  6
CONTINUOUS
 10
29.154693
 20
-93.613
 11
29.329927
 21
-93.437767
  0
LINE
  8
型材断面
  6
CONTINUOUS
 10
27.75136
 20
-90.75965
 11
27.75136
 21
-92.971112
  0
LINE
  8
型材断面
  6
CONTINUOUS
 10
28.584692
 20
-92.9711
 11
28.584692
 21
-93.437767
  0
LINE
  8
型材断面
  6
CONTINUOUS
 10
29.988025
 20
-97.516335
 11
29.988025
 21
-97.853
  0
LINE
  8
型材断面
  6
CONTINUOUS
 10
114.681363
 20
-97.516335
 11
114.681363
 21
-93.613
  0
LINE
  8
型材断面
  6
CONTINUOUS
 10
114.681363
 20
-93.613
 11
114.506128
 21
-93.437767
  0
LINE
  8
型材断面
  6
CONTINUOUS
 10
116.084695
 20
-90.75965
 11
116.084695
 21
-92.971112
  0
LINE
  8
型材断面
  6
CONTINUOUS
 10
115.251362
 20
-92.9711
 11
115.251362
 21
-93.437767
  0
LINE
  8
型材断面
  6
CONTINUOUS
 10
113.84803
 20
-97.516335
 11
113.84803
 21
-97.853
  0
LINE
  8
型材断面
  6
CONTINUOUS
 10
29.154693
 20
-93.613015
 11
114.681363
 21
-93.613015
  0
LINE
  8
型材断面
  6
CONTINUOUS
 10
29.154693
 20
-97.516335
 11
114.681363
 21
-97.516335
  0
LINE
  8
型材断面
  6
CONTINUOUS
 10
29.988025
 20
-97.853
 11
113.84803
 21
-97.853
  0
LINE
  8
型材断面
  6
CONTINUOUS
 10
27.75136
 20
-92.971112
 11
116.084695
 21
-92.971112
  0
LINE
  8
型材断面
  6
CONTINUOUS
 10
28.584692
 20
-93.437767
 11
115.251362
 21
-93.437767
  0
LINE
  8
型材断面
  6
CONTINUOUS
 10
27.75136
 20
-90.75965
 11
116.084695
 21
-90.75965
  0
LINE
  8
型材断面
  6
CONTINUOUS
 10
27.716005
 20
-90.677138
 11
57.186643
 21
-61.206505
  0
LINE
  8
型材断面
  6
CONTINUOUS
 10
27.75136
 20
-90.712495
 11
57.257352
 21
-61.206505
  0
LINE
  8
型材断面
  6
CONTINUOUS
 10
60.46352
 20
-59.69049
 11
83.372535
 21
-59.69049
  0
LINE
  8
型材断面
  6
CONTINUOUS
 10
58.43711
 20
-60.869502
 11
85.398945
 21
-60.869502
  0
LINE
  8
型材断面
  6
CONTINUOUS
 10
116.12005
 20
-90.677138
 11
86.649412
 21
-61.206505
  0
LINE
  8
型材断面
  6
CONTINUOUS
 10
116.084695
 20
-90.712495
 11
86.578702
 21
-61.206505
  0
INSERT
  2
*GRP_0023
  8
型材断面
  6
CONTINUOUS
 10
0.0
 20
0.0
  0
INSERT
  2
*GRP_0024
  8
型材断面
  6
DOT
 10
0.0
 20
0.0
  0
INSERT
  2
*GRP_0025
  8
型材断面
  6
DOT
 10
0.0
 20
0.0
  0
INSERT
  2
*GRP_0026
  8
型材断面
  6
DOT
 10
0.0
 20
0.0
  0
INSERT
  2
*GRP_0027
  8
型材断面
  6
DOT
 10
0.0
 20
0.0
  0
LINE
  8
型材断面
  6
CONTINUOUS
 10
101.87072
 20
77.1939
 11
117.825135
 21
77.1939
  0
LINE
  8
型材断面
  6
CONTINUOUS
 10
102.18702
 20
17.300087
 11
118.141435
 21
17.300087
  0
LINE
  8
ガラス
  6
CONTINUOUS
 10
157.687405
 20
-16.61126
 11
130.246383
 21
22.196198
  0
LINE
  8
ガラス
  6
CONTINUOUS
 10
130.246383
 20
22.196198
 11
102.80536
 21
-16.61126
  0
LINE
  8
ガラス
  6
CONTINUOUS
 10
157.687405
 20
-16.61126
 11
102.80536
 21
-16.61126
  0
LINE
  8
ガラス
  6
CONTINUOUS
 10
105.135867
 20
43.282553
 11
133.211312
 21
82.98722
  0
LINE
  8
ガラス
  6
CONTINUOUS
 10
145.160225
 20
82.98722
 11
145.160225
 21
43.282553
  0
LINE
  8
ガラス
  6
CONTINUOUS
 10
145.160225
 20
43.282553
 11
105.135867
 21
43.282553
  0
LINE
  8
ガラス
  6
CONTINUOUS
 10
133.211312
 20
82.98722
 11
145.160225
 21
82.98722
  0
LINE
  8
ガラス
  6
CONTINUOUS
 10
-99.305055
 20
50.414172
 11
-103.177687
 21
46.541538
  0
LINE
  8
ガラス
  6
CONTINUOUS
 10
-100.185375
 20
48.815815
 11
-101.579332
 21
47.42186
  0
LINE
  8
ガラス
  6
CONTINUOUS
 10
-100.90341
 20
49.533848
 11
-102.297368
 21
48.139895
  0
LINE
  8
ガラス
  6
CONTINUOUS
 10
-40.382967
 20
50.414172
 11
-44.2556
 21
46.541538
  0
LINE
  8
ガラス
  6
CONTINUOUS
 10
-41.263288
 20
48.815815
 11
-42.657245
 21
47.42186
  0
LINE
  8
ガラス
  6
CONTINUOUS
 10
-41.981322
 20
49.533848
 11
-43.37528
 21
48.139895
  0
LINE
  8
ガラス
  6
CONTINUOUS
 10
-82.40439
 20
67.090263
 11
-86.277023
 21
63.217627
  0
LINE
  8
ガラス
  6
CONTINUOUS
 10
-83.28471
 20
65.491905
 11
-84.678668
 21
64.09795
  0
LINE
  8
ガラス
  6
CONTINUOUS
 10
-84.002745
 20
66.209937
 11
-85.396702
 21
64.815985
  0
LINE
  8
ガラス
  6
CONTINUOUS
 10
-82.40439
 20
34.44628
 11
-86.277023
 21
30.573645
  0
LINE
  8
ガラス
  6
CONTINUOUS
 10
-83.28471
 20
32.847922
 11
-84.678668
 21
31.453967
  0
LINE
  8
ガラス
  6
CONTINUOUS
 10
-84.002745
 20
33.565955
 11
-85.396702
 21
32.172003
  0
LINE
  8
ガラス
  6
CONTINUOUS
 10
-59.269315
 20
67.090263
 11
-63.141947
 21
63.217627
  0
LINE
  8
ガラス
  6
CONTINUOUS
 10
-60.149635
 20
65.491905
 11
-61.543592
 21
64.09795
  0
LINE
  8
ガラス
  6
CONTINUOUS
 10
-60.86767
 20
66.209937
 11
-62.261628
 21
64.815985
  0
LINE
  8
ガラス
  6
CONTINUOUS
 10
-59.269315
 20
34.44628
 11
-63.141947
 21
30.573645
  0
LINE
  8
ガラス
  6
CONTINUOUS
 10
-60.149635
 20
32.847922
 11
-61.543592
 21
31.453967
  0
LINE
  8
ガラス
  6
CONTINUOUS
 10
-60.86767
 20
33.565955
 11
-62.261628
 21
32.172003
  0
LINE
  8
ガラス
  6
CONTINUOUS
 10
47.742642
 20
50.414172
 11
43.87001
 21
46.541538
  0
LINE
  8
ガラス
  6
CONTINUOUS
 10
46.862322
 20
48.815815
 11
45.468365
 21
47.42186
  0
LINE
  8
ガラス
  6
CONTINUOUS
 10
46.144288
 20
49.533848
 11
44.75033
 21
48.139895
  0
LINE
  8
ガラス
  6
CONTINUOUS
 10
-82.40439
 20
-72.782413
 11
-86.277023
 21
-76.655047
  0
LINE
  8
ガラス
  6
CONTINUOUS
 10
-83.28471
 20
-74.38077
 11
-84.678668
 21
-75.774725
  0
LINE
  8
ガラス
  6
CONTINUOUS
 10
-84.002745
 20
-73.662738
 11
-85.396702
 21
-75.05669
  0
LINE
  8
ガラス
  6
CONTINUOUS
 10
-59.269315
 20
-72.782413
 11
-63.141947
 21
-76.655047
  0
LINE
  8
ガラス
  6
CONTINUOUS
 10
-60.149635
 20
-74.38077
 11
-61.543592
 21
-75.774725
  0
LINE
  8
ガラス
  6
CONTINUOUS
 10
-60.86767
 20
-73.662738
 11
-62.261628
 21
-75.05669
  0
LINE
  8
ゴム等
  6
CONTINUOUS
 10
-87.94909
 20
48.477855
 11
-115.918365
 21
20.508577
  0
LINE
  8
ゴム等
  6
CONTINUOUS
 10
-86.887645
 20
48.477855
 11
-116.531193
 21
18.834308
  0
LINE
  8
ゴム等
  6
CONTINUOUS
 10
-87.94909
 20
48.477855
 11
-115.918365
 21
76.447133
  0
LINE
  8
ゴム等
  6
CONTINUOUS
 10
-115.918365
 20
20.508577
 11
-115.918365
 21
76.447133
  0
LINE
  8
ゴム等
  6
CONTINUOUS
 10
-86.887645
 20
48.477855
 11
-116.531193
 21
78.121402
  0
LINE
  8
ゴム等
  6
CONTINUOUS
 10
-116.531193
 20
18.834308
 11
-116.531193
 21
78.121402
  0
LINE
  8
ゴム等
  6
CONTINUOUS
 10
-115.079648
 20
22.189012
 11
-115.079648
 21
74.766698
  0
LINE
  8
ゴム等
  6
CONTINUOUS
 10
-115.079648
 20
74.766698
 11
-88.790805
 21
48.477855
  0
LINE
  8
ゴム等
  6
CONTINUOUS
 10
-115.079648
 20
22.189012
 11
-88.790805
 21
48.477855
  0
LINE
  8
ゴム等
  6
CONTINUOUS
 10
-116.531193
 20
78.121402
 11
-115.918365
 21
76.447133
  0
LINE
  8
ゴム等
  6
CONTINUOUS
 10
-115.918365
 20
76.447133
 11
-115.079648
 21
74.766698
  0
LINE
  8
ゴム等
  6
CONTINUOUS
 10
-115.466453
 20
79.186142
 11
-113.79218
 21
78.573317
  0
LINE
  8
ゴム等
  6
CONTINUOUS
 10
-113.79218
 20
78.573317
 11
-112.111748
 21
77.734598
  0
LINE
  8
ゴム等
  6
CONTINUOUS
 10
-116.531193
 20
18.834308
 11
-115.918365
 21
20.508577
  0
LINE
  8
ゴム等
  6
CONTINUOUS
 10
-115.918365
 20
20.508577
 11
-115.079648
 21
22.189012
  0
LINE
  8
ゴム等
  6
CONTINUOUS
 10
-115.466453
 20
17.769568
 11
-113.79218
 21
18.382393
  0
LINE
  8
ゴム等
  6
CONTINUOUS
 10
-113.79218
 20
18.382393
 11
-112.111748
 21
19.221112
  0
LINE
  8
ゴム等
  6
CONTINUOUS
 10
-57.03005
 20
48.477855
 11
-29.060775
 21
20.508577
  0
LINE
  8
ゴム等
  6
CONTINUOUS
 10
-58.091495
 20
48.477855
 11
-28.447948
 21
18.834308
  0
LINE
  8
ゴム等
  6
CONTINUOUS
 10
-57.03005
 20
48.477855
 11
-29.060775
 21
76.447133
  0
LINE
  8
ゴム等
  6
CONTINUOUS
 10
-29.060775
 20
20.508577
 11
-29.060775
 21
76.447133
  0
LINE
  8
ゴム等
  6
CONTINUOUS
 10
-58.091495
 20
48.477855
 11
-28.447948
 21
78.121402
  0
LINE
  8
ゴム等
  6
CONTINUOUS
 10
-28.447948
 20
18.834308
 11
-28.447948
 21
78.121402
  0
LINE
  8
ゴム等
  6
CONTINUOUS
 10
-29.899492
 20
22.189012
 11
-29.899492
 21
74.766698
  0
LINE
  8
ゴム等
  6
CONTINUOUS
 10
-29.899492
 20
74.766698
 11
-56.188335
 21
48.477855
  0
LINE
  8
ゴム等
  6
CONTINUOUS
 10
-29.899492
 20
22.189012
 11
-56.188335
 21
48.477855
  0
LINE
  8
ゴム等
  6
CONTINUOUS
 10
-28.447948
 20
78.121402
 11
-29.060775
 21
76.447133
  0
LINE
  8
ゴム等
  6
CONTINUOUS
 10
-29.060775
 20
76.447133
 11
-29.899492
 21
74.766698
  0
LINE
  8
ゴム等
  6
CONTINUOUS
 10
-29.512687
 20
79.186142
 11
-31.18696
 21
78.573317
  0
LINE
  8
ゴム等
  6
CONTINUOUS
 10
-31.18696
 20
78.573317
 11
-32.867393
 21
77.734598
  0
LINE
  8
ゴム等
  6
CONTINUOUS
 10
-28.447948
 20
18.834308
 11
-29.060775
 21
20.508577
  0
LINE
  8
ゴム等
  6
CONTINUOUS
 10
-29.060775
 20
20.508577
 11
-29.899492
 21
22.189012
  0
LINE
  8
ゴム等
  6
CONTINUOUS
 10
-29.512687
 20
17.769568
 11
-31.18696
 21
18.382393
  0
LINE
  8
ゴム等
  6
CONTINUOUS
 10
-31.18696
 20
18.382393
 11
-32.867393
 21
19.221112
  0
LINE
  8
ゴム等
  6
CONTINUOUS
 10
-113.79218
 20
18.382393
 11
-31.18696
 21
18.382393
  0
LINE
  8
ゴム等
  6
CONTINUOUS
 10
-115.466453
 20
17.769568
 11
-29.512687
 21
17.769568
  0
LINE
  8
ゴム等
  6
CONTINUOUS
 10
-115.466453
 20
79.186142
 11
-29.512687
 21
79.186142
  0
LINE
  8
ゴム等
  6
CONTINUOUS
 10
-113.79218
 20
78.573317
 11
-31.18696
 21
78.573317
  0
LINE
  8
ゴム等
  6
CONTINUOUS
 10
-112.111748
 20
19.221112
 11
-84.907605
 21
46.425255
  0
LINE
  8
ゴム等
  6
CONTINUOUS
 10
-113.79218
 20
18.382393
 11
-85.35135
 21
46.823225
  0
LINE
  8
ゴム等
  6
CONTINUOUS
 10
-112.111748
 20
77.734598
 11
-84.907605
 21
50.530455
  0
LINE
  8
ゴム等
  6
CONTINUOUS
 10
-113.79218
 20
78.573317
 11
-85.35135
 21
50.132485
  0
LINE
  8
ゴム等
  6
CONTINUOUS
 10
-115.466453
 20
17.769568
 11
-85.873765
 21
47.362255
  0
LINE
  8
ゴム等
  6
CONTINUOUS
 10
-115.466453
 20
79.186142
 11
-85.873765
 21
49.593455
  0
LINE
  8
ゴム等
  6
CONTINUOUS
 10
-85.873765
 20
49.593455
 11
-85.35135
 21
50.132485
  0
LINE
  8
ゴム等
  6
CONTINUOUS
 10
-85.35135
 20
50.132485
 11
-84.907605
 21
50.530455
  0
LINE
  8
ゴム等
  6
CONTINUOUS
 10
-85.873765
 20
47.362255
 11
-85.35135
 21
46.823225
  0
LINE
  8
ゴム等
  6
CONTINUOUS
 10
-85.35135
 20
46.823225
 11
-84.907605
 21
46.425255
  0
LINE
  8
ゴム等
  6
CONTINUOUS
 10
-86.080795
 20
47.282845
 11
-84.061975
 21
47.282845
  0
LINE
  8
ゴム等
  6
CONTINUOUS
 10
-84.061975
 20
47.282845
 11
-84.061975
 21
48.477855
  0
LINE
  8
ゴム等
  6
CONTINUOUS
 10
-86.080795
 20
49.672865
 11
-84.061975
 21
49.672865
  0
LINE
  8
ゴム等
  6
CONTINUOUS
 10
-84.061975
 20
49.672865
 11
-84.061975
 21
48.477855
  0
LINE
  8
ゴム等
  6
CONTINUOUS
 10
-59.62779
 20
50.132485
 11
-60.071535
 21
50.530455
  0
LINE
  8
ゴム等
  6
CONTINUOUS
 10
-59.62779
 20
46.823225
 11
-60.071535
 21
46.425255
  0
LINE
  8
ゴム等
  6
CONTINUOUS
 10
-58.898345
 20
47.282845
 11
-60.917165
 21
47.282845
  0
LINE
  8
ゴム等
  6
CONTINUOUS
 10
-60.917165
 20
47.282845
 11
-60.917165
 21
48.477855
  0
LINE
  8
ゴム等
  6
CONTINUOUS
 10
-58.898345
 20
49.672865
 11
-60.917165
 21
49.672865
  0
LINE
  8
ゴム等
  6
CONTINUOUS
 10
-60.917165
 20
49.672865
 11
-60.917165
 21
48.477855
  0
LINE
  8
ゴム等
  6
CONTINUOUS
 10
-32.867393
 20
19.221112
 11
-60.071535
 21
46.425255
  0
LINE
  8
ゴム等
  6
CONTINUOUS
 10
-31.18696
 20
18.382393
 11
-59.62779
 21
46.823225
  0
LINE
  8
ゴム等
  6
CONTINUOUS
 10
-85.35135
 20
46.823225
 11
-59.62779
 21
46.823225
  0
LINE
  8
ゴム等
  6
CONTINUOUS
 10
-32.867393
 20
77.734598
 11
-60.071535
 21
50.530455
  0
LINE
  8
ゴム等
  6
CONTINUOUS
 10
-85.35135
 20
50.132485
 11
-59.62779
 21
50.132485
  0
LINE
  8
ゴム等
  6
CONTINUOUS
 10
-31.18696
 20
78.573317
 11
-59.62779
 21
50.132485
  0
LINE
  8
ゴム等
  6
CONTINUOUS
 10
-59.62779
 20
50.132485
 11
-59.105375
 21
49.593455
  0
LINE
  8
ゴム等
  6
CONTINUOUS
 10
-29.512687
 20
79.186142
 11
-59.105375
 21
49.593455
  0
LINE
  8
ゴム等
  6
CONTINUOUS
 10
-29.512687
 20
17.769568
 11
-59.105375
 21
47.362255
  0
LINE
  8
ゴム等
  6
CONTINUOUS
 10
-59.62779
 20
46.823225
 11
-59.105375
 21
47.362255
  0
LINE
  8
ゴム等
  6
CONTINUOUS
 10
-72.922905
 20
46.823225
 11
-72.922905
 21
18.382393
  0
LINE
  8
ゴム等
  6
CONTINUOUS
 10
-72.056235
 20
46.823225
 11
-72.056235
 21
18.382393
  0
LINE
  8
ゴム等
  6
CONTINUOUS
 10
-71.190675
 20
46.425255
 11
-71.190675
 21
19.221112
  0
LINE
  8
ゴム等
  6
CONTINUOUS
 10
-73.788465
 20
46.425255
 11
-73.788465
 21
19.221112
  0
LINE
  8
ゴム等
  6
CONTINUOUS
 10
-112.111748
 20
19.221112
 11
-73.788465
 21
19.221112
  0
LINE
  8
ゴム等
  6
CONTINUOUS
 10
-71.190675
 20
19.221112
 11
-32.867393
 21
19.221112
  0
LINE
  8
ゴム等
  6
CONTINUOUS
 10
-84.907605
 20
46.425255
 11
-73.788465
 21
46.425255
  0
LINE
  8
ゴム等
  6
CONTINUOUS
 10
-71.190675
 20
46.425255
 11
-60.071535
 21
46.425255
  0
LINE
  8
ゴム等
  6
CONTINUOUS
 10
-73.788465
 20
46.425255
 11
-72.922905
 21
46.823225
  0
LINE
  8
ゴム等
  6
CONTINUOUS
 10
-72.056235
 20
46.823225
 11
-71.190675
 21
46.425255
  0
LINE
  8
ゴム等
  6
CONTINUOUS
 10
-72.056235
 20
18.382393
 11
-71.190675
 21
19.221112
  0
LINE
  8
ゴム等
  6
CONTINUOUS
 10
-73.788465
 20
19.221112
 11
-72.922905
 21
18.382393
  0
LINE
  8
ゴム等
  6
CONTINUOUS
 10
-72.922905
 20
50.132485
 11
-72.922905
 21
78.573317
  0
LINE
  8
ゴム等
  6
CONTINUOUS
 10
-72.056235
 20
50.132485
 11
-72.056235
 21
78.573317
  0
LINE
  8
ゴム等
  6
CONTINUOUS
 10
-71.190675
 20
50.530455
 11
-71.190675
 21
77.734598
  0
LINE
  8
ゴム等
  6
CONTINUOUS
 10
-73.788465
 20
50.530455
 11
-73.788465
 21
77.734598
  0
LINE
  8
ゴム等
  6
CONTINUOUS
 10
-73.788465
 20
50.530455
 11
-72.922905
 21
50.132485
  0
LINE
  8
ゴム等
  6
CONTINUOUS
 10
-72.056235
 20
50.132485
 11
-71.190675
 21
50.530455
  0
LINE
  8
ゴム等
  6
CONTINUOUS
 10
-72.056235
 20
78.573317
 11
-71.190675
 21
77.734598
  0
LINE
  8
ゴム等
  6
CONTINUOUS
 10
-73.788465
 20
77.734598
 11
-72.922905
 21
78.573317
  0
LINE
  8
ゴム等
  6
CONTINUOUS
 10
-112.111748
 20
77.734598
 11
-73.788465
 21
77.734598
  0
LINE
  8
ゴム等
  6
CONTINUOUS
 10
-71.190675
 20
77.734598
 11
-32.867393
 21
77.734598
  0
LINE
  8
ゴム等
  6
CONTINUOUS
 10
-84.907605
 20
50.530455
 11
-73.788465
 21
50.530455
  0
LINE
  8
ゴム等
  6
CONTINUOUS
 10
-71.190675
 20
50.530455
 11
-60.071535
 21
50.530455
  0
LINE
  8
ゴム等
  6
CONTINUOUS
 10
54.488095
 20
74.768373
 11
54.88299
 21
76.447125
  0
LINE
  8
ゴム等
  6
CONTINUOUS
 10
54.88299
 20
76.447125
 11
55.495815
 21
78.121395
  0
LINE
  8
ゴム等
  6
CONTINUOUS
 10
55.495815
 20
18.834317
 11
54.88299
 21
20.508588
  0
LINE
  8
ゴム等
  6
CONTINUOUS
 10
54.88299
 20
20.508588
 11
54.488095
 21
22.18734
  0
LINE
  8
ゴム等
  6
CONTINUOUS
 10
54.88299
 20
20.508588
 11
54.88299
 21
76.447125
  0
LINE
  8
ゴム等
  6
CONTINUOUS
 10
55.495815
 20
18.834317
 11
55.495815
 21
78.121395
  0
LINE
  8
ゴム等
  6
CONTINUOUS
 10
54.88299
 20
20.508588
 11
26.913725
 21
48.477855
  0
LINE
  8
ゴム等
  6
CONTINUOUS
 10
54.88299
 20
76.447125
 11
26.913725
 21
48.477855
  0
LINE
  8
ゴム等
  6
CONTINUOUS
 10
55.495815
 20
78.121395
 11
25.85228
 21
48.477855
  0
LINE
  8
ゴム等
  6
CONTINUOUS
 10
55.495815
 20
18.834317
 11
25.85228
 21
48.477855
  0
LINE
  8
ゴム等
  6
CONTINUOUS
 10
54.488095
 20
22.18734
 11
28.19758
 21
48.477855
  0
LINE
  8
ゴム等
  6
CONTINUOUS
 10
54.488095
 20
22.18734
 11
54.488095
 21
74.768373
  0
LINE
  8
ゴム等
  6
CONTINUOUS
 10
28.19758
 20
48.477855
 11
54.488095
 21
74.768373
  0
LINE
  8
ゴム等
  6
CONTINUOUS
 10
-115.466443
 20
-90.610905
 11
-113.792173
 21
-89.99808
  0
LINE
  8
ゴム等
  6
CONTINUOUS
 10
-113.792173
 20
-89.99808
 11
-112.11342
 21
-89.603185
  0
LINE
  8
ゴム等
  6
CONTINUOUS
 10
-29.512698
 20
-90.610905
 11
-31.186967
 21
-89.99808
  0
LINE
  8
ゴム等
  6
CONTINUOUS
 10
-31.186967
 20
-89.99808
 11
-32.86572
 21
-89.603185
  0
LINE
  8
ゴム等
  6
CONTINUOUS
 10
-113.792173
 20
-89.99808
 11
-31.186967
 21
-89.99808
  0
LINE
  8
ゴム等
  6
CONTINUOUS
 10
-115.466443
 20
-90.610905
 11
-29.512698
 21
-90.610905
  0
LINE
  8
ゴム等
  6
CONTINUOUS
 10
-112.11342
 20
-89.603185
 11
-84.906027
 21
-62.395792
  0
LINE
  8
ゴム等
  6
CONTINUOUS
 10
-113.792173
 20
-89.99808
 11
-85.351332
 21
-61.557243
  0
LINE
  8
ゴム等
  6
CONTINUOUS
 10
-115.466443
 20
-90.610905
 11
-85.725037
 21
-60.869502
  0
LINE
  8
ゴム等
  6
CONTINUOUS
 10
-32.86572
 20
-89.603185
 11
-60.073113
 21
-62.395792
  0
LINE
  8
ゴム等
  6
CONTINUOUS
 10
-31.186967
 20
-89.99808
 11
-59.627808
 21
-61.557243
  0
LINE
  8
ゴム等
  6
CONTINUOUS
 10
-85.351332
 20
-61.557243
 11
-59.627808
 21
-61.557243
  0
LINE
  8
ゴム等
  6
CONTINUOUS
 10
-29.512698
 20
-90.610905
 11
-59.254103
 21
-60.869502
  0
LINE
  8
ゴム等
  6
CONTINUOUS
 10
-85.610745
 20
-59.57264
 11
-83.944078
 21
-59.57264
  0
LINE
  8
ゴム等
  6
CONTINUOUS
 10
-83.944078
 20
-59.57264
 11
-83.944078
 21
-60.81479
  0
LINE
  8
ゴム等
  6
CONTINUOUS
 10
-85.868635
 20
-60.76765
 11
-83.944078
 21
-60.76765
  0
LINE
  8
ゴム等
  6
CONTINUOUS
 10
-83.944078
 20
-60.81479
 11
-85.915775
 21
-60.81479
  0
LINE
  8
ゴム等
  6
CONTINUOUS
 10
-87.244613
 20
-61.206505
 11
-86.307492
 21
-61.206505
  0
LINE
  8
ゴム等
  6
CONTINUOUS
 10
-87.244613
 20
-61.206505
 11
-85.610745
 21
-59.57264
  0
LINE
  8
ゴム等
  6
CONTINUOUS
 10
-86.307492
 20
-61.206505
 11
-85.868635
 21
-60.76765
  0
LINE
  8
ゴム等
  6
CONTINUOUS
 10
-85.725037
 20
-60.869502
 11
-85.351332
 21
-61.557243
  0
LINE
  8
ゴム等
  6
CONTINUOUS
 10
-85.351332
 20
-61.557243
 11
-84.906027
 21
-62.395792
  0
LINE
  8
ゴム等
  6
CONTINUOUS
 10
-59.368395
 20
-59.57264
 11
-61.035063
 21
-59.57264
  0
LINE
  8
ゴム等
  6
CONTINUOUS
 10
-61.035063
 20
-59.57264
 11
-61.035063
 21
-60.81479
  0
LINE
  8
ゴム等
  6
CONTINUOUS
 10
-59.110505
 20
-60.76765
 11
-61.035063
 21
-60.76765
  0
LINE
  8
ゴム等
  6
CONTINUOUS
 10
-61.035063
 20
-60.81479
 11
-59.063365
 21
-60.81479
  0
LINE
  8
ゴム等
  6
CONTINUOUS
 10
-57.734527
 20
-61.206505
 11
-58.671648
 21
-61.206505
  0
LINE
  8
ゴム等
  6
CONTINUOUS
 10
-57.734527
 20
-61.206505
 11
-59.368395
 21
-59.57264
  0
LINE
  8
ゴム等
  6
CONTINUOUS
 10
-58.671648
 20
-61.206505
 11
-59.110505
 21
-60.76765
  0
LINE
  8
ゴム等
  6
CONTINUOUS
 10
-59.254103
 20
-60.869502
 11
-59.627808
 21
-61.557243
  0
LINE
  8
ゴム等
  6
CONTINUOUS
 10
-59.627808
 20
-61.557243
 11
-60.073113
 21
-62.395792
  0
LINE
  8
ゴム等
  6
CONTINUOUS
 10
-84.906027
 20
-62.395792
 11
-73.788465
 21
-62.395792
  0
LINE
  8
ゴム等
  6
CONTINUOUS
 10
-71.190675
 20
-62.395792
 11
-60.073113
 21
-62.395792
  0
LINE
  8
ゴム等
  6
CONTINUOUS
 10
-73.788465
 20
-62.395792
 11
-72.922905
 21
-61.557243
  0
LINE
  8
ゴム等
  6
CONTINUOUS
 10
-72.056235
 20
-61.557243
 11
-71.190675
 21
-62.395792
  0
LINE
  8
ゴム等
  6
CONTINUOUS
 10
-72.056235
 20
-61.557243
 11
-72.056235
 21
-89.99808
  0
LINE
  8
ゴム等
  6
CONTINUOUS
 10
-72.922905
 20
-61.557243
 11
-72.922905
 21
-89.99808
  0
LINE
  8
ゴム等
  6
CONTINUOUS
 10
-73.788465
 20
-62.395792
 11
-73.788465
 21
-89.603185
  0
LINE
  8
ゴム等
  6
CONTINUOUS
 10
-71.190675
 20
-62.395792
 11
-71.190675
 21
-89.603185
  0
LINE
  8
ゴム等
  6
CONTINUOUS
 10
-112.11342
 20
-89.603185
 11
-73.788465
 21
-89.603185
  0
LINE
  8
ゴム等
  6
CONTINUOUS
 10
-71.190675
 20
-89.603185
 11
-32.86572
 21
-89.603185
  0
LINE
  8
ゴム等
  6
CONTINUOUS
 10
-73.788465
 20
-89.603185
 11
-72.922905
 21
-89.99808
  0
LINE
  8
ゴム等
  6
CONTINUOUS
 10
-72.056235
 20
-89.99808
 11
-71.190675
 21
-89.603185
  0
LINE
  8
ゴム等
  6
CONTINUOUS
 10
28.941155
 20
-90.610905
 11
30.615425
 21
-89.99808
  0
LINE
  8
ゴム等
  6
CONTINUOUS
 10
30.615425
 20
-89.99808
 11
32.294177
 21
-89.603185
  0
LINE
  8
ゴム等
  6
CONTINUOUS
 10
114.8949
 20
-90.610905
 11
113.22063
 21
-89.99808
  0
LINE
  8
ゴム等
  6
CONTINUOUS
 10
113.22063
 20
-89.99808
 11
111.541878
 21
-89.603185
  0
LINE
  8
ゴム等
  6
CONTINUOUS
 10
30.615425
 20
-89.99808
 11
113.22063
 21
-89.99808
  0
LINE
  8
ゴム等
  6
CONTINUOUS
 10
28.941155
 20
-90.610905
 11
114.8949
 21
-90.610905
  0
LINE
  8
ゴム等
  6
CONTINUOUS
 10
32.294177
 20
-89.603185
 11
59.50157
 21
-62.395792
  0
LINE
  8
ゴム等
  6
CONTINUOUS
 10
30.615425
 20
-89.99808
 11
59.056265
 21
-61.557243
  0
LINE
  8
ゴム等
  6
CONTINUOUS
 10
28.941155
 20
-90.610905
 11
58.68256
 21
-60.869502
  0
LINE
  8
ゴム等
  6
CONTINUOUS
 10
111.541878
 20
-89.603185
 11
84.334485
 21
-62.395792
  0
LINE
  8
ゴム等
  6
CONTINUOUS
 10
113.22063
 20
-89.99808
 11
84.77979
 21
-61.557243
  0
LINE
  8
ゴム等
  6
CONTINUOUS
 10
59.056265
 20
-61.557243
 11
84.77979
 21
-61.557243
  0
LINE
  8
ゴム等
  6
CONTINUOUS
 10
114.8949
 20
-90.610905
 11
85.153495
 21
-60.869502
  0
LINE
  8
ゴム等
  6
CONTINUOUS
 10
58.796853
 20
-59.57264
 11
60.46352
 21
-59.57264
  0
LINE
  8
ゴム等
  6
CONTINUOUS
 10
60.46352
 20
-59.57264
 11
60.46352
 21
-60.81479
  0
LINE
  8
ゴム等
  6
CONTINUOUS
 10
58.538962
 20
-60.76765
 11
60.46352
 21
-60.76765
  0
LINE
  8
ゴム等
  6
CONTINUOUS
 10
60.46352
 20
-60.81479
 11
58.491822
 21
-60.81479
  0
LINE
  8
ゴム等
  6
CONTINUOUS
 10
57.162985
 20
-61.206505
 11
58.100105
 21
-61.206505
  0
LINE
  8
ゴム等
  6
CONTINUOUS
 10
57.162985
 20
-61.206505
 11
58.796853
 21
-59.57264
  0
LINE
  8
ゴム等
  6
CONTINUOUS
 10
58.100105
 20
-61.206505
 11
58.538962
 21
-60.76765
  0
LINE
  8
ゴム等
  6
CONTINUOUS
 10
58.68256
 20
-60.869502
 11
59.056265
 21
-61.557243
  0
LINE
  8
ゴム等
  6
CONTINUOUS
 10
59.056265
 20
-61.557243
 11
59.50157
 21
-62.395792
  0
LINE
  8
ゴム等
  6
CONTINUOUS
 10
85.039202
 20
-59.57264
 11
83.372535
 21
-59.57264
  0
LINE
  8
ゴム等
  6
CONTINUOUS
 10
83.372535
 20
-59.57264
 11
83.372535
 21
-60.81479
  0
LINE
  8
ゴム等
  6
CONTINUOUS
 10
85.297092
 20
-60.76765
 11
83.372535
 21
-60.76765
  0
LINE
  8
ゴム等
  6
CONTINUOUS
 10
83.372535
 20
-60.81479
 11
85.344233
 21
-60.81479
  0
LINE
  8
ゴム等
  6
CONTINUOUS
 10
86.67307
 20
-61.206505
 11
85.73595
 21
-61.206505
  0
LINE
  8
ゴム等
  6
CONTINUOUS
 10
86.67307
 20
-61.206505
 11
85.039202
 21
-59.57264
  0
LINE
  8
ゴム等
  6
CONTINUOUS
 10
85.73595
 20
-61.206505
 11
85.297092
 21
-60.76765
  0
LINE
  8
ゴム等
  6
CONTINUOUS
 10
85.153495
 20
-60.869502
 11
84.77979
 21
-61.557243
  0
LINE
  8
ゴム等
  6
CONTINUOUS
 10
84.77979
 20
-61.557243
 11
84.334485
 21
-62.395792
  0
LINE
  8
ゴム等
  6
CONTINUOUS
 10
59.50157
 20
-62.395792
 11
70.619132
 21
-62.395792
  0
LINE
  8
ゴム等
  6
CONTINUOUS
 10
73.216922
 20
-62.395792
 11
84.334485
 21
-62.395792
  0
LINE
  8
ゴム等
  6
CONTINUOUS
 10
70.619132
 20
-62.395792
 11
71.484692
 21
-61.557243
  0
LINE
  8
ゴム等
  6
CONTINUOUS
 10
72.351362
 20
-61.557243
 11
73.216922
 21
-62.395792
  0
LINE
  8
ゴム等
  6
CONTINUOUS
 10
72.351362
 20
-61.557243
 11
72.351362
 21
-89.99808
  0
LINE
  8
ゴム等
  6
CONTINUOUS
 10
71.484692
 20
-61.557243
 11
71.484692
 21
-89.99808
  0
LINE
  8
ゴム等
  6
CONTINUOUS
 10
70.619132
 20
-62.395792
 11
70.619132
 21
-89.603185
  0
LINE
  8
ゴム等
  6
CONTINUOUS
 10
73.216922
 20
-62.395792
 11
73.216922
 21
-89.603185
  0
LINE
  8
ゴム等
  6
CONTINUOUS
 10
32.294177
 20
-89.603185
 11
70.619132
 21
-89.603185
  0
LINE
  8
ゴム等
  6
CONTINUOUS
 10
73.216922
 20
-89.603185
 11
111.541878
 21
-89.603185
  0
LINE
  8
ゴム等
  6
CONTINUOUS
 10
70.619132
 20
-89.603185
 11
71.484692
 21
-89.99808
  0
LINE
  8
ゴム等
  6
CONTINUOUS
 10
72.351362
 20
-89.99808
 11
73.216922
 21
-89.603185
  0
TEXT
  7
TextStyle03
  8
文字
  6
CONTINUOUS
 10
-137.55
 20
96.5
  1
アンカーピッチ
 40
3.0
 72
     5
 11
-114.3
 21
96.5
  0
TEXT
  7
TextStyle03
  8
文字
  6
CONTINUOUS
 10
-136.975
 20
-4.725
  1
アンカーピッチ
 40
3.0
 50
90.0
 72
     5
 11
-136.975
 21
18.525
  0
TEXT
  7
TextStyle03
  8
文字
  6
CONTINUOUS
 10
-21.6
 20
0.175
  1
は排水穴位置を示す
 40
3.0
 72
     5
 11
8.4
 21
0.175
  0
TEXT
  7
TextStyle03
  8
文字
  6
CONTINUOUS
 10
-21.8
 20
-7.05
  1
はケーシング位置を示す
 40
3.0
 72
     5
 11
14.95
 21
-7.05
  0
TEXT
  7
TextStyle03
  8
文字
  6
CONTINUOUS
 10
-21.8
 20
-10.425
  1
４ヶ所中1ヶ所に設定
 40
3.0
 72
     5
 11
9.8875
 21
-10.425
  0
TEXT
  7
TextStyle03
  8
文字
  6
CONTINUOUS
 10
-27.9
 20
-16.025
  1
アームユニット数　４ヶ所
 40
3.0
 72
     5
 11
12.225
 21
-16.025
  0
TEXT
  7
TextStyle03
  8
文字
  6
CONTINUOUS
 10
54.8
 20
123.025
  1
シリーズ：ＤＦＹ
 40
5.0
 72
     5
 11
99.175
 21
123.025
  0
TEXT
  7
TextStyle03
  8
文字
  6
CONTINUOUS
 10
54.8
 20
117.4
  1
　　　　　山型四角錘（上下可動）1600×2400タイプ
 40
5.0
 72
     5
 11
189.175
 21
117.4
  0
TEXT
  7
TextStyle03
  8
文字
  6
CONTINUOUS
 10
54.8
 20
111.775
  1
図面名　：外観姿図
 40
5.0
 72
     5
 11
104.8
 21
111.775
  0
TEXT
  7
TextStyle03
  8
文字
  6
CONTINUOUS
 10
54.8
 20
106.15
  1

 40
5.0
 41
1.125
  0
TEXT
  7
TextStyle03
  8
文字
  6
CONTINUOUS
 10
54.8
 20
100.525
  1
ＮＳコード：ＮＳ４Ｙ
 40
5.0
 72
     5
 11
110.425
 21
100.525
  0
TEXT
  7
TextStyle03
  8
文字
  6
CONTINUOUS
 10
168.7
 20
-2.4
  1
×　２枚
 40
4.0
 72
     5
 11
186.2
 21
-2.4
  0
TEXT
  7
TextStyle03
  8
文字
  6
CONTINUOUS
 10
166.625
 20
60.0
  1
×　右２枚
 40
4.0
 72
     5
 11
188.625
 21
60.0
  0
TEXT
  7
TextStyle03
  8
文字
  6
CONTINUOUS
 10
166.625
 20
55.5
  1
×　左２枚
 40
4.0
 72
     5
 11
188.625
 21
55.5
  0
TEXT
  7
TextStyle03
  8
文字
  6
CONTINUOUS
 10
-20.8
 20
57.8
  1
バランスステー
 40
3.0
 72
     5
 11
2.45
 21
57.8
  0
TEXT
  7
TextStyle03
  8
文字
  6
CONTINUOUS
 10
101.825
 20
78.025
  1
ガラス寸法
 40
3.0
 72
     5
 11
118.325
 21
78.025
  0
TEXT
  7
TextStyle03
  8
文字
  6
CONTINUOUS
 10
102.15
 20
18.125
  1
ガラス寸法
 40
3.0
 72
     5
 11
118.65
 21
18.125
  0
INSERT
  2
*DIM_0002
  8
寸法
  6
CONTINUOUS
 10
0.0
 20
0.0
  0
LINE
  8
寸法
  6
CONTINUOUS
 10
-47.48957
 20
17.611188
 11
-46.113937
 21
15.228522
  0
LINE
  8
寸法
  6
CONTINUOUS
 10
-47.48957
 20
17.611188
 11
-48.865203
 21
15.228522
  0
LINE
  8
寸法
  6
CONTINUOUS
 10
-48.865203
 20
15.228522
 11
-46.113937
 21
15.228522
  0
LINE
  8
寸法
  6
CONTINUOUS
 10
-97.48957
 20
17.611188
 11
-98.865203
 21
15.228522
  0
LINE
  8
寸法
  6
CONTINUOUS
 10
-97.48957
 20
17.611188
 11
-96.113937
 21
15.228522
  0
LINE
  8
寸法
  6
CONTINUOUS
 10
-96.113937
 20
15.228522
 11
-98.865203
 21
15.228522
  0
INSERT
  2
*DIM_0003
  8
寸法
  6
CONTINUOUS
 10
0.0
 20
0.0
  0
LINE
  8
寸法
  6
CONTINUOUS
 10
-47.48957
 20
79.344522
 11
-46.113937
 21
81.727188
  0
LINE
  8
寸法
  6
CONTINUOUS
 10
-47.48957
 20
79.344522
 11
-48.865203
 21
81.727188
  0
LINE
  8
寸法
  6
CONTINUOUS
 10
-48.865203
 20
81.727188
 11
-46.113937
 21
81.727188
  0
LINE
  8
寸法
  6
CONTINUOUS
 10
-97.48957
 20
79.344522
 11
-98.865203
 21
81.727188
  0
LINE
  8
寸法
  6
CONTINUOUS
 10
-97.48957
 20
79.344522
 11
-96.113937
 21
81.727188
  0
LINE
  8
寸法
  6
CONTINUOUS
 10
-96.113937
 20
81.727188
 11
-98.865203
 21
81.727188
  0
LINE
  8
寸法
  6
CONTINUOUS
 10
-28.289577
 20
48.477855
 11
-25.906912
 21
47.102223
  0
LINE
  8
寸法
  6
CONTINUOUS
 10
-28.289577
 20
48.477855
 11
-25.906912
 21
49.853487
  0
LINE
  8
寸法
  6
CONTINUOUS
 10
-25.906912
 20
49.853487
 11
-25.906912
 21
47.102223
  0
LINE
  8
寸法
  6
CONTINUOUS
 10
-116.689563
 20
48.477855
 11
-119.072228
 21
47.102223
  0
LINE
  8
寸法
  6
CONTINUOUS
 10
-116.689563
 20
48.477855
 11
-119.072228
 21
49.853487
  0
LINE
  8
寸法
  6
CONTINUOUS
 10
-119.072228
 20
49.853487
 11
-119.072228
 21
47.102223
  0
INSERT
  2
*DIM_0004
  8
寸法
  6
CONTINUOUS
 10
0.0
 20
0.0
  0
INSERT
  2
*DIM_0005
  8
寸法
  6
CONTINUOUS
 10
0.0
 20
0.0
  0
INSERT
  2
*DIM_0006
  8
寸法
  6
CONTINUOUS
 10
0.0
 20
0.0
  0
INSERT
  2
*DIM_0007
  8
寸法
  6
CONTINUOUS
 10
0.0
 20
0.0
  0
INSERT
  2
*DIM_0008
  8
寸法
  6
CONTINUOUS
 10
0.0
 20
0.0
  0
INSERT
  2
*DIM_0009
  8
寸法
  6
CONTINUOUS
 10
0.0
 20
0.0
  0
INSERT
  2
*DIM_0010
  8
寸法
  6
CONTINUOUS
 10
0.0
 20
0.0
  0
INSERT
  2
*DIM_0011
  8
寸法
  6
CONTINUOUS
 10
0.0
 20
0.0
  0
INSERT
  2
*DIM_0012
  8
寸法
  6
CONTINUOUS
 10
0.0
 20
0.0
  0
INSERT
  2
*DIM_0013
  8
寸法
  6
CONTINUOUS
 10
0.0
 20
0.0
  0
INSERT
  2
*DIM_0014
  8
寸法
  6
CONTINUOUS
 10
0.0
 20
0.0
  0
LINE
  8
寸法
  6
CONTINUOUS
 10
-24.65417
 20
2.613172
 11
-23.278538
 21
0.230508
  0
LINE
  8
寸法
  6
CONTINUOUS
 10
-24.65417
 20
2.613172
 11
-26.029803
 21
0.230508
  0
LINE
  8
寸法
  6
CONTINUOUS
 10
-26.029803
 20
0.230508
 11
-23.278538
 21
0.230508
  0
LINE
  8
寸法
  6
CONTINUOUS
 10
-28.003658
 20
-1.421447
 11
10.071655
 21
-1.421447
  0
INSERT
  2
*DIM_0015
  8
寸法
  6
CONTINUOUS
 10
0.0
 20
0.0
  0
INSERT
  2
*DIM_0016
  8
寸法
  6
CONTINUOUS
 10
0.0
 20
0.0
  0
INSERT
  2
*DIM_0017
  8
寸法
  6
CONTINUOUS
 10
0.0
 20
0.0
  0
LINE
  8
寸法
  6
CONTINUOUS
 10
-28.003658
 20
-17.662828
 11
10.071655
 21
-17.662828
  0
INSERT
  2
*DIM_0018
  8
寸法
  6
CONTINUOUS
 10
0.0
 20
0.0
  0
INSERT
  2
*DIM_0019
  8
寸法
  6
CONTINUOUS
 10
0.0
 20
0.0
  0
INSERT
  2
*DIM_0020
  8
寸法
  6
CONTINUOUS
 10
0.0
 20
0.0
  0
INSERT
  2
*DIM_0021
  8
寸法
  6
CONTINUOUS
 10
0.0
 20
0.0
  0
INSERT
  2
*DIM_0022
  8
寸法
  6
CONTINUOUS
 10
0.0
 20
0.0
  0
INSERT
  2
*DIM_0028
  8
寸法
  6
CONTINUOUS
 10
0.0
 20
0.0
  0
INSERT
  2
*DIM_0029
  8
寸法
  6
CONTINUOUS
 10
0.0
 20
0.0
  0
INSERT
  2
*DIM_0030
  8
寸法
  6
CONTINUOUS
 10
0.0
 20
0.0
  0
INSERT
  2
*DIM_0031
  8
寸法
  6
CONTINUOUS
 10
0.0
 20
0.0
  0
INSERT
  2
*DIM_0032
  8
寸法
  6
CONTINUOUS
 10
0.0
 20
0.0
  0
INSERT
  2
*DIM_0033
  8
寸法
  6
CONTINUOUS
 10
0.0
 20
0.0
  0
INSERT
  2
*DIM_0034
  8
寸法
  6
CONTINUOUS
 10
0.0
 20
0.0
  0
INSERT
  2
*DIM_0035
  8
寸法
  6
CONTINUOUS
 10
0.0
 20
0.0
  0
INSERT
  2
*DIM_0036
  8
寸法
  6
CONTINUOUS
 10
0.0
 20
0.0
  0
INSERT
  2
*DIM_0037
  8
寸法
  6
CONTINUOUS
 10
0.0
 20
0.0
  0
INSERT
  2
*DIM_0038
  8
寸法
  6
CONTINUOUS
 10
0.0
 20
0.0
  0
INSERT
  2
*GRP_0039
  8
寸法
  6
CONTINUOUS
 10
0.0
 20
0.0
  0
ENDSEC
  0
EOF
