  0
SECTION
  2
HEADER
  9
$EXTMIN
 10
-210.0
 20
-148.5
  9
$EXTMAX
 10
210.0
 20
148.5
  9
$PDMODE
 70
    32
  9
$PDSIZE
 40
1.5
  9
$LTSCALE
 40
10.0
  0
ENDSEC
  0
SECTION
  2
TABLES
  0
TABLE
  2
LTYPE
 70
    15
  0
LTYPE
  2
CONTINUOUS
 70
    64
  3
実線
 72
    65
 73
     0
 40
0.0
  0
LTYPE
  2
DASHED
 70
    64
  3
破線A
 72
    65
 73
     2
 40
0.6
 49
0.4
 49
-0.2
  0
LTYPE
  2
DASHEDX2
 70
    64
  3
破線B
 72
    65
 73
     2
 40
1.3
 49
0.9
 49
-0.4
  0
LTYPE
  2
DASHDOT
 70
    64
  3
１点鎖線A
 72
    65
 73
     4
 40
0.5375
 49
0.375
 49
-0.05
 49
0.0625
 49
-0.05
  0
LTYPE
  2
DASHDOTX2
 70
    64
  3
１点鎖線B
 72
    65
 73
     4
 40
1.075
 49
0.75
 49
-0.1
 49
0.125
 49
-0.1
  0
LTYPE
  2
DIVIDE2
 70
    64
  3
２点鎖線A
 72
    65
 73
     6
 40
0.5125
 49
0.3
 49
-0.0375
 49
0.05
 49
-0.0375
 49
0.05
 49
-0.0375
  0
LTYPE
  2
DIVIDE
 70
    64
  3
２点鎖線B
 72
    65
 73
     6
 40
1.05
 49
0.55
 49
-0.1
 49
0.1
 49
-0.1
 49
0.1
 49
-0.1
  0
LTYPE
  2
DOT
 70
    64
  3
点線A
 72
    65
 73
     2
 40
0.1125
 49
0.0625
 49
-0.05
  0
LTYPE
  2
DOTX2
 70
    64
  3
点線B
 72
    65
 73
     2
 40
0.275
 49
0.15
 49
-0.125
  0
LTYPE
  2
CONTINUOUS
 70
    64
  3
実線
 72
    65
 73
     0
 40
0.0
  0
LTYPE
  2
CONTINUOUS
 70
    64
  3
実線
 72
    65
 73
     0
 40
0.0
  0
LTYPE
  2
CONTINUOUS
 70
    64
  3
実線
 72
    65
 73
     0
 40
0.0
  0
LTYPE
  2
CONTINUOUS
 70
    64
  3
実線
 72
    65
 73
     0
 40
0.0
  0
LTYPE
  2
CONTINUOUS
 70
    64
  3
実線
 72
    65
 73
     0
 40
0.0
  0
LTYPE
  2
CONTINUOUS
 70
    64
  3
実線
 72
    65
 73
     0
 40
0.0
  0
ENDTAB
  0
TABLE
  2
LAYER
 70
    34
  0
LAYER
  2
通り芯
 70
     0
 62
    15
  6
CONTINUOUS
  0
LAYER
  2
補助線
 70
     0
 62
    16
  6
DOT
  0
LAYER
  2
躯体
 70
     0
 62
    31
  6
CONTINUOUS
  0
LAYER
  2
型材
 70
     0
 62
    32
  6
CONTINUOUS
  0
LAYER
  2
型材断面
 70
     0
 62
    47
  6
CONTINUOUS
  0
LAYER
  2
ガラス
 70
     0
 62
    48
  6
CONTINUOUS
  0
LAYER
  2
ゴム等
 70
     0
 62
    63
  6
CONTINUOUS
  0
LAYER
  2
ボルト／ビス
 70
     0
 62
    64
  6
CONTINUOUS
  0
LAYER
  2
文字
 70
     0
 62
    79
  6
CONTINUOUS
  0
LAYER
  2
寸法
 70
     0
 62
    80
  6
CONTINUOUS
  0
LAYER
  2
ﾊｯﾁﾝｸﾞ
 70
     0
 62
    95
  6
CONTINUOUS
  0
LAYER
  2
別途部材
 70
     0
 62
    96
  6
CONTINUOUS
  0
LAYER
  2
曲げ物
 70
     0
 62
   111
  6
CONTINUOUS
  0
LAYER
  2
鉄骨等
 70
     0
 62
   112
  6
CONTINUOUS
  0
LAYER
  2
St
 70
     0
 62
   127
  6
CONTINUOUS
  0
LAYER
  2
その他部品等
 70
     0
 62
   128
  6
CONTINUOUS
  0
LAYER
  2
ｶﾞｽｹｯﾄ
 70
     0
 62
   143
  6
CONTINUOUS
  0
LAYER
  2
ｽｹｯﾁ
 70
     0
 62
    14
  6
CONTINUOUS
  0
LAYER
  2
0
 70
     0
 62
    17
  6
CONTINUOUS
  0
LAYER
  2
1
 70
     0
 62
    30
  6
CONTINUOUS
  0
LAYER
  2
4
 70
     0
 62
    33
  6
CONTINUOUS
  0
LAYER
  2
ﾚｲﾔ3
 70
     0
 62
    46
  6
CONTINUOUS
  0
LAYER
  2
外形線
 70
     0
 62
    49
  6
CONTINUOUS
  0
LAYER
  2
部品
 70
     0
 62
    14
  6
CONTINUOUS
  0
LAYER
  2
サッシ芯
 70
     0
 62
    17
  6
DASHDOTX2
  0
LAYER
  2
寸法線
 70
     0
 62
    62
  6
CONTINUOUS
  0
LAYER
  2
姿図外形線
 70
     0
 62
    65
  6
CONTINUOUS
  0
LAYER
  2
姿補助線
 70
     0
 62
    30
  6
CONTINUOUS
  0
LAYER
  2
透視線
 70
     0
 62
    78
  6
DOT
  0
LAYER
  2
用紙
 70
     0
 62
    81
  6
CONTINUOUS
  0
LAYER
  2
実線図枠
 70
     0
 62
    94
  6
CONTINUOUS
  0
LAYER
  2
補助図枠
 70
     0
 62
    97
  6
CONTINUOUS
  0
LAYER
  2
建具記号
 70
     0
 62
   110
  6
CONTINUOUS
  0
LAYER
  2
補助文字
 70
     0
 62
   113
  6
CONTINUOUS
  0
ENDTAB
  0
TABLE
  2
STYLE
 70
    10
  0
STYLE
  2
STANDARD
 70
     0
 40
1.0
 41
1.0
 42
1.0
 50
0.0
 71
     0
  3
TXT
  4
BIGFONT
  0
STYLE
  2
TATE
 70
     4
 40
1.0
 41
1.0
 42
1.0
 50
0.0
 71
     0
  3
TXT
  4
BIGFONT
  0
STYLE
  2
TextStyle03
 70
     0
 40
1.0
 41
1.0
 42
1.0
 50
0.0
 71
     0
  3
MONOTXT
  4
BIGFONT
  0
STYLE
  2
TextStyle04
 70
     0
 40
1.0
 41
1.0
 42
1.0
 50
0.0
 71
     0
  3
MONOTXT
  4
BIGFONT
  0
STYLE
  2
TextStyle05
 70
     0
 40
1.0
 41
1.0
 42
1.0
 50
0.0
 71
     0
  3
MONOTXT
  4
BIGFONT
  0
STYLE
  2
TextStyle06
 70
     0
 40
1.0
 41
1.0
 42
1.0
 50
0.0
 71
     0
  3
MONOTXT
  4
BIGFONT
  0
STYLE
  2
TextStyle07
 70
     0
 40
1.0
 41
1.0
 42
1.0
 50
0.0
 71
     0
  3
MONOTXT
  4
BIGFONT
  0
STYLE
  2
TextStyle08
 70
     0
 40
1.0
 41
1.0
 42
1.0
 50
0.0
 71
     0
  3
MONOTXT
  4
BIGFONT
  0
STYLE
  2
TextStyle09
 70
     0
 40
1.0
 41
1.0
 42
1.0
 50
0.0
 71
     0
  3
MONOTXT
  4
BIGFONT
  0
STYLE
  2
TextStyle10
 70
     0
 40
1.0
 41
1.0
 42
1.0
 50
0.0
 71
     0
  3
MONOTXT
  4
BIGFONT
  0
ENDTAB
  0
ENDSEC
  0
SECTION
  2
BLOCKS
  0
BLOCK
  2
*DIM_0001
 70
    65
 10
0.0
 20
0.0
  0
LINE
  8
寸法
  6
BYBLOCK
 62
     0
 10
-116.229365
 20
-30.480688
 11
-56.229365
 21
-30.480688
  0
POINT
  8
寸法
 62
     0
 10
-56.229365
 20
-30.480688
  0
TEXT
  7
TextStyle03
  8
寸法
  6
CONTINUOUS
 62
     0
 10
-97.96875
 20
-30.1
  1
呼称寸法＝1800
 40
3.0
 72
     5
 11
-74.53125
 21
-30.1
  0
ENDBLK
  0
BLOCK
  2
*DIM_0002
 70
    65
 10
0.0
 20
0.0
  0
LINE
  8
寸法
  6
BYBLOCK
 62
     0
 10
-52.029365
 20
-66.998645
 11
-52.029365
 21
-30.480688
  0
LINE
  8
寸法
  6
BYBLOCK
 62
     0
 10
-56.229365
 20
-30.480688
 11
-52.029365
 21
-30.480688
  0
POINT
  8
寸法
 62
     0
 10
-56.229365
 20
-30.480688
  0
POINT
  8
寸法
 62
     0
 10
-52.029365
 20
-30.480688
  0
TEXT
  7
TextStyle03
  8
寸法
  6
CONTINUOUS
 62
     0
 10
-51.5375
 20
-30.1
  1
126
 40
3.0
 72
     5
 11
-46.6625
 21
-30.1
  0
ENDBLK
  0
BLOCK
  2
*DIM_0003
 70
    65
 10
0.0
 20
0.0
  0
LINE
  8
寸法
  6
BYBLOCK
 62
     0
 10
-120.429365
 20
-66.998645
 11
-120.429365
 21
-30.480688
  0
LINE
  8
寸法
  6
BYBLOCK
 62
     0
 10
-116.229365
 20
-30.480688
 11
-120.429365
 21
-30.480688
  0
POINT
  8
寸法
 62
     0
 10
-116.229365
 20
-30.480688
  0
POINT
  8
寸法
 62
     0
 10
-120.429365
 20
-30.480688
  0
TEXT
  7
TextStyle03
  8
寸法
  6
CONTINUOUS
 62
     0
 10
-125.8375
 20
-30.1
  1
126
 40
3.0
 72
     5
 11
-120.9625
 21
-30.1
  0
ENDBLK
  0
BLOCK
  2
*DIM_0004
 70
    65
 10
0.0
 20
0.0
  0
LINE
  8
寸法
  6
BYBLOCK
 62
     0
 10
-120.429365
 20
-65.998645
 11
-120.429365
 21
-24.309127
  0
LINE
  8
寸法
  6
BYBLOCK
 62
     0
 10
-52.029365
 20
-65.998645
 11
-52.029365
 21
-24.309127
  0
LINE
  8
寸法
  6
BYBLOCK
 62
     0
 10
-120.429365
 20
-24.309127
 11
-52.029365
 21
-24.309127
  0
POINT
  8
寸法
 62
     0
 10
-120.429365
 20
-24.309127
  0
POINT
  8
寸法
 62
     0
 10
-52.029365
 20
-24.309127
  0
TEXT
  7
TextStyle03
  8
寸法
  6
CONTINUOUS
 62
     0
 10
-89.53125
 20
-23.925
  1
2052
 40
3.0
 72
     5
 11
-82.96875
 21
-23.925
  0
ENDBLK
  0
BLOCK
  2
*DIM_0005
 70
    65
 10
0.0
 20
0.0
  0
LINE
  8
寸法
  6
BYBLOCK
 62
     0
 10
-70.229373
 20
-48.68091
 11
-37.765135
 21
-48.68091
  0
LINE
  8
寸法
  6
BYBLOCK
 62
     0
 10
-37.765135
 20
-67.998645
 11
-37.765135
 21
-48.68091
  0
POINT
  8
寸法
 62
     0
 10
-37.765135
 20
-48.68091
  0
TEXT
  7
TextStyle03
  8
寸法
  6
CONTINUOUS
 62
     0
 10
-38.15
 20
-62.475
  1
579.5
 40
3.0
 50
90.0
 72
     5
 11
-38.15
 21
-54.225
  0
ENDBLK
  0
BLOCK
  2
*DIM_0006
 70
    65
 10
0.0
 20
0.0
  0
LINE
  8
寸法
  6
BYBLOCK
 62
     0
 10
31.128118
 20
21.842032
 11
-4.86363
 21
21.842032
  0
LINE
  8
寸法
  6
BYBLOCK
 62
     0
 10
-4.86363
 20
26.042032
 11
-4.86363
 21
21.842032
  0
POINT
  8
寸法
 62
     0
 10
-4.86363
 20
21.842032
  0
TEXT
  7
TextStyle03
  8
寸法
  6
CONTINUOUS
 62
     0
 10
-5.25
 20
16.4625
  1
126
 40
3.0
 50
90.0
 72
     5
 11
-5.25
 21
21.3375
  0
ENDBLK
  0
BLOCK
  2
*DIM_0007
 70
    65
 10
0.0
 20
0.0
  0
LINE
  8
寸法
  6
BYBLOCK
 62
     0
 10
31.128118
 20
60.242032
 11
-4.86363
 21
60.242032
  0
LINE
  8
寸法
  6
BYBLOCK
 62
     0
 10
-4.86363
 20
56.042032
 11
-4.86363
 21
60.242032
  0
POINT
  8
寸法
 62
     0
 10
-4.86363
 20
56.042032
  0
POINT
  8
寸法
 62
     0
 10
-4.86363
 20
60.242032
  0
TEXT
  7
TextStyle03
  8
寸法
  6
CONTINUOUS
 62
     0
 10
-5.25
 20
60.7625
  1
126
 40
3.0
 50
90.0
 72
     5
 11
-5.25
 21
65.6375
  0
ENDBLK
  0
BLOCK
  2
*DIM_0008
 70
    65
 10
0.0
 20
0.0
  0
LINE
  8
寸法
  6
BYBLOCK
 62
     0
 10
-4.194733
 20
56.042032
 11
-4.86363
 21
56.042032
  0
LINE
  8
寸法
  6
BYBLOCK
 62
     0
 10
-4.194733
 20
26.042032
 11
-4.86363
 21
26.042032
  0
LINE
  8
寸法
  6
BYBLOCK
 62
     0
 10
-4.86363
 20
56.042032
 11
-4.86363
 21
26.042032
  0
POINT
  8
寸法
 62
     0
 10
-4.86363
 20
56.042032
  0
POINT
  8
寸法
 62
     0
 10
-4.86363
 20
26.042032
  0
TEXT
  7
TextStyle03
  8
寸法
  6
CONTINUOUS
 62
     0
 10
-5.25
 20
30.175
  1
呼称寸法＝900
 40
3.0
 50
90.0
 72
     5
 11
-5.25
 21
51.925
  0
ENDBLK
  0
BLOCK
  2
*DIM_0009
 70
    65
 10
0.0
 20
0.0
  0
LINE
  8
寸法
  6
BYBLOCK
 62
     0
 10
30.128118
 20
60.242032
 11
-11.245235
 21
60.242032
  0
LINE
  8
寸法
  6
BYBLOCK
 62
     0
 10
30.128118
 20
21.842032
 11
-11.245235
 21
21.842032
  0
LINE
  8
寸法
  6
BYBLOCK
 62
     0
 10
-11.245235
 20
60.242032
 11
-11.245235
 21
21.842032
  0
POINT
  8
寸法
 62
     0
 10
-11.245235
 20
60.242032
  0
POINT
  8
寸法
 62
     0
 10
-11.245235
 20
21.842032
  0
TEXT
  7
TextStyle03
  8
寸法
  6
CONTINUOUS
 62
     0
 10
-11.625
 20
37.76875
  1
1152
 40
3.0
 50
90.0
 72
     5
 11
-11.625
 21
44.33125
  0
ENDBLK
  0
BLOCK
  2
*DIM_0010
 70
    65
 10
0.0
 20
0.0
  0
LINE
  8
寸法
  6
BYBLOCK
 62
     0
 10
12.810388
 20
40.042032
 11
12.810388
 21
2.582092
  0
LINE
  8
寸法
  6
BYBLOCK
 62
     0
 10
32.128118
 20
2.582092
 11
12.810388
 21
2.582092
  0
POINT
  8
寸法
 62
     0
 10
12.810388
 20
2.582092
  0
TEXT
  7
TextStyle03
  8
寸法
  6
CONTINUOUS
 62
     0
 10
18.325
 20
2.95
  1
579.5
 40
3.0
 72
     5
 11
26.575
 21
2.95
  0
ENDBLK
  0
BLOCK
  2
*DIM_0011
 70
    65
 10
0.0
 20
0.0
  0
LINE
  8
寸法
  6
BYBLOCK
 62
     0
 10
-116.229365
 20
57.042032
 11
-116.229365
 21
70.283013
  0
LINE
  8
寸法
  6
BYBLOCK
 62
     0
 10
-111.229365
 20
57.042032
 11
-111.229365
 21
70.283013
  0
LINE
  8
寸法
  6
BYBLOCK
 62
     0
 10
-116.229365
 20
70.283013
 11
-111.229365
 21
70.283013
  0
POINT
  8
寸法
 62
     0
 10
-116.229365
 20
70.283013
  0
POINT
  8
寸法
 62
     0
 10
-111.229365
 20
70.283013
  0
TEXT
  7
TextStyle03
  8
寸法
  6
CONTINUOUS
 62
     0
 10
-121.2375
 20
70.65
  1
150
 40
3.0
 72
     5
 11
-116.3625
 21
70.65
  0
ENDBLK
  0
BLOCK
  2
*DIM_0012
 70
    65
 10
0.0
 20
0.0
  0
LINE
  8
寸法
  6
BYBLOCK
 62
     0
 10
-94.562698
 20
57.042032
 11
-94.562698
 21
70.283013
  0
LINE
  8
寸法
  6
BYBLOCK
 62
     0
 10
-111.229365
 20
70.283013
 11
-94.562698
 21
70.283013
  0
POINT
  8
寸法
 62
     0
 10
-94.562698
 20
70.283013
  0
TEXT
  7
TextStyle03
  8
寸法
  6
CONTINUOUS
 62
     0
 10
-105.3375
 20
70.65
  1
500
 40
3.0
 72
     5
 11
-100.4625
 21
70.65
  0
ENDBLK
  0
BLOCK
  2
*DIM_0013
 70
    65
 10
0.0
 20
0.0
  0
LINE
  8
寸法
  6
BYBLOCK
 62
     0
 10
-77.896033
 20
57.042032
 11
-77.896033
 21
70.283013
  0
LINE
  8
寸法
  6
BYBLOCK
 62
     0
 10
-94.562698
 20
70.283013
 11
-77.896033
 21
70.283013
  0
POINT
  8
寸法
 62
     0
 10
-77.896033
 20
70.283013
  0
TEXT
  7
TextStyle03
  8
寸法
  6
CONTINUOUS
 62
     0
 10
-88.6875
 20
70.65
  1
500
 40
3.0
 72
     5
 11
-83.8125
 21
70.65
  0
ENDBLK
  0
BLOCK
  2
*DIM_0014
 70
    65
 10
0.0
 20
0.0
  0
LINE
  8
寸法
  6
BYBLOCK
 62
     0
 10
-61.229365
 20
57.042032
 11
-61.229365
 21
70.283013
  0
LINE
  8
寸法
  6
BYBLOCK
 62
     0
 10
-77.896033
 20
70.283013
 11
-61.229365
 21
70.283013
  0
POINT
  8
寸法
 62
     0
 10
-61.229365
 20
70.283013
  0
TEXT
  7
TextStyle03
  8
寸法
  6
CONTINUOUS
 62
     0
 10
-72.0125
 20
70.65
  1
500
 40
3.0
 72
     5
 11
-67.1375
 21
70.65
  0
ENDBLK
  0
BLOCK
  2
*DIM_0015
 70
    65
 10
0.0
 20
0.0
  0
LINE
  8
寸法
  6
BYBLOCK
 62
     0
 10
-56.229365
 20
57.042032
 11
-56.229365
 21
70.283013
  0
LINE
  8
寸法
  6
BYBLOCK
 62
     0
 10
-61.229365
 20
70.283013
 11
-56.229365
 21
70.283013
  0
POINT
  8
寸法
 62
     0
 10
-61.229365
 20
70.283013
  0
POINT
  8
寸法
 62
     0
 10
-56.229365
 20
70.283013
  0
TEXT
  7
TextStyle03
  8
寸法
  6
CONTINUOUS
 62
     0
 10
-56.1375
 20
70.65
  1
150
 40
3.0
 72
     5
 11
-51.2625
 21
70.65
  0
ENDBLK
  0
BLOCK
  2
*DIM_0016
 70
    65
 10
0.0
 20
0.0
  0
LINE
  8
寸法
  6
BYBLOCK
 62
     0
 10
-117.229365
 20
56.042032
 11
-130.101255
 21
56.042032
  0
LINE
  8
寸法
  6
BYBLOCK
 62
     0
 10
-117.229365
 20
49.375365
 11
-130.101255
 21
49.375365
  0
LINE
  8
寸法
  6
BYBLOCK
 62
     0
 10
-130.101255
 20
56.042032
 11
-130.101255
 21
49.375365
  0
POINT
  8
寸法
 62
     0
 10
-130.101255
 20
56.042032
  0
POINT
  8
寸法
 62
     0
 10
-130.101255
 20
49.375365
  0
TEXT
  7
TextStyle03
  8
寸法
  6
CONTINUOUS
 62
     0
 10
-130.5
 20
50.2625
  1
200
 40
3.0
 50
90.0
 72
     5
 11
-130.5
 21
55.1375
  0
ENDBLK
  0
BLOCK
  2
*DIM_0017
 70
    65
 10
0.0
 20
0.0
  0
LINE
  8
寸法
  6
BYBLOCK
 62
     0
 10
-117.229365
 20
32.7087
 11
-130.101255
 21
32.7087
  0
LINE
  8
寸法
  6
BYBLOCK
 62
     0
 10
-130.101255
 20
49.375365
 11
-130.101255
 21
32.7087
  0
POINT
  8
寸法
 62
     0
 10
-130.101255
 20
32.7087
  0
TEXT
  7
TextStyle03
  8
寸法
  6
CONTINUOUS
 62
     0
 10
-130.5
 20
38.6125
  1
500
 40
3.0
 50
90.0
 72
     5
 11
-130.5
 21
43.4875
  0
ENDBLK
  0
BLOCK
  2
*DIM_0018
 70
    65
 10
0.0
 20
0.0
  0
LINE
  8
寸法
  6
BYBLOCK
 62
     0
 10
-117.229365
 20
26.042032
 11
-130.101255
 21
26.042032
  0
LINE
  8
寸法
  6
BYBLOCK
 62
     0
 10
-130.101255
 20
32.7087
 11
-130.101255
 21
26.042032
  0
POINT
  8
寸法
 62
     0
 10
-130.101255
 20
26.042032
  0
TEXT
  7
TextStyle03
  8
寸法
  6
CONTINUOUS
 62
     0
 10
-130.5
 20
26.9375
  1
200
 40
3.0
 50
90.0
 72
     5
 11
-130.5
 21
31.8125
  0
ENDBLK
  0
BLOCK
  2
*GRP_0019
 70
    65
 10
0.0
 20
0.0
  0
LINE
  8
型材断面
  6
CONTINUOUS
 10
195.0
 20
133.5
 11
195.0
 21
-133.5
  0
LINE
  8
型材断面
  6
CONTINUOUS
 10
195.0
 20
-133.5
 11
-185.0
 21
-133.5
  0
LINE
  8
型材断面
  6
CONTINUOUS
 10
-185.0
 20
-133.5
 11
-185.0
 21
133.5
  0
LINE
  8
型材断面
  6
CONTINUOUS
 10
195.0
 20
133.5
 11
-185.0
 21
133.5
  0
LINE
  8
型材断面
  6
CONTINUOUS
 10
145.0
 20
-133.5
 11
145.0
 21
-118.5
  0
LINE
  8
型材断面
  6
CONTINUOUS
 10
195.0
 20
-118.5
 11
145.0
 21
-118.5
  0
ENDBLK
  0
BLOCK
  2
*GRP_0020
 70
    65
 10
0.0
 20
0.0
  0
LINE
  8
補助線
  6
DOT
 62
    64
 10
96.982222
 20
-71.939385
 11
97.115818
 21
-72.03903
  0
LINE
  8
補助線
  6
DOT
 62
    64
 10
97.098842
 20
-71.92241
 11
96.999198
 21
-72.056005
  0
LINE
  8
補助線
  6
DOT
 62
    64
 10
88.218037
 20
-65.40281
 11
88.084438
 21
-65.303162
  0
LINE
  8
補助線
  6
DOT
 62
    64
 10
88.20106
 20
-65.286182
 11
88.101415
 21
-65.419785
  0
LINE
  8
補助線
  6
DOT
 62
    64
 10
79.32022
 20
-58.76663
 11
79.18662
 21
-58.666987
  0
LINE
  8
補助線
  6
DOT
 62
    64
 10
79.30324
 20
-58.65001
 11
79.203598
 21
-58.78361
  0
LINE
  8
型材断面
  6
DOT
 10
97.814435
 20
-71.520493
 11
97.916308
 21
-72.22022
  0
LINE
  8
型材断面
  6
DOT
 10
97.916308
 20
-72.22022
 11
97.517735
 21
-72.754623
  0
LINE
  8
型材断面
  6
DOT
 10
97.517735
 20
-72.754623
 11
96.818008
 21
-72.856495
  0
LINE
  8
型材断面
  6
DOT
 10
79.484427
 20
-57.849518
 11
78.7847
 21
-57.951397
  0
LINE
  8
型材断面
  6
DOT
 10
78.7847
 20
-57.951397
 11
78.38613
 21
-58.485803
  0
LINE
  8
型材断面
  6
DOT
 10
78.38613
 20
-58.485803
 11
78.488005
 21
-59.185527
  0
LINE
  8
型材断面
  6
DOT
 10
97.814435
 20
-71.520493
 11
79.484507
 21
-57.849507
  0
LINE
  8
型材断面
  6
DOT
 10
96.818008
 20
-72.856495
 11
78.487995
 21
-59.185452
  0
LINE
  8
ボルト／ビス
  6
DOT
 62
    64
 10
97.23311
 20
-71.742375
 11
97.354827
 21
-72.025223
  0
LINE
  8
ボルト／ビス
  6
DOT
 62
    64
 10
97.23311
 20
-71.742375
 11
96.927305
 21
-71.706365
  0
LINE
  8
ボルト／ビス
  6
DOT
 62
    64
 10
96.86493
 20
-72.23604
 11
97.170735
 21
-72.27205
  0
LINE
  8
ボルト／ビス
  6
DOT
 62
    64
 10
96.86493
 20
-72.23604
 11
96.743212
 21
-71.953193
  0
CIRCLE
  8
ボルト／ビス
  6
DOT
 62
    64
 10
97.04902
 20
-71.989207
 40
0.266668
  0
LINE
  8
ボルト／ビス
  6
DOT
 62
    64
 10
96.927305
 20
-71.706365
 11
96.743212
 21
-71.953193
  0
LINE
  8
ボルト／ビス
  6
DOT
 62
    64
 10
97.354827
 20
-72.025223
 11
97.170735
 21
-72.27205
  0
LINE
  8
ボルト／ビス
  6
DOT
 62
    64
 10
88.33533
 20
-65.106155
 11
88.029522
 21
-65.070143
  0
LINE
  8
ボルト／ビス
  6
DOT
 62
    64
 10
88.33533
 20
-65.106155
 11
88.457045
 21
-65.388998
  0
LINE
  8
ボルト／ビス
  6
DOT
 62
    64
 10
87.967143
 20
-65.599815
 11
87.84543
 21
-65.316972
  0
LINE
  8
ボルト／ビス
  6
DOT
 62
    64
 10
87.967143
 20
-65.599815
 11
88.27295
 21
-65.635827
  0
CIRCLE
  8
ボルト／ビス
  6
DOT
 62
    64
 10
88.151235
 20
-65.352985
 40
0.266668
  0
LINE
  8
ボルト／ビス
  6
DOT
 62
    64
 10
88.457045
 20
-65.388998
 11
88.27295
 21
-65.635827
  0
LINE
  8
ボルト／ビス
  6
DOT
 62
    64
 10
88.029522
 20
-65.070143
 11
87.84543
 21
-65.316972
  0
LINE
  8
ボルト／ビス
  6
DOT
 62
    64
 10
79.437513
 20
-58.469975
 11
79.131703
 21
-58.433965
  0
LINE
  8
ボルト／ビス
  6
DOT
 62
    64
 10
79.437513
 20
-58.469975
 11
79.559225
 21
-58.75282
  0
LINE
  8
ボルト／ビス
  6
DOT
 62
    64
 10
79.069327
 20
-58.963638
 11
78.947612
 21
-58.680793
  0
LINE
  8
ボルト／ビス
  6
DOT
 62
    64
 10
79.069327
 20
-58.963638
 11
79.375137
 21
-58.99965
  0
CIRCLE
  8
ボルト／ビス
  6
DOT
 62
    64
 10
79.25342
 20
-58.716807
 40
0.266668
  0
LINE
  8
ボルト／ビス
  6
DOT
 62
    64
 10
79.559225
 20
-58.75282
 11
79.375137
 21
-58.99965
  0
LINE
  8
ボルト／ビス
  6
DOT
 62
    64
 10
79.131703
 20
-58.433965
 11
78.947612
 21
-58.680793
  0
ENDBLK
  0
BLOCK
  2
*GRP_0021
 70
    65
 10
0.0
 20
0.0
  0
LINE
  8
補助線
  6
DOT
 62
    64
 10
79.320253
 20
-71.939385
 11
79.186657
 21
-72.03903
  0
LINE
  8
補助線
  6
DOT
 62
    64
 10
79.203632
 20
-71.92241
 11
79.303277
 21
-72.056005
  0
LINE
  8
補助線
  6
DOT
 62
    64
 10
88.084438
 20
-65.40281
 11
88.218037
 21
-65.303162
  0
LINE
  8
補助線
  6
DOT
 62
    64
 10
88.101415
 20
-65.286182
 11
88.20106
 21
-65.419785
  0
LINE
  8
補助線
  6
DOT
 62
    64
 10
96.982255
 20
-58.76663
 11
97.115855
 21
-58.666987
  0
LINE
  8
補助線
  6
DOT
 62
    64
 10
96.999235
 20
-58.65001
 11
97.098877
 21
-58.78361
  0
LINE
  8
型材断面
  6
DOT
 10
78.48804
 20
-71.520493
 11
78.386168
 21
-72.22022
  0
LINE
  8
型材断面
  6
DOT
 10
78.386168
 20
-72.22022
 11
78.78474
 21
-72.754623
  0
LINE
  8
型材断面
  6
DOT
 10
78.78474
 20
-72.754623
 11
79.484468
 21
-72.856495
  0
LINE
  8
型材断面
  6
DOT
 10
96.818047
 20
-57.849518
 11
97.517775
 21
-57.951397
  0
LINE
  8
型材断面
  6
DOT
 10
97.517775
 20
-57.951397
 11
97.916345
 21
-58.485803
  0
LINE
  8
型材断面
  6
DOT
 10
97.916345
 20
-58.485803
 11
97.81447
 21
-59.185527
  0
LINE
  8
型材断面
  6
DOT
 10
78.48804
 20
-71.520493
 11
96.817967
 21
-57.849507
  0
LINE
  8
型材断面
  6
DOT
 10
79.484468
 20
-72.856495
 11
97.81448
 21
-59.185452
  0
LINE
  8
ボルト／ビス
  6
DOT
 62
    64
 10
79.069365
 20
-71.742375
 11
78.947647
 21
-72.025223
  0
LINE
  8
ボルト／ビス
  6
DOT
 62
    64
 10
79.069365
 20
-71.742375
 11
79.37517
 21
-71.706365
  0
LINE
  8
ボルト／ビス
  6
DOT
 62
    64
 10
79.437545
 20
-72.23604
 11
79.13174
 21
-72.27205
  0
LINE
  8
ボルト／ビス
  6
DOT
 62
    64
 10
79.437545
 20
-72.23604
 11
79.559262
 21
-71.953193
  0
CIRCLE
  8
ボルト／ビス
  6
DOT
 62
    64
 10
79.253455
 20
-71.989207
 40
0.266668
  0
LINE
  8
ボルト／ビス
  6
DOT
 62
    64
 10
79.37517
 20
-71.706365
 11
79.559262
 21
-71.953193
  0
LINE
  8
ボルト／ビス
  6
DOT
 62
    64
 10
78.947647
 20
-72.025223
 11
79.13174
 21
-72.27205
  0
LINE
  8
ボルト／ビス
  6
DOT
 62
    64
 10
87.967145
 20
-65.106155
 11
88.272953
 21
-65.070143
  0
LINE
  8
ボルト／ビス
  6
DOT
 62
    64
 10
87.967145
 20
-65.106155
 11
87.84543
 21
-65.388998
  0
LINE
  8
ボルト／ビス
  6
DOT
 62
    64
 10
88.335333
 20
-65.599815
 11
88.457045
 21
-65.316972
  0
LINE
  8
ボルト／ビス
  6
DOT
 62
    64
 10
88.335333
 20
-65.599815
 11
88.029525
 21
-65.635827
  0
CIRCLE
  8
ボルト／ビス
  6
DOT
 62
    64
 10
88.15124
 20
-65.352985
 40
0.266668
  0
LINE
  8
ボルト／ビス
  6
DOT
 62
    64
 10
87.84543
 20
-65.388998
 11
88.029525
 21
-65.635827
  0
LINE
  8
ボルト／ビス
  6
DOT
 62
    64
 10
88.272953
 20
-65.070143
 11
88.457045
 21
-65.316972
  0
LINE
  8
ボルト／ビス
  6
DOT
 62
    64
 10
96.864963
 20
-58.469975
 11
97.170773
 21
-58.433965
  0
LINE
  8
ボルト／ビス
  6
DOT
 62
    64
 10
96.864963
 20
-58.469975
 11
96.74325
 21
-58.75282
  0
LINE
  8
ボルト／ビス
  6
DOT
 62
    64
 10
97.233148
 20
-58.963638
 11
97.354862
 21
-58.680793
  0
LINE
  8
ボルト／ビス
  6
DOT
 62
    64
 10
97.233148
 20
-58.963638
 11
96.927338
 21
-58.99965
  0
CIRCLE
  8
ボルト／ビス
  6
DOT
 62
    64
 10
97.049055
 20
-58.716807
 40
0.266668
  0
LINE
  8
ボルト／ビス
  6
DOT
 62
    64
 10
96.74325
 20
-58.75282
 11
96.927338
 21
-58.99965
  0
LINE
  8
ボルト／ビス
  6
DOT
 62
    64
 10
97.170773
 20
-58.433965
 11
97.354862
 21
-58.680793
  0
ENDBLK
  0
BLOCK
  2
*DIM_0022
 70
    65
 10
0.0
 20
0.0
  0
LINE
  8
寸法
  6
BYBLOCK
 62
     0
 10
77.949827
 20
48.114027
 11
77.949827
 21
42.494015
  0
LINE
  8
寸法
  6
BYBLOCK
 62
     0
 10
140.222708
 20
48.114027
 11
140.222708
 21
42.494015
  0
LINE
  8
寸法
  6
BYBLOCK
 62
     0
 10
77.949827
 20
42.494015
 11
140.222708
 21
42.494015
  0
POINT
  8
寸法
 62
     0
 10
77.949827
 20
42.494015
  0
POINT
  8
寸法
 62
     0
 10
140.222708
 20
42.494015
  0
TEXT
  7
TextStyle03
  8
寸法
  6
CONTINUOUS
 62
     0
 10
104.10625
 20
42.85
  1
1868.2
 40
3.0
 72
     5
 11
114.04375
 21
42.85
  0
ENDBLK
  0
BLOCK
  2
*DIM_0023
 70
    65
 10
0.0
 20
0.0
  0
LINE
  8
寸法
  6
BYBLOCK
 62
     0
 10
94.434527
 20
77.426817
 11
94.434527
 21
80.141902
  0
LINE
  8
寸法
  6
BYBLOCK
 62
     0
 10
123.738007
 20
77.426817
 11
123.738007
 21
80.141902
  0
LINE
  8
寸法
  6
BYBLOCK
 62
     0
 10
94.434527
 20
80.141902
 11
123.738007
 21
80.141902
  0
POINT
  8
寸法
 62
     0
 10
94.434527
 20
80.141902
  0
POINT
  8
寸法
 62
     0
 10
123.738007
 20
80.141902
  0
TEXT
  7
TextStyle03
  8
寸法
  6
CONTINUOUS
 62
     0
 10
104.95
 20
80.5
  1
879.1
 40
3.0
 72
     5
 11
113.2
 21
80.5
  0
ENDBLK
  0
BLOCK
  2
*DIM_0024
 70
    65
 10
0.0
 20
0.0
  0
LINE
  8
寸法
  6
BYBLOCK
 62
     0
 10
92.94982
 20
5.307822
 11
92.94982
 21
1.141902
  0
LINE
  8
寸法
  6
BYBLOCK
 62
     0
 10
125.222715
 20
5.307822
 11
125.222715
 21
1.141902
  0
LINE
  8
寸法
  6
BYBLOCK
 62
     0
 10
92.94982
 20
1.141902
 11
125.222715
 21
1.141902
  0
POINT
  8
寸法
 62
     0
 10
92.94982
 20
1.141902
  0
POINT
  8
寸法
 62
     0
 10
125.222715
 20
1.141902
  0
TEXT
  7
TextStyle03
  8
寸法
  6
CONTINUOUS
 62
     0
 10
104.95
 20
1.5
  1
968.2
 40
3.0
 72
     5
 11
113.2
 21
1.5
  0
ENDBLK
  0
BLOCK
  2
*DIM_0025
 70
    65
 10
0.0
 20
0.0
  0
ARC
  8
寸法
  6
BYBLOCK
 62
     0
 10
77.949827
 20
51.114027
 40
14.387242
 50
0.0
 51
54.735501
  0
POINT
  8
寸法
 62
     0
 10
86.256328
 20
62.861145
  0
POINT
  8
寸法
 62
     0
 10
92.33707
 20
51.114027
  0
TEXT
  7
TextStyle03
  8
寸法
  6
CONTINUOUS
 62
     0
 10
87.995707
 20
63.797225
  1
54.7355
 40
3.0
 50
297.37
 72
     5
 11
93.340125
 21
53.473571
  0
TEXT
  7
TextStyle03
  8
寸法
  6
CONTINUOUS
 62
     0
 10
93.423115
 20
53.32644
  1
ﾟ
 40
3.0
 50
297.37
 41
0.5625
  0
ENDBLK
  0
BLOCK
  2
*DIM_0026
 70
    65
 10
0.0
 20
0.0
  0
ARC
  8
寸法
  6
BYBLOCK
 62
     0
 10
140.222708
 20
51.114027
 40
14.387242
 50
125.264499
 51
180.0
  0
POINT
  8
寸法
 62
     0
 10
131.916208
 20
62.861145
  0
POINT
  8
寸法
 62
     0
 10
125.835465
 20
51.114027
  0
TEXT
  7
TextStyle03
  8
寸法
  6
CONTINUOUS
 62
     0
 10
124.034875
 20
51.973571
  1
54.7355
 40
3.0
 50
62.63
 72
     5
 11
129.379293
 21
62.297225
  0
TEXT
  7
TextStyle03
  8
寸法
  6
CONTINUOUS
 62
     0
 10
129.462283
 20
62.469356
  1
ﾟ
 40
3.0
 50
62.63
 41
0.5625
  0
ENDBLK
  0
BLOCK
  2
*DIM_0027
 70
    65
 10
0.0
 20
0.0
  0
ARC
  8
寸法
  6
BYBLOCK
 62
     0
 10
92.94982
 20
8.307822
 40
9.309483
 50
0.0
 51
54.735496
  0
POINT
  8
寸法
 62
     0
 10
98.324668
 20
15.908972
  0
POINT
  8
寸法
 62
     0
 10
102.259303
 20
8.307822
  0
TEXT
  7
TextStyle03
  8
寸法
  6
CONTINUOUS
 62
     0
 10
98.470707
 20
18.647225
  1
54.7355
 40
3.0
 50
297.37
 72
     5
 11
103.815125
 21
8.323571
  0
TEXT
  7
TextStyle03
  8
寸法
  6
CONTINUOUS
 62
     0
 10
103.898115
 20
8.17644
  1
ﾟ
 40
3.0
 50
297.37
 41
0.5625
  0
ENDBLK
  0
BLOCK
  2
*DIM_0028
 70
    65
 10
0.0
 20
0.0
  0
ARC
  8
寸法
  6
BYBLOCK
 62
     0
 10
125.222715
 20
8.307822
 40
9.309483
 50
125.264504
 51
180.0
  0
POINT
  8
寸法
 62
     0
 10
119.847868
 20
15.908972
  0
POINT
  8
寸法
 62
     0
 10
115.913233
 20
8.307822
  0
TEXT
  7
TextStyle03
  8
寸法
  6
CONTINUOUS
 62
     0
 10
113.559875
 20
6.848571
  1
54.7355
 40
3.0
 50
62.63
 72
     5
 11
118.904293
 21
17.172225
  0
TEXT
  7
TextStyle03
  8
寸法
  6
CONTINUOUS
 62
     0
 10
118.987283
 20
17.319356
  1
ﾟ
 40
3.0
 50
62.63
 41
0.5625
  0
ENDBLK
  0
BLOCK
  2
*DIM_0029
 70
    65
 10
0.0
 20
0.0
  0
LINE
  8
寸法
  6
BYBLOCK
 62
     0
 10
74.949827
 20
51.114027
 11
70.896478
 21
51.114027
  0
LINE
  8
寸法
  6
BYBLOCK
 62
     0
 10
91.434527
 20
74.426817
 11
70.896478
 21
74.426817
  0
LINE
  8
寸法
  6
BYBLOCK
 62
     0
 10
70.896478
 20
51.114027
 11
70.896478
 21
74.426817
  0
POINT
  8
寸法
 62
     0
 10
70.896478
 20
51.114027
  0
POINT
  8
寸法
 62
     0
 10
70.896478
 20
74.426817
  0
TEXT
  7
TextStyle03
  8
寸法
  6
CONTINUOUS
 62
     0
 10
70.5
 20
58.625
  1
699.4
 40
3.0
 50
90.0
 72
     5
 11
70.5
 21
66.875
  0
ENDBLK
  0
BLOCK
  2
*DIM_0030
 70
    65
 10
0.0
 20
0.0
  0
LINE
  8
寸法
  6
BYBLOCK
 62
     0
 10
89.94982
 20
8.307822
 11
84.160563
 21
8.307822
  0
LINE
  8
寸法
  6
BYBLOCK
 62
     0
 10
106.086268
 20
31.128112
 11
84.160563
 21
31.128112
  0
LINE
  8
寸法
  6
BYBLOCK
 62
     0
 10
84.160563
 20
8.307822
 11
84.160563
 21
31.128112
  0
POINT
  8
寸法
 62
     0
 10
84.160563
 20
8.307822
  0
POINT
  8
寸法
 62
     0
 10
84.160563
 20
31.128112
  0
TEXT
  7
TextStyle03
  8
寸法
  6
CONTINUOUS
 62
     0
 10
83.775
 20
15.575
  1
684.6
 40
3.0
 50
90.0
 72
     5
 11
83.775
 21
23.825
  0
ENDBLK
  0
BLOCK
  2
*GRP_0031
 70
    65
 10
0.0
 20
0.0
  0
POLYLINE
  8
寸法
  6
BYBLOCK
 62
     0
 66
     1
  0
VERTEX
  8
寸法
 10
-73.187767
 20
51.98532
  0
VERTEX
  8
寸法
 10
-66.97919
 20
64.655703
  0
VERTEX
  8
寸法
 10
-49.990888
 20
64.655703
  0
SEQEND
  0
ENDBLK
  0
BLOCK
  2
*DIM_0032
 70
    65
 10
0.0
 20
0.0
  0
LINE
  8
寸法
  6
BYBLOCK
 62
     0
 10
-112.529357
 20
17.692783
 11
-112.529357
 21
10.871992
  0
LINE
  8
寸法
  6
BYBLOCK
 62
     0
 10
-116.229357
 20
10.871992
 11
-112.529357
 21
10.871992
  0
POINT
  8
寸法
 62
     0
 10
-116.229357
 20
10.871992
 50
-270.0
  0
POINT
  8
寸法
 62
     0
 10
-112.529357
 20
10.871992
 50
-270.0
  0
TEXT
  7
TextStyle03
  8
寸法
  6
CONTINUOUS
 62
     0
 10
-122.0375
 20
11.275
  1
111
 40
3.0
 72
     5
 11
-117.1625
 21
11.275
  0
ENDBLK
  0
BLOCK
  2
*DIM_0033
 70
    65
 10
0.0
 20
0.0
  0
LINE
  8
寸法
  6
BYBLOCK
 62
     0
 10
-59.929373
 20
17.692783
 11
-59.929373
 21
10.871992
  0
LINE
  8
寸法
  6
BYBLOCK
 62
     0
 10
-56.229373
 20
10.871992
 11
-59.929373
 21
10.871992
  0
POINT
  8
寸法
 62
     0
 10
-56.229373
 20
10.871992
  0
POINT
  8
寸法
 62
     0
 10
-59.929373
 20
10.871992
  0
TEXT
  7
TextStyle03
  8
寸法
  6
CONTINUOUS
 62
     0
 10
-55.2625
 20
11.275
  1
111
 40
3.0
 72
     5
 11
-50.3875
 21
11.275
  0
ENDBLK
  0
BLOCK
  2
*DIM_0034
 70
    65
 10
0.0
 20
0.0
  0
LINE
  8
寸法
  6
BYBLOCK
 62
     0
 10
44.089855
 20
-60.131977
 11
49.445548
 21
-60.131977
  0
LINE
  8
寸法
  6
BYBLOCK
 62
     0
 10
44.089855
 20
-70.131977
 11
49.445548
 21
-70.131977
  0
LINE
  8
寸法
  6
BYBLOCK
 62
     0
 10
49.445548
 20
-60.131977
 11
49.445548
 21
-70.131977
  0
POINT
  8
寸法
 62
     0
 10
49.445548
 20
-60.131977
  0
POINT
  8
寸法
 62
     0
 10
49.445548
 20
-70.131977
  0
TEXT
  7
TextStyle03
  8
寸法
  6
CONTINUOUS
 62
     0
 10
53.325
 20
-74.14375
  1
上昇235以上
 40
3.0
 50
90.0
 72
     5
 11
53.325
 21
-55.95625
  0
ENDBLK
  0
BLOCK
  2
*DIM_0035
 70
    65
 10
0.0
 20
0.0
  0
LINE
  8
寸法
  6
BYBLOCK
 62
     0
 10
108.726778
 20
-60.131977
 11
114.08247
 21
-60.131977
  0
LINE
  8
寸法
  6
BYBLOCK
 62
     0
 10
108.726778
 20
-70.131977
 11
114.08247
 21
-70.131977
  0
LINE
  8
寸法
  6
BYBLOCK
 62
     0
 10
114.08247
 20
-60.131977
 11
114.08247
 21
-70.131977
  0
POINT
  8
寸法
 62
     0
 10
114.08247
 20
-60.131977
  0
POINT
  8
寸法
 62
     0
 10
114.08247
 20
-70.131977
  0
TEXT
  7
TextStyle03
  8
寸法
  6
CONTINUOUS
 62
     0
 10
117.95
 20
-74.14375
  1
上昇235以上
 40
3.0
 50
90.0
 72
     5
 11
117.95
 21
-55.95625
  0
ENDBLK
  0
BLOCK
  2
*DIM_0036
 70
    65
 10
0.0
 20
0.0
  0
LINE
  8
寸法
  6
CONTINUOUS
 10
-47.029365
 20
-67.998645
 11
-37.765135
 21
-67.998645
  0
LINE
  8
寸法
  6
CONTINUOUS
 10
-48.466183
 20
-74.531977
 11
-37.765135
 21
-74.531977
  0
LINE
  8
寸法
  6
CONTINUOUS
 10
-37.765135
 20
-67.998645
 11
-37.765135
 21
-74.531977
  0
POINT
  8
寸法
 10
-37.765135
 20
-67.998645
  0
POINT
  8
寸法
 10
-37.765135
 20
-74.531977
  0
TEXT
  7
TextStyle03
  8
寸法
  6
CONTINUOUS
 10
-34.775
 20
-73.7125
  1
196
 40
3.0
 50
90.0
 72
     5
 11
-34.775
 21
-68.8375
  0
ENDBLK
  0
BLOCK
  2
*DIM_0037
 70
    65
 10
0.0
 20
0.0
  0
LINE
  8
寸法
  6
CONTINUOUS
 10
32.128118
 20
16.842032
 11
32.128118
 21
2.582092
  0
LINE
  8
寸法
  6
CONTINUOUS
 10
38.66145
 20
18.27885
 11
38.66145
 21
2.582092
  0
LINE
  8
寸法
  6
CONTINUOUS
 10
32.128118
 20
2.582092
 11
38.66145
 21
2.582092
  0
POINT
  8
寸法
 10
32.128118
 20
2.582092
  0
POINT
  8
寸法
 10
38.66145
 20
2.582092
  0
TEXT
  7
TextStyle03
  8
寸法
  6
CONTINUOUS
 10
32.9375
 20
-0.425
  1
196
 40
3.0
 72
     5
 11
37.8125
 21
-0.425
  0
ENDBLK
  0
ENDSEC
  0
SECTION
  2
ENTITIES
  0
POLYLINE
  8
通り芯
  6
CONTINUOUS
 66
     1
 70
     1
  0
VERTEX
  8
通り芯
 10
-210.0
 20
-148.5
  0
VERTEX
  8
通り芯
 10
210.0
 20
-148.5
  0
VERTEX
  8
通り芯
 10
210.0
 20
148.5
  0
VERTEX
  8
通り芯
 10
-210.0
 20
148.5
  0
SEQEND
  0
LINE
  8
型材断面
  6
CONTINUOUS
 10
-102.768965
 20
39.502425
 11
-102.768965
 21
40.439545
  0
LINE
  8
型材断面
  6
CONTINUOUS
 10
-102.768965
 20
39.502425
 11
-101.831845
 21
39.502425
  0
LINE
  8
型材断面
  6
CONTINUOUS
 10
-102.166478
 20
41.042032
 11
-102.768965
 21
40.439545
  0
LINE
  8
型材断面
  6
CONTINUOUS
 10
-102.768965
 20
39.502425
 11
-101.229357
 21
41.042032
  0
LINE
  8
型材断面
  6
CONTINUOUS
 10
-101.831845
 20
39.502425
 11
-101.487248
 21
39.847022
  0
LINE
  8
型材断面
  6
CONTINUOUS
 10
-101.487248
 20
39.847022
 11
-101.229357
 21
41.042032
  0
LINE
  8
型材断面
  6
CONTINUOUS
 10
-99.468427
 20
39.926985
 11
-86.229365
 21
39.926985
  0
LINE
  8
型材断面
  6
CONTINUOUS
 62
    47
 10
-52.029365
 20
-67.998645
 11
-52.029365
 21
-70.131977
  0
LINE
  8
型材断面
  6
CONTINUOUS
 10
-52.029365
 20
-67.998645
 11
-51.9705
 21
-67.93978
  0
LINE
  8
型材断面
  6
CONTINUOUS
 62
    47
 10
-52.596033
 20
-70.131977
 11
-52.596033
 21
-70.648645
  0
LINE
  8
型材断面
  6
CONTINUOUS
 10
-52.029365
 20
-67.998645
 11
-86.229365
 21
-67.998645
  0
LINE
  8
型材断面
  6
CONTINUOUS
 62
    47
 10
-52.596033
 20
-70.648645
 11
-86.229365
 21
-70.648645
  0
LINE
  8
型材断面
  6
CONTINUOUS
 62
    47
 10
-52.029365
 20
-70.131977
 11
-86.229365
 21
-70.131977
  0
LINE
  8
型材断面
  6
CONTINUOUS
 10
-119.6384
 20
21.842032
 11
-101.978007
 21
39.502425
  0
LINE
  8
型材断面
  6
CONTINUOUS
 10
-120.429357
 20
22.632993
 11
-102.768965
 21
40.293383
  0
LINE
  8
型材断面
  6
CONTINUOUS
 10
-120.429357
 20
21.842032
 11
-86.229365
 21
21.842032
  0
LINE
  8
型材断面
  6
CONTINUOUS
 10
-114.332643
 20
25.352038
 11
-86.229365
 21
25.352038
  0
LINE
  8
型材断面
  6
CONTINUOUS
 10
-114.482643
 20
25.202038
 11
-86.229365
 21
25.202038
  0
LINE
  8
型材断面
  6
CONTINUOUS
 10
-114.63523
 20
25.049453
 11
-86.229365
 21
25.049453
  0
LINE
  8
型材断面
  6
CONTINUOUS
 10
-114.58809
 20
25.096593
 11
-86.229365
 21
25.096593
  0
LINE
  8
型材断面
  6
CONTINUOUS
 10
-111.72598
 20
27.9587
 11
-86.229365
 21
27.9587
  0
LINE
  8
型材断面
  6
CONTINUOUS
 10
-111.942648
 20
27.742032
 11
-86.229365
 21
27.742032
  0
LINE
  8
型材断面
  6
CONTINUOUS
 10
-102.768965
 20
42.58164
 11
-102.768965
 21
41.64452
  0
LINE
  8
型材断面
  6
CONTINUOUS
 10
-102.768965
 20
42.58164
 11
-101.831845
 21
42.58164
  0
LINE
  8
型材断面
  6
CONTINUOUS
 10
-102.166478
 20
41.042032
 11
-102.768965
 21
41.64452
  0
LINE
  8
型材断面
  6
CONTINUOUS
 10
-102.768965
 20
42.58164
 11
-101.229357
 21
41.042032
  0
LINE
  8
型材断面
  6
CONTINUOUS
 10
-101.831845
 20
42.58164
 11
-101.487248
 21
42.237042
  0
LINE
  8
型材断面
  6
CONTINUOUS
 10
-101.487248
 20
42.237042
 11
-101.229357
 21
41.042032
  0
LINE
  8
型材断面
  6
CONTINUOUS
 10
-99.468427
 20
42.15708
 11
-86.229365
 21
42.15708
  0
LINE
  8
型材断面
  6
CONTINUOUS
 10
-119.6384
 20
60.242032
 11
-101.978007
 21
42.58164
  0
LINE
  8
型材断面
  6
CONTINUOUS
 10
-120.429357
 20
59.451073
 11
-102.768965
 21
41.790683
  0
LINE
  8
型材断面
  6
CONTINUOUS
 10
-120.429357
 20
60.242032
 11
-86.229365
 21
60.242032
  0
LINE
  8
型材断面
  6
CONTINUOUS
 10
-114.332643
 20
56.732028
 11
-86.229365
 21
56.732028
  0
LINE
  8
型材断面
  6
CONTINUOUS
 10
-114.482643
 20
56.882028
 11
-86.229365
 21
56.882028
  0
LINE
  8
型材断面
  6
CONTINUOUS
 10
-114.63523
 20
57.034613
 11
-86.229365
 21
57.034613
  0
LINE
  8
型材断面
  6
CONTINUOUS
 10
-114.58809
 20
56.987472
 11
-86.229365
 21
56.987472
  0
LINE
  8
型材断面
  6
CONTINUOUS
 10
-111.72598
 20
54.125365
 11
-86.229365
 21
54.125365
  0
LINE
  8
型材断面
  6
CONTINUOUS
 10
-111.942648
 20
54.342032
 11
-86.229365
 21
54.342032
  0
LINE
  8
型材断面
  6
CONTINUOUS
 10
-69.689765
 20
39.502425
 11
-69.689765
 21
40.439545
  0
LINE
  8
型材断面
  6
CONTINUOUS
 10
-69.689765
 20
39.502425
 11
-70.626885
 21
39.502425
  0
LINE
  8
型材断面
  6
CONTINUOUS
 10
-70.292252
 20
41.042032
 11
-69.689765
 21
40.439545
  0
LINE
  8
型材断面
  6
CONTINUOUS
 10
-69.689765
 20
39.502425
 11
-71.229373
 21
41.042032
  0
LINE
  8
型材断面
  6
CONTINUOUS
 10
-70.626885
 20
39.502425
 11
-70.971483
 21
39.847022
  0
LINE
  8
型材断面
  6
CONTINUOUS
 10
-70.971483
 20
39.847022
 11
-71.229373
 21
41.042032
  0
LINE
  8
型材断面
  6
CONTINUOUS
 10
-72.990302
 20
39.926985
 11
-86.229365
 21
39.926985
  0
LINE
  8
型材断面
  6
CONTINUOUS
 10
-52.82033
 20
21.842032
 11
-70.480722
 21
39.502425
  0
LINE
  8
型材断面
  6
CONTINUOUS
 10
-52.029373
 20
22.632993
 11
-69.689765
 21
40.293383
  0
LINE
  8
型材断面
  6
CONTINUOUS
 10
-52.029373
 20
21.842032
 11
-86.229365
 21
21.842032
  0
LINE
  8
型材断面
  6
CONTINUOUS
 10
-58.126087
 20
25.352038
 11
-86.229365
 21
25.352038
  0
LINE
  8
型材断面
  6
CONTINUOUS
 10
-57.976087
 20
25.202038
 11
-86.229365
 21
25.202038
  0
LINE
  8
型材断面
  6
CONTINUOUS
 10
-57.8235
 20
25.049453
 11
-86.229365
 21
25.049453
  0
LINE
  8
型材断面
  6
CONTINUOUS
 10
-57.87064
 20
25.096593
 11
-86.229365
 21
25.096593
  0
LINE
  8
型材断面
  6
CONTINUOUS
 10
-60.73275
 20
27.9587
 11
-86.229365
 21
27.9587
  0
LINE
  8
型材断面
  6
CONTINUOUS
 10
-60.516082
 20
27.742032
 11
-86.229365
 21
27.742032
  0
LINE
  8
型材断面
  6
CONTINUOUS
 10
-69.689765
 20
42.58164
 11
-69.689765
 21
41.64452
  0
LINE
  8
型材断面
  6
CONTINUOUS
 10
-69.689765
 20
42.58164
 11
-70.626885
 21
42.58164
  0
LINE
  8
型材断面
  6
CONTINUOUS
 10
-70.292252
 20
41.042032
 11
-69.689765
 21
41.64452
  0
LINE
  8
型材断面
  6
CONTINUOUS
 10
-69.689765
 20
42.58164
 11
-71.229373
 21
41.042032
  0
LINE
  8
型材断面
  6
CONTINUOUS
 10
-70.626885
 20
42.58164
 11
-70.971483
 21
42.237042
  0
LINE
  8
型材断面
  6
CONTINUOUS
 10
-70.971483
 20
42.237042
 11
-71.229373
 21
41.042032
  0
LINE
  8
型材断面
  6
CONTINUOUS
 10
-72.990302
 20
42.15708
 11
-86.229365
 21
42.15708
  0
LINE
  8
型材断面
  6
CONTINUOUS
 10
-52.82033
 20
60.242032
 11
-70.480722
 21
42.58164
  0
LINE
  8
型材断面
  6
CONTINUOUS
 10
-52.029373
 20
59.451073
 11
-69.689765
 21
41.790683
  0
LINE
  8
型材断面
  6
CONTINUOUS
 10
-52.029373
 20
60.242032
 11
-86.229365
 21
60.242032
  0
LINE
  8
型材断面
  6
CONTINUOUS
 10
-58.126087
 20
56.732028
 11
-86.229365
 21
56.732028
  0
LINE
  8
型材断面
  6
CONTINUOUS
 10
-57.976087
 20
56.882028
 11
-86.229365
 21
56.882028
  0
LINE
  8
型材断面
  6
CONTINUOUS
 10
-57.8235
 20
57.034613
 11
-86.229365
 21
57.034613
  0
LINE
  8
型材断面
  6
CONTINUOUS
 10
-57.87064
 20
56.987472
 11
-86.229365
 21
56.987472
  0
LINE
  8
型材断面
  6
CONTINUOUS
 10
-60.73275
 20
54.125365
 11
-86.229365
 21
54.125365
  0
LINE
  8
型材断面
  6
CONTINUOUS
 10
-60.516082
 20
54.342032
 11
-86.229365
 21
54.342032
  0
LINE
  8
型材断面
  6
CONTINUOUS
 10
-51.9705
 20
-67.93978
 11
-71.229373
 21
-48.68091
  0
LINE
  8
型材断面
  6
CONTINUOUS
 10
-52.755322
 20
-67.998645
 11
-70.557042
 21
-50.196925
  0
LINE
  8
型材断面
  6
CONTINUOUS
 10
-72.990297
 20
-49.79738
 11
-86.229365
 21
-49.79738
  0
LINE
  8
型材断面
  6
CONTINUOUS
 10
-70.96383
 20
-49.85998
 11
-86.229365
 21
-49.85998
  0
LINE
  8
型材断面
  6
CONTINUOUS
 10
-71.229435
 20
-48.68091
 11
-86.229365
 21
-48.68091
  0
LINE
  8
型材断面
  6
CONTINUOUS
 62
    47
 10
-120.429365
 20
-67.998645
 11
-120.429365
 21
-70.131977
  0
LINE
  8
型材断面
  6
CONTINUOUS
 10
-120.429365
 20
-67.998645
 11
-120.48823
 21
-67.93978
  0
LINE
  8
型材断面
  6
CONTINUOUS
 62
    47
 10
-119.862698
 20
-70.131977
 11
-119.862698
 21
-70.648645
  0
LINE
  8
型材断面
  6
CONTINUOUS
 10
-120.429365
 20
-67.998645
 11
-86.229365
 21
-67.998645
  0
LINE
  8
型材断面
  6
CONTINUOUS
 62
    47
 10
-119.862698
 20
-70.648645
 11
-86.229365
 21
-70.648645
  0
LINE
  8
型材断面
  6
CONTINUOUS
 62
    47
 10
-120.429365
 20
-70.131977
 11
-86.229365
 21
-70.131977
  0
LINE
  8
型材断面
  6
CONTINUOUS
 10
-120.48823
 20
-67.93978
 11
-101.229357
 21
-48.68091
  0
LINE
  8
型材断面
  6
CONTINUOUS
 10
-119.703407
 20
-67.998645
 11
-101.901688
 21
-50.196925
  0
LINE
  8
型材断面
  6
CONTINUOUS
 10
-99.468433
 20
-49.79738
 11
-86.229365
 21
-49.79738
  0
LINE
  8
型材断面
  6
CONTINUOUS
 10
-101.4949
 20
-49.85998
 11
-86.229365
 21
-49.85998
  0
LINE
  8
型材断面
  6
CONTINUOUS
 10
-101.229295
 20
-48.68091
 11
-86.229365
 21
-48.68091
  0
LINE
  8
型材断面
  6
CONTINUOUS
 62
    47
 10
32.128118
 20
21.842032
 11
34.26145
 21
21.842032
  0
LINE
  8
型材断面
  6
CONTINUOUS
 10
32.128118
 20
21.842032
 11
32.069253
 21
21.783167
  0
LINE
  8
型材断面
  6
CONTINUOUS
 62
    47
 10
34.26145
 20
22.4087
 11
34.778118
 21
22.4087
  0
LINE
  8
型材断面
  6
CONTINUOUS
 10
32.128118
 20
21.842032
 11
32.128118
 21
41.042032
  0
LINE
  8
型材断面
  6
CONTINUOUS
 62
    47
 10
34.26145
 20
21.842032
 11
34.26145
 21
41.042032
  0
LINE
  8
型材断面
  6
CONTINUOUS
 62
    47
 10
34.778118
 20
22.4087
 11
34.778118
 21
41.042032
  0
LINE
  8
型材断面
  6
CONTINUOUS
 10
32.128118
 20
22.56799
 11
13.654073
 21
41.042032
  0
LINE
  8
型材断面
  6
CONTINUOUS
 10
32.069253
 20
21.783167
 11
12.810388
 21
41.042032
  0
LINE
  8
型材断面
  6
CONTINUOUS
 10
14.326403
 20
39.502422
 11
14.326403
 21
40.439543
  0
LINE
  8
型材断面
  6
CONTINUOUS
 10
13.723915
 20
41.042032
 11
14.326403
 21
40.439543
  0
LINE
  8
型材断面
  6
CONTINUOUS
 10
14.326403
 20
39.502422
 11
12.786795
 21
41.042032
  0
LINE
  8
型材断面
  6
CONTINUOUS
 10
32.128118
 20
60.242032
 11
32.069253
 21
60.300898
  0
LINE
  8
型材断面
  6
CONTINUOUS
 62
    47
 10
34.26145
 20
59.675365
 11
34.778118
 21
59.675365
  0
LINE
  8
型材断面
  6
CONTINUOUS
 10
32.128118
 20
60.242032
 11
32.128118
 21
41.042032
  0
LINE
  8
型材断面
  6
CONTINUOUS
 62
    47
 10
34.26145
 20
60.242032
 11
34.26145
 21
41.042032
  0
LINE
  8
型材断面
  6
CONTINUOUS
 62
    47
 10
34.778118
 20
59.675365
 11
34.778118
 21
41.042032
  0
LINE
  8
型材断面
  6
CONTINUOUS
 10
32.128118
 20
59.516075
 11
13.654073
 21
41.042032
  0
LINE
  8
型材断面
  6
CONTINUOUS
 10
32.069253
 20
60.300898
 11
12.810388
 21
41.042032
  0
LINE
  8
型材断面
  6
CONTINUOUS
 10
14.326403
 20
42.581643
 11
14.326403
 21
41.644522
  0
LINE
  8
型材断面
  6
CONTINUOUS
 10
13.723915
 20
41.042032
 11
14.326403
 21
41.644522
  0
LINE
  8
型材断面
  6
CONTINUOUS
 10
14.326403
 20
42.581643
 11
12.786795
 21
41.042032
  0
LINE
  8
型材断面
  6
CONTINUOUS
 62
    47
 10
41.656523
 20
-67.998645
 11
41.656523
 21
-70.131977
  0
LINE
  8
型材断面
  6
CONTINUOUS
 10
41.656523
 20
-67.998645
 11
41.715387
 21
-67.93978
  0
LINE
  8
型材断面
  6
CONTINUOUS
 62
    47
 10
41.089855
 20
-70.131977
 11
41.089855
 21
-70.648645
  0
LINE
  8
型材断面
  6
CONTINUOUS
 10
41.656523
 20
-67.998645
 11
7.456523
 21
-67.998645
  0
LINE
  8
型材断面
  6
CONTINUOUS
 62
    47
 10
41.089855
 20
-70.648645
 11
7.456523
 21
-70.648645
  0
LINE
  8
型材断面
  6
CONTINUOUS
 62
    47
 10
41.656523
 20
-70.131977
 11
7.456523
 21
-70.131977
  0
LINE
  8
型材断面
  6
CONTINUOUS
 10
41.715387
 20
-67.93978
 11
22.456515
 21
-48.68091
  0
LINE
  8
型材断面
  6
CONTINUOUS
 10
40.930565
 20
-67.998645
 11
23.128845
 21
-50.196925
  0
LINE
  8
型材断面
  6
CONTINUOUS
 10
20.69559
 20
-49.79738
 11
7.456523
 21
-49.79738
  0
LINE
  8
型材断面
  6
CONTINUOUS
 10
22.722057
 20
-49.85998
 11
7.456523
 21
-49.85998
  0
LINE
  8
型材断面
  6
CONTINUOUS
 10
22.456452
 20
-48.68091
 11
7.456523
 21
-48.68091
  0
LINE
  8
型材断面
  6
CONTINUOUS
 62
    47
 10
-26.743477
 20
-67.998645
 11
-26.743477
 21
-70.131977
  0
LINE
  8
型材断面
  6
CONTINUOUS
 10
-26.743477
 20
-67.998645
 11
-26.802343
 21
-67.93978
  0
LINE
  8
型材断面
  6
CONTINUOUS
 62
    47
 10
-26.17681
 20
-70.131977
 11
-26.17681
 21
-70.648645
  0
LINE
  8
型材断面
  6
CONTINUOUS
 10
-26.743477
 20
-67.998645
 11
7.456523
 21
-67.998645
  0
LINE
  8
型材断面
  6
CONTINUOUS
 62
    47
 10
-26.17681
 20
-70.648645
 11
7.456523
 21
-70.648645
  0
LINE
  8
型材断面
  6
CONTINUOUS
 62
    47
 10
-26.743477
 20
-70.131977
 11
7.456523
 21
-70.131977
  0
LINE
  8
型材断面
  6
CONTINUOUS
 10
-26.802343
 20
-67.93978
 11
-7.54347
 21
-48.68091
  0
LINE
  8
型材断面
  6
CONTINUOUS
 10
-26.01752
 20
-67.998645
 11
-8.2158
 21
-50.196925
  0
LINE
  8
型材断面
  6
CONTINUOUS
 10
-5.782545
 20
-49.79738
 11
7.456523
 21
-49.79738
  0
LINE
  8
型材断面
  6
CONTINUOUS
 10
-7.809012
 20
-49.85998
 11
7.456523
 21
-49.85998
  0
LINE
  8
型材断面
  6
CONTINUOUS
 10
-7.543408
 20
-48.68091
 11
7.456523
 21
-48.68091
  0
LINE
  8
型材断面
  6
DOT
 62
    47
 10
41.656523
 20
-57.998645
 11
41.656523
 21
-60.131977
  0
LINE
  8
型材断面
  6
DOT
 10
41.656523
 20
-57.998645
 11
41.715387
 21
-57.93978
  0
LINE
  8
型材断面
  6
DOT
 62
    47
 10
41.089855
 20
-60.131977
 11
41.089855
 21
-60.648645
  0
LINE
  8
型材断面
  6
DOT
 10
41.656523
 20
-57.998645
 11
7.456523
 21
-57.998645
  0
LINE
  8
型材断面
  6
DOT
 62
    47
 10
41.089855
 20
-60.648645
 11
7.456523
 21
-60.648645
  0
LINE
  8
型材断面
  6
DOT
 62
    47
 10
41.656523
 20
-60.131977
 11
7.456523
 21
-60.131977
  0
LINE
  8
型材断面
  6
DOT
 10
41.715387
 20
-57.93978
 11
22.456515
 21
-38.68091
  0
LINE
  8
型材断面
  6
DOT
 10
40.930565
 20
-57.998645
 11
23.128845
 21
-40.196925
  0
LINE
  8
型材断面
  6
DOT
 10
20.69559
 20
-39.79738
 11
7.456523
 21
-39.79738
  0
LINE
  8
型材断面
  6
DOT
 10
22.722057
 20
-39.85998
 11
7.456523
 21
-39.85998
  0
LINE
  8
型材断面
  6
DOT
 10
22.456452
 20
-38.68091
 11
7.456523
 21
-38.68091
  0
LINE
  8
型材断面
  6
DOT
 62
    47
 10
-26.743477
 20
-57.998645
 11
-26.743477
 21
-60.131977
  0
LINE
  8
型材断面
  6
DOT
 10
-26.743477
 20
-57.998645
 11
-26.802343
 21
-57.93978
  0
LINE
  8
型材断面
  6
DOT
 62
    47
 10
-26.17681
 20
-60.131977
 11
-26.17681
 21
-60.648645
  0
LINE
  8
型材断面
  6
DOT
 10
-26.743477
 20
-57.998645
 11
7.456523
 21
-57.998645
  0
LINE
  8
型材断面
  6
DOT
 62
    47
 10
-26.17681
 20
-60.648645
 11
7.456523
 21
-60.648645
  0
LINE
  8
型材断面
  6
DOT
 62
    47
 10
-26.743477
 20
-60.131977
 11
7.456523
 21
-60.131977
  0
LINE
  8
型材断面
  6
DOT
 10
-26.802343
 20
-57.93978
 11
-7.54347
 21
-38.68091
  0
LINE
  8
型材断面
  6
DOT
 10
-26.01752
 20
-57.998645
 11
-8.2158
 21
-40.196925
  0
LINE
  8
型材断面
  6
DOT
 10
-5.782545
 20
-39.79738
 11
7.456523
 21
-39.79738
  0
LINE
  8
型材断面
  6
DOT
 10
-7.809012
 20
-39.85998
 11
7.456523
 21
-39.85998
  0
LINE
  8
型材断面
  6
DOT
 10
-7.543408
 20
-38.68091
 11
7.456523
 21
-38.68091
  0
INSERT
  2
*GRP_0019
  8
型材断面
  6
CONTINUOUS
 10
0.0
 20
0.0
  0
LINE
  8
型材断面
  6
CONTINUOUS
 62
    47
 10
66.182352
 20
-67.998645
 11
66.182352
 21
-70.131977
  0
LINE
  8
型材断面
  6
CONTINUOUS
 10
66.182352
 20
-67.998645
 11
66.123488
 21
-67.93978
  0
LINE
  8
型材断面
  6
CONTINUOUS
 62
    47
 10
66.74902
 20
-70.131977
 11
66.74902
 21
-70.648645
  0
LINE
  8
型材断面
  6
CONTINUOUS
 10
66.182352
 20
-67.998645
 11
85.382352
 21
-67.998645
  0
LINE
  8
型材断面
  6
CONTINUOUS
 62
    47
 10
66.182352
 20
-70.131977
 11
85.382352
 21
-70.131977
  0
LINE
  8
型材断面
  6
CONTINUOUS
 62
    47
 10
66.74902
 20
-70.648645
 11
85.382352
 21
-70.648645
  0
LINE
  8
型材断面
  6
CONTINUOUS
 10
66.90831
 20
-67.998645
 11
85.382352
 21
-49.5246
  0
LINE
  8
型材断面
  6
CONTINUOUS
 10
66.123488
 20
-67.93978
 11
85.382352
 21
-48.680915
  0
LINE
  8
型材断面
  6
CONTINUOUS
 10
83.842742
 20
-50.19693
 11
84.779862
 21
-50.19693
  0
LINE
  8
型材断面
  6
CONTINUOUS
 10
85.382352
 20
-49.594442
 11
84.779862
 21
-50.19693
  0
LINE
  8
型材断面
  6
CONTINUOUS
 10
83.842742
 20
-50.19693
 11
85.382352
 21
-48.657323
  0
LINE
  8
型材断面
  6
CONTINUOUS
 62
    47
 10
104.582352
 20
-67.998645
 11
104.582352
 21
-70.131977
  0
LINE
  8
型材断面
  6
CONTINUOUS
 10
104.582352
 20
-67.998645
 11
104.641217
 21
-67.93978
  0
LINE
  8
型材断面
  6
CONTINUOUS
 62
    47
 10
104.015685
 20
-70.131977
 11
104.015685
 21
-70.648645
  0
LINE
  8
型材断面
  6
CONTINUOUS
 10
104.582352
 20
-67.998645
 11
85.382352
 21
-67.998645
  0
LINE
  8
型材断面
  6
CONTINUOUS
 62
    47
 10
104.582352
 20
-70.131977
 11
85.382352
 21
-70.131977
  0
LINE
  8
型材断面
  6
CONTINUOUS
 62
    47
 10
104.015685
 20
-70.648645
 11
85.382352
 21
-70.648645
  0
LINE
  8
型材断面
  6
CONTINUOUS
 10
103.856395
 20
-67.998645
 11
85.382352
 21
-49.5246
  0
LINE
  8
型材断面
  6
CONTINUOUS
 10
104.641217
 20
-67.93978
 11
85.382352
 21
-48.680915
  0
LINE
  8
型材断面
  6
CONTINUOUS
 10
86.921962
 20
-50.19693
 11
85.984843
 21
-50.19693
  0
LINE
  8
型材断面
  6
CONTINUOUS
 10
85.382352
 20
-49.594442
 11
85.984843
 21
-50.19693
  0
LINE
  8
型材断面
  6
CONTINUOUS
 10
86.921962
 20
-50.19693
 11
85.382352
 21
-48.657323
  0
LINE
  8
型材断面
  6
DOT
 62
    47
 10
66.182352
 20
-57.998645
 11
66.182352
 21
-60.131977
  0
LINE
  8
型材断面
  6
DOT
 10
66.182352
 20
-57.998645
 11
66.123488
 21
-57.93978
  0
LINE
  8
型材断面
  6
DOT
 62
    47
 10
66.74902
 20
-60.131977
 11
66.74902
 21
-60.648645
  0
LINE
  8
型材断面
  6
DOT
 10
66.182352
 20
-57.998645
 11
85.382352
 21
-57.998645
  0
LINE
  8
型材断面
  6
DOT
 62
    47
 10
66.182352
 20
-60.131977
 11
85.382352
 21
-60.131977
  0
LINE
  8
型材断面
  6
DOT
 62
    47
 10
66.74902
 20
-60.648645
 11
85.382352
 21
-60.648645
  0
LINE
  8
型材断面
  6
DOT
 10
66.90831
 20
-57.998645
 11
85.382352
 21
-39.5246
  0
LINE
  8
型材断面
  6
DOT
 10
66.123488
 20
-57.93978
 11
85.382352
 21
-38.680915
  0
LINE
  8
型材断面
  6
DOT
 10
83.842742
 20
-40.19693
 11
84.779862
 21
-40.19693
  0
LINE
  8
型材断面
  6
DOT
 10
85.382352
 20
-39.594442
 11
84.779862
 21
-40.19693
  0
LINE
  8
型材断面
  6
DOT
 10
83.842742
 20
-40.19693
 11
85.382352
 21
-38.657323
  0
LINE
  8
型材断面
  6
DOT
 62
    47
 10
104.582352
 20
-57.998645
 11
104.582352
 21
-60.131977
  0
LINE
  8
型材断面
  6
DOT
 10
104.582352
 20
-57.998645
 11
104.641217
 21
-57.93978
  0
LINE
  8
型材断面
  6
DOT
 62
    47
 10
104.015685
 20
-60.131977
 11
104.015685
 21
-60.648645
  0
LINE
  8
型材断面
  6
DOT
 10
104.582352
 20
-57.998645
 11
85.382352
 21
-57.998645
  0
LINE
  8
型材断面
  6
DOT
 62
    47
 10
104.582352
 20
-60.131977
 11
85.382352
 21
-60.131977
  0
LINE
  8
型材断面
  6
DOT
 62
    47
 10
104.015685
 20
-60.648645
 11
85.382352
 21
-60.648645
  0
LINE
  8
型材断面
  6
DOT
 10
103.856395
 20
-57.998645
 11
85.382352
 21
-39.5246
  0
LINE
  8
型材断面
  6
DOT
 10
104.641217
 20
-57.93978
 11
85.382352
 21
-38.680915
  0
LINE
  8
型材断面
  6
DOT
 10
86.921962
 20
-40.19693
 11
85.984843
 21
-40.19693
  0
LINE
  8
型材断面
  6
DOT
 10
85.382352
 20
-39.594442
 11
85.984843
 21
-40.19693
  0
LINE
  8
型材断面
  6
DOT
 10
86.921962
 20
-40.19693
 11
85.382352
 21
-38.657323
  0
INSERT
  2
*GRP_0020
  8
型材断面
  6
DOT
 10
0.0
 20
0.0
  0
INSERT
  2
*GRP_0021
  8
型材断面
  6
DOT
 10
0.0
 20
0.0
  0
LINE
  8
型材断面
  6
CONTINUOUS
 10
-120.429357
 20
21.842032
 11
-102.768965
 21
39.502425
  0
LINE
  8
型材断面
  6
CONTINUOUS
 10
-120.429357
 20
60.242032
 11
-102.768965
 21
42.58164
  0
LINE
  8
型材断面
  6
CONTINUOUS
 10
-52.029373
 20
21.842032
 11
-69.689765
 21
39.502425
  0
LINE
  8
型材断面
  6
CONTINUOUS
 10
-52.029373
 20
60.242032
 11
-69.689765
 21
42.58164
  0
LINE
  8
型材断面
  6
CONTINUOUS
 62
    47
 10
34.26145
 20
60.242032
 11
32.128118
 21
60.242032
  0
LINE
  8
型材断面
  6
DOT
 10
-114.31269
 20
50.651987
 11
-57.929373
 21
50.651987
  0
LINE
  8
型材断面
  6
DOT
 10
-114.31269
 20
51.98532
 11
-57.929373
 21
51.98532
  0
LINE
  8
型材断面
  6
CONTINUOUS
 10
-44.609493
 20
-1.517995
 11
-44.013435
 21
-4.1085
  0
LINE
  8
型材断面
  6
CONTINUOUS
 10
-44.609493
 20
-1.517995
 11
-45.20555
 21
-4.1085
  0
LINE
  8
型材断面
  6
CONTINUOUS
 10
-45.20555
 20
-4.1085
 11
-44.013435
 21
-4.1085
  0
LINE
  8
型材断面
  6
CONTINUOUS
 10
-47.966143
 20
-7.552445
 11
-9.89083
 21
-7.552445
  0
LINE
  8
型材断面
  6
CONTINUOUS
 10
-112.529357
 20
20.692783
 11
-111.9333
 21
18.102275
  0
LINE
  8
型材断面
  6
CONTINUOUS
 10
-112.529357
 20
20.692783
 11
-113.125415
 21
18.102275
  0
LINE
  8
型材断面
  6
CONTINUOUS
 10
-113.125415
 20
18.102275
 11
-111.9333
 21
18.102275
  0
LINE
  8
型材断面
  6
CONTINUOUS
 10
-59.929373
 20
20.692783
 11
-60.52543
 21
18.102275
  0
LINE
  8
型材断面
  6
CONTINUOUS
 10
-59.929373
 20
20.692783
 11
-59.333315
 21
18.102275
  0
LINE
  8
型材断面
  6
CONTINUOUS
 10
-59.333315
 20
18.102275
 11
-60.52543
 21
18.102275
  0
LINE
  8
型材断面
  6
CONTINUOUS
 10
-112.529357
 20
61.391282
 11
-111.9333
 21
63.98179
  0
LINE
  8
型材断面
  6
CONTINUOUS
 10
-112.529357
 20
61.391282
 11
-113.125415
 21
63.98179
  0
LINE
  8
型材断面
  6
CONTINUOUS
 10
-113.125415
 20
63.98179
 11
-111.9333
 21
63.98179
  0
LINE
  8
型材断面
  6
CONTINUOUS
 10
-59.929373
 20
61.391282
 11
-60.52543
 21
63.98179
  0
LINE
  8
型材断面
  6
CONTINUOUS
 10
-59.929373
 20
61.391282
 11
-59.333315
 21
63.98179
  0
LINE
  8
型材断面
  6
CONTINUOUS
 10
-59.333315
 20
63.98179
 11
-60.52543
 21
63.98179
  0
LINE
  8
型材断面
  6
CONTINUOUS
 10
-114.31269
 20
30.54541
 11
-114.31269
 21
41.042032
  0
LINE
  8
型材断面
  6
CONTINUOUS
 10
-114.529357
 20
30.328743
 11
-114.529357
 21
41.042032
  0
LINE
  8
型材断面
  6
CONTINUOUS
 10
-117.069352
 20
27.788747
 11
-117.069352
 21
41.042032
  0
LINE
  8
型材断面
  6
CONTINUOUS
 10
-116.919352
 20
27.938747
 11
-116.919352
 21
41.042032
  0
LINE
  8
型材断面
  6
CONTINUOUS
 10
-117.22194
 20
27.636162
 11
-117.22194
 21
41.042032
  0
LINE
  8
型材断面
  6
CONTINUOUS
 10
-117.1748
 20
27.6833
 11
-117.1748
 21
41.042032
  0
LINE
  8
型材断面
  6
CONTINUOUS
 10
-116.919352
 20
54.145318
 11
-116.919352
 21
41.042032
  0
LINE
  8
型材断面
  6
CONTINUOUS
 10
-117.1748
 20
54.400765
 11
-117.1748
 21
41.042032
  0
LINE
  8
型材断面
  6
CONTINUOUS
 10
-117.22194
 20
54.447903
 11
-117.22194
 21
41.042032
  0
LINE
  8
型材断面
  6
CONTINUOUS
 10
-117.069352
 20
54.295318
 11
-117.069352
 21
41.042032
  0
LINE
  8
型材断面
  6
CONTINUOUS
 10
-114.529357
 20
51.755322
 11
-114.529357
 21
41.042032
  0
LINE
  8
型材断面
  6
CONTINUOUS
 10
-114.31269
 20
51.538655
 11
-114.31269
 21
41.042032
  0
LINE
  8
型材断面
  6
CONTINUOUS
 10
-120.429357
 20
21.842032
 11
-120.429357
 21
41.042032
  0
LINE
  8
型材断面
  6
CONTINUOUS
 10
-120.429357
 20
60.242032
 11
-120.429357
 21
41.042032
  0
LINE
  8
型材断面
  6
CONTINUOUS
 10
-58.14604
 20
30.54541
 11
-58.14604
 21
41.042032
  0
LINE
  8
型材断面
  6
CONTINUOUS
 10
-57.929373
 20
30.328743
 11
-57.929373
 21
41.042032
  0
LINE
  8
型材断面
  6
CONTINUOUS
 10
-55.28393
 20
27.6833
 11
-55.28393
 21
41.042032
  0
LINE
  8
型材断面
  6
CONTINUOUS
 10
-55.389377
 20
27.788747
 11
-55.389377
 21
41.042032
  0
LINE
  8
型材断面
  6
CONTINUOUS
 10
-55.539377
 20
27.938747
 11
-55.539377
 21
41.042032
  0
LINE
  8
型材断面
  6
CONTINUOUS
 10
-55.23679
 20
27.636162
 11
-55.23679
 21
41.042032
  0
LINE
  8
型材断面
  6
CONTINUOUS
 10
-52.029373
 20
21.842032
 11
-52.029373
 21
41.042032
  0
LINE
  8
型材断面
  6
CONTINUOUS
 10
-52.029373
 20
60.242032
 11
-52.029373
 21
41.042032
  0
LINE
  8
型材断面
  6
CONTINUOUS
 10
-55.23679
 20
54.447903
 11
-55.23679
 21
41.042032
  0
LINE
  8
型材断面
  6
CONTINUOUS
 10
-55.28393
 20
54.400765
 11
-55.28393
 21
41.042032
  0
LINE
  8
型材断面
  6
CONTINUOUS
 10
-55.389377
 20
54.295318
 11
-55.389377
 21
41.042032
  0
LINE
  8
型材断面
  6
CONTINUOUS
 10
-55.539377
 20
54.145318
 11
-55.539377
 21
41.042032
  0
LINE
  8
型材断面
  6
CONTINUOUS
 10
-58.14604
 20
51.538655
 11
-58.14604
 21
41.042032
  0
LINE
  8
型材断面
  6
CONTINUOUS
 10
-57.929373
 20
51.755322
 11
-57.929373
 21
41.042032
  0
LINE
  8
型材断面
  6
DASHDOT
 10
-56.229365
 20
-75.175425
 11
-56.229365
 21
56.042032
  0
LINE
  8
型材断面
  6
DASHDOT
 10
-86.229365
 20
-75.175425
 11
-86.229365
 21
56.042032
  0
LINE
  8
型材断面
  6
DASHDOT
 10
-116.229365
 20
-75.175425
 11
-116.229365
 21
56.042032
  0
LINE
  8
型材断面
  6
CONTINUOUS
 10
-86.229365
 20
-74.868642
 11
-118.492548
 21
-74.868642
  0
LINE
  8
型材断面
  6
CONTINUOUS
 10
-86.229365
 20
-74.531977
 11
-118.992548
 21
-74.531977
  0
LINE
  8
型材断面
  6
CONTINUOUS
 10
-118.492548
 20
-74.531977
 11
-118.492548
 21
-74.868642
  0
LINE
  8
型材断面
  6
CONTINUOUS
 10
-118.992548
 20
-74.531977
 11
-118.992548
 21
-70.648645
  0
LINE
  8
型材断面
  6
CONTINUOUS
 10
-86.229365
 20
-74.868642
 11
-53.966183
 21
-74.868642
  0
LINE
  8
型材断面
  6
CONTINUOUS
 10
-86.229365
 20
-74.531977
 11
-53.466183
 21
-74.531977
  0
LINE
  8
型材断面
  6
CONTINUOUS
 10
-53.966183
 20
-74.531977
 11
-53.966183
 21
-74.868642
  0
LINE
  8
型材断面
  6
CONTINUOUS
 10
-53.466183
 20
-74.531977
 11
-53.466183
 21
-70.648645
  0
LINE
  8
型材断面
  6
CONTINUOUS
 10
7.456523
 20
-74.868642
 11
-24.80666
 21
-74.868642
  0
LINE
  8
型材断面
  6
CONTINUOUS
 10
7.456523
 20
-74.531977
 11
-25.30666
 21
-74.531977
  0
LINE
  8
型材断面
  6
CONTINUOUS
 10
-24.80666
 20
-74.531977
 11
-24.80666
 21
-74.868642
  0
LINE
  8
型材断面
  6
CONTINUOUS
 10
-25.30666
 20
-74.531977
 11
-25.30666
 21
-70.648645
  0
LINE
  8
型材断面
  6
CONTINUOUS
 10
7.456523
 20
-74.868642
 11
39.719705
 21
-74.868642
  0
LINE
  8
型材断面
  6
CONTINUOUS
 10
7.456523
 20
-74.531977
 11
40.219705
 21
-74.531977
  0
LINE
  8
型材断面
  6
CONTINUOUS
 10
39.719705
 20
-74.531977
 11
39.719705
 21
-74.868642
  0
LINE
  8
型材断面
  6
CONTINUOUS
 10
40.219705
 20
-74.531977
 11
40.219705
 21
-70.648645
  0
LINE
  8
型材断面
  6
CONTINUOUS
 10
68.11917
 20
-74.531977
 11
68.11917
 21
-74.868642
  0
LINE
  8
型材断面
  6
CONTINUOUS
 10
67.61917
 20
-74.531977
 11
67.61917
 21
-70.648645
  0
LINE
  8
型材断面
  6
CONTINUOUS
 10
68.11917
 20
-74.868642
 11
85.382352
 21
-74.868642
  0
LINE
  8
型材断面
  6
CONTINUOUS
 10
67.61917
 20
-74.531977
 11
85.382352
 21
-74.531977
  0
LINE
  8
型材断面
  6
CONTINUOUS
 10
102.645535
 20
-74.531977
 11
102.645535
 21
-74.868642
  0
LINE
  8
型材断面
  6
CONTINUOUS
 10
103.145535
 20
-74.531977
 11
103.145535
 21
-70.648645
  0
LINE
  8
型材断面
  6
CONTINUOUS
 10
102.645535
 20
-74.868642
 11
85.382352
 21
-74.868642
  0
LINE
  8
型材断面
  6
CONTINUOUS
 10
103.145535
 20
-74.531977
 11
85.382352
 21
-74.531977
  0
LINE
  8
型材断面
  6
DASHDOT
 10
-116.229365
 20
56.042032
 11
38.78823
 21
56.042032
  0
LINE
  8
型材断面
  6
DASHDOT
 10
-116.229365
 20
41.042032
 11
38.78823
 21
41.042032
  0
LINE
  8
型材断面
  6
DASHDOT
 10
-116.229365
 20
26.042032
 11
38.78823
 21
26.042032
  0
LINE
  8
型材断面
  6
CONTINUOUS
 10
38.66145
 20
23.77885
 11
38.998115
 21
23.77885
  0
LINE
  8
型材断面
  6
CONTINUOUS
 10
38.66145
 20
23.27885
 11
34.778118
 21
23.27885
  0
LINE
  8
型材断面
  6
CONTINUOUS
 10
38.998115
 20
23.77885
 11
38.998115
 21
41.042032
  0
LINE
  8
型材断面
  6
CONTINUOUS
 10
38.66145
 20
23.27885
 11
38.66145
 21
41.042032
  0
LINE
  8
型材断面
  6
CONTINUOUS
 10
38.66145
 20
58.305215
 11
38.998115
 21
58.305215
  0
LINE
  8
型材断面
  6
CONTINUOUS
 10
38.66145
 20
58.805215
 11
34.778118
 21
58.805215
  0
LINE
  8
型材断面
  6
CONTINUOUS
 10
38.998115
 20
58.305215
 11
38.998115
 21
41.042032
  0
LINE
  8
型材断面
  6
CONTINUOUS
 10
38.66145
 20
58.805215
 11
38.66145
 21
41.042032
  0
LINE
  8
ゴム等
  6
CONTINUOUS
 10
-101.487248
 20
39.847022
 11
-99.468427
 21
39.847022
  0
LINE
  8
ゴム等
  6
CONTINUOUS
 10
-99.468427
 20
39.847022
 11
-99.468427
 21
41.042032
  0
LINE
  8
ゴム等
  6
CONTINUOUS
 10
-101.04614
 20
39.384807
 11
-86.229365
 21
39.384807
  0
LINE
  8
ゴム等
  6
CONTINUOUS
 10
-100.992483
 20
39.324493
 11
-86.229365
 21
39.324493
  0
LINE
  8
ゴム等
  6
CONTINUOUS
 10
-100.694513
 20
38.990167
 11
-86.229365
 21
38.990167
  0
LINE
  8
ゴム等
  6
CONTINUOUS
 10
-56.111565
 20
-66.89214
 11
-54.8044
 21
-67.228038
  0
LINE
  8
ゴム等
  6
CONTINUOUS
 10
-54.8044
 20
-67.228038
 11
-54.565218
 21
-67.279757
  0
LINE
  8
ゴム等
  6
CONTINUOUS
 10
-54.565218
 20
-67.279757
 11
-52.755322
 21
-67.998645
  0
LINE
  8
ゴム等
  6
CONTINUOUS
 10
-54.8044
 20
-67.228038
 11
-86.229365
 21
-67.228038
  0
LINE
  8
ゴム等
  6
CONTINUOUS
 10
-56.111565
 20
-66.89214
 11
-86.229365
 21
-66.89214
  0
LINE
  8
ゴム等
  6
CONTINUOUS
 10
-54.565218
 20
-67.279757
 11
-86.229365
 21
-67.279757
  0
LINE
  8
ゴム等
  6
CONTINUOUS
 10
-116.381768
 20
23.302912
 11
-117.654425
 21
22.662552
  0
LINE
  8
ゴム等
  6
CONTINUOUS
 10
-117.654425
 20
22.662552
 11
-117.83991
 21
22.546777
  0
LINE
  8
ゴム等
  6
CONTINUOUS
 10
-117.893595
 20
22.537355
 11
-119.6384
 21
21.842032
  0
LINE
  8
ゴム等
  6
CONTINUOUS
 10
-118.968477
 20
25.889623
 11
-119.60884
 21
24.616967
  0
LINE
  8
ゴム等
  6
CONTINUOUS
 10
-119.60884
 20
24.616967
 11
-119.724612
 21
24.431482
  0
LINE
  8
ゴム等
  6
CONTINUOUS
 10
-119.734035
 20
24.377798
 11
-120.429357
 21
22.632993
  0
LINE
  8
ゴム等
  6
CONTINUOUS
 10
-119.60884
 20
24.616967
 11
-103.183773
 21
41.042032
  0
LINE
  8
ゴム等
  6
CONTINUOUS
 10
-119.734035
 20
24.377798
 11
-103.069798
 21
41.042032
  0
LINE
  8
ゴム等
  6
CONTINUOUS
 10
-118.968477
 20
25.889623
 11
-103.816068
 21
41.042032
  0
LINE
  8
ゴム等
  6
CONTINUOUS
 10
-117.893595
 20
22.537355
 11
-101.04614
 21
39.384807
  0
LINE
  8
ゴム等
  6
CONTINUOUS
 10
-117.654425
 20
22.662552
 11
-100.992483
 21
39.324493
  0
LINE
  8
ゴム等
  6
CONTINUOUS
 10
-116.381768
 20
23.302912
 11
-100.694513
 21
38.990167
  0
LINE
  8
ゴム等
  6
CONTINUOUS
 10
-117.893595
 20
22.537355
 11
-86.229365
 21
22.537355
  0
LINE
  8
ゴム等
  6
CONTINUOUS
 10
-116.381768
 20
23.302912
 11
-86.229365
 21
23.302912
  0
LINE
  8
ゴム等
  6
CONTINUOUS
 10
-117.654425
 20
22.662552
 11
-86.229365
 21
22.662552
  0
LINE
  8
ゴム等
  6
CONTINUOUS
 10
-101.487248
 20
42.237042
 11
-99.468427
 21
42.237042
  0
LINE
  8
ゴム等
  6
CONTINUOUS
 10
-99.468427
 20
42.237042
 11
-99.468427
 21
41.042032
  0
LINE
  8
ゴム等
  6
CONTINUOUS
 10
-101.04614
 20
42.699258
 11
-86.229365
 21
42.699258
  0
LINE
  8
ゴム等
  6
CONTINUOUS
 10
-100.992483
 20
42.759572
 11
-86.229365
 21
42.759572
  0
LINE
  8
ゴム等
  6
CONTINUOUS
 10
-100.694513
 20
43.093897
 11
-86.229365
 21
43.093897
  0
LINE
  8
ゴム等
  6
CONTINUOUS
 10
-116.381768
 20
58.781152
 11
-117.654425
 21
59.421513
  0
LINE
  8
ゴム等
  6
CONTINUOUS
 10
-117.654425
 20
59.421513
 11
-117.83991
 21
59.537287
  0
LINE
  8
ゴム等
  6
CONTINUOUS
 10
-117.893595
 20
59.54671
 11
-119.6384
 21
60.242032
  0
LINE
  8
ゴム等
  6
CONTINUOUS
 10
-118.968477
 20
56.194442
 11
-119.60884
 21
57.467098
  0
LINE
  8
ゴム等
  6
CONTINUOUS
 10
-119.60884
 20
57.467098
 11
-119.724612
 21
57.652583
  0
LINE
  8
ゴム等
  6
CONTINUOUS
 10
-119.734035
 20
57.706267
 11
-120.429357
 21
59.451073
  0
LINE
  8
ゴム等
  6
CONTINUOUS
 10
-119.60884
 20
57.467098
 11
-103.183773
 21
41.042032
  0
LINE
  8
ゴム等
  6
CONTINUOUS
 10
-119.734035
 20
57.706267
 11
-103.069798
 21
41.042032
  0
LINE
  8
ゴム等
  6
CONTINUOUS
 10
-118.968477
 20
56.194442
 11
-103.816068
 21
41.042032
  0
LINE
  8
ゴム等
  6
CONTINUOUS
 10
-117.893595
 20
59.54671
 11
-101.04614
 21
42.699258
  0
LINE
  8
ゴム等
  6
CONTINUOUS
 10
-117.654425
 20
59.421513
 11
-100.992483
 21
42.759572
  0
LINE
  8
ゴム等
  6
CONTINUOUS
 10
-116.381768
 20
58.781152
 11
-100.694513
 21
43.093897
  0
LINE
  8
ゴム等
  6
CONTINUOUS
 10
-117.893595
 20
59.54671
 11
-86.229365
 21
59.54671
  0
LINE
  8
ゴム等
  6
CONTINUOUS
 10
-116.381768
 20
58.781152
 11
-86.229365
 21
58.781152
  0
LINE
  8
ゴム等
  6
CONTINUOUS
 10
-117.654425
 20
59.421513
 11
-86.229365
 21
59.421513
  0
LINE
  8
ゴム等
  6
CONTINUOUS
 10
-70.971483
 20
39.847022
 11
-72.990302
 21
39.847022
  0
LINE
  8
ゴム等
  6
CONTINUOUS
 10
-72.990302
 20
39.847022
 11
-72.990302
 21
41.042032
  0
LINE
  8
ゴム等
  6
CONTINUOUS
 10
-71.41259
 20
39.384807
 11
-86.229365
 21
39.384807
  0
LINE
  8
ゴム等
  6
CONTINUOUS
 10
-71.466248
 20
39.324493
 11
-86.229365
 21
39.324493
  0
LINE
  8
ゴム等
  6
CONTINUOUS
 10
-71.764218
 20
38.990167
 11
-86.229365
 21
38.990167
  0
LINE
  8
ゴム等
  6
CONTINUOUS
 10
-56.076962
 20
23.302912
 11
-54.804305
 21
22.662552
  0
LINE
  8
ゴム等
  6
CONTINUOUS
 10
-54.804305
 20
22.662552
 11
-54.61882
 21
22.546777
  0
LINE
  8
ゴム等
  6
CONTINUOUS
 10
-54.565135
 20
22.537355
 11
-52.82033
 21
21.842032
  0
LINE
  8
ゴム等
  6
CONTINUOUS
 10
-53.490253
 20
25.889623
 11
-52.84989
 21
24.616967
  0
LINE
  8
ゴム等
  6
CONTINUOUS
 10
-52.84989
 20
24.616967
 11
-52.734117
 21
24.431482
  0
LINE
  8
ゴム等
  6
CONTINUOUS
 10
-52.724695
 20
24.377798
 11
-52.029373
 21
22.632993
  0
LINE
  8
ゴム等
  6
CONTINUOUS
 10
-52.84989
 20
24.616967
 11
-69.274957
 21
41.042032
  0
LINE
  8
ゴム等
  6
CONTINUOUS
 10
-52.724695
 20
24.377798
 11
-69.388933
 21
41.042032
  0
LINE
  8
ゴム等
  6
CONTINUOUS
 10
-53.490253
 20
25.889623
 11
-68.642663
 21
41.042032
  0
LINE
  8
ゴム等
  6
CONTINUOUS
 10
-54.565135
 20
22.537355
 11
-71.41259
 21
39.384807
  0
LINE
  8
ゴム等
  6
CONTINUOUS
 10
-54.804305
 20
22.662552
 11
-71.466248
 21
39.324493
  0
LINE
  8
ゴム等
  6
CONTINUOUS
 10
-56.076962
 20
23.302912
 11
-71.764218
 21
38.990167
  0
LINE
  8
ゴム等
  6
CONTINUOUS
 10
-54.565135
 20
22.537355
 11
-86.229365
 21
22.537355
  0
LINE
  8
ゴム等
  6
CONTINUOUS
 10
-56.076962
 20
23.302912
 11
-86.229365
 21
23.302912
  0
LINE
  8
ゴム等
  6
CONTINUOUS
 10
-54.804305
 20
22.662552
 11
-86.229365
 21
22.662552
  0
LINE
  8
ゴム等
  6
CONTINUOUS
 10
-70.971483
 20
42.237042
 11
-72.990302
 21
42.237042
  0
LINE
  8
ゴム等
  6
CONTINUOUS
 10
-72.990302
 20
42.237042
 11
-72.990302
 21
41.042032
  0
LINE
  8
ゴム等
  6
CONTINUOUS
 10
-71.41259
 20
42.699258
 11
-86.229365
 21
42.699258
  0
LINE
  8
ゴム等
  6
CONTINUOUS
 10
-71.466248
 20
42.759572
 11
-86.229365
 21
42.759572
  0
LINE
  8
ゴム等
  6
CONTINUOUS
 10
-71.764218
 20
43.093897
 11
-86.229365
 21
43.093897
  0
LINE
  8
ゴム等
  6
CONTINUOUS
 10
-56.076962
 20
58.781152
 11
-54.804305
 21
59.421513
  0
LINE
  8
ゴム等
  6
CONTINUOUS
 10
-54.804305
 20
59.421513
 11
-54.61882
 21
59.537287
  0
LINE
  8
ゴム等
  6
CONTINUOUS
 10
-54.565135
 20
59.54671
 11
-52.82033
 21
60.242032
  0
LINE
  8
ゴム等
  6
CONTINUOUS
 10
-53.490253
 20
56.194442
 11
-52.84989
 21
57.467098
  0
LINE
  8
ゴム等
  6
CONTINUOUS
 10
-52.84989
 20
57.467098
 11
-52.734117
 21
57.652583
  0
LINE
  8
ゴム等
  6
CONTINUOUS
 10
-52.724695
 20
57.706267
 11
-52.029373
 21
59.451073
  0
LINE
  8
ゴム等
  6
CONTINUOUS
 10
-52.84989
 20
57.467098
 11
-69.274957
 21
41.042032
  0
LINE
  8
ゴム等
  6
CONTINUOUS
 10
-52.724695
 20
57.706267
 11
-69.388933
 21
41.042032
  0
LINE
  8
ゴム等
  6
CONTINUOUS
 10
-53.490253
 20
56.194442
 11
-68.642663
 21
41.042032
  0
LINE
  8
ゴム等
  6
CONTINUOUS
 10
-54.565135
 20
59.54671
 11
-71.41259
 21
42.699258
  0
LINE
  8
ゴム等
  6
CONTINUOUS
 10
-54.804305
 20
59.421513
 11
-71.466248
 21
42.759572
  0
LINE
  8
ゴム等
  6
CONTINUOUS
 10
-56.076962
 20
58.781152
 11
-71.764218
 21
43.093897
  0
LINE
  8
ゴム等
  6
CONTINUOUS
 10
-54.565135
 20
59.54671
 11
-86.229365
 21
59.54671
  0
LINE
  8
ゴム等
  6
CONTINUOUS
 10
-56.076962
 20
58.781152
 11
-86.229365
 21
58.781152
  0
LINE
  8
ゴム等
  6
CONTINUOUS
 10
-54.804305
 20
59.421513
 11
-86.229365
 21
59.421513
  0
LINE
  8
ゴム等
  6
CONTINUOUS
 10
-71.32363
 20
-48.56306
 11
-72.990297
 21
-48.56306
  0
LINE
  8
ゴム等
  6
CONTINUOUS
 10
-72.990297
 20
-48.56306
 11
-72.990297
 21
-49.80521
  0
LINE
  8
ゴム等
  6
CONTINUOUS
 10
-71.06574
 20
-49.75807
 11
-72.990297
 21
-49.75807
  0
LINE
  8
ゴム等
  6
CONTINUOUS
 10
-72.990297
 20
-49.80521
 11
-71.0186
 21
-49.80521
  0
LINE
  8
ゴム等
  6
CONTINUOUS
 10
-69.689762
 20
-50.196925
 11
-70.626883
 21
-50.196925
  0
LINE
  8
ゴム等
  6
CONTINUOUS
 10
-69.689762
 20
-50.196925
 11
-71.32363
 21
-48.56306
  0
LINE
  8
ゴム等
  6
CONTINUOUS
 10
-70.626883
 20
-50.196925
 11
-71.06574
 21
-49.75807
  0
LINE
  8
ゴム等
  6
CONTINUOUS
 10
-71.282752
 20
-50.562223
 11
-71.359033
 21
-50.673402
  0
LINE
  8
ゴム等
  6
CONTINUOUS
 10
-71.359033
 20
-50.673402
 11
-71.68641
 21
-51.317295
  0
LINE
  8
ゴム等
  6
CONTINUOUS
 10
-71.282752
 20
-50.562223
 11
-70.918875
 21
-49.904935
  0
LINE
  8
ゴム等
  6
CONTINUOUS
 10
-54.8044
 20
-67.228038
 11
-71.34955
 21
-50.682885
  0
LINE
  8
ゴム等
  6
CONTINUOUS
 10
-54.565218
 20
-67.279757
 11
-71.282752
 21
-50.562223
  0
LINE
  8
ゴム等
  6
CONTINUOUS
 10
-56.111565
 20
-66.89214
 11
-71.68641
 21
-51.317295
  0
LINE
  8
ゴム等
  6
CONTINUOUS
 10
-71.68641
 20
-51.317295
 11
-86.229365
 21
-51.317295
  0
LINE
  8
ゴム等
  6
CONTINUOUS
 10
-71.282752
 20
-50.562223
 11
-86.229365
 21
-50.562223
  0
LINE
  8
ゴム等
  6
CONTINUOUS
 10
-71.359033
 20
-50.673402
 11
-86.229365
 21
-50.673402
  0
LINE
  8
ゴム等
  6
CONTINUOUS
 10
-116.347165
 20
-66.89214
 11
-117.65433
 21
-67.228038
  0
LINE
  8
ゴム等
  6
CONTINUOUS
 10
-117.65433
 20
-67.228038
 11
-117.893513
 21
-67.279757
  0
LINE
  8
ゴム等
  6
CONTINUOUS
 10
-117.893513
 20
-67.279757
 11
-119.703407
 21
-67.998645
  0
LINE
  8
ゴム等
  6
CONTINUOUS
 10
-117.65433
 20
-67.228038
 11
-86.229365
 21
-67.228038
  0
LINE
  8
ゴム等
  6
CONTINUOUS
 10
-116.347165
 20
-66.89214
 11
-86.229365
 21
-66.89214
  0
LINE
  8
ゴム等
  6
CONTINUOUS
 10
-117.893513
 20
-67.279757
 11
-86.229365
 21
-67.279757
  0
LINE
  8
ゴム等
  6
CONTINUOUS
 10
-101.1351
 20
-48.56306
 11
-99.468433
 21
-48.56306
  0
LINE
  8
ゴム等
  6
CONTINUOUS
 10
-99.468433
 20
-48.56306
 11
-99.468433
 21
-49.80521
  0
LINE
  8
ゴム等
  6
CONTINUOUS
 10
-101.39299
 20
-49.75807
 11
-99.468433
 21
-49.75807
  0
LINE
  8
ゴム等
  6
CONTINUOUS
 10
-99.468433
 20
-49.80521
 11
-101.44013
 21
-49.80521
  0
LINE
  8
ゴム等
  6
CONTINUOUS
 10
-102.768967
 20
-50.196925
 11
-101.831848
 21
-50.196925
  0
LINE
  8
ゴム等
  6
CONTINUOUS
 10
-102.768967
 20
-50.196925
 11
-101.1351
 21
-48.56306
  0
LINE
  8
ゴム等
  6
CONTINUOUS
 10
-101.831848
 20
-50.196925
 11
-101.39299
 21
-49.75807
  0
LINE
  8
ゴム等
  6
CONTINUOUS
 10
-101.175978
 20
-50.562223
 11
-101.099698
 21
-50.673402
  0
LINE
  8
ゴム等
  6
CONTINUOUS
 10
-101.099698
 20
-50.673402
 11
-100.77232
 21
-51.317295
  0
LINE
  8
ゴム等
  6
CONTINUOUS
 10
-101.175978
 20
-50.562223
 11
-101.539855
 21
-49.904935
  0
LINE
  8
ゴム等
  6
CONTINUOUS
 10
-117.65433
 20
-67.228038
 11
-101.10918
 21
-50.682885
  0
LINE
  8
ゴム等
  6
CONTINUOUS
 10
-117.893513
 20
-67.279757
 11
-101.175978
 21
-50.562223
  0
LINE
  8
ゴム等
  6
CONTINUOUS
 10
-116.347165
 20
-66.89214
 11
-100.77232
 21
-51.317295
  0
LINE
  8
ゴム等
  6
CONTINUOUS
 10
-100.77232
 20
-51.317295
 11
-86.229365
 21
-51.317295
  0
LINE
  8
ゴム等
  6
CONTINUOUS
 10
-101.175978
 20
-50.562223
 11
-86.229365
 21
-50.562223
  0
LINE
  8
ゴム等
  6
CONTINUOUS
 10
-101.099698
 20
-50.673402
 11
-86.229365
 21
-50.673402
  0
LINE
  8
ゴム等
  6
CONTINUOUS
 10
31.021615
 20
25.92423
 11
31.357512
 21
24.617065
  0
LINE
  8
ゴム等
  6
CONTINUOUS
 10
31.357512
 20
24.617065
 11
31.409232
 21
24.377885
  0
LINE
  8
ゴム等
  6
CONTINUOUS
 10
31.409232
 20
24.377885
 11
32.128118
 21
22.56799
  0
LINE
  8
ゴム等
  6
CONTINUOUS
 10
31.021615
 20
25.92423
 11
31.021615
 21
41.042032
  0
LINE
  8
ゴム等
  6
CONTINUOUS
 10
31.409232
 20
24.377885
 11
31.409232
 21
41.042032
  0
LINE
  8
ゴム等
  6
CONTINUOUS
 10
31.357512
 20
24.617065
 11
31.357512
 21
41.042032
  0
LINE
  8
ゴム等
  6
CONTINUOUS
 10
31.021615
 20
25.92423
 11
15.90381
 21
41.042032
  0
LINE
  8
ゴム等
  6
CONTINUOUS
 10
31.357512
 20
24.617065
 11
14.932543
 21
41.042032
  0
LINE
  8
ゴム等
  6
CONTINUOUS
 10
31.409232
 20
24.377885
 11
14.745082
 21
41.042032
  0
LINE
  8
ゴム等
  6
CONTINUOUS
 10
31.021615
 20
56.159835
 11
31.357512
 21
57.467
  0
LINE
  8
ゴム等
  6
CONTINUOUS
 10
31.357512
 20
57.467
 11
31.409232
 21
57.70618
  0
LINE
  8
ゴム等
  6
CONTINUOUS
 10
31.409232
 20
57.70618
 11
32.128118
 21
59.516075
  0
LINE
  8
ゴム等
  6
CONTINUOUS
 10
31.021615
 20
56.159835
 11
31.021615
 21
41.042032
  0
LINE
  8
ゴム等
  6
CONTINUOUS
 10
31.409232
 20
57.70618
 11
31.409232
 21
41.042032
  0
LINE
  8
ゴム等
  6
CONTINUOUS
 10
31.357512
 20
57.467
 11
31.357512
 21
41.042032
  0
LINE
  8
ゴム等
  6
CONTINUOUS
 10
31.021615
 20
56.159835
 11
15.90381
 21
41.042032
  0
LINE
  8
ゴム等
  6
CONTINUOUS
 10
31.357512
 20
57.467
 11
14.932543
 21
41.042032
  0
LINE
  8
ゴム等
  6
CONTINUOUS
 10
31.409232
 20
57.70618
 11
14.745082
 21
41.042032
  0
LINE
  8
ゴム等
  6
CONTINUOUS
 10
37.574323
 20
-66.89214
 11
38.881488
 21
-67.228038
  0
LINE
  8
ゴム等
  6
CONTINUOUS
 10
38.881488
 20
-67.228038
 11
39.12067
 21
-67.279757
  0
LINE
  8
ゴム等
  6
CONTINUOUS
 10
39.12067
 20
-67.279757
 11
40.930565
 21
-67.998645
  0
LINE
  8
ゴム等
  6
CONTINUOUS
 10
38.881488
 20
-67.228038
 11
7.456523
 21
-67.228038
  0
LINE
  8
ゴム等
  6
CONTINUOUS
 10
37.574323
 20
-66.89214
 11
7.456523
 21
-66.89214
  0
LINE
  8
ゴム等
  6
CONTINUOUS
 10
39.12067
 20
-67.279757
 11
7.456523
 21
-67.279757
  0
LINE
  8
ゴム等
  6
CONTINUOUS
 10
22.362257
 20
-48.56306
 11
20.69559
 21
-48.56306
  0
LINE
  8
ゴム等
  6
CONTINUOUS
 10
20.69559
 20
-48.56306
 11
20.69559
 21
-49.80521
  0
LINE
  8
ゴム等
  6
CONTINUOUS
 10
22.620147
 20
-49.75807
 11
20.69559
 21
-49.75807
  0
LINE
  8
ゴム等
  6
CONTINUOUS
 10
20.69559
 20
-49.80521
 11
22.667288
 21
-49.80521
  0
LINE
  8
ゴム等
  6
CONTINUOUS
 10
23.996125
 20
-50.196925
 11
23.059005
 21
-50.196925
  0
LINE
  8
ゴム等
  6
CONTINUOUS
 10
23.996125
 20
-50.196925
 11
22.362257
 21
-48.56306
  0
LINE
  8
ゴム等
  6
CONTINUOUS
 10
23.059005
 20
-50.196925
 11
22.620147
 21
-49.75807
  0
LINE
  8
ゴム等
  6
CONTINUOUS
 10
22.403135
 20
-50.562223
 11
22.326855
 21
-50.673402
  0
LINE
  8
ゴム等
  6
CONTINUOUS
 10
22.326855
 20
-50.673402
 11
21.999477
 21
-51.317295
  0
LINE
  8
ゴム等
  6
CONTINUOUS
 10
22.403135
 20
-50.562223
 11
22.767013
 21
-49.904935
  0
LINE
  8
ゴム等
  6
CONTINUOUS
 10
38.881488
 20
-67.228038
 11
22.336338
 21
-50.682885
  0
LINE
  8
ゴム等
  6
CONTINUOUS
 10
39.12067
 20
-67.279757
 11
22.403135
 21
-50.562223
  0
LINE
  8
ゴム等
  6
CONTINUOUS
 10
37.574323
 20
-66.89214
 11
21.999477
 21
-51.317295
  0
LINE
  8
ゴム等
  6
CONTINUOUS
 10
21.999477
 20
-51.317295
 11
7.456523
 21
-51.317295
  0
LINE
  8
ゴム等
  6
CONTINUOUS
 10
22.403135
 20
-50.562223
 11
7.456523
 21
-50.562223
  0
LINE
  8
ゴム等
  6
CONTINUOUS
 10
22.326855
 20
-50.673402
 11
7.456523
 21
-50.673402
  0
LINE
  8
ゴム等
  6
CONTINUOUS
 10
-22.661277
 20
-66.89214
 11
-23.968443
 21
-67.228038
  0
LINE
  8
ゴム等
  6
CONTINUOUS
 10
-23.968443
 20
-67.228038
 11
-24.207625
 21
-67.279757
  0
LINE
  8
ゴム等
  6
CONTINUOUS
 10
-24.207625
 20
-67.279757
 11
-26.01752
 21
-67.998645
  0
LINE
  8
ゴム等
  6
CONTINUOUS
 10
-23.968443
 20
-67.228038
 11
7.456523
 21
-67.228038
  0
LINE
  8
ゴム等
  6
CONTINUOUS
 10
-22.661277
 20
-66.89214
 11
7.456523
 21
-66.89214
  0
LINE
  8
ゴム等
  6
CONTINUOUS
 10
-24.207625
 20
-67.279757
 11
7.456523
 21
-67.279757
  0
LINE
  8
ゴム等
  6
CONTINUOUS
 10
-7.449212
 20
-48.56306
 11
-5.782545
 21
-48.56306
  0
LINE
  8
ゴム等
  6
CONTINUOUS
 10
-5.782545
 20
-48.56306
 11
-5.782545
 21
-49.80521
  0
LINE
  8
ゴム等
  6
CONTINUOUS
 10
-7.707103
 20
-49.75807
 11
-5.782545
 21
-49.75807
  0
LINE
  8
ゴム等
  6
CONTINUOUS
 10
-5.782545
 20
-49.80521
 11
-7.754242
 21
-49.80521
  0
LINE
  8
ゴム等
  6
CONTINUOUS
 10
-9.08308
 20
-50.196925
 11
-8.14596
 21
-50.196925
  0
LINE
  8
ゴム等
  6
CONTINUOUS
 10
-9.08308
 20
-50.196925
 11
-7.449212
 21
-48.56306
  0
LINE
  8
ゴム等
  6
CONTINUOUS
 10
-8.14596
 20
-50.196925
 11
-7.707103
 21
-49.75807
  0
LINE
  8
ゴム等
  6
CONTINUOUS
 10
-7.49009
 20
-50.562223
 11
-7.41381
 21
-50.673402
  0
LINE
  8
ゴム等
  6
CONTINUOUS
 10
-7.41381
 20
-50.673402
 11
-7.086432
 21
-51.317295
  0
LINE
  8
ゴム等
  6
CONTINUOUS
 10
-7.49009
 20
-50.562223
 11
-7.853967
 21
-49.904935
  0
LINE
  8
ゴム等
  6
CONTINUOUS
 10
-23.968443
 20
-67.228038
 11
-7.423293
 21
-50.682885
  0
LINE
  8
ゴム等
  6
CONTINUOUS
 10
-24.207625
 20
-67.279757
 11
-7.49009
 21
-50.562223
  0
LINE
  8
ゴム等
  6
CONTINUOUS
 10
-22.661277
 20
-66.89214
 11
-7.086432
 21
-51.317295
  0
LINE
  8
ゴム等
  6
CONTINUOUS
 10
-7.086432
 20
-51.317295
 11
7.456523
 21
-51.317295
  0
LINE
  8
ゴム等
  6
CONTINUOUS
 10
-7.49009
 20
-50.562223
 11
7.456523
 21
-50.562223
  0
LINE
  8
ゴム等
  6
CONTINUOUS
 10
-7.41381
 20
-50.673402
 11
7.456523
 21
-50.673402
  0
LINE
  8
ゴム等
  6
DOT
 10
37.574323
 20
-56.89214
 11
38.881488
 21
-57.228038
  0
LINE
  8
ゴム等
  6
DOT
 10
38.881488
 20
-57.228038
 11
39.12067
 21
-57.279757
  0
LINE
  8
ゴム等
  6
DOT
 10
39.12067
 20
-57.279757
 11
40.930565
 21
-57.998645
  0
LINE
  8
ゴム等
  6
DOT
 10
38.881488
 20
-57.228038
 11
7.456523
 21
-57.228038
  0
LINE
  8
ゴム等
  6
DOT
 10
37.574323
 20
-56.89214
 11
7.456523
 21
-56.89214
  0
LINE
  8
ゴム等
  6
DOT
 10
39.12067
 20
-57.279757
 11
7.456523
 21
-57.279757
  0
LINE
  8
ゴム等
  6
DOT
 10
22.362257
 20
-38.56306
 11
20.69559
 21
-38.56306
  0
LINE
  8
ゴム等
  6
DOT
 10
20.69559
 20
-38.56306
 11
20.69559
 21
-39.80521
  0
LINE
  8
ゴム等
  6
DOT
 10
22.620147
 20
-39.75807
 11
20.69559
 21
-39.75807
  0
LINE
  8
ゴム等
  6
DOT
 10
20.69559
 20
-39.80521
 11
22.667288
 21
-39.80521
  0
LINE
  8
ゴム等
  6
DOT
 10
23.996125
 20
-40.196925
 11
23.059005
 21
-40.196925
  0
LINE
  8
ゴム等
  6
DOT
 10
23.996125
 20
-40.196925
 11
22.362257
 21
-38.56306
  0
LINE
  8
ゴム等
  6
DOT
 10
23.059005
 20
-40.196925
 11
22.620147
 21
-39.75807
  0
LINE
  8
ゴム等
  6
DOT
 10
22.403135
 20
-40.562223
 11
22.326855
 21
-40.673402
  0
LINE
  8
ゴム等
  6
DOT
 10
22.326855
 20
-40.673402
 11
21.999477
 21
-41.317295
  0
LINE
  8
ゴム等
  6
DOT
 10
22.403135
 20
-40.562223
 11
22.767013
 21
-39.904935
  0
LINE
  8
ゴム等
  6
DOT
 10
38.881488
 20
-57.228038
 11
22.336338
 21
-40.682885
  0
LINE
  8
ゴム等
  6
DOT
 10
39.12067
 20
-57.279757
 11
22.403135
 21
-40.562223
  0
LINE
  8
ゴム等
  6
DOT
 10
37.574323
 20
-56.89214
 11
21.999477
 21
-41.317295
  0
LINE
  8
ゴム等
  6
DOT
 10
21.999477
 20
-41.317295
 11
7.456523
 21
-41.317295
  0
LINE
  8
ゴム等
  6
DOT
 10
22.403135
 20
-40.562223
 11
7.456523
 21
-40.562223
  0
LINE
  8
ゴム等
  6
DOT
 10
22.326855
 20
-40.673402
 11
7.456523
 21
-40.673402
  0
LINE
  8
ゴム等
  6
DOT
 10
-22.661277
 20
-56.89214
 11
-23.968443
 21
-57.228038
  0
LINE
  8
ゴム等
  6
DOT
 10
-23.968443
 20
-57.228038
 11
-24.207625
 21
-57.279757
  0
LINE
  8
ゴム等
  6
DOT
 10
-24.207625
 20
-57.279757
 11
-26.01752
 21
-57.998645
  0
LINE
  8
ゴム等
  6
DOT
 10
-23.968443
 20
-57.228038
 11
7.456523
 21
-57.228038
  0
LINE
  8
ゴム等
  6
DOT
 10
-22.661277
 20
-56.89214
 11
7.456523
 21
-56.89214
  0
LINE
  8
ゴム等
  6
DOT
 10
-24.207625
 20
-57.279757
 11
7.456523
 21
-57.279757
  0
LINE
  8
ゴム等
  6
DOT
 10
-7.449212
 20
-38.56306
 11
-5.782545
 21
-38.56306
  0
LINE
  8
ゴム等
  6
DOT
 10
-5.782545
 20
-38.56306
 11
-5.782545
 21
-39.80521
  0
LINE
  8
ゴム等
  6
DOT
 10
-7.707103
 20
-39.75807
 11
-5.782545
 21
-39.75807
  0
LINE
  8
ゴム等
  6
DOT
 10
-5.782545
 20
-39.80521
 11
-7.754242
 21
-39.80521
  0
LINE
  8
ゴム等
  6
DOT
 10
-9.08308
 20
-40.196925
 11
-8.14596
 21
-40.196925
  0
LINE
  8
ゴム等
  6
DOT
 10
-9.08308
 20
-40.196925
 11
-7.449212
 21
-38.56306
  0
LINE
  8
ゴム等
  6
DOT
 10
-8.14596
 20
-40.196925
 11
-7.707103
 21
-39.75807
  0
LINE
  8
ゴム等
  6
DOT
 10
-7.49009
 20
-40.562223
 11
-7.41381
 21
-40.673402
  0
LINE
  8
ゴム等
  6
DOT
 10
-7.41381
 20
-40.673402
 11
-7.086432
 21
-41.317295
  0
LINE
  8
ゴム等
  6
DOT
 10
-7.49009
 20
-40.562223
 11
-7.853967
 21
-39.904935
  0
LINE
  8
ゴム等
  6
DOT
 10
-23.968443
 20
-57.228038
 11
-7.423293
 21
-40.682885
  0
LINE
  8
ゴム等
  6
DOT
 10
-24.207625
 20
-57.279757
 11
-7.49009
 21
-40.562223
  0
LINE
  8
ゴム等
  6
DOT
 10
-22.661277
 20
-56.89214
 11
-7.086432
 21
-41.317295
  0
LINE
  8
ゴム等
  6
DOT
 10
-7.086432
 20
-41.317295
 11
7.456523
 21
-41.317295
  0
LINE
  8
ゴム等
  6
DOT
 10
-7.49009
 20
-40.562223
 11
7.456523
 21
-40.562223
  0
LINE
  8
ゴム等
  6
DOT
 10
-7.41381
 20
-40.673402
 11
7.456523
 21
-40.673402
  0
LINE
  8
ゴム等
  6
CONTINUOUS
 10
70.26455
 20
-66.892143
 11
68.957385
 21
-67.22804
  0
LINE
  8
ゴム等
  6
CONTINUOUS
 10
68.957385
 20
-67.22804
 11
68.718205
 21
-67.27976
  0
LINE
  8
ゴム等
  6
CONTINUOUS
 10
68.718205
 20
-67.27976
 11
66.90831
 21
-67.998645
  0
LINE
  8
ゴム等
  6
CONTINUOUS
 10
70.26455
 20
-66.892143
 11
85.382352
 21
-66.892143
  0
LINE
  8
ゴム等
  6
CONTINUOUS
 10
68.718205
 20
-67.27976
 11
85.382352
 21
-67.27976
  0
LINE
  8
ゴム等
  6
CONTINUOUS
 10
68.957385
 20
-67.22804
 11
85.382352
 21
-67.22804
  0
LINE
  8
ゴム等
  6
CONTINUOUS
 10
70.26455
 20
-66.892143
 11
85.382352
 21
-51.774338
  0
LINE
  8
ゴム等
  6
CONTINUOUS
 10
68.957385
 20
-67.22804
 11
85.382352
 21
-50.80307
  0
LINE
  8
ゴム等
  6
CONTINUOUS
 10
68.718205
 20
-67.27976
 11
85.382352
 21
-50.61561
  0
LINE
  8
ゴム等
  6
CONTINUOUS
 10
100.500155
 20
-66.892143
 11
101.80732
 21
-67.22804
  0
LINE
  8
ゴム等
  6
CONTINUOUS
 10
101.80732
 20
-67.22804
 11
102.0465
 21
-67.27976
  0
LINE
  8
ゴム等
  6
CONTINUOUS
 10
102.0465
 20
-67.27976
 11
103.856395
 21
-67.998645
  0
LINE
  8
ゴム等
  6
CONTINUOUS
 10
100.500155
 20
-66.892143
 11
85.382352
 21
-66.892143
  0
LINE
  8
ゴム等
  6
CONTINUOUS
 10
102.0465
 20
-67.27976
 11
85.382352
 21
-67.27976
  0
LINE
  8
ゴム等
  6
CONTINUOUS
 10
101.80732
 20
-67.22804
 11
85.382352
 21
-67.22804
  0
LINE
  8
ゴム等
  6
CONTINUOUS
 10
100.500155
 20
-66.892143
 11
85.382352
 21
-51.774338
  0
LINE
  8
ゴム等
  6
CONTINUOUS
 10
101.80732
 20
-67.22804
 11
85.382352
 21
-50.80307
  0
LINE
  8
ゴム等
  6
CONTINUOUS
 10
102.0465
 20
-67.27976
 11
85.382352
 21
-50.61561
  0
LINE
  8
ゴム等
  6
DOT
 10
70.26455
 20
-56.892143
 11
68.957385
 21
-57.22804
  0
LINE
  8
ゴム等
  6
DOT
 10
68.957385
 20
-57.22804
 11
68.718205
 21
-57.27976
  0
LINE
  8
ゴム等
  6
DOT
 10
68.718205
 20
-57.27976
 11
66.90831
 21
-57.998645
  0
LINE
  8
ゴム等
  6
DOT
 10
70.26455
 20
-56.892143
 11
85.382352
 21
-56.892143
  0
LINE
  8
ゴム等
  6
DOT
 10
68.718205
 20
-57.27976
 11
85.382352
 21
-57.27976
  0
LINE
  8
ゴム等
  6
DOT
 10
68.957385
 20
-57.22804
 11
85.382352
 21
-57.22804
  0
LINE
  8
ゴム等
  6
DOT
 10
70.26455
 20
-56.892143
 11
85.382352
 21
-41.774338
  0
LINE
  8
ゴム等
  6
DOT
 10
68.957385
 20
-57.22804
 11
85.382352
 21
-40.80307
  0
LINE
  8
ゴム等
  6
DOT
 10
68.718205
 20
-57.27976
 11
85.382352
 21
-40.61561
  0
LINE
  8
ゴム等
  6
DOT
 10
100.500155
 20
-56.892143
 11
101.80732
 21
-57.22804
  0
LINE
  8
ゴム等
  6
DOT
 10
101.80732
 20
-57.22804
 11
102.0465
 21
-57.27976
  0
LINE
  8
ゴム等
  6
DOT
 10
102.0465
 20
-57.27976
 11
103.856395
 21
-57.998645
  0
LINE
  8
ゴム等
  6
DOT
 10
100.500155
 20
-56.892143
 11
85.382352
 21
-56.892143
  0
LINE
  8
ゴム等
  6
DOT
 10
102.0465
 20
-57.27976
 11
85.382352
 21
-57.27976
  0
LINE
  8
ゴム等
  6
DOT
 10
101.80732
 20
-57.22804
 11
85.382352
 21
-57.22804
  0
LINE
  8
ゴム等
  6
DOT
 10
100.500155
 20
-56.892143
 11
85.382352
 21
-41.774338
  0
LINE
  8
ゴム等
  6
DOT
 10
101.80732
 20
-57.22804
 11
85.382352
 21
-40.80307
  0
LINE
  8
ゴム等
  6
DOT
 10
102.0465
 20
-57.27976
 11
85.382352
 21
-40.61561
  0
LINE
  8
ゴム等
  6
CONTINUOUS
 10
-118.968477
 20
25.889623
 11
-118.968477
 21
41.042032
  0
LINE
  8
ゴム等
  6
CONTINUOUS
 10
-119.60884
 20
24.616967
 11
-119.60884
 21
41.042032
  0
LINE
  8
ゴム等
  6
CONTINUOUS
 10
-119.734035
 20
24.377798
 11
-119.734035
 21
41.042032
  0
LINE
  8
ゴム等
  6
CONTINUOUS
 10
-119.734035
 20
57.706267
 11
-119.734035
 21
41.042032
  0
LINE
  8
ゴム等
  6
CONTINUOUS
 10
-119.60884
 20
57.467098
 11
-119.60884
 21
41.042032
  0
LINE
  8
ゴム等
  6
CONTINUOUS
 10
-118.968477
 20
56.194442
 11
-118.968477
 21
41.042032
  0
LINE
  8
ゴム等
  6
CONTINUOUS
 10
-53.490253
 20
25.889623
 11
-53.490253
 21
41.042032
  0
LINE
  8
ゴム等
  6
CONTINUOUS
 10
-52.84989
 20
24.616967
 11
-52.84989
 21
41.042032
  0
LINE
  8
ゴム等
  6
CONTINUOUS
 10
-52.724695
 20
24.377798
 11
-52.724695
 21
41.042032
  0
LINE
  8
ゴム等
  6
CONTINUOUS
 10
-52.84989
 20
57.467098
 11
-52.84989
 21
41.042032
  0
LINE
  8
ゴム等
  6
CONTINUOUS
 10
-52.724695
 20
57.706267
 11
-52.724695
 21
41.042032
  0
LINE
  8
ゴム等
  6
CONTINUOUS
 10
-53.490253
 20
56.194442
 11
-53.490253
 21
41.042032
  0
CIRCLE
  8
ボルト／ビス
  6
CONTINUOUS
 10
-118.32588
 20
-71.479205
 40
0.166668
  0
CIRCLE
  8
ボルト／ビス
  6
CONTINUOUS
 10
-118.32588
 20
-71.479205
 40
0.133333
  0
CIRCLE
  8
ボルト／ビス
  6
CONTINUOUS
 10
-118.32588
 20
-73.62254
 40
0.166668
  0
CIRCLE
  8
ボルト／ビス
  6
CONTINUOUS
 10
-118.32588
 20
-73.62254
 40
0.133333
  0
CIRCLE
  8
ボルト／ビス
  6
CONTINUOUS
 10
-54.13285
 20
-71.479205
 40
0.166668
  0
CIRCLE
  8
ボルト／ビス
  6
CONTINUOUS
 10
-54.13285
 20
-71.479205
 40
0.133333
  0
CIRCLE
  8
ボルト／ビス
  6
CONTINUOUS
 10
-54.13285
 20
-73.62254
 40
0.166668
  0
CIRCLE
  8
ボルト／ビス
  6
CONTINUOUS
 10
-54.13285
 20
-73.62254
 40
0.133333
  0
CIRCLE
  8
ボルト／ビス
  6
CONTINUOUS
 10
-24.639992
 20
-71.479205
 40
0.166668
  0
CIRCLE
  8
ボルト／ビス
  6
CONTINUOUS
 10
-24.639992
 20
-71.479205
 40
0.133333
  0
CIRCLE
  8
ボルト／ビス
  6
CONTINUOUS
 10
-24.639992
 20
-73.62254
 40
0.166668
  0
CIRCLE
  8
ボルト／ビス
  6
CONTINUOUS
 10
-24.639992
 20
-73.62254
 40
0.133333
  0
CIRCLE
  8
ボルト／ビス
  6
CONTINUOUS
 10
39.553038
 20
-71.479205
 40
0.166668
  0
CIRCLE
  8
ボルト／ビス
  6
CONTINUOUS
 10
39.553038
 20
-71.479205
 40
0.133333
  0
CIRCLE
  8
ボルト／ビス
  6
CONTINUOUS
 10
39.553038
 20
-73.62254
 40
0.166668
  0
CIRCLE
  8
ボルト／ビス
  6
CONTINUOUS
 10
39.553038
 20
-73.62254
 40
0.133333
  0
CIRCLE
  8
ボルト／ビス
  6
CONTINUOUS
 10
68.285837
 20
-71.479205
 40
0.166668
  0
CIRCLE
  8
ボルト／ビス
  6
CONTINUOUS
 10
68.285837
 20
-71.479205
 40
0.133333
  0
CIRCLE
  8
ボルト／ビス
  6
CONTINUOUS
 10
68.285837
 20
-73.62254
 40
0.166668
  0
CIRCLE
  8
ボルト／ビス
  6
CONTINUOUS
 10
68.285837
 20
-73.62254
 40
0.133333
  0
CIRCLE
  8
ボルト／ビス
  6
CONTINUOUS
 10
102.478867
 20
-71.479205
 40
0.166668
  0
CIRCLE
  8
ボルト／ビス
  6
CONTINUOUS
 10
102.478867
 20
-71.479205
 40
0.133333
  0
CIRCLE
  8
ボルト／ビス
  6
CONTINUOUS
 10
102.478867
 20
-73.62254
 40
0.166668
  0
CIRCLE
  8
ボルト／ビス
  6
CONTINUOUS
 10
102.478867
 20
-73.62254
 40
0.133333
  0
CIRCLE
  8
ボルト／ビス
  6
CONTINUOUS
 10
35.608677
 20
23.945517
 40
0.166668
  0
CIRCLE
  8
ボルト／ビス
  6
CONTINUOUS
 10
35.608677
 20
23.945517
 40
0.133333
  0
CIRCLE
  8
ボルト／ビス
  6
CONTINUOUS
 10
37.752012
 20
23.945517
 40
0.166668
  0
CIRCLE
  8
ボルト／ビス
  6
CONTINUOUS
 10
37.752012
 20
23.945517
 40
0.133333
  0
CIRCLE
  8
ボルト／ビス
  6
CONTINUOUS
 10
35.608677
 20
58.138547
 40
0.166668
  0
CIRCLE
  8
ボルト／ビス
  6
CONTINUOUS
 10
35.608677
 20
58.138547
 40
0.133333
  0
CIRCLE
  8
ボルト／ビス
  6
CONTINUOUS
 10
37.752012
 20
58.138547
 40
0.166668
  0
CIRCLE
  8
ボルト／ビス
  6
CONTINUOUS
 10
37.752012
 20
58.138547
 40
0.133333
  0
TEXT
  7
TextStyle03
  8
文字
  6
CONTINUOUS
 10
-128.6
 20
-0.25
  1
アンカーピッチ
 40
3.0
 50
90.0
 72
     5
 11
-128.6
 21
23.0
  0
TEXT
  7
TextStyle03
  8
文字
  6
CONTINUOUS
 10
-146.225
 20
68.775
  1
アンカーピッチ
 40
3.0
 72
     5
 11
-122.975
 21
68.775
  0
TEXT
  7
TextStyle03
  8
文字
  6
CONTINUOUS
 10
-41.525
 20
4.4
  1
は排水穴位置を示す
 40
3.0
 72
     5
 11
-11.525
 21
4.4
  0
TEXT
  7
TextStyle03
  8
文字
  6
CONTINUOUS
 10
153.3
 20
60.85
  1
×　２枚
 40
4.0
 72
     5
 11
170.8
 21
60.85
  0
TEXT
  7
TextStyle03
  8
文字
  6
CONTINUOUS
 10
153.3
 20
17.125
  1
×　２枚
 40
4.0
 72
     5
 11
170.8
 21
17.125
  0
TEXT
  7
TextStyle03
  8
文字
  6
CONTINUOUS
 10
-49.475
 20
63.075
  1
バランスステー
 40
3.0
 72
     5
 11
-26.225
 21
63.075
  0
TEXT
  7
TextStyle03
  8
文字
  6
CONTINUOUS
 10
-41.75
 20
-2.825
  1
はケーシング位置を示す
 40
3.0
 72
     5
 11
-5.0
 21
-2.825
  0
TEXT
  7
TextStyle03
  8
文字
  6
CONTINUOUS
 10
-41.75
 20
-6.2
  1
４ヶ所中1ヶ所に設定
 40
3.0
 72
     5
 11
-10.0625
 21
-6.2
  0
TEXT
  7
TextStyle03
  8
文字
  6
CONTINUOUS
 10
-47.85
 20
-17.375
  1
※重量に依るのでご相談ください。
 40
3.0
 72
     5
 11
5.775
 21
-17.375
  0
TEXT
  7
TextStyle03
  8
文字
  6
CONTINUOUS
 10
-47.85
 20
-11.8
  1
アームユニット数　※２～４ヶ所
 40
3.0
 72
     5
 11
2.4
 21
-11.8
  0
TEXT
  7
TextStyle03
  8
文字
  6
CONTINUOUS
 10
59.175
 20
123.15
  1
シリーズ：ＤＦＹ
 40
5.0
 72
     5
 11
103.55
 21
123.15
  0
TEXT
  7
TextStyle03
  8
文字
  6
CONTINUOUS
 10
59.175
 20
117.525
  1
　　　　　山型四角錘（上下可動）900×1800タイプ
 40
5.0
 72
     5
 11
190.7375
 21
117.525
  0
TEXT
  7
TextStyle03
  8
文字
  6
CONTINUOUS
 10
59.175
 20
111.9
  1
図面名　：外観姿図
 40
5.0
 72
     5
 11
109.175
 21
111.9
  0
TEXT
  7
TextStyle03
  8
文字
  6
CONTINUOUS
 10
59.175
 20
106.275
  1

 40
5.0
 41
1.125
  0
TEXT
  7
TextStyle03
  8
文字
  6
CONTINUOUS
 10
59.175
 20
100.65
  1
ＮＳコード：ＮＳ４Ｙ
 40
5.0
 72
     5
 11
114.8
 21
100.65
  0
INSERT
  2
*DIM_0001
  8
寸法
  6
CONTINUOUS
 10
0.0
 20
0.0
  0
INSERT
  2
*DIM_0002
  8
寸法
  6
CONTINUOUS
 10
0.0
 20
0.0
  0
INSERT
  2
*DIM_0003
  8
寸法
  6
CONTINUOUS
 10
0.0
 20
0.0
  0
INSERT
  2
*DIM_0004
  8
寸法
  6
CONTINUOUS
 10
0.0
 20
0.0
  0
INSERT
  2
*DIM_0005
  8
寸法
  6
CONTINUOUS
 10
0.0
 20
0.0
  0
INSERT
  2
*DIM_0006
  8
寸法
  6
CONTINUOUS
 10
0.0
 20
0.0
  0
INSERT
  2
*DIM_0007
  8
寸法
  6
CONTINUOUS
 10
0.0
 20
0.0
  0
INSERT
  2
*DIM_0008
  8
寸法
  6
CONTINUOUS
 10
0.0
 20
0.0
  0
INSERT
  2
*DIM_0009
  8
寸法
  6
CONTINUOUS
 10
0.0
 20
0.0
  0
INSERT
  2
*DIM_0010
  8
寸法
  6
CONTINUOUS
 10
0.0
 20
0.0
  0
INSERT
  2
*DIM_0011
  8
寸法
  6
CONTINUOUS
 10
0.0
 20
0.0
  0
INSERT
  2
*DIM_0012
  8
寸法
  6
CONTINUOUS
 10
0.0
 20
0.0
  0
INSERT
  2
*DIM_0013
  8
寸法
  6
CONTINUOUS
 10
0.0
 20
0.0
  0
INSERT
  2
*DIM_0014
  8
寸法
  6
CONTINUOUS
 10
0.0
 20
0.0
  0
INSERT
  2
*DIM_0015
  8
寸法
  6
CONTINUOUS
 10
0.0
 20
0.0
  0
INSERT
  2
*DIM_0016
  8
寸法
  6
CONTINUOUS
 10
0.0
 20
0.0
  0
INSERT
  2
*DIM_0017
  8
寸法
  6
CONTINUOUS
 10
0.0
 20
0.0
  0
INSERT
  2
*DIM_0018
  8
寸法
  6
CONTINUOUS
 10
0.0
 20
0.0
  0
LINE
  8
寸法
  6
CONTINUOUS
 10
-86.229365
 20
22.125365
 11
-87.604997
 21
19.7427
  0
LINE
  8
寸法
  6
CONTINUOUS
 10
-86.229365
 20
22.125365
 11
-84.853733
 21
19.7427
  0
LINE
  8
寸法
  6
CONTINUOUS
 10
-84.853733
 20
19.7427
 11
-87.604997
 21
19.7427
  0
LINE
  8
寸法
  6
CONTINUOUS
 10
-86.229365
 20
59.9587
 11
-87.604997
 21
62.341365
  0
LINE
  8
寸法
  6
CONTINUOUS
 10
-86.229365
 20
59.9587
 11
-84.853733
 21
62.341365
  0
LINE
  8
寸法
  6
CONTINUOUS
 10
-84.853733
 20
62.341365
 11
-87.604997
 21
62.341365
  0
LINE
  8
寸法
  6
CONTINUOUS
 10
-52.312705
 20
41.042032
 11
-49.93004
 21
39.6664
  0
LINE
  8
寸法
  6
CONTINUOUS
 10
-52.312705
 20
41.042032
 11
-49.93004
 21
42.417665
  0
LINE
  8
寸法
  6
CONTINUOUS
 10
-49.93004
 20
42.417665
 11
-49.93004
 21
39.6664
  0
LINE
  8
寸法
  6
CONTINUOUS
 10
-120.146025
 20
41.042032
 11
-122.52869
 21
39.6664
  0
LINE
  8
寸法
  6
CONTINUOUS
 10
-120.146025
 20
41.042032
 11
-122.52869
 21
42.417665
  0
LINE
  8
寸法
  6
CONTINUOUS
 10
-122.52869
 20
42.417665
 11
-122.52869
 21
39.6664
  0
LINE
  8
寸法
  6
CONTINUOUS
 10
-44.616655
 20
6.844017
 11
-43.241022
 21
4.461353
  0
LINE
  8
寸法
  6
CONTINUOUS
 10
-44.616655
 20
6.844017
 11
-45.992288
 21
4.461353
  0
LINE
  8
寸法
  6
CONTINUOUS
 10
-45.992288
 20
4.461353
 11
-43.241022
 21
4.461353
  0
LINE
  8
寸法
  6
CONTINUOUS
 10
-47.966143
 20
2.809397
 11
-9.89083
 21
2.809397
  0
INSERT
  2
*DIM_0022
  8
寸法
  6
CONTINUOUS
 10
0.0
 20
0.0
  0
INSERT
  2
*DIM_0023
  8
寸法
  6
CONTINUOUS
 10
0.0
 20
0.0
  0
INSERT
  2
*DIM_0024
  8
寸法
  6
CONTINUOUS
 10
0.0
 20
0.0
  0
INSERT
  2
*DIM_0025
  8
寸法
  6
CONTINUOUS
 10
0.0
 20
0.0
  0
INSERT
  2
*DIM_0026
  8
寸法
  6
CONTINUOUS
 10
0.0
 20
0.0
  0
INSERT
  2
*DIM_0027
  8
寸法
  6
CONTINUOUS
 10
0.0
 20
0.0
  0
INSERT
  2
*DIM_0028
  8
寸法
  6
CONTINUOUS
 10
0.0
 20
0.0
  0
INSERT
  2
*DIM_0029
  8
寸法
  6
CONTINUOUS
 10
0.0
 20
0.0
  0
INSERT
  2
*DIM_0030
  8
寸法
  6
CONTINUOUS
 10
0.0
 20
0.0
  0
INSERT
  2
*GRP_0031
  8
寸法
  6
CONTINUOUS
 10
0.0
 20
0.0
  0
INSERT
  2
*DIM_0032
  8
寸法
  6
CONTINUOUS
 10
0.0
 20
0.0
  0
INSERT
  2
*DIM_0033
  8
寸法
  6
CONTINUOUS
 10
0.0
 20
0.0
  0
LINE
  8
寸法
  6
CONTINUOUS
 10
-47.966143
 20
-13.431982
 11
4.544828
 21
-13.431982
  0
INSERT
  2
*DIM_0034
  8
寸法
  6
CONTINUOUS
 10
0.0
 20
0.0
  0
INSERT
  2
*DIM_0035
  8
寸法
  6
CONTINUOUS
 10
0.0
 20
0.0
  0
INSERT
  2
*DIM_0036
  8
寸法
  6
CONTINUOUS
 10
0.0
 20
0.0
  0
INSERT
  2
*DIM_0037
  8
寸法
  6
CONTINUOUS
 10
0.0
 20
0.0
  0
LINE
  8
曲げ物
  6
CONTINUOUS
 10
94.434527
 20
74.426817
 11
123.738007
 21
74.426817
  0
LINE
  8
曲げ物
  6
CONTINUOUS
 10
123.738007
 20
74.426817
 11
140.222708
 21
51.114027
  0
LINE
  8
曲げ物
  6
CONTINUOUS
 10
94.434527
 20
74.426817
 11
77.949827
 21
51.114027
  0
LINE
  8
曲げ物
  6
CONTINUOUS
 10
140.222708
 20
51.114027
 11
77.949827
 21
51.114027
  0
LINE
  8
曲げ物
  6
CONTINUOUS
 10
92.94982
 20
8.307822
 11
125.222715
 21
8.307822
  0
LINE
  8
曲げ物
  6
CONTINUOUS
 10
92.94982
 20
8.307822
 11
109.086268
 21
31.128112
  0
LINE
  8
曲げ物
  6
CONTINUOUS
 10
125.222715
 20
8.307822
 11
109.086268
 21
31.128112
  0
LINE
  8
曲げ物
  6
CONTINUOUS
 10
105.68448
 20
59.143988
 11
113.5458
 21
67.005307
  0
LINE
  8
曲げ物
  6
CONTINUOUS
 10
111.368368
 20
63.500865
 11
109.188923
 21
61.32142
  0
LINE
  8
曲げ物
  6
CONTINUOUS
 10
110.041358
 20
64.827875
 11
107.861912
 21
62.64843
  0
LINE
  8
曲げ物
  6
CONTINUOUS
 10
104.929903
 20
13.7461
 11
112.791223
 21
21.60742
  0
LINE
  8
曲げ物
  6
CONTINUOUS
 10
110.61379
 20
18.102978
 11
108.434345
 21
15.923532
  0
LINE
  8
曲げ物
  6
CONTINUOUS
 10
109.28678
 20
19.429988
 11
107.107335
 21
17.250542
  0
ENDSEC
  0
EOF
