  0
SECTION
  2
HEADER
  9
$EXTMIN
 10
-210.0
 20
-148.5
  9
$EXTMAX
 10
210.0
 20
148.5
  9
$PDMODE
 70
    32
  9
$PDSIZE
 40
1.5
  9
$LTSCALE
 40
10.0
  0
ENDSEC
  0
SECTION
  2
TABLES
  0
TABLE
  2
LTYPE
 70
    15
  0
LTYPE
  2
CONTINUOUS
 70
    64
  3
実線
 72
    65
 73
     0
 40
0.0
  0
LTYPE
  2
DASHED
 70
    64
  3
破線A
 72
    65
 73
     2
 40
0.6
 49
0.4
 49
-0.2
  0
LTYPE
  2
DASHEDX2
 70
    64
  3
破線B
 72
    65
 73
     2
 40
1.3
 49
0.9
 49
-0.4
  0
LTYPE
  2
DASHDOT
 70
    64
  3
１点鎖線A
 72
    65
 73
     4
 40
0.5375
 49
0.375
 49
-0.05
 49
0.0625
 49
-0.05
  0
LTYPE
  2
DASHDOTX2
 70
    64
  3
１点鎖線B
 72
    65
 73
     4
 40
1.075
 49
0.75
 49
-0.1
 49
0.125
 49
-0.1
  0
LTYPE
  2
DIVIDE2
 70
    64
  3
２点鎖線A
 72
    65
 73
     6
 40
0.5125
 49
0.3
 49
-0.0375
 49
0.05
 49
-0.0375
 49
0.05
 49
-0.0375
  0
LTYPE
  2
DIVIDE
 70
    64
  3
２点鎖線B
 72
    65
 73
     6
 40
1.05
 49
0.55
 49
-0.1
 49
0.1
 49
-0.1
 49
0.1
 49
-0.1
  0
LTYPE
  2
DOT
 70
    64
  3
点線A
 72
    65
 73
     2
 40
0.1125
 49
0.0625
 49
-0.05
  0
LTYPE
  2
DOTX2
 70
    64
  3
点線B
 72
    65
 73
     2
 40
0.275
 49
0.15
 49
-0.125
  0
LTYPE
  2
CONTINUOUS
 70
    64
  3
実線
 72
    65
 73
     0
 40
0.0
  0
LTYPE
  2
CONTINUOUS
 70
    64
  3
実線
 72
    65
 73
     0
 40
0.0
  0
LTYPE
  2
CONTINUOUS
 70
    64
  3
実線
 72
    65
 73
     0
 40
0.0
  0
LTYPE
  2
CONTINUOUS
 70
    64
  3
実線
 72
    65
 73
     0
 40
0.0
  0
LTYPE
  2
CONTINUOUS
 70
    64
  3
実線
 72
    65
 73
     0
 40
0.0
  0
LTYPE
  2
CONTINUOUS
 70
    64
  3
実線
 72
    65
 73
     0
 40
0.0
  0
ENDTAB
  0
TABLE
  2
LAYER
 70
    34
  0
LAYER
  2
通り芯
 70
     0
 62
    15
  6
CONTINUOUS
  0
LAYER
  2
補助線
 70
     0
 62
    16
  6
DOT
  0
LAYER
  2
躯体
 70
     0
 62
    31
  6
CONTINUOUS
  0
LAYER
  2
型材
 70
     0
 62
    32
  6
CONTINUOUS
  0
LAYER
  2
型材断面
 70
     0
 62
    47
  6
CONTINUOUS
  0
LAYER
  2
ガラス
 70
     0
 62
    48
  6
CONTINUOUS
  0
LAYER
  2
ゴム等
 70
     0
 62
    63
  6
CONTINUOUS
  0
LAYER
  2
ボルト／ビス
 70
     0
 62
    64
  6
CONTINUOUS
  0
LAYER
  2
文字
 70
     0
 62
    79
  6
CONTINUOUS
  0
LAYER
  2
寸法
 70
     0
 62
    80
  6
CONTINUOUS
  0
LAYER
  2
ﾊｯﾁﾝｸﾞ
 70
     0
 62
    95
  6
CONTINUOUS
  0
LAYER
  2
別途部材
 70
     0
 62
    96
  6
CONTINUOUS
  0
LAYER
  2
曲げ物
 70
     0
 62
   111
  6
CONTINUOUS
  0
LAYER
  2
鉄骨等
 70
     0
 62
   112
  6
CONTINUOUS
  0
LAYER
  2
St
 70
     0
 62
   127
  6
CONTINUOUS
  0
LAYER
  2
その他部品等
 70
     0
 62
   128
  6
CONTINUOUS
  0
LAYER
  2
ｶﾞｽｹｯﾄ
 70
     0
 62
   143
  6
CONTINUOUS
  0
LAYER
  2
ｽｹｯﾁ
 70
     0
 62
    14
  6
CONTINUOUS
  0
LAYER
  2
0
 70
     0
 62
    17
  6
CONTINUOUS
  0
LAYER
  2
1
 70
     0
 62
    30
  6
CONTINUOUS
  0
LAYER
  2
4
 70
     0
 62
    33
  6
CONTINUOUS
  0
LAYER
  2
ﾚｲﾔ3
 70
     0
 62
    46
  6
CONTINUOUS
  0
LAYER
  2
外形線
 70
     0
 62
    49
  6
CONTINUOUS
  0
LAYER
  2
部品
 70
     0
 62
    14
  6
CONTINUOUS
  0
LAYER
  2
サッシ芯
 70
     0
 62
    17
  6
DASHDOTX2
  0
LAYER
  2
寸法線
 70
     0
 62
    62
  6
CONTINUOUS
  0
LAYER
  2
姿図外形線
 70
     0
 62
    65
  6
CONTINUOUS
  0
LAYER
  2
姿補助線
 70
     0
 62
    30
  6
CONTINUOUS
  0
LAYER
  2
透視線
 70
     0
 62
    78
  6
DOT
  0
LAYER
  2
用紙
 70
     0
 62
    81
  6
CONTINUOUS
  0
LAYER
  2
実線図枠
 70
     0
 62
    94
  6
CONTINUOUS
  0
LAYER
  2
補助図枠
 70
     0
 62
    97
  6
CONTINUOUS
  0
LAYER
  2
建具記号
 70
     0
 62
   110
  6
CONTINUOUS
  0
LAYER
  2
補助文字
 70
     0
 62
   113
  6
CONTINUOUS
  0
ENDTAB
  0
TABLE
  2
STYLE
 70
    10
  0
STYLE
  2
STANDARD
 70
     0
 40
1.0
 41
1.0
 42
1.0
 50
0.0
 71
     0
  3
TXT
  4
BIGFONT
  0
STYLE
  2
TATE
 70
     4
 40
1.0
 41
1.0
 42
1.0
 50
0.0
 71
     0
  3
TXT
  4
BIGFONT
  0
STYLE
  2
TextStyle03
 70
     0
 40
1.0
 41
1.0
 42
1.0
 50
0.0
 71
     0
  3
MONOTXT
  4
BIGFONT
  0
STYLE
  2
TextStyle04
 70
     0
 40
1.0
 41
1.0
 42
1.0
 50
0.0
 71
     0
  3
MONOTXT
  4
BIGFONT
  0
STYLE
  2
TextStyle05
 70
     0
 40
1.0
 41
1.0
 42
1.0
 50
0.0
 71
     0
  3
MONOTXT
  4
BIGFONT
  0
STYLE
  2
TextStyle06
 70
     0
 40
1.0
 41
1.0
 42
1.0
 50
0.0
 71
     0
  3
MONOTXT
  4
BIGFONT
  0
STYLE
  2
TextStyle07
 70
     0
 40
1.0
 41
1.0
 42
1.0
 50
0.0
 71
     0
  3
MONOTXT
  4
BIGFONT
  0
STYLE
  2
TextStyle08
 70
     0
 40
1.0
 41
1.0
 42
1.0
 50
0.0
 71
     0
  3
MONOTXT
  4
BIGFONT
  0
STYLE
  2
TextStyle09
 70
     0
 40
1.0
 41
1.0
 42
1.0
 50
0.0
 71
     0
  3
MONOTXT
  4
BIGFONT
  0
STYLE
  2
TextStyle10
 70
     0
 40
1.0
 41
1.0
 42
1.0
 50
0.0
 71
     0
  3
MONOTXT
  4
BIGFONT
  0
ENDTAB
  0
ENDSEC
  0
SECTION
  2
BLOCKS
  0
BLOCK
  2
*DIM_0001
 70
    65
 10
0.0
 20
0.0
  0
LINE
  8
寸法
  6
BYBLOCK
 62
     0
 10
-116.229365
 20
-30.480688
 11
-56.229365
 21
-30.480688
  0
POINT
  8
寸法
 62
     0
 10
-56.229365
 20
-30.480688
  0
TEXT
  7
TextStyle03
  8
寸法
  6
CONTINUOUS
 62
     0
 10
-97.96875
 20
-30.1
  1
呼称寸法＝1800
 40
3.0
 72
     5
 11
-74.53125
 21
-30.1
  0
ENDBLK
  0
BLOCK
  2
*DIM_0002
 70
    65
 10
0.0
 20
0.0
  0
LINE
  8
寸法
  6
BYBLOCK
 62
     0
 10
-4.194733
 20
56.042032
 11
-4.86363
 21
56.042032
  0
LINE
  8
寸法
  6
BYBLOCK
 62
     0
 10
-4.194733
 20
26.042032
 11
-4.86363
 21
26.042032
  0
LINE
  8
寸法
  6
BYBLOCK
 62
     0
 10
-4.86363
 20
56.042032
 11
-4.86363
 21
26.042032
  0
POINT
  8
寸法
 62
     0
 10
-4.86363
 20
56.042032
  0
POINT
  8
寸法
 62
     0
 10
-4.86363
 20
26.042032
  0
TEXT
  7
TextStyle03
  8
寸法
  6
CONTINUOUS
 62
     0
 10
-5.25
 20
30.175
  1
呼称寸法＝900
 40
3.0
 50
90.0
 72
     5
 11
-5.25
 21
51.925
  0
ENDBLK
  0
BLOCK
  2
*DIM_0003
 70
    65
 10
0.0
 20
0.0
  0
LINE
  8
寸法
  6
BYBLOCK
 62
     0
 10
-116.229365
 20
57.042032
 11
-116.229365
 21
70.283013
  0
LINE
  8
寸法
  6
BYBLOCK
 62
     0
 10
-111.229365
 20
57.042032
 11
-111.229365
 21
70.283013
  0
LINE
  8
寸法
  6
BYBLOCK
 62
     0
 10
-116.229365
 20
70.283013
 11
-111.229365
 21
70.283013
  0
POINT
  8
寸法
 62
     0
 10
-116.229365
 20
70.283013
  0
POINT
  8
寸法
 62
     0
 10
-111.229365
 20
70.283013
  0
TEXT
  7
TextStyle03
  8
寸法
  6
CONTINUOUS
 62
     0
 10
-121.2375
 20
70.65
  1
150
 40
3.0
 72
     5
 11
-116.3625
 21
70.65
  0
ENDBLK
  0
BLOCK
  2
*DIM_0004
 70
    65
 10
0.0
 20
0.0
  0
LINE
  8
寸法
  6
BYBLOCK
 62
     0
 10
-94.562698
 20
57.042032
 11
-94.562698
 21
70.283013
  0
LINE
  8
寸法
  6
BYBLOCK
 62
     0
 10
-111.229365
 20
70.283013
 11
-94.562698
 21
70.283013
  0
POINT
  8
寸法
 62
     0
 10
-94.562698
 20
70.283013
  0
TEXT
  7
TextStyle03
  8
寸法
  6
CONTINUOUS
 62
     0
 10
-105.3375
 20
70.65
  1
500
 40
3.0
 72
     5
 11
-100.4625
 21
70.65
  0
ENDBLK
  0
BLOCK
  2
*DIM_0005
 70
    65
 10
0.0
 20
0.0
  0
LINE
  8
寸法
  6
BYBLOCK
 62
     0
 10
-77.896033
 20
57.042032
 11
-77.896033
 21
70.283013
  0
LINE
  8
寸法
  6
BYBLOCK
 62
     0
 10
-94.562698
 20
70.283013
 11
-77.896033
 21
70.283013
  0
POINT
  8
寸法
 62
     0
 10
-77.896033
 20
70.283013
  0
TEXT
  7
TextStyle03
  8
寸法
  6
CONTINUOUS
 62
     0
 10
-88.6875
 20
70.65
  1
500
 40
3.0
 72
     5
 11
-83.8125
 21
70.65
  0
ENDBLK
  0
BLOCK
  2
*DIM_0006
 70
    65
 10
0.0
 20
0.0
  0
LINE
  8
寸法
  6
BYBLOCK
 62
     0
 10
-61.229365
 20
57.042032
 11
-61.229365
 21
70.283013
  0
LINE
  8
寸法
  6
BYBLOCK
 62
     0
 10
-77.896033
 20
70.283013
 11
-61.229365
 21
70.283013
  0
POINT
  8
寸法
 62
     0
 10
-61.229365
 20
70.283013
  0
TEXT
  7
TextStyle03
  8
寸法
  6
CONTINUOUS
 62
     0
 10
-72.0125
 20
70.65
  1
500
 40
3.0
 72
     5
 11
-67.1375
 21
70.65
  0
ENDBLK
  0
BLOCK
  2
*DIM_0007
 70
    65
 10
0.0
 20
0.0
  0
LINE
  8
寸法
  6
BYBLOCK
 62
     0
 10
-56.229365
 20
57.042032
 11
-56.229365
 21
70.283013
  0
LINE
  8
寸法
  6
BYBLOCK
 62
     0
 10
-61.229365
 20
70.283013
 11
-56.229365
 21
70.283013
  0
POINT
  8
寸法
 62
     0
 10
-61.229365
 20
70.283013
  0
POINT
  8
寸法
 62
     0
 10
-56.229365
 20
70.283013
  0
TEXT
  7
TextStyle03
  8
寸法
  6
CONTINUOUS
 62
     0
 10
-56.1375
 20
70.65
  1
150
 40
3.0
 72
     5
 11
-51.2625
 21
70.65
  0
ENDBLK
  0
BLOCK
  2
*DIM_0008
 70
    65
 10
0.0
 20
0.0
  0
LINE
  8
寸法
  6
BYBLOCK
 62
     0
 10
-117.229365
 20
56.042032
 11
-130.101255
 21
56.042032
  0
LINE
  8
寸法
  6
BYBLOCK
 62
     0
 10
-117.229365
 20
49.375365
 11
-130.101255
 21
49.375365
  0
LINE
  8
寸法
  6
BYBLOCK
 62
     0
 10
-130.101255
 20
56.042032
 11
-130.101255
 21
49.375365
  0
POINT
  8
寸法
 62
     0
 10
-130.101255
 20
56.042032
  0
POINT
  8
寸法
 62
     0
 10
-130.101255
 20
49.375365
  0
TEXT
  7
TextStyle03
  8
寸法
  6
CONTINUOUS
 62
     0
 10
-130.5
 20
50.2625
  1
200
 40
3.0
 50
90.0
 72
     5
 11
-130.5
 21
55.1375
  0
ENDBLK
  0
BLOCK
  2
*DIM_0009
 70
    65
 10
0.0
 20
0.0
  0
LINE
  8
寸法
  6
BYBLOCK
 62
     0
 10
-117.229365
 20
32.7087
 11
-130.101255
 21
32.7087
  0
LINE
  8
寸法
  6
BYBLOCK
 62
     0
 10
-130.101255
 20
49.375365
 11
-130.101255
 21
32.7087
  0
POINT
  8
寸法
 62
     0
 10
-130.101255
 20
32.7087
  0
TEXT
  7
TextStyle03
  8
寸法
  6
CONTINUOUS
 62
     0
 10
-130.5
 20
38.6125
  1
500
 40
3.0
 50
90.0
 72
     5
 11
-130.5
 21
43.4875
  0
ENDBLK
  0
BLOCK
  2
*DIM_0010
 70
    65
 10
0.0
 20
0.0
  0
LINE
  8
寸法
  6
BYBLOCK
 62
     0
 10
-117.229365
 20
26.042032
 11
-130.101255
 21
26.042032
  0
LINE
  8
寸法
  6
BYBLOCK
 62
     0
 10
-130.101255
 20
32.7087
 11
-130.101255
 21
26.042032
  0
POINT
  8
寸法
 62
     0
 10
-130.101255
 20
26.042032
  0
TEXT
  7
TextStyle03
  8
寸法
  6
CONTINUOUS
 62
     0
 10
-130.5
 20
26.9375
  1
200
 40
3.0
 50
90.0
 72
     5
 11
-130.5
 21
31.8125
  0
ENDBLK
  0
BLOCK
  2
*GRP_0011
 70
    65
 10
0.0
 20
0.0
  0
LINE
  8
型材断面
  6
CONTINUOUS
 10
195.0
 20
133.5
 11
195.0
 21
-133.5
  0
LINE
  8
型材断面
  6
CONTINUOUS
 10
195.0
 20
-133.5
 11
-185.0
 21
-133.5
  0
LINE
  8
型材断面
  6
CONTINUOUS
 10
-185.0
 20
-133.5
 11
-185.0
 21
133.5
  0
LINE
  8
型材断面
  6
CONTINUOUS
 10
195.0
 20
133.5
 11
-185.0
 21
133.5
  0
LINE
  8
型材断面
  6
CONTINUOUS
 10
145.0
 20
-133.5
 11
145.0
 21
-118.5
  0
LINE
  8
型材断面
  6
CONTINUOUS
 10
195.0
 20
-118.5
 11
145.0
 21
-118.5
  0
ENDBLK
  0
BLOCK
  2
*GRP_0012
 70
    65
 10
0.0
 20
0.0
  0
POLYLINE
  8
寸法
  6
BYBLOCK
 62
     0
 66
     1
  0
VERTEX
  8
寸法
 10
-73.187767
 20
51.98532
  0
VERTEX
  8
寸法
 10
-66.97919
 20
64.655703
  0
VERTEX
  8
寸法
 10
-49.990888
 20
64.655703
  0
SEQEND
  0
ENDBLK
  0
BLOCK
  2
*DIM_0013
 70
    65
 10
0.0
 20
0.0
  0
LINE
  8
寸法
  6
BYBLOCK
 62
     0
 10
-112.529357
 20
17.692783
 11
-112.529357
 21
10.871992
  0
LINE
  8
寸法
  6
BYBLOCK
 62
     0
 10
-116.229357
 20
10.871992
 11
-112.529357
 21
10.871992
  0
POINT
  8
寸法
 62
     0
 10
-116.229357
 20
10.871992
 50
-270.0
  0
POINT
  8
寸法
 62
     0
 10
-112.529357
 20
10.871992
 50
-270.0
  0
TEXT
  7
TextStyle03
  8
寸法
  6
CONTINUOUS
 62
     0
 10
-122.0375
 20
11.275
  1
111
 40
3.0
 72
     5
 11
-117.1625
 21
11.275
  0
ENDBLK
  0
BLOCK
  2
*DIM_0014
 70
    65
 10
0.0
 20
0.0
  0
LINE
  8
寸法
  6
BYBLOCK
 62
     0
 10
-59.929373
 20
17.692783
 11
-59.929373
 21
10.871992
  0
LINE
  8
寸法
  6
BYBLOCK
 62
     0
 10
-56.229373
 20
10.871992
 11
-59.929373
 21
10.871992
  0
POINT
  8
寸法
 62
     0
 10
-56.229373
 20
10.871992
  0
POINT
  8
寸法
 62
     0
 10
-59.929373
 20
10.871992
  0
TEXT
  7
TextStyle03
  8
寸法
  6
CONTINUOUS
 62
     0
 10
-55.2625
 20
11.275
  1
111
 40
3.0
 72
     5
 11
-50.3875
 21
11.275
  0
ENDBLK
  0
BLOCK
  2
*DIM_0015
 70
    65
 10
0.0
 20
0.0
  0
LINE
  8
寸法
  6
CONTINUOUS
 10
-120.396033
 20
-66.775292
 11
-120.396033
 21
-24.340065
  0
LINE
  8
寸法
  6
CONTINUOUS
 10
-52.062698
 20
-66.775292
 11
-52.062698
 21
-24.340065
  0
LINE
  8
寸法
  6
CONTINUOUS
 10
-120.396033
 20
-24.340065
 11
-52.062698
 21
-24.340065
  0
POINT
  8
寸法
 10
-120.396033
 20
-24.340065
  0
POINT
  8
寸法
 10
-52.062698
 20
-24.340065
  0
TEXT
  7
TextStyle03
  8
寸法
  6
CONTINUOUS
 10
-89.53125
 20
-23.975
  1
2050
 40
3.0
 72
     5
 11
-82.96875
 21
-23.975
  0
ENDBLK
  0
BLOCK
  2
*DIM_0016
 70
    65
 10
0.0
 20
0.0
  0
LINE
  8
寸法
  6
CONTINUOUS
 10
-116.229365
 20
-30.480688
 11
-120.396033
 21
-30.480688
  0
POINT
  8
寸法
 10
-116.229365
 20
-30.480688
  0
POINT
  8
寸法
 10
-120.396033
 20
-30.480688
  0
TEXT
  7
TextStyle03
  8
寸法
  6
CONTINUOUS
 10
-125.8125
 20
-30.125
  1
125
 40
3.0
 72
     5
 11
-120.9375
 21
-30.125
  0
ENDBLK
  0
BLOCK
  2
*DIM_0017
 70
    65
 10
0.0
 20
0.0
  0
LINE
  8
寸法
  6
CONTINUOUS
 10
-56.229365
 20
-30.480688
 11
-52.062698
 21
-30.480688
  0
POINT
  8
寸法
 10
-56.229365
 20
-30.480688
  0
POINT
  8
寸法
 10
-52.062698
 20
-30.480688
  0
TEXT
  7
TextStyle03
  8
寸法
  6
CONTINUOUS
 10
-51.5375
 20
-30.125
  1
125
 40
3.0
 72
     5
 11
-46.6625
 21
-30.125
  0
ENDBLK
  0
BLOCK
  2
*DIM_0018
 70
    65
 10
0.0
 20
0.0
  0
LINE
  8
寸法
  6
CONTINUOUS
 10
-52.46603
 20
-74.531977
 11
-38.00924
 21
-74.531977
  0
LINE
  8
寸法
  6
CONTINUOUS
 10
-51.062698
 20
-67.775292
 11
-38.00924
 21
-67.775292
  0
LINE
  8
寸法
  6
CONTINUOUS
 10
-38.00924
 20
-74.531977
 11
-38.00924
 21
-67.775292
  0
POINT
  8
寸法
 10
-38.00924
 20
-74.531977
  0
POINT
  8
寸法
 10
-38.00924
 20
-67.775292
  0
TEXT
  7
TextStyle03
  8
寸法
  6
CONTINUOUS
 10
-35.025
 20
-75.3
  1
202.7
 40
3.0
 50
90.0
 72
     5
 11
-35.025
 21
-67.05
  0
ENDBLK
  0
BLOCK
  2
*DIM_0019
 70
    65
 10
0.0
 20
0.0
  0
LINE
  8
寸法
  6
CONTINUOUS
 10
-72.108195
 20
-48.372795
 11
-38.00924
 21
-48.372795
  0
LINE
  8
寸法
  6
CONTINUOUS
 10
-38.00924
 20
-67.775292
 11
-38.00924
 21
-48.372795
  0
POINT
  8
寸法
 10
-38.00924
 20
-48.372795
  0
TEXT
  7
TextStyle03
  8
寸法
  6
CONTINUOUS
 10
-38.4
 20
-60.5125
  1
582
 40
3.0
 50
90.0
 72
     5
 11
-38.4
 21
-55.6375
  0
ENDBLK
  0
BLOCK
  2
*GRP_0020
 70
    65
 10
0.0
 20
0.0
  0
LINE
  8
型材断面
  6
DOT
 10
42.080317
 20
-57.775292
 11
42.080317
 21
-59.986755
  0
LINE
  8
型材断面
  6
DOT
 10
41.246985
 20
-59.986743
 11
41.246985
 21
-60.45341
  0
LINE
  8
型材断面
  6
DOT
 10
42.115673
 20
-57.69278
 11
24.3117
 21
-39.88881
  0
LINE
  8
型材断面
  6
DOT
 10
42.080317
 20
-57.728137
 11
24.240987
 21
-39.88881
  0
LINE
  8
型材断面
  6
DOT
 10
-26.253017
 20
-57.775292
 11
-26.253017
 21
-59.986755
  0
LINE
  8
型材断面
  6
DOT
 10
-25.419685
 20
-59.986743
 11
-25.419685
 21
-60.45341
  0
LINE
  8
型材断面
  6
DOT
 10
-26.288372
 20
-57.69278
 11
-8.4844
 21
-39.88881
  0
LINE
  8
型材断面
  6
DOT
 10
-26.253017
 20
-57.728137
 11
-8.413688
 21
-39.88881
  0
LINE
  8
型材断面
  6
DOT
 10
-26.253017
 20
-59.986755
 11
42.080317
 21
-59.986755
  0
LINE
  8
型材断面
  6
DOT
 10
-25.419685
 20
-60.45341
 11
41.246985
 21
-60.45341
  0
LINE
  8
型材断面
  6
DOT
 10
-26.253017
 20
-57.775292
 11
42.080317
 21
-57.775292
  0
LINE
  8
型材断面
  6
DOT
 10
-5.20752
 20
-38.372795
 11
21.03482
 21
-38.372795
  0
LINE
  8
型材断面
  6
DOT
 10
-7.23393
 20
-39.551807
 11
23.06123
 21
-39.551807
  0
LINE
  8
ゴム等
  6
DOT
 10
40.890523
 20
-57.626548
 11
39.216252
 21
-57.013723
  0
LINE
  8
ゴム等
  6
DOT
 10
39.216252
 20
-57.013723
 11
37.5375
 21
-56.618828
  0
LINE
  8
ゴム等
  6
DOT
 10
37.5375
 20
-56.618828
 11
21.99677
 21
-41.078097
  0
LINE
  8
ゴム等
  6
DOT
 10
39.216252
 20
-57.013723
 11
22.442075
 21
-40.239548
  0
LINE
  8
ゴム等
  6
DOT
 10
22.701488
 20
-38.254945
 11
21.03482
 21
-38.254945
  0
LINE
  8
ゴム等
  6
DOT
 10
21.03482
 20
-38.254945
 11
21.03482
 21
-39.497095
  0
LINE
  8
ゴム等
  6
DOT
 10
22.959377
 20
-39.449955
 11
21.03482
 21
-39.449955
  0
LINE
  8
ゴム等
  6
DOT
 10
21.03482
 20
-39.497095
 11
23.006517
 21
-39.497095
  0
LINE
  8
ゴム等
  6
DOT
 10
24.335355
 20
-39.88881
 11
23.398235
 21
-39.88881
  0
LINE
  8
ゴム等
  6
DOT
 10
24.335355
 20
-39.88881
 11
22.701488
 21
-38.254945
  0
LINE
  8
ゴム等
  6
DOT
 10
23.398235
 20
-39.88881
 11
22.959377
 21
-39.449955
  0
LINE
  8
ゴム等
  6
DOT
 10
22.81578
 20
-39.551807
 11
22.442075
 21
-40.239548
  0
LINE
  8
ゴム等
  6
DOT
 10
22.442075
 20
-40.239548
 11
21.99677
 21
-41.078097
  0
LINE
  8
ゴム等
  6
DOT
 10
40.890523
 20
-57.626548
 11
22.81578
 21
-39.551807
  0
LINE
  8
ゴム等
  6
DOT
 10
-25.063223
 20
-57.626548
 11
-23.388952
 21
-57.013723
  0
LINE
  8
ゴム等
  6
DOT
 10
-23.388952
 20
-57.013723
 11
-21.7102
 21
-56.618828
  0
LINE
  8
ゴム等
  6
DOT
 10
-6.874187
 20
-38.254945
 11
-5.20752
 21
-38.254945
  0
LINE
  8
ゴム等
  6
DOT
 10
-5.20752
 20
-38.254945
 11
-5.20752
 21
-39.497095
  0
LINE
  8
ゴム等
  6
DOT
 10
-7.132078
 20
-39.449955
 11
-5.20752
 21
-39.449955
  0
LINE
  8
ゴム等
  6
DOT
 10
-5.20752
 20
-39.497095
 11
-7.179217
 21
-39.497095
  0
LINE
  8
ゴム等
  6
DOT
 10
-8.508055
 20
-39.88881
 11
-7.570935
 21
-39.88881
  0
LINE
  8
ゴム等
  6
DOT
 10
-8.508055
 20
-39.88881
 11
-6.874187
 21
-38.254945
  0
LINE
  8
ゴム等
  6
DOT
 10
-7.570935
 20
-39.88881
 11
-7.132078
 21
-39.449955
  0
LINE
  8
ゴム等
  6
DOT
 10
-6.98848
 20
-39.551807
 11
-6.614775
 21
-40.239548
  0
LINE
  8
ゴム等
  6
DOT
 10
-6.614775
 20
-40.239548
 11
-6.16947
 21
-41.078097
  0
LINE
  8
ゴム等
  6
DOT
 10
-21.7102
 20
-56.618828
 11
-6.16947
 21
-41.078097
  0
LINE
  8
ゴム等
  6
DOT
 10
-23.388952
 20
-57.013723
 11
-6.614775
 21
-40.239548
  0
LINE
  8
ゴム等
  6
DOT
 10
-25.063223
 20
-57.626548
 11
-6.982938
 21
-39.546265
  0
LINE
  8
ゴム等
  6
DOT
 10
-23.388952
 20
-57.013723
 11
39.216252
 21
-57.013723
  0
LINE
  8
ゴム等
  6
DOT
 10
-25.063223
 20
-57.626548
 11
40.890523
 21
-57.626548
  0
LINE
  8
ゴム等
  6
DOT
 10
-6.614775
 20
-40.239548
 11
22.442075
 21
-40.239548
  0
LINE
  8
ゴム等
  6
DOT
 10
-6.16947
 20
-41.078097
 11
21.99677
 21
-41.078097
  0
LINE
  8
ゴム等
  6
DOT
 10
-21.7102
 20
-56.618828
 11
37.5375
 21
-56.618828
  0
ENDBLK
  0
BLOCK
  2
*DIM_0021
 70
    65
 10
0.0
 20
0.0
  0
LINE
  8
寸法
  6
BYBLOCK
 62
     0
 10
44.089855
 20
-60.45341
 11
49.445548
 21
-60.45341
  0
LINE
  8
寸法
  6
BYBLOCK
 62
     0
 10
44.089855
 20
-70.45341
 11
49.445548
 21
-70.45341
  0
LINE
  8
寸法
  6
BYBLOCK
 62
     0
 10
49.445548
 20
-60.45341
 11
49.445548
 21
-70.45341
  0
POINT
  8
寸法
 62
     0
 10
49.445548
 20
-60.45341
  0
POINT
  8
寸法
 62
     0
 10
49.445548
 20
-70.45341
  0
TEXT
  7
TextStyle03
  8
寸法
  6
CONTINUOUS
 62
     0
 10
53.325
 20
-74.5375
  1
上昇高さ300
 40
3.0
 50
90.0
 72
     5
 11
53.325
 21
-56.1625
  0
ENDBLK
  0
BLOCK
  2
*DIM_0022
 70
    65
 10
0.0
 20
0.0
  0
LINE
  8
寸法
  6
BYBLOCK
 62
     0
 10
108.726778
 20
-60.45341
 11
114.08247
 21
-60.45341
  0
LINE
  8
寸法
  6
BYBLOCK
 62
     0
 10
108.726778
 20
-70.45341
 11
114.08247
 21
-70.45341
  0
LINE
  8
寸法
  6
BYBLOCK
 62
     0
 10
114.08247
 20
-60.45341
 11
114.08247
 21
-70.45341
  0
POINT
  8
寸法
 62
     0
 10
114.08247
 20
-60.45341
  0
POINT
  8
寸法
 62
     0
 10
114.08247
 20
-70.45341
  0
TEXT
  7
TextStyle03
  8
寸法
  6
CONTINUOUS
 62
     0
 10
117.95
 20
-74.5375
  1
上昇高さ300
 40
3.0
 50
90.0
 72
     5
 11
117.95
 21
-56.1625
  0
ENDBLK
  0
BLOCK
  2
*GRP_0023
 70
    65
 10
0.0
 20
0.0
  0
LINE
  8
型材断面
  6
DOT
 10
106.42315
 20
-57.728137
 11
106.458505
 21
-57.69278
  0
LINE
  8
型材断面
  6
DOT
 10
106.42315
 20
-57.775292
 11
106.42315
 21
-59.986755
  0
LINE
  8
型材断面
  6
DOT
 10
105.589818
 20
-59.986745
 11
105.589818
 21
-60.45341
  0
LINE
  8
型材断面
  6
DOT
 10
68.089818
 20
-57.775292
 11
68.089818
 21
-59.986755
  0
LINE
  8
型材断面
  6
DOT
 10
68.92315
 20
-59.986745
 11
68.92315
 21
-60.45341
  0
LINE
  8
型材断面
  6
DOT
 10
106.42315
 20
-57.775292
 11
68.089818
 21
-57.775292
  0
LINE
  8
型材断面
  6
DOT
 10
106.42315
 20
-59.986755
 11
68.089818
 21
-59.986755
  0
LINE
  8
型材断面
  6
DOT
 10
105.589818
 20
-60.45341
 11
68.92315
 21
-60.45341
  0
LINE
  8
型材断面
  6
DOT
 10
68.089818
 20
-57.728137
 11
87.256485
 21
-38.561473
  0
LINE
  8
型材断面
  6
DOT
 10
106.42315
 20
-57.728137
 11
87.256485
 21
-38.561473
  0
LINE
  8
型材断面
  6
DOT
 10
106.458505
 20
-57.69278
 11
87.256485
 21
-38.490762
  0
LINE
  8
型材断面
  6
DOT
 10
68.054463
 20
-57.69278
 11
87.256485
 21
-38.490762
  0
LINE
  8
型材断面
  6
DOT
 10
87.256482
 20
-39.197592
 11
87.256482
 21
-38.254782
  0
LINE
  8
型材断面
  6
DOT
 10
87.256482
 20
-39.197592
 11
87.256482
 21
-38.254782
  0
LINE
  8
型材断面
  6
DOT
 10
85.756482
 20
-39.754782
 11
85.803622
 21
-39.801923
  0
LINE
  8
型材断面
  6
DOT
 10
85.803622
 20
-39.801923
 11
86.65215
 21
-39.801923
  0
LINE
  8
型材断面
  6
DOT
 10
87.256482
 20
-38.254782
 11
85.756482
 21
-39.754782
  0
LINE
  8
型材断面
  6
DOT
 10
87.256482
 20
-39.19759
 11
86.65215
 21
-39.801923
  0
LINE
  8
型材断面
  6
DOT
 10
88.756872
 20
-39.754782
 11
88.709733
 21
-39.801923
  0
LINE
  8
型材断面
  6
DOT
 10
88.709733
 20
-39.801923
 11
87.861205
 21
-39.801923
  0
LINE
  8
型材断面
  6
DOT
 10
87.256482
 20
-39.19759
 11
87.860813
 21
-39.801923
  0
LINE
  8
型材断面
  6
DOT
 10
87.256482
 20
-38.254782
 11
88.756677
 21
-39.754978
  0
LINE
  8
型材断面
  6
DOT
 10
88.357213
 20
-39.47351
 11
88.298222
 21
-39.5325
  0
LINE
  8
型材断面
  6
DOT
 10
88.357213
 20
-39.47351
 11
87.256482
 21
-38.372782
  0
LINE
  8
型材断面
  6
DOT
 10
86.155753
 20
-39.47351
 11
86.214742
 21
-39.5325
  0
LINE
  8
型材断面
  6
DOT
 10
86.155753
 20
-39.47351
 11
87.256482
 21
-38.372782
  0
LINE
  8
ゴム等
  6
DOT
 10
101.880335
 20
-56.618828
 11
103.559085
 21
-57.013723
  0
LINE
  8
ゴム等
  6
DOT
 10
103.559085
 20
-57.013723
 11
105.233355
 21
-57.62655
  0
LINE
  8
ゴム等
  6
DOT
 10
69.279613
 20
-57.62655
 11
70.953882
 21
-57.013723
  0
LINE
  8
ゴム等
  6
DOT
 10
70.953882
 20
-57.013723
 11
72.632635
 21
-56.618828
  0
LINE
  8
ゴム等
  6
DOT
 10
101.880335
 20
-56.618828
 11
72.632635
 21
-56.618828
  0
LINE
  8
ゴム等
  6
DOT
 10
103.559085
 20
-57.013723
 11
70.953882
 21
-57.013723
  0
LINE
  8
ゴム等
  6
DOT
 10
105.233355
 20
-57.62655
 11
69.279613
 21
-57.62655
  0
LINE
  8
ゴム等
  6
DOT
 10
72.632635
 20
-56.618828
 11
87.256485
 21
-41.99498
  0
LINE
  8
ゴム等
  6
DOT
 10
101.880335
 20
-56.618828
 11
87.256485
 21
-41.99498
  0
LINE
  8
ゴム等
  6
DOT
 10
103.559085
 20
-57.013723
 11
87.256485
 21
-40.711122
  0
LINE
  8
ゴム等
  6
DOT
 10
70.953882
 20
-57.013723
 11
87.256485
 21
-40.711122
  0
LINE
  8
ゴム等
  6
DOT
 10
69.279613
 20
-57.62655
 11
87.256485
 21
-39.64968
  0
LINE
  8
ゴム等
  6
DOT
 10
105.233355
 20
-57.62655
 11
87.256485
 21
-39.64968
  0
ENDBLK
  0
BLOCK
  2
*GRP_0024
 70
    65
 10
0.0
 20
0.0
  0
LINE
  8
補助線
  6
DOT
 62
    64
 10
98.523172
 20
-71.939385
 11
98.656768
 21
-72.03903
  0
LINE
  8
補助線
  6
DOT
 62
    64
 10
98.639792
 20
-71.92241
 11
98.540148
 21
-72.056005
  0
LINE
  8
補助線
  6
DOT
 62
    64
 10
89.758987
 20
-65.40281
 11
89.625388
 21
-65.303162
  0
LINE
  8
補助線
  6
DOT
 62
    64
 10
89.74201
 20
-65.286182
 11
89.642365
 21
-65.419785
  0
LINE
  8
補助線
  6
DOT
 62
    64
 10
80.86117
 20
-58.76663
 11
80.72757
 21
-58.666987
  0
LINE
  8
補助線
  6
DOT
 62
    64
 10
80.84419
 20
-58.65001
 11
80.744548
 21
-58.78361
  0
LINE
  8
型材断面
  6
DOT
 10
99.355385
 20
-71.520493
 11
99.457258
 21
-72.22022
  0
LINE
  8
型材断面
  6
DOT
 10
99.457258
 20
-72.22022
 11
99.058685
 21
-72.754623
  0
LINE
  8
型材断面
  6
DOT
 10
99.058685
 20
-72.754623
 11
98.358958
 21
-72.856495
  0
LINE
  8
型材断面
  6
DOT
 10
81.025377
 20
-57.849518
 11
80.32565
 21
-57.951397
  0
LINE
  8
型材断面
  6
DOT
 10
80.32565
 20
-57.951397
 11
79.92708
 21
-58.485803
  0
LINE
  8
型材断面
  6
DOT
 10
79.92708
 20
-58.485803
 11
80.028955
 21
-59.185527
  0
LINE
  8
型材断面
  6
DOT
 10
99.355385
 20
-71.520493
 11
81.025458
 21
-57.849507
  0
LINE
  8
型材断面
  6
DOT
 10
98.358958
 20
-72.856495
 11
80.028945
 21
-59.185452
  0
LINE
  8
ボルト／ビス
  6
DOT
 62
    64
 10
98.77406
 20
-71.742375
 11
98.895778
 21
-72.025223
  0
LINE
  8
ボルト／ビス
  6
DOT
 62
    64
 10
98.77406
 20
-71.742375
 11
98.468255
 21
-71.706365
  0
LINE
  8
ボルト／ビス
  6
DOT
 62
    64
 10
98.40588
 20
-72.23604
 11
98.711685
 21
-72.27205
  0
LINE
  8
ボルト／ビス
  6
DOT
 62
    64
 10
98.40588
 20
-72.23604
 11
98.284162
 21
-71.953193
  0
CIRCLE
  8
ボルト／ビス
  6
DOT
 62
    64
 10
98.58997
 20
-71.989207
 40
0.266668
  0
LINE
  8
ボルト／ビス
  6
DOT
 62
    64
 10
98.468255
 20
-71.706365
 11
98.284162
 21
-71.953193
  0
LINE
  8
ボルト／ビス
  6
DOT
 62
    64
 10
98.895778
 20
-72.025223
 11
98.711685
 21
-72.27205
  0
LINE
  8
ボルト／ビス
  6
DOT
 62
    64
 10
89.87628
 20
-65.106155
 11
89.570472
 21
-65.070143
  0
LINE
  8
ボルト／ビス
  6
DOT
 62
    64
 10
89.87628
 20
-65.106155
 11
89.997995
 21
-65.388998
  0
LINE
  8
ボルト／ビス
  6
DOT
 62
    64
 10
89.508093
 20
-65.599815
 11
89.38638
 21
-65.316972
  0
LINE
  8
ボルト／ビス
  6
DOT
 62
    64
 10
89.508093
 20
-65.599815
 11
89.8139
 21
-65.635827
  0
CIRCLE
  8
ボルト／ビス
  6
DOT
 62
    64
 10
89.692185
 20
-65.352985
 40
0.266668
  0
LINE
  8
ボルト／ビス
  6
DOT
 62
    64
 10
89.997995
 20
-65.388998
 11
89.8139
 21
-65.635827
  0
LINE
  8
ボルト／ビス
  6
DOT
 62
    64
 10
89.570472
 20
-65.070143
 11
89.38638
 21
-65.316972
  0
LINE
  8
ボルト／ビス
  6
DOT
 62
    64
 10
80.978463
 20
-58.469975
 11
80.672652
 21
-58.433965
  0
LINE
  8
ボルト／ビス
  6
DOT
 62
    64
 10
80.978463
 20
-58.469975
 11
81.100175
 21
-58.75282
  0
LINE
  8
ボルト／ビス
  6
DOT
 62
    64
 10
80.610277
 20
-58.963638
 11
80.488563
 21
-58.680793
  0
LINE
  8
ボルト／ビス
  6
DOT
 62
    64
 10
80.610277
 20
-58.963638
 11
80.916087
 21
-58.99965
  0
CIRCLE
  8
ボルト／ビス
  6
DOT
 62
    64
 10
80.79437
 20
-58.716807
 40
0.266668
  0
LINE
  8
ボルト／ビス
  6
DOT
 62
    64
 10
81.100175
 20
-58.75282
 11
80.916087
 21
-58.99965
  0
LINE
  8
ボルト／ビス
  6
DOT
 62
    64
 10
80.672652
 20
-58.433965
 11
80.488563
 21
-58.680793
  0
ENDBLK
  0
BLOCK
  2
*GRP_0025
 70
    65
 10
0.0
 20
0.0
  0
LINE
  8
補助線
  6
DOT
 62
    64
 10
80.861203
 20
-71.939385
 11
80.727607
 21
-72.03903
  0
LINE
  8
補助線
  6
DOT
 62
    64
 10
80.744583
 20
-71.92241
 11
80.844227
 21
-72.056005
  0
LINE
  8
補助線
  6
DOT
 62
    64
 10
89.625388
 20
-65.40281
 11
89.758987
 21
-65.303162
  0
LINE
  8
補助線
  6
DOT
 62
    64
 10
89.642365
 20
-65.286182
 11
89.74201
 21
-65.419785
  0
LINE
  8
補助線
  6
DOT
 62
    64
 10
98.523205
 20
-58.76663
 11
98.656805
 21
-58.666987
  0
LINE
  8
補助線
  6
DOT
 62
    64
 10
98.540185
 20
-58.65001
 11
98.639827
 21
-58.78361
  0
LINE
  8
型材断面
  6
DOT
 10
80.02899
 20
-71.520493
 11
79.927117
 21
-72.22022
  0
LINE
  8
型材断面
  6
DOT
 10
79.927117
 20
-72.22022
 11
80.32569
 21
-72.754623
  0
LINE
  8
型材断面
  6
DOT
 10
80.32569
 20
-72.754623
 11
81.025418
 21
-72.856495
  0
LINE
  8
型材断面
  6
DOT
 10
98.358998
 20
-57.849518
 11
99.058725
 21
-57.951397
  0
LINE
  8
型材断面
  6
DOT
 10
99.058725
 20
-57.951397
 11
99.457295
 21
-58.485803
  0
LINE
  8
型材断面
  6
DOT
 10
99.457295
 20
-58.485803
 11
99.35542
 21
-59.185527
  0
LINE
  8
型材断面
  6
DOT
 10
80.02899
 20
-71.520493
 11
98.358917
 21
-57.849507
  0
LINE
  8
型材断面
  6
DOT
 10
81.025418
 20
-72.856495
 11
99.35543
 21
-59.185452
  0
LINE
  8
ボルト／ビス
  6
DOT
 62
    64
 10
80.610315
 20
-71.742375
 11
80.488597
 21
-72.025223
  0
LINE
  8
ボルト／ビス
  6
DOT
 62
    64
 10
80.610315
 20
-71.742375
 11
80.91612
 21
-71.706365
  0
LINE
  8
ボルト／ビス
  6
DOT
 62
    64
 10
80.978495
 20
-72.23604
 11
80.67269
 21
-72.27205
  0
LINE
  8
ボルト／ビス
  6
DOT
 62
    64
 10
80.978495
 20
-72.23604
 11
81.100213
 21
-71.953193
  0
CIRCLE
  8
ボルト／ビス
  6
DOT
 62
    64
 10
80.794405
 20
-71.989207
 40
0.266668
  0
LINE
  8
ボルト／ビス
  6
DOT
 62
    64
 10
80.91612
 20
-71.706365
 11
81.100213
 21
-71.953193
  0
LINE
  8
ボルト／ビス
  6
DOT
 62
    64
 10
80.488597
 20
-72.025223
 11
80.67269
 21
-72.27205
  0
LINE
  8
ボルト／ビス
  6
DOT
 62
    64
 10
89.508095
 20
-65.106155
 11
89.813903
 21
-65.070143
  0
LINE
  8
ボルト／ビス
  6
DOT
 62
    64
 10
89.508095
 20
-65.106155
 11
89.38638
 21
-65.388998
  0
LINE
  8
ボルト／ビス
  6
DOT
 62
    64
 10
89.876282
 20
-65.599815
 11
89.997995
 21
-65.316972
  0
LINE
  8
ボルト／ビス
  6
DOT
 62
    64
 10
89.876282
 20
-65.599815
 11
89.570475
 21
-65.635827
  0
CIRCLE
  8
ボルト／ビス
  6
DOT
 62
    64
 10
89.69219
 20
-65.352985
 40
0.266668
  0
LINE
  8
ボルト／ビス
  6
DOT
 62
    64
 10
89.38638
 20
-65.388998
 11
89.570475
 21
-65.635827
  0
LINE
  8
ボルト／ビス
  6
DOT
 62
    64
 10
89.813903
 20
-65.070143
 11
89.997995
 21
-65.316972
  0
LINE
  8
ボルト／ビス
  6
DOT
 62
    64
 10
98.405912
 20
-58.469975
 11
98.711722
 21
-58.433965
  0
LINE
  8
ボルト／ビス
  6
DOT
 62
    64
 10
98.405912
 20
-58.469975
 11
98.2842
 21
-58.75282
  0
LINE
  8
ボルト／ビス
  6
DOT
 62
    64
 10
98.774098
 20
-58.963638
 11
98.895812
 21
-58.680793
  0
LINE
  8
ボルト／ビス
  6
DOT
 62
    64
 10
98.774098
 20
-58.963638
 11
98.468288
 21
-58.99965
  0
CIRCLE
  8
ボルト／ビス
  6
DOT
 62
    64
 10
98.590005
 20
-58.716807
 40
0.266668
  0
LINE
  8
ボルト／ビス
  6
DOT
 62
    64
 10
98.2842
 20
-58.75282
 11
98.468288
 21
-58.99965
  0
LINE
  8
ボルト／ビス
  6
DOT
 62
    64
 10
98.711722
 20
-58.433965
 11
98.895812
 21
-58.680793
  0
ENDBLK
  0
BLOCK
  2
*DIM_0026
 70
    65
 10
0.0
 20
0.0
  0
LINE
  8
寸法
  6
CONTINUOUS
 10
96.907443
 20
4.032805
 11
96.907443
 21
-1.981745
  0
LINE
  8
寸法
  6
CONTINUOUS
 10
128.456152
 20
4.032805
 11
128.456152
 21
-1.981745
  0
LINE
  8
寸法
  6
CONTINUOUS
 10
96.907443
 20
-1.981745
 11
128.456152
 21
-1.981745
  0
POINT
  8
寸法
 10
96.907443
 20
-1.981745
  0
POINT
  8
寸法
 10
128.456152
 20
-1.981745
  0
TEXT
  7
TextStyle03
  8
寸法
  6
CONTINUOUS
 10
108.55
 20
-1.6
  1
946.5
 40
3.0
 72
     5
 11
116.8
 21
-1.6
  0
ENDBLK
  0
BLOCK
  2
*DIM_0027
 70
    65
 10
0.0
 20
0.0
  0
LINE
  8
寸法
  6
CONTINUOUS
 10
129.456152
 20
5.032805
 11
135.817132
 21
5.032805
  0
LINE
  8
寸法
  6
CONTINUOUS
 10
113.681797
 20
27.341108
 11
135.817132
 21
27.341108
  0
LINE
  8
寸法
  6
CONTINUOUS
 10
135.817132
 20
5.032805
 11
135.817132
 21
27.341108
  0
POINT
  8
寸法
 10
135.817132
 20
5.032805
  0
POINT
  8
寸法
 10
135.817132
 20
27.341108
  0
TEXT
  7
TextStyle03
  8
寸法
  6
CONTINUOUS
 10
135.425
 20
12.075
  1
669.3
 40
3.0
 50
90.0
 72
     5
 11
135.425
 21
20.325
  0
ENDBLK
  0
BLOCK
  2
*DIM_0028
 70
    65
 10
0.0
 20
0.0
  0
LINE
  8
寸法
  6
CONTINUOUS
 10
98.737882
 20
75.778535
 11
98.737882
 21
81.831135
  0
LINE
  8
寸法
  6
CONTINUOUS
 10
127.468822
 20
75.778535
 11
127.468822
 21
81.831135
  0
LINE
  8
寸法
  6
CONTINUOUS
 10
98.737882
 20
81.831135
 11
127.468822
 21
81.831135
  0
POINT
  8
寸法
 10
98.737882
 20
81.831135
  0
POINT
  8
寸法
 10
127.468822
 20
81.831135
  0
TEXT
  7
TextStyle03
  8
寸法
  6
CONTINUOUS
 10
108.975
 20
82.2
  1
861.9
 40
3.0
 72
     5
 11
117.225
 21
82.2
  0
ENDBLK
  0
BLOCK
  2
*DIM_0029
 70
    65
 10
0.0
 20
0.0
  0
LINE
  8
寸法
  6
CONTINUOUS
 10
144.87771
 20
51.572868
 11
149.624282
 21
51.572868
  0
LINE
  8
寸法
  6
CONTINUOUS
 10
128.468822
 20
74.778535
 11
149.624282
 21
74.778535
  0
LINE
  8
寸法
  6
CONTINUOUS
 10
149.624282
 20
51.572868
 11
149.624282
 21
74.778535
  0
POINT
  8
寸法
 10
149.624282
 20
51.572868
  0
POINT
  8
寸法
 10
149.624282
 20
74.778535
  0
TEXT
  7
TextStyle03
  8
寸法
  6
CONTINUOUS
 10
149.225
 20
59.05
  1
696.1
 40
3.0
 50
90.0
 72
     5
 11
149.225
 21
67.3
  0
ENDBLK
  0
BLOCK
  2
*DIM_0030
 70
    65
 10
0.0
 20
0.0
  0
LINE
  8
寸法
  6
CONTINUOUS
 10
82.328995
 20
50.572868
 11
82.328995
 21
45.069893
  0
LINE
  8
寸法
  6
CONTINUOUS
 10
143.87771
 20
50.572868
 11
143.87771
 21
45.069893
  0
LINE
  8
寸法
  6
CONTINUOUS
 10
82.328995
 20
45.069893
 11
143.87771
 21
45.069893
  0
POINT
  8
寸法
 10
82.328995
 20
45.069893
  0
POINT
  8
寸法
 10
143.87771
 20
45.069893
  0
TEXT
  7
TextStyle03
  8
寸法
  6
CONTINUOUS
 10
108.13125
 20
45.425
  1
1846.5
 40
3.0
 72
     5
 11
118.06875
 21
45.425
  0
ENDBLK
  0
BLOCK
  2
*DIM_0031
 70
    65
 10
0.0
 20
0.0
  0
LINE
  8
寸法
  6
CONTINUOUS
 10
31.031545
 20
60.208698
 11
-11.03408
 21
60.208698
  0
LINE
  8
寸法
  6
CONTINUOUS
 10
31.031545
 20
21.875365
 11
-11.03408
 21
21.875365
  0
LINE
  8
寸法
  6
CONTINUOUS
 10
-11.03408
 20
60.208698
 11
-11.03408
 21
21.875365
  0
POINT
  8
寸法
 10
-11.03408
 20
60.208698
  0
POINT
  8
寸法
 10
-11.03408
 20
21.875365
  0
TEXT
  7
TextStyle03
  8
寸法
  6
CONTINUOUS
 10
-11.425
 20
37.74375
  1
1150
 40
3.0
 50
90.0
 72
     5
 11
-11.425
 21
44.30625
  0
ENDBLK
  0
BLOCK
  2
*DIM_0032
 70
    65
 10
0.0
 20
0.0
  0
LINE
  8
寸法
  6
CONTINUOUS
 10
-4.86363
 20
56.042032
 11
-4.86363
 21
60.208698
  0
POINT
  8
寸法
 10
-4.86363
 20
56.042032
  0
POINT
  8
寸法
 10
-4.86363
 20
60.208698
  0
TEXT
  7
TextStyle03
  8
寸法
  6
CONTINUOUS
 10
-5.25
 20
60.7375
  1
125
 40
3.0
 50
90.0
 72
     5
 11
-5.25
 21
65.6125
  0
ENDBLK
  0
BLOCK
  2
*DIM_0033
 70
    65
 10
0.0
 20
0.0
  0
LINE
  8
寸法
  6
CONTINUOUS
 10
-4.86363
 20
26.042032
 11
-4.86363
 21
21.875365
  0
POINT
  8
寸法
 10
-4.86363
 20
26.042032
  0
POINT
  8
寸法
 10
-4.86363
 20
21.875365
  0
TEXT
  7
TextStyle03
  8
寸法
  6
CONTINUOUS
 10
-5.25
 20
16.4625
  1
125
 40
3.0
 50
90.0
 72
     5
 11
-5.25
 21
21.3375
  0
ENDBLK
  0
BLOCK
  2
*DIM_0034
 70
    65
 10
0.0
 20
0.0
  0
LINE
  8
寸法
  6
CONTINUOUS
 10
38.78823
 20
22.278698
 11
38.78823
 21
10.197198
  0
LINE
  8
寸法
  6
CONTINUOUS
 10
32.031545
 20
20.875365
 11
32.031545
 21
10.197198
  0
LINE
  8
寸法
  6
CONTINUOUS
 10
38.78823
 20
10.197198
 11
32.031545
 21
10.197198
  0
POINT
  8
寸法
 10
38.78823
 20
10.197198
  0
POINT
  8
寸法
 10
32.031545
 20
10.197198
  0
TEXT
  7
TextStyle03
  8
寸法
  6
CONTINUOUS
 10
31.275
 20
7.175
  1
202.7
 40
3.0
 72
     5
 11
39.525
 21
7.175
  0
ENDBLK
  0
BLOCK
  2
*DIM_0035
 70
    65
 10
0.0
 20
0.0
  0
LINE
  8
寸法
  6
CONTINUOUS
 10
12.629035
 20
40.04203
 11
12.629035
 21
10.197198
  0
LINE
  8
寸法
  6
CONTINUOUS
 10
32.031545
 20
10.197198
 11
12.629035
 21
10.197198
  0
POINT
  8
寸法
 10
12.629035
 20
10.197198
  0
TEXT
  7
TextStyle03
  8
寸法
  6
CONTINUOUS
 10
19.8875
 20
10.55
  1
582
 40
3.0
 72
     5
 11
24.7625
 21
10.55
  0
ENDBLK
  0
ENDSEC
  0
SECTION
  2
ENTITIES
  0
POLYLINE
  8
通り芯
  6
CONTINUOUS
 66
     1
 70
     1
  0
VERTEX
  8
通り芯
 10
-210.0
 20
-148.5
  0
VERTEX
  8
通り芯
 10
210.0
 20
-148.5
  0
VERTEX
  8
通り芯
 10
210.0
 20
148.5
  0
VERTEX
  8
通り芯
 10
-210.0
 20
148.5
  0
SEQEND
  0
INSERT
  2
*GRP_0011
  8
型材断面
  6
CONTINUOUS
 10
0.0
 20
0.0
  0
LINE
  8
型材断面
  6
CONTINUOUS
 10
-44.609493
 20
-1.517995
 11
-44.013435
 21
-4.1085
  0
LINE
  8
型材断面
  6
CONTINUOUS
 10
-44.609493
 20
-1.517995
 11
-45.20555
 21
-4.1085
  0
LINE
  8
型材断面
  6
CONTINUOUS
 10
-45.20555
 20
-4.1085
 11
-44.013435
 21
-4.1085
  0
LINE
  8
型材断面
  6
CONTINUOUS
 10
-47.966143
 20
-7.552445
 11
-9.89083
 21
-7.552445
  0
LINE
  8
型材断面
  6
CONTINUOUS
 10
-112.529357
 20
20.692783
 11
-111.9333
 21
18.102275
  0
LINE
  8
型材断面
  6
CONTINUOUS
 10
-112.529357
 20
20.692783
 11
-113.125415
 21
18.102275
  0
LINE
  8
型材断面
  6
CONTINUOUS
 10
-113.125415
 20
18.102275
 11
-111.9333
 21
18.102275
  0
LINE
  8
型材断面
  6
CONTINUOUS
 10
-59.929373
 20
20.692783
 11
-60.52543
 21
18.102275
  0
LINE
  8
型材断面
  6
CONTINUOUS
 10
-59.929373
 20
20.692783
 11
-59.333315
 21
18.102275
  0
LINE
  8
型材断面
  6
CONTINUOUS
 10
-59.333315
 20
18.102275
 11
-60.52543
 21
18.102275
  0
LINE
  8
型材断面
  6
CONTINUOUS
 10
-112.529357
 20
61.391282
 11
-111.9333
 21
63.98179
  0
LINE
  8
型材断面
  6
CONTINUOUS
 10
-112.529357
 20
61.391282
 11
-113.125415
 21
63.98179
  0
LINE
  8
型材断面
  6
CONTINUOUS
 10
-113.125415
 20
63.98179
 11
-111.9333
 21
63.98179
  0
LINE
  8
型材断面
  6
CONTINUOUS
 10
-59.929373
 20
61.391282
 11
-60.52543
 21
63.98179
  0
LINE
  8
型材断面
  6
CONTINUOUS
 10
-59.929373
 20
61.391282
 11
-59.333315
 21
63.98179
  0
LINE
  8
型材断面
  6
CONTINUOUS
 10
-59.333315
 20
63.98179
 11
-60.52543
 21
63.98179
  0
LINE
  8
型材断面
  6
DASHDOT
 10
-116.229365
 20
56.042032
 11
38.78823
 21
56.042032
  0
LINE
  8
型材断面
  6
DASHDOT
 10
-116.229365
 20
41.042032
 11
38.78823
 21
41.042032
  0
LINE
  8
型材断面
  6
DASHDOT
 10
-116.229365
 20
26.042032
 11
38.78823
 21
26.042032
  0
LINE
  8
型材断面
  6
CONTINUOUS
 10
-69.689755
 20
39.502425
 11
-69.689755
 21
40.439545
  0
LINE
  8
型材断面
  6
CONTINUOUS
 10
-69.689755
 20
39.502425
 11
-70.626875
 21
39.502425
  0
LINE
  8
型材断面
  6
CONTINUOUS
 10
-70.292242
 20
41.042032
 11
-69.689755
 21
40.439545
  0
LINE
  8
型材断面
  6
CONTINUOUS
 10
-69.689755
 20
39.502425
 11
-71.229363
 21
41.042032
  0
LINE
  8
型材断面
  6
CONTINUOUS
 10
-70.626875
 20
39.502425
 11
-70.971472
 21
39.847022
  0
LINE
  8
型材断面
  6
CONTINUOUS
 10
-70.971472
 20
39.847022
 11
-71.229363
 21
41.042032
  0
LINE
  8
型材断面
  6
CONTINUOUS
 10
-69.689755
 20
42.58164
 11
-69.689755
 21
41.64452
  0
LINE
  8
型材断面
  6
CONTINUOUS
 10
-69.689755
 20
42.58164
 11
-70.626875
 21
42.58164
  0
LINE
  8
型材断面
  6
CONTINUOUS
 10
-70.292242
 20
41.042032
 11
-69.689755
 21
41.64452
  0
LINE
  8
型材断面
  6
CONTINUOUS
 10
-69.689755
 20
42.58164
 11
-71.229363
 21
41.042032
  0
LINE
  8
型材断面
  6
CONTINUOUS
 10
-70.626875
 20
42.58164
 11
-70.971472
 21
42.237042
  0
LINE
  8
型材断面
  6
CONTINUOUS
 10
-70.971472
 20
42.237042
 11
-71.229363
 21
41.042032
  0
LINE
  8
型材断面
  6
CONTINUOUS
 10
-71.229363
 20
41.042032
 11
-52.0627
 21
21.87537
  0
LINE
  8
型材断面
  6
CONTINUOUS
 10
-52.0627
 20
60.208695
 11
-52.0627
 21
21.87537
  0
LINE
  8
型材断面
  6
CONTINUOUS
 10
-71.229363
 20
41.042032
 11
-52.0627
 21
60.208695
  0
LINE
  8
型材断面
  6
CONTINUOUS
 10
-102.768975
 20
39.502425
 11
-102.768975
 21
40.439545
  0
LINE
  8
型材断面
  6
CONTINUOUS
 10
-102.768975
 20
39.502425
 11
-101.831855
 21
39.502425
  0
LINE
  8
型材断面
  6
CONTINUOUS
 10
-102.166488
 20
41.042032
 11
-102.768975
 21
40.439545
  0
LINE
  8
型材断面
  6
CONTINUOUS
 10
-102.768975
 20
39.502425
 11
-101.229368
 21
41.042032
  0
LINE
  8
型材断面
  6
CONTINUOUS
 10
-101.831855
 20
39.502425
 11
-101.487258
 21
39.847022
  0
LINE
  8
型材断面
  6
CONTINUOUS
 10
-101.487258
 20
39.847022
 11
-101.229368
 21
41.042032
  0
LINE
  8
型材断面
  6
CONTINUOUS
 10
-102.768975
 20
42.58164
 11
-102.768975
 21
41.64452
  0
LINE
  8
型材断面
  6
CONTINUOUS
 10
-102.768975
 20
42.58164
 11
-101.831855
 21
42.58164
  0
LINE
  8
型材断面
  6
CONTINUOUS
 10
-102.166488
 20
41.042032
 11
-102.768975
 21
41.64452
  0
LINE
  8
型材断面
  6
CONTINUOUS
 10
-102.768975
 20
42.58164
 11
-101.229368
 21
41.042032
  0
LINE
  8
型材断面
  6
CONTINUOUS
 10
-101.831855
 20
42.58164
 11
-101.487258
 21
42.237042
  0
LINE
  8
型材断面
  6
CONTINUOUS
 10
-101.487258
 20
42.237042
 11
-101.229368
 21
41.042032
  0
LINE
  8
型材断面
  6
CONTINUOUS
 10
-120.39603
 20
60.208695
 11
-120.39603
 21
21.87537
  0
LINE
  8
型材断面
  6
CONTINUOUS
 10
-101.229368
 20
41.042032
 11
-120.39603
 21
21.87537
  0
LINE
  8
型材断面
  6
CONTINUOUS
 10
-101.229368
 20
41.042032
 11
-120.39603
 21
60.208695
  0
LINE
  8
型材断面
  6
CONTINUOUS
 10
-99.468437
 20
42.157632
 11
-72.990293
 21
42.157632
  0
LINE
  8
型材断面
  6
CONTINUOUS
 10
-99.468437
 20
39.926433
 11
-72.990293
 21
39.926433
  0
LINE
  8
型材断面
  6
CONTINUOUS
 10
-120.39603
 20
60.208695
 11
-52.0627
 21
60.208695
  0
LINE
  8
型材断面
  6
CONTINUOUS
 10
-52.0627
 20
21.87537
 11
-120.39603
 21
21.87537
  0
LINE
  8
型材断面
  6
DOT
 10
-116.229365
 20
50.651987
 11
-56.229365
 21
50.651987
  0
LINE
  8
型材断面
  6
DOT
 10
-116.229365
 20
51.98532
 11
-56.229365
 21
51.98532
  0
LINE
  8
型材断面
  6
DASHDOT
 10
-86.229365
 20
56.042032
 11
-86.229365
 21
-74.531977
  0
LINE
  8
型材断面
  6
DASHDOT
 10
-116.229365
 20
56.042032
 11
-116.229365
 21
-74.531977
  0
LINE
  8
型材断面
  6
DASHDOT
 10
-56.229365
 20
56.042032
 11
-56.229365
 21
-74.531977
  0
LINE
  8
型材断面
  6
CONTINUOUS
 10
-53.46603
 20
-74.531977
 11
-53.46603
 21
-70.628643
  0
LINE
  8
型材断面
  6
CONTINUOUS
 10
-53.46603
 20
-70.628643
 11
-53.641265
 21
-70.45341
  0
LINE
  8
型材断面
  6
CONTINUOUS
 10
-52.062698
 20
-67.775292
 11
-52.062698
 21
-69.986755
  0
LINE
  8
型材断面
  6
CONTINUOUS
 10
-52.89603
 20
-69.986743
 11
-52.89603
 21
-70.45341
  0
LINE
  8
型材断面
  6
CONTINUOUS
 10
-54.299363
 20
-74.531977
 11
-54.299363
 21
-74.868642
  0
LINE
  8
型材断面
  6
CONTINUOUS
 10
-52.027343
 20
-67.69278
 11
-69.831315
 21
-49.88881
  0
LINE
  8
型材断面
  6
CONTINUOUS
 10
-52.062698
 20
-67.728137
 11
-69.902027
 21
-49.88881
  0
LINE
  8
型材断面
  6
CONTINUOUS
 10
-118.9927
 20
-74.531977
 11
-118.9927
 21
-70.628643
  0
LINE
  8
型材断面
  6
CONTINUOUS
 10
-118.9927
 20
-70.628643
 11
-118.817465
 21
-70.45341
  0
LINE
  8
型材断面
  6
CONTINUOUS
 10
-120.396033
 20
-67.775292
 11
-120.396033
 21
-69.986755
  0
LINE
  8
型材断面
  6
CONTINUOUS
 10
-119.5627
 20
-69.986743
 11
-119.5627
 21
-70.45341
  0
LINE
  8
型材断面
  6
CONTINUOUS
 10
-118.159368
 20
-74.531977
 11
-118.159368
 21
-74.868642
  0
LINE
  8
型材断面
  6
CONTINUOUS
 10
-120.431387
 20
-67.69278
 11
-102.627415
 21
-49.88881
  0
LINE
  8
型材断面
  6
CONTINUOUS
 10
-120.396033
 20
-67.728137
 11
-102.556703
 21
-49.88881
  0
LINE
  8
型材断面
  6
CONTINUOUS
 10
-118.9927
 20
-70.628658
 11
-53.46603
 21
-70.628658
  0
LINE
  8
型材断面
  6
CONTINUOUS
 10
-118.9927
 20
-74.531977
 11
-53.46603
 21
-74.531977
  0
LINE
  8
型材断面
  6
CONTINUOUS
 10
-118.159368
 20
-74.868642
 11
-54.299363
 21
-74.868642
  0
LINE
  8
型材断面
  6
CONTINUOUS
 10
-120.396033
 20
-69.986755
 11
-52.062698
 21
-69.986755
  0
LINE
  8
型材断面
  6
CONTINUOUS
 10
-119.5627
 20
-70.45341
 11
-52.89603
 21
-70.45341
  0
LINE
  8
型材断面
  6
CONTINUOUS
 10
-120.396033
 20
-67.775292
 11
-52.062698
 21
-67.775292
  0
LINE
  8
型材断面
  6
CONTINUOUS
 10
-99.350535
 20
-48.372795
 11
-73.108195
 21
-48.372795
  0
LINE
  8
型材断面
  6
CONTINUOUS
 10
-101.376945
 20
-49.551807
 11
-71.081785
 21
-49.551807
  0
LINE
  8
型材断面
  6
CONTINUOUS
 10
40.676985
 20
-74.531977
 11
40.676985
 21
-70.628643
  0
LINE
  8
型材断面
  6
CONTINUOUS
 10
40.676985
 20
-70.628643
 11
40.50175
 21
-70.45341
  0
LINE
  8
型材断面
  6
CONTINUOUS
 10
42.080317
 20
-67.775292
 11
42.080317
 21
-69.986755
  0
LINE
  8
型材断面
  6
CONTINUOUS
 10
41.246985
 20
-69.986743
 11
41.246985
 21
-70.45341
  0
LINE
  8
型材断面
  6
CONTINUOUS
 10
39.843652
 20
-74.531977
 11
39.843652
 21
-74.868642
  0
LINE
  8
型材断面
  6
CONTINUOUS
 10
42.115673
 20
-67.69278
 11
24.3117
 21
-49.88881
  0
LINE
  8
型材断面
  6
CONTINUOUS
 10
42.080317
 20
-67.728137
 11
24.240987
 21
-49.88881
  0
LINE
  8
型材断面
  6
CONTINUOUS
 10
-24.849685
 20
-74.531977
 11
-24.849685
 21
-70.628643
  0
LINE
  8
型材断面
  6
CONTINUOUS
 10
-24.849685
 20
-70.628643
 11
-24.67445
 21
-70.45341
  0
LINE
  8
型材断面
  6
CONTINUOUS
 10
-26.253017
 20
-67.775292
 11
-26.253017
 21
-69.986755
  0
LINE
  8
型材断面
  6
CONTINUOUS
 10
-25.419685
 20
-69.986743
 11
-25.419685
 21
-70.45341
  0
LINE
  8
型材断面
  6
CONTINUOUS
 10
-24.016352
 20
-74.531977
 11
-24.016352
 21
-74.868642
  0
LINE
  8
型材断面
  6
CONTINUOUS
 10
-26.288372
 20
-67.69278
 11
-8.4844
 21
-49.88881
  0
LINE
  8
型材断面
  6
CONTINUOUS
 10
-26.253017
 20
-67.728137
 11
-8.413688
 21
-49.88881
  0
LINE
  8
型材断面
  6
CONTINUOUS
 10
-24.849685
 20
-70.628658
 11
40.676985
 21
-70.628658
  0
LINE
  8
型材断面
  6
CONTINUOUS
 10
-24.849685
 20
-74.531977
 11
40.676985
 21
-74.531977
  0
LINE
  8
型材断面
  6
CONTINUOUS
 10
-24.016352
 20
-74.868642
 11
39.843652
 21
-74.868642
  0
LINE
  8
型材断面
  6
CONTINUOUS
 10
-26.253017
 20
-69.986755
 11
42.080317
 21
-69.986755
  0
LINE
  8
型材断面
  6
CONTINUOUS
 10
-25.419685
 20
-70.45341
 11
41.246985
 21
-70.45341
  0
LINE
  8
型材断面
  6
CONTINUOUS
 10
-26.253017
 20
-67.775292
 11
42.080317
 21
-67.775292
  0
LINE
  8
型材断面
  6
CONTINUOUS
 10
-5.20752
 20
-48.372795
 11
21.03482
 21
-48.372795
  0
LINE
  8
型材断面
  6
CONTINUOUS
 10
-7.23393
 20
-49.551807
 11
23.06123
 21
-49.551807
  0
INSERT
  2
*GRP_0020
  8
型材断面
  6
CONTINUOUS
 10
0.0
 20
0.0
  0
LINE
  8
型材断面
  6
CONTINUOUS
 10
106.42315
 20
-67.728137
 11
106.458505
 21
-67.69278
  0
LINE
  8
型材断面
  6
CONTINUOUS
 10
105.01982
 20
-74.531977
 11
105.01982
 21
-70.628645
  0
LINE
  8
型材断面
  6
CONTINUOUS
 10
105.01982
 20
-70.628645
 11
104.844585
 21
-70.45341
  0
LINE
  8
型材断面
  6
CONTINUOUS
 10
106.42315
 20
-67.775292
 11
106.42315
 21
-69.986755
  0
LINE
  8
型材断面
  6
CONTINUOUS
 10
105.589818
 20
-69.986745
 11
105.589818
 21
-70.45341
  0
LINE
  8
型材断面
  6
CONTINUOUS
 10
104.186485
 20
-74.531977
 11
104.186485
 21
-74.868645
  0
LINE
  8
型材断面
  6
CONTINUOUS
 10
69.49315
 20
-74.531977
 11
69.49315
 21
-70.628645
  0
LINE
  8
型材断面
  6
CONTINUOUS
 10
69.49315
 20
-70.628645
 11
69.668385
 21
-70.45341
  0
LINE
  8
型材断面
  6
CONTINUOUS
 10
68.089818
 20
-67.775292
 11
68.089818
 21
-69.986755
  0
LINE
  8
型材断面
  6
CONTINUOUS
 10
68.92315
 20
-69.986745
 11
68.92315
 21
-70.45341
  0
LINE
  8
型材断面
  6
CONTINUOUS
 10
70.326483
 20
-74.531977
 11
70.326483
 21
-74.868645
  0
LINE
  8
型材断面
  6
CONTINUOUS
 10
106.42315
 20
-67.775292
 11
68.089818
 21
-67.775292
  0
LINE
  8
型材断面
  6
CONTINUOUS
 10
106.42315
 20
-69.986755
 11
68.089818
 21
-69.986755
  0
LINE
  8
型材断面
  6
CONTINUOUS
 10
105.589818
 20
-70.45341
 11
68.92315
 21
-70.45341
  0
LINE
  8
型材断面
  6
CONTINUOUS
 10
105.01982
 20
-70.628658
 11
69.49315
 21
-70.628658
  0
LINE
  8
型材断面
  6
CONTINUOUS
 10
105.01982
 20
-74.531977
 11
69.49315
 21
-74.531977
  0
LINE
  8
型材断面
  6
CONTINUOUS
 10
104.186485
 20
-74.868645
 11
70.326483
 21
-74.868645
  0
LINE
  8
型材断面
  6
CONTINUOUS
 10
68.089818
 20
-67.728137
 11
87.256485
 21
-48.561473
  0
LINE
  8
型材断面
  6
CONTINUOUS
 10
106.42315
 20
-67.728137
 11
87.256485
 21
-48.561473
  0
LINE
  8
型材断面
  6
CONTINUOUS
 10
106.458505
 20
-67.69278
 11
87.256485
 21
-48.490762
  0
LINE
  8
型材断面
  6
CONTINUOUS
 10
68.054463
 20
-67.69278
 11
87.256485
 21
-48.490762
  0
LINE
  8
型材断面
  6
CONTINUOUS
 10
87.256482
 20
-49.197592
 11
87.256482
 21
-48.254782
  0
LINE
  8
型材断面
  6
CONTINUOUS
 10
87.256482
 20
-49.197592
 11
87.256482
 21
-48.254782
  0
LINE
  8
型材断面
  6
CONTINUOUS
 10
85.756482
 20
-49.754782
 11
85.803622
 21
-49.801923
  0
LINE
  8
型材断面
  6
CONTINUOUS
 10
85.803622
 20
-49.801923
 11
86.65215
 21
-49.801923
  0
LINE
  8
型材断面
  6
CONTINUOUS
 10
87.256482
 20
-48.254782
 11
85.756482
 21
-49.754782
  0
LINE
  8
型材断面
  6
CONTINUOUS
 10
87.256482
 20
-49.19759
 11
86.65215
 21
-49.801923
  0
LINE
  8
型材断面
  6
CONTINUOUS
 10
88.756872
 20
-49.754782
 11
88.709733
 21
-49.801923
  0
LINE
  8
型材断面
  6
CONTINUOUS
 10
88.709733
 20
-49.801923
 11
87.861205
 21
-49.801923
  0
LINE
  8
型材断面
  6
CONTINUOUS
 10
87.256482
 20
-49.19759
 11
87.860813
 21
-49.801923
  0
LINE
  8
型材断面
  6
CONTINUOUS
 10
87.256482
 20
-48.254782
 11
88.756677
 21
-49.754978
  0
LINE
  8
型材断面
  6
CONTINUOUS
 10
88.357213
 20
-49.47351
 11
88.298222
 21
-49.5325
  0
LINE
  8
型材断面
  6
CONTINUOUS
 10
88.357213
 20
-49.47351
 11
87.256482
 21
-48.372782
  0
LINE
  8
型材断面
  6
CONTINUOUS
 10
86.155753
 20
-49.47351
 11
86.214742
 21
-49.5325
  0
LINE
  8
型材断面
  6
CONTINUOUS
 10
86.155753
 20
-49.47351
 11
87.256482
 21
-48.372782
  0
INSERT
  2
*GRP_0023
  8
型材断面
  6
CONTINUOUS
 10
0.0
 20
0.0
  0
INSERT
  2
*GRP_0024
  8
型材断面
  6
DOT
 10
0.0
 20
0.0
  0
INSERT
  2
*GRP_0025
  8
型材断面
  6
DOT
 10
0.0
 20
0.0
  0
LINE
  8
型材断面
  6
CONTINUOUS
 10
87.25994
 20
23.963767
 11
103.214355
 21
23.963767
  0
LINE
  8
型材断面
  6
CONTINUOUS
 10
74.905582
 20
72.397257
 11
90.859997
 21
72.397257
  0
LINE
  8
型材断面
  6
CONTINUOUS
 10
31.98439
 20
60.208698
 11
31.949033
 21
60.244052
  0
LINE
  8
型材断面
  6
CONTINUOUS
 10
38.78823
 20
58.805367
 11
34.884898
 21
58.805367
  0
LINE
  8
型材断面
  6
CONTINUOUS
 10
34.884898
 20
58.805367
 11
34.709663
 21
58.630133
  0
LINE
  8
型材断面
  6
CONTINUOUS
 10
32.031545
 20
60.208698
 11
34.243008
 21
60.208698
  0
LINE
  8
型材断面
  6
CONTINUOUS
 10
34.242997
 20
59.375365
 11
34.709663
 21
59.375365
  0
LINE
  8
型材断面
  6
CONTINUOUS
 10
38.78823
 20
57.972033
 11
39.124898
 21
57.972033
  0
LINE
  8
型材断面
  6
CONTINUOUS
 10
38.78823
 20
23.278698
 11
34.884898
 21
23.278698
  0
LINE
  8
型材断面
  6
CONTINUOUS
 10
34.884898
 20
23.278698
 11
34.709663
 21
23.453932
  0
LINE
  8
型材断面
  6
CONTINUOUS
 10
32.031545
 20
21.875365
 11
34.243008
 21
21.875365
  0
LINE
  8
型材断面
  6
CONTINUOUS
 10
34.242997
 20
22.708698
 11
34.709663
 21
22.708698
  0
LINE
  8
型材断面
  6
CONTINUOUS
 10
38.78823
 20
24.11203
 11
39.124898
 21
24.11203
  0
LINE
  8
型材断面
  6
CONTINUOUS
 10
32.031545
 20
60.208698
 11
32.031545
 21
21.875365
  0
LINE
  8
型材断面
  6
CONTINUOUS
 10
34.243008
 20
60.208698
 11
34.243008
 21
21.875365
  0
LINE
  8
型材断面
  6
CONTINUOUS
 10
34.709663
 20
59.375365
 11
34.709663
 21
22.708698
  0
LINE
  8
型材断面
  6
CONTINUOUS
 10
34.88491
 20
58.805367
 11
34.88491
 21
23.278698
  0
LINE
  8
型材断面
  6
CONTINUOUS
 10
38.78823
 20
58.805367
 11
38.78823
 21
23.278698
  0
LINE
  8
型材断面
  6
CONTINUOUS
 10
39.124898
 20
57.972033
 11
39.124898
 21
24.11203
  0
LINE
  8
型材断面
  6
CONTINUOUS
 10
31.98439
 20
21.875365
 11
12.817725
 21
41.042032
  0
LINE
  8
型材断面
  6
CONTINUOUS
 10
31.98439
 20
60.208698
 11
12.817725
 21
41.042032
  0
LINE
  8
型材断面
  6
CONTINUOUS
 10
31.949033
 20
60.244052
 11
12.747015
 21
41.042032
  0
LINE
  8
型材断面
  6
CONTINUOUS
 10
31.949033
 20
21.84001
 11
12.747015
 21
41.042032
  0
LINE
  8
型材断面
  6
CONTINUOUS
 10
13.453845
 20
41.04203
 11
12.511035
 21
41.04203
  0
LINE
  8
型材断面
  6
CONTINUOUS
 10
13.453845
 20
41.04203
 11
12.511035
 21
41.04203
  0
LINE
  8
型材断面
  6
CONTINUOUS
 10
14.011035
 20
39.54203
 11
14.058175
 21
39.58917
  0
LINE
  8
型材断面
  6
CONTINUOUS
 10
14.058175
 20
39.58917
 11
14.058175
 21
40.437697
  0
LINE
  8
型材断面
  6
CONTINUOUS
 10
12.511035
 20
41.04203
 11
14.011035
 21
39.54203
  0
LINE
  8
型材断面
  6
CONTINUOUS
 10
13.453843
 20
41.04203
 11
14.058175
 21
40.437697
  0
LINE
  8
型材断面
  6
CONTINUOUS
 10
14.011035
 20
42.54242
 11
14.058175
 21
42.49528
  0
LINE
  8
型材断面
  6
CONTINUOUS
 10
14.058175
 20
42.49528
 11
14.058175
 21
41.646753
  0
LINE
  8
型材断面
  6
CONTINUOUS
 10
13.453843
 20
41.04203
 11
14.058175
 21
41.64636
  0
LINE
  8
型材断面
  6
CONTINUOUS
 10
12.511035
 20
41.04203
 11
14.01123
 21
42.542225
  0
LINE
  8
型材断面
  6
CONTINUOUS
 10
13.729762
 20
42.14276
 11
13.788753
 21
42.08377
  0
LINE
  8
型材断面
  6
CONTINUOUS
 10
13.729762
 20
42.14276
 11
12.629035
 21
41.04203
  0
LINE
  8
型材断面
  6
CONTINUOUS
 10
13.729762
 20
39.9413
 11
13.788753
 21
40.00029
  0
LINE
  8
型材断面
  6
CONTINUOUS
 10
13.729762
 20
39.9413
 11
12.629035
 21
41.04203
  0
LINE
  8
ガラス
  6
CONTINUOUS
 10
128.456152
 20
5.032805
 11
112.681797
 21
27.341108
  0
LINE
  8
ガラス
  6
CONTINUOUS
 10
112.681797
 20
27.341108
 11
96.907443
 21
5.032805
  0
LINE
  8
ガラス
  6
CONTINUOUS
 10
128.456152
 20
5.032805
 11
96.907443
 21
5.032805
  0
LINE
  8
ガラス
  6
CONTINUOUS
 10
143.87771
 20
51.572868
 11
127.468822
 21
74.778535
  0
LINE
  8
ガラス
  6
CONTINUOUS
 10
82.328995
 20
51.572868
 11
98.737882
 21
74.778535
  0
LINE
  8
ガラス
  6
CONTINUOUS
 10
98.737882
 20
74.778535
 11
127.468822
 21
74.778535
  0
LINE
  8
ガラス
  6
CONTINUOUS
 10
82.328995
 20
51.572868
 11
143.87771
 21
51.572868
  0
LINE
  8
ガラス
  6
CONTINUOUS
 10
-84.293048
 20
50.925995
 11
-88.16568
 21
47.05336
  0
LINE
  8
ガラス
  6
CONTINUOUS
 10
-85.173368
 20
49.327637
 11
-86.567325
 21
47.933683
  0
LINE
  8
ガラス
  6
CONTINUOUS
 10
-85.891402
 20
50.04567
 11
-87.28536
 21
48.651718
  0
LINE
  8
ガラス
  6
CONTINUOUS
 10
-84.293048
 20
34.45696
 11
-88.16568
 21
30.584325
  0
LINE
  8
ガラス
  6
CONTINUOUS
 10
-85.173368
 20
32.858603
 11
-86.567325
 21
31.464647
  0
LINE
  8
ガラス
  6
CONTINUOUS
 10
-85.891402
 20
33.576635
 11
-87.28536
 21
32.182683
  0
LINE
  8
ガラス
  6
CONTINUOUS
 10
-58.529202
 20
42.97835
 11
-62.401835
 21
39.105715
  0
LINE
  8
ガラス
  6
CONTINUOUS
 10
-59.409523
 20
41.379992
 11
-60.80348
 21
39.986038
  0
LINE
  8
ガラス
  6
CONTINUOUS
 10
-60.127557
 20
42.098025
 11
-61.521515
 21
40.704073
  0
LINE
  8
ガラス
  6
CONTINUOUS
 10
-109.79888
 20
42.97835
 11
-113.671512
 21
39.105715
  0
LINE
  8
ガラス
  6
CONTINUOUS
 10
-110.6792
 20
41.379992
 11
-112.073157
 21
39.986038
  0
LINE
  8
ガラス
  6
CONTINUOUS
 10
-111.397235
 20
42.098025
 11
-112.791193
 21
40.704073
  0
LINE
  8
ガラス
  6
CONTINUOUS
 10
-84.293048
 20
-56.52273
 11
-88.16568
 21
-60.395365
  0
LINE
  8
ガラス
  6
CONTINUOUS
 10
-85.173368
 20
-58.121087
 11
-86.567325
 21
-59.515042
  0
LINE
  8
ガラス
  6
CONTINUOUS
 10
-85.891402
 20
-57.403055
 11
-87.28536
 21
-58.797008
  0
LINE
  8
ガラス
  6
CONTINUOUS
 10
27.884167
 20
42.97835
 11
24.011535
 21
39.105715
  0
LINE
  8
ガラス
  6
CONTINUOUS
 10
27.003847
 20
41.379992
 11
25.60989
 21
39.986038
  0
LINE
  8
ガラス
  6
CONTINUOUS
 10
26.285813
 20
42.098025
 11
24.891855
 21
40.704073
  0
LINE
  8
ゴム等
  6
CONTINUOUS
 10
-71.700918
 20
42.696662
 11
-72.144662
 21
43.094633
  0
LINE
  8
ゴム等
  6
CONTINUOUS
 10
-71.700918
 20
39.387402
 11
-72.144662
 21
38.989432
  0
LINE
  8
ゴム等
  6
CONTINUOUS
 10
-70.971472
 20
39.847022
 11
-72.990293
 21
39.847022
  0
LINE
  8
ゴム等
  6
CONTINUOUS
 10
-72.990293
 20
39.847022
 11
-72.990293
 21
41.042032
  0
LINE
  8
ゴム等
  6
CONTINUOUS
 10
-70.971472
 20
42.237042
 11
-72.990293
 21
42.237042
  0
LINE
  8
ゴム等
  6
CONTINUOUS
 10
-72.990293
 20
42.237042
 11
-72.990293
 21
41.042032
  0
LINE
  8
ゴム等
  6
CONTINUOUS
 10
-71.700918
 20
42.696662
 11
-71.178503
 21
42.157632
  0
LINE
  8
ゴム等
  6
CONTINUOUS
 10
-71.700918
 20
39.387402
 11
-71.178503
 21
39.926433
  0
LINE
  8
ゴム等
  6
CONTINUOUS
 10
-72.144662
 20
43.094633
 11
-56.607187
 21
58.632107
  0
LINE
  8
ゴム等
  6
CONTINUOUS
 10
-71.700918
 20
42.696662
 11
-54.926755
 21
59.470828
  0
LINE
  8
ゴム等
  6
CONTINUOUS
 10
-71.178503
 20
42.157632
 11
-53.252483
 21
60.083653
  0
LINE
  8
ゴム等
  6
CONTINUOUS
 10
-68.261463
 20
41.042032
 11
-53.639287
 21
55.664207
  0
LINE
  8
ゴム等
  6
CONTINUOUS
 10
-69.103178
 20
41.042032
 11
-52.80057
 21
57.344643
  0
LINE
  8
ゴム等
  6
CONTINUOUS
 10
-70.164623
 20
41.042032
 11
-52.187742
 21
59.018913
  0
LINE
  8
ゴム等
  6
CONTINUOUS
 10
-68.261463
 20
41.042032
 11
-53.639287
 21
26.419858
  0
LINE
  8
ゴム等
  6
CONTINUOUS
 10
-53.639287
 20
55.664207
 11
-53.639287
 21
26.419858
  0
LINE
  8
ゴム等
  6
CONTINUOUS
 10
-52.80057
 20
57.344643
 11
-52.80057
 21
24.739423
  0
LINE
  8
ゴム等
  6
CONTINUOUS
 10
-69.103178
 20
41.042032
 11
-52.80057
 21
24.739423
  0
LINE
  8
ゴム等
  6
CONTINUOUS
 10
-70.164623
 20
41.042032
 11
-52.187742
 21
23.065152
  0
LINE
  8
ゴム等
  6
CONTINUOUS
 10
-52.187742
 20
59.018913
 11
-52.187742
 21
23.065152
  0
LINE
  8
ゴム等
  6
CONTINUOUS
 10
-72.144662
 20
38.989432
 11
-56.607187
 21
23.451958
  0
LINE
  8
ゴム等
  6
CONTINUOUS
 10
-71.700918
 20
39.387402
 11
-54.926755
 21
22.613237
  0
LINE
  8
ゴム等
  6
CONTINUOUS
 10
-71.178503
 20
39.926433
 11
-53.252483
 21
22.000412
  0
LINE
  8
ゴム等
  6
CONTINUOUS
 10
-52.187742
 20
59.018913
 11
-52.80057
 21
57.344643
  0
LINE
  8
ゴム等
  6
CONTINUOUS
 10
-52.80057
 20
57.344643
 11
-53.639287
 21
55.664207
  0
LINE
  8
ゴム等
  6
CONTINUOUS
 10
-53.252483
 20
60.083653
 11
-54.926755
 21
59.470828
  0
LINE
  8
ゴム等
  6
CONTINUOUS
 10
-54.926755
 20
59.470828
 11
-56.607187
 21
58.632107
  0
LINE
  8
ゴム等
  6
CONTINUOUS
 10
-52.187742
 20
23.065152
 11
-52.80057
 21
24.739423
  0
LINE
  8
ゴム等
  6
CONTINUOUS
 10
-52.80057
 20
24.739423
 11
-53.639287
 21
26.419858
  0
LINE
  8
ゴム等
  6
CONTINUOUS
 10
-53.252483
 20
22.000412
 11
-54.926755
 21
22.613237
  0
LINE
  8
ゴム等
  6
CONTINUOUS
 10
-54.926755
 20
22.613237
 11
-56.607187
 21
23.451958
  0
LINE
  8
ゴム等
  6
CONTINUOUS
 10
-101.280228
 20
42.157632
 11
-100.757813
 21
42.696662
  0
LINE
  8
ゴム等
  6
CONTINUOUS
 10
-100.757813
 20
42.696662
 11
-100.314067
 21
43.094633
  0
LINE
  8
ゴム等
  6
CONTINUOUS
 10
-101.280228
 20
39.926433
 11
-100.757813
 21
39.387402
  0
LINE
  8
ゴム等
  6
CONTINUOUS
 10
-100.757813
 20
39.387402
 11
-100.314067
 21
38.989432
  0
LINE
  8
ゴム等
  6
CONTINUOUS
 10
-101.487258
 20
39.847022
 11
-99.468437
 21
39.847022
  0
LINE
  8
ゴム等
  6
CONTINUOUS
 10
-99.468437
 20
39.847022
 11
-99.468437
 21
41.042032
  0
LINE
  8
ゴム等
  6
CONTINUOUS
 10
-101.487258
 20
42.237042
 11
-99.468437
 21
42.237042
  0
LINE
  8
ゴム等
  6
CONTINUOUS
 10
-99.468437
 20
42.237042
 11
-99.468437
 21
41.042032
  0
LINE
  8
ゴム等
  6
CONTINUOUS
 10
-100.314067
 20
38.989432
 11
-115.851542
 21
23.451958
  0
LINE
  8
ゴム等
  6
CONTINUOUS
 10
-100.757813
 20
39.387402
 11
-117.531975
 21
22.613237
  0
LINE
  8
ゴム等
  6
CONTINUOUS
 10
-101.280228
 20
39.926433
 11
-119.206247
 21
22.000412
  0
LINE
  8
ゴム等
  6
CONTINUOUS
 10
-104.197268
 20
41.042032
 11
-118.819442
 21
26.419858
  0
LINE
  8
ゴム等
  6
CONTINUOUS
 10
-103.355552
 20
41.042032
 11
-119.65816
 21
24.739423
  0
LINE
  8
ゴム等
  6
CONTINUOUS
 10
-102.294107
 20
41.042032
 11
-120.270987
 21
23.065152
  0
LINE
  8
ゴム等
  6
CONTINUOUS
 10
-118.819442
 20
26.419858
 11
-118.819442
 21
55.664207
  0
LINE
  8
ゴム等
  6
CONTINUOUS
 10
-104.197268
 20
41.042032
 11
-118.819442
 21
55.664207
  0
LINE
  8
ゴム等
  6
CONTINUOUS
 10
-103.355552
 20
41.042032
 11
-119.65816
 21
57.344643
  0
LINE
  8
ゴム等
  6
CONTINUOUS
 10
-119.65816
 20
24.739423
 11
-119.65816
 21
57.344643
  0
LINE
  8
ゴム等
  6
CONTINUOUS
 10
-120.270987
 20
23.065152
 11
-120.270987
 21
59.018913
  0
LINE
  8
ゴム等
  6
CONTINUOUS
 10
-102.294107
 20
41.042032
 11
-120.270987
 21
59.018913
  0
LINE
  8
ゴム等
  6
CONTINUOUS
 10
-100.314067
 20
43.094633
 11
-115.851542
 21
58.632107
  0
LINE
  8
ゴム等
  6
CONTINUOUS
 10
-100.757813
 20
42.696662
 11
-117.531975
 21
59.470828
  0
LINE
  8
ゴム等
  6
CONTINUOUS
 10
-101.280228
 20
42.157632
 11
-119.206247
 21
60.083653
  0
LINE
  8
ゴム等
  6
CONTINUOUS
 10
-120.270987
 20
23.065152
 11
-119.65816
 21
24.739423
  0
LINE
  8
ゴム等
  6
CONTINUOUS
 10
-119.65816
 20
24.739423
 11
-118.819442
 21
26.419858
  0
LINE
  8
ゴム等
  6
CONTINUOUS
 10
-119.206247
 20
22.000412
 11
-117.531975
 21
22.613237
  0
LINE
  8
ゴム等
  6
CONTINUOUS
 10
-117.531975
 20
22.613237
 11
-115.851542
 21
23.451958
  0
LINE
  8
ゴム等
  6
CONTINUOUS
 10
-120.270987
 20
59.018913
 11
-119.65816
 21
57.344643
  0
LINE
  8
ゴム等
  6
CONTINUOUS
 10
-119.65816
 20
57.344643
 11
-118.819442
 21
55.664207
  0
LINE
  8
ゴム等
  6
CONTINUOUS
 10
-119.206247
 20
60.083653
 11
-117.531975
 21
59.470828
  0
LINE
  8
ゴム等
  6
CONTINUOUS
 10
-117.531975
 20
59.470828
 11
-115.851542
 21
58.632107
  0
LINE
  8
ゴム等
  6
CONTINUOUS
 10
-100.757813
 20
39.387402
 11
-71.700918
 21
39.387402
  0
LINE
  8
ゴム等
  6
CONTINUOUS
 10
-100.757813
 20
42.696662
 11
-71.700918
 21
42.696662
  0
LINE
  8
ゴム等
  6
CONTINUOUS
 10
-117.531975
 20
59.470828
 11
-54.926755
 21
59.470828
  0
LINE
  8
ゴム等
  6
CONTINUOUS
 10
-119.206247
 20
60.083653
 11
-53.252483
 21
60.083653
  0
LINE
  8
ゴム等
  6
CONTINUOUS
 10
-117.531975
 20
22.613237
 11
-54.926755
 21
22.613237
  0
LINE
  8
ゴム等
  6
CONTINUOUS
 10
-119.206247
 20
22.000412
 11
-53.252483
 21
22.000412
  0
LINE
  8
ゴム等
  6
CONTINUOUS
 10
-115.851542
 20
23.451958
 11
-56.607187
 21
23.451958
  0
LINE
  8
ゴム等
  6
CONTINUOUS
 10
-100.314067
 20
38.989432
 11
-72.144662
 21
38.989432
  0
LINE
  8
ゴム等
  6
CONTINUOUS
 10
-115.851542
 20
58.632107
 11
-56.607187
 21
58.632107
  0
LINE
  8
ゴム等
  6
CONTINUOUS
 10
-100.314067
 20
43.094633
 11
-72.144662
 21
43.094633
  0
LINE
  8
ゴム等
  6
CONTINUOUS
 10
-53.252492
 20
-67.626548
 11
-54.926763
 21
-67.013723
  0
LINE
  8
ゴム等
  6
CONTINUOUS
 10
-54.926763
 20
-67.013723
 11
-56.605515
 21
-66.618828
  0
LINE
  8
ゴム等
  6
CONTINUOUS
 10
-56.605515
 20
-66.618828
 11
-72.146245
 21
-51.078097
  0
LINE
  8
ゴム等
  6
CONTINUOUS
 10
-54.926763
 20
-67.013723
 11
-71.70094
 21
-50.239548
  0
LINE
  8
ゴム等
  6
CONTINUOUS
 10
-71.441528
 20
-48.254945
 11
-73.108195
 21
-48.254945
  0
LINE
  8
ゴム等
  6
CONTINUOUS
 10
-73.108195
 20
-48.254945
 11
-73.108195
 21
-49.497095
  0
LINE
  8
ゴム等
  6
CONTINUOUS
 10
-71.183637
 20
-49.449955
 11
-73.108195
 21
-49.449955
  0
LINE
  8
ゴム等
  6
CONTINUOUS
 10
-73.108195
 20
-49.497095
 11
-71.136498
 21
-49.497095
  0
LINE
  8
ゴム等
  6
CONTINUOUS
 10
-69.80766
 20
-49.88881
 11
-70.74478
 21
-49.88881
  0
LINE
  8
ゴム等
  6
CONTINUOUS
 10
-69.80766
 20
-49.88881
 11
-71.441528
 21
-48.254945
  0
LINE
  8
ゴム等
  6
CONTINUOUS
 10
-70.74478
 20
-49.88881
 11
-71.183637
 21
-49.449955
  0
LINE
  8
ゴム等
  6
CONTINUOUS
 10
-71.327235
 20
-49.551807
 11
-71.70094
 21
-50.239548
  0
LINE
  8
ゴム等
  6
CONTINUOUS
 10
-71.70094
 20
-50.239548
 11
-72.146245
 21
-51.078097
  0
LINE
  8
ゴム等
  6
CONTINUOUS
 10
-53.252492
 20
-67.626548
 11
-71.327235
 21
-49.551807
  0
LINE
  8
ゴム等
  6
CONTINUOUS
 10
-119.206238
 20
-67.626548
 11
-117.531967
 21
-67.013723
  0
LINE
  8
ゴム等
  6
CONTINUOUS
 10
-117.531967
 20
-67.013723
 11
-115.853215
 21
-66.618828
  0
LINE
  8
ゴム等
  6
CONTINUOUS
 10
-101.017202
 20
-48.254945
 11
-99.350535
 21
-48.254945
  0
LINE
  8
ゴム等
  6
CONTINUOUS
 10
-99.350535
 20
-48.254945
 11
-99.350535
 21
-49.497095
  0
LINE
  8
ゴム等
  6
CONTINUOUS
 10
-101.275093
 20
-49.449955
 11
-99.350535
 21
-49.449955
  0
LINE
  8
ゴム等
  6
CONTINUOUS
 10
-99.350535
 20
-49.497095
 11
-101.322232
 21
-49.497095
  0
LINE
  8
ゴム等
  6
CONTINUOUS
 10
-102.65107
 20
-49.88881
 11
-101.71395
 21
-49.88881
  0
LINE
  8
ゴム等
  6
CONTINUOUS
 10
-102.65107
 20
-49.88881
 11
-101.017202
 21
-48.254945
  0
LINE
  8
ゴム等
  6
CONTINUOUS
 10
-101.71395
 20
-49.88881
 11
-101.275093
 21
-49.449955
  0
LINE
  8
ゴム等
  6
CONTINUOUS
 10
-101.131495
 20
-49.551807
 11
-100.75779
 21
-50.239548
  0
LINE
  8
ゴム等
  6
CONTINUOUS
 10
-100.75779
 20
-50.239548
 11
-100.312485
 21
-51.078097
  0
LINE
  8
ゴム等
  6
CONTINUOUS
 10
-115.853215
 20
-66.618828
 11
-100.312485
 21
-51.078097
  0
LINE
  8
ゴム等
  6
CONTINUOUS
 10
-117.531967
 20
-67.013723
 11
-100.75779
 21
-50.239548
  0
LINE
  8
ゴム等
  6
CONTINUOUS
 10
-119.206238
 20
-67.626548
 11
-101.125953
 21
-49.546265
  0
LINE
  8
ゴム等
  6
CONTINUOUS
 10
-117.531967
 20
-67.013723
 11
-54.926763
 21
-67.013723
  0
LINE
  8
ゴム等
  6
CONTINUOUS
 10
-119.206238
 20
-67.626548
 11
-53.252492
 21
-67.626548
  0
LINE
  8
ゴム等
  6
CONTINUOUS
 10
-100.75779
 20
-50.239548
 11
-71.70094
 21
-50.239548
  0
LINE
  8
ゴム等
  6
CONTINUOUS
 10
-100.312485
 20
-51.078097
 11
-72.146245
 21
-51.078097
  0
LINE
  8
ゴム等
  6
CONTINUOUS
 10
-115.853215
 20
-66.618828
 11
-56.605515
 21
-66.618828
  0
LINE
  8
ゴム等
  6
CONTINUOUS
 10
40.890523
 20
-67.626548
 11
39.216252
 21
-67.013723
  0
LINE
  8
ゴム等
  6
CONTINUOUS
 10
39.216252
 20
-67.013723
 11
37.5375
 21
-66.618828
  0
LINE
  8
ゴム等
  6
CONTINUOUS
 10
37.5375
 20
-66.618828
 11
21.99677
 21
-51.078097
  0
LINE
  8
ゴム等
  6
CONTINUOUS
 10
39.216252
 20
-67.013723
 11
22.442075
 21
-50.239548
  0
LINE
  8
ゴム等
  6
CONTINUOUS
 10
22.701488
 20
-48.254945
 11
21.03482
 21
-48.254945
  0
LINE
  8
ゴム等
  6
CONTINUOUS
 10
21.03482
 20
-48.254945
 11
21.03482
 21
-49.497095
  0
LINE
  8
ゴム等
  6
CONTINUOUS
 10
22.959377
 20
-49.449955
 11
21.03482
 21
-49.449955
  0
LINE
  8
ゴム等
  6
CONTINUOUS
 10
21.03482
 20
-49.497095
 11
23.006517
 21
-49.497095
  0
LINE
  8
ゴム等
  6
CONTINUOUS
 10
24.335355
 20
-49.88881
 11
23.398235
 21
-49.88881
  0
LINE
  8
ゴム等
  6
CONTINUOUS
 10
24.335355
 20
-49.88881
 11
22.701488
 21
-48.254945
  0
LINE
  8
ゴム等
  6
CONTINUOUS
 10
23.398235
 20
-49.88881
 11
22.959377
 21
-49.449955
  0
LINE
  8
ゴム等
  6
CONTINUOUS
 10
22.81578
 20
-49.551807
 11
22.442075
 21
-50.239548
  0
LINE
  8
ゴム等
  6
CONTINUOUS
 10
22.442075
 20
-50.239548
 11
21.99677
 21
-51.078097
  0
LINE
  8
ゴム等
  6
CONTINUOUS
 10
40.890523
 20
-67.626548
 11
22.81578
 21
-49.551807
  0
LINE
  8
ゴム等
  6
CONTINUOUS
 10
-25.063223
 20
-67.626548
 11
-23.388952
 21
-67.013723
  0
LINE
  8
ゴム等
  6
CONTINUOUS
 10
-23.388952
 20
-67.013723
 11
-21.7102
 21
-66.618828
  0
LINE
  8
ゴム等
  6
CONTINUOUS
 10
-6.874187
 20
-48.254945
 11
-5.20752
 21
-48.254945
  0
LINE
  8
ゴム等
  6
CONTINUOUS
 10
-5.20752
 20
-48.254945
 11
-5.20752
 21
-49.497095
  0
LINE
  8
ゴム等
  6
CONTINUOUS
 10
-7.132078
 20
-49.449955
 11
-5.20752
 21
-49.449955
  0
LINE
  8
ゴム等
  6
CONTINUOUS
 10
-5.20752
 20
-49.497095
 11
-7.179217
 21
-49.497095
  0
LINE
  8
ゴム等
  6
CONTINUOUS
 10
-8.508055
 20
-49.88881
 11
-7.570935
 21
-49.88881
  0
LINE
  8
ゴム等
  6
CONTINUOUS
 10
-8.508055
 20
-49.88881
 11
-6.874187
 21
-48.254945
  0
LINE
  8
ゴム等
  6
CONTINUOUS
 10
-7.570935
 20
-49.88881
 11
-7.132078
 21
-49.449955
  0
LINE
  8
ゴム等
  6
CONTINUOUS
 10
-6.98848
 20
-49.551807
 11
-6.614775
 21
-50.239548
  0
LINE
  8
ゴム等
  6
CONTINUOUS
 10
-6.614775
 20
-50.239548
 11
-6.16947
 21
-51.078097
  0
LINE
  8
ゴム等
  6
CONTINUOUS
 10
-21.7102
 20
-66.618828
 11
-6.16947
 21
-51.078097
  0
LINE
  8
ゴム等
  6
CONTINUOUS
 10
-23.388952
 20
-67.013723
 11
-6.614775
 21
-50.239548
  0
LINE
  8
ゴム等
  6
CONTINUOUS
 10
-25.063223
 20
-67.626548
 11
-6.982938
 21
-49.546265
  0
LINE
  8
ゴム等
  6
CONTINUOUS
 10
-23.388952
 20
-67.013723
 11
39.216252
 21
-67.013723
  0
LINE
  8
ゴム等
  6
CONTINUOUS
 10
-25.063223
 20
-67.626548
 11
40.890523
 21
-67.626548
  0
LINE
  8
ゴム等
  6
CONTINUOUS
 10
-6.614775
 20
-50.239548
 11
22.442075
 21
-50.239548
  0
LINE
  8
ゴム等
  6
CONTINUOUS
 10
-6.16947
 20
-51.078097
 11
21.99677
 21
-51.078097
  0
LINE
  8
ゴム等
  6
CONTINUOUS
 10
-21.7102
 20
-66.618828
 11
37.5375
 21
-66.618828
  0
LINE
  8
ゴム等
  6
CONTINUOUS
 10
101.880335
 20
-66.618828
 11
103.559085
 21
-67.013723
  0
LINE
  8
ゴム等
  6
CONTINUOUS
 10
103.559085
 20
-67.013723
 11
105.233355
 21
-67.62655
  0
LINE
  8
ゴム等
  6
CONTINUOUS
 10
69.279613
 20
-67.62655
 11
70.953882
 21
-67.013723
  0
LINE
  8
ゴム等
  6
CONTINUOUS
 10
70.953882
 20
-67.013723
 11
72.632635
 21
-66.618828
  0
LINE
  8
ゴム等
  6
CONTINUOUS
 10
101.880335
 20
-66.618828
 11
72.632635
 21
-66.618828
  0
LINE
  8
ゴム等
  6
CONTINUOUS
 10
103.559085
 20
-67.013723
 11
70.953882
 21
-67.013723
  0
LINE
  8
ゴム等
  6
CONTINUOUS
 10
105.233355
 20
-67.62655
 11
69.279613
 21
-67.62655
  0
LINE
  8
ゴム等
  6
CONTINUOUS
 10
72.632635
 20
-66.618828
 11
87.256485
 21
-51.99498
  0
LINE
  8
ゴム等
  6
CONTINUOUS
 10
101.880335
 20
-66.618828
 11
87.256485
 21
-51.99498
  0
LINE
  8
ゴム等
  6
CONTINUOUS
 10
103.559085
 20
-67.013723
 11
87.256485
 21
-50.711122
  0
LINE
  8
ゴム等
  6
CONTINUOUS
 10
70.953882
 20
-67.013723
 11
87.256485
 21
-50.711122
  0
LINE
  8
ゴム等
  6
CONTINUOUS
 10
69.279613
 20
-67.62655
 11
87.256485
 21
-49.64968
  0
LINE
  8
ゴム等
  6
CONTINUOUS
 10
105.233355
 20
-67.62655
 11
87.256485
 21
-49.64968
  0
LINE
  8
ゴム等
  6
CONTINUOUS
 10
30.87508
 20
55.665883
 11
31.269975
 21
57.344633
  0
LINE
  8
ゴム等
  6
CONTINUOUS
 10
31.269975
 20
57.344633
 11
31.882803
 21
59.018902
  0
LINE
  8
ゴム等
  6
CONTINUOUS
 10
31.882803
 20
23.06516
 11
31.269975
 21
24.73943
  0
LINE
  8
ゴム等
  6
CONTINUOUS
 10
31.269975
 20
24.73943
 11
30.87508
 21
26.418182
  0
LINE
  8
ゴム等
  6
CONTINUOUS
 10
30.87508
 20
55.665883
 11
30.87508
 21
26.418182
  0
LINE
  8
ゴム等
  6
CONTINUOUS
 10
31.269975
 20
57.344633
 11
31.269975
 21
24.73943
  0
LINE
  8
ゴム等
  6
CONTINUOUS
 10
31.882803
 20
59.018902
 11
31.882803
 21
23.06516
  0
LINE
  8
ゴム等
  6
CONTINUOUS
 10
30.87508
 20
26.418182
 11
16.251232
 21
41.042032
  0
LINE
  8
ゴム等
  6
CONTINUOUS
 10
30.87508
 20
55.665883
 11
16.251232
 21
41.042032
  0
LINE
  8
ゴム等
  6
CONTINUOUS
 10
31.269975
 20
57.344633
 11
14.967375
 21
41.042032
  0
LINE
  8
ゴム等
  6
CONTINUOUS
 10
31.269975
 20
24.73943
 11
14.967375
 21
41.042032
  0
LINE
  8
ゴム等
  6
CONTINUOUS
 10
31.882803
 20
23.06516
 11
13.905933
 21
41.042032
  0
LINE
  8
ゴム等
  6
CONTINUOUS
 10
31.882803
 20
59.018902
 11
13.905933
 21
41.042032
  0
TEXT
  7
TextStyle03
  8
文字
  6
CONTINUOUS
 10
-128.6
 20
-0.25
  1
アンカーピッチ
 40
3.0
 50
90.0
 72
     5
 11
-128.6
 21
23.0
  0
TEXT
  7
TextStyle03
  8
文字
  6
CONTINUOUS
 10
-146.225
 20
68.775
  1
アンカーピッチ
 40
3.0
 72
     5
 11
-122.975
 21
68.775
  0
TEXT
  7
TextStyle03
  8
文字
  6
CONTINUOUS
 10
-41.525
 20
4.4
  1
は排水穴位置を示す
 40
3.0
 72
     5
 11
-11.525
 21
4.4
  0
TEXT
  7
TextStyle03
  8
文字
  6
CONTINUOUS
 10
-49.475
 20
63.075
  1
バランスステー
 40
3.0
 72
     5
 11
-26.225
 21
63.075
  0
TEXT
  7
TextStyle03
  8
文字
  6
CONTINUOUS
 10
-41.75
 20
-2.825
  1
はケーシング位置を示す
 40
3.0
 72
     5
 11
-5.0
 21
-2.825
  0
TEXT
  7
TextStyle03
  8
文字
  6
CONTINUOUS
 10
-41.75
 20
-6.2
  1
４ヶ所中1ヶ所に設定
 40
3.0
 72
     5
 11
-10.0625
 21
-6.2
  0
TEXT
  7
TextStyle03
  8
文字
  6
CONTINUOUS
 10
-47.85
 20
-17.375
  1
※重量に依るのでご相談ください。
 40
3.0
 72
     5
 11
5.775
 21
-17.375
  0
TEXT
  7
TextStyle03
  8
文字
  6
CONTINUOUS
 10
-47.85
 20
-11.8
  1
アームユニット数　※２～４ヶ所
 40
3.0
 72
     5
 11
2.4
 21
-11.8
  0
TEXT
  7
TextStyle03
  8
文字
  6
CONTINUOUS
 10
59.175
 20
123.15
  1
シリーズ：ＤＦＹ
 40
5.0
 72
     5
 11
103.55
 21
123.15
  0
TEXT
  7
TextStyle03
  8
文字
  6
CONTINUOUS
 10
59.175
 20
117.525
  1
　　　　　山型四角錘（上下可動）900×1800タイプ
 40
5.0
 72
     5
 11
190.7375
 21
117.525
  0
TEXT
  7
TextStyle03
  8
文字
  6
CONTINUOUS
 10
59.175
 20
111.9
  1
図面名　：外観姿図
 40
5.0
 72
     5
 11
109.175
 21
111.9
  0
TEXT
  7
TextStyle03
  8
文字
  6
CONTINUOUS
 10
59.175
 20
106.275
  1

 40
5.0
 41
1.125
  0
TEXT
  7
TextStyle03
  8
文字
  6
CONTINUOUS
 10
59.175
 20
100.65
  1
ＮＳコード：ＮＳ４Ｙ
 40
5.0
 72
     5
 11
114.8
 21
100.65
  0
TEXT
  7
TextStyle03
  8
文字
  6
CONTINUOUS
 10
86.725
 20
24.8
  1
ガラス寸法
 40
3.0
 72
     5
 11
103.225
 21
24.8
  0
TEXT
  7
TextStyle03
  8
文字
  6
CONTINUOUS
 10
163.0
 20
60.85
  1
×　２枚
 40
4.0
 72
     5
 11
180.5
 21
60.85
  0
TEXT
  7
TextStyle03
  8
文字
  6
CONTINUOUS
 10
163.0
 20
17.125
  1
×　２枚
 40
4.0
 72
     5
 11
180.5
 21
17.125
  0
TEXT
  7
TextStyle03
  8
文字
  6
CONTINUOUS
 10
74.375
 20
73.225
  1
ガラス寸法
 40
3.0
 72
     5
 11
90.875
 21
73.225
  0
INSERT
  2
*DIM_0001
  8
寸法
  6
CONTINUOUS
 10
0.0
 20
0.0
  0
INSERT
  2
*DIM_0002
  8
寸法
  6
CONTINUOUS
 10
0.0
 20
0.0
  0
INSERT
  2
*DIM_0003
  8
寸法
  6
CONTINUOUS
 10
0.0
 20
0.0
  0
INSERT
  2
*DIM_0004
  8
寸法
  6
CONTINUOUS
 10
0.0
 20
0.0
  0
INSERT
  2
*DIM_0005
  8
寸法
  6
CONTINUOUS
 10
0.0
 20
0.0
  0
INSERT
  2
*DIM_0006
  8
寸法
  6
CONTINUOUS
 10
0.0
 20
0.0
  0
INSERT
  2
*DIM_0007
  8
寸法
  6
CONTINUOUS
 10
0.0
 20
0.0
  0
INSERT
  2
*DIM_0008
  8
寸法
  6
CONTINUOUS
 10
0.0
 20
0.0
  0
INSERT
  2
*DIM_0009
  8
寸法
  6
CONTINUOUS
 10
0.0
 20
0.0
  0
INSERT
  2
*DIM_0010
  8
寸法
  6
CONTINUOUS
 10
0.0
 20
0.0
  0
LINE
  8
寸法
  6
CONTINUOUS
 10
-86.229365
 20
22.125365
 11
-87.604997
 21
19.7427
  0
LINE
  8
寸法
  6
CONTINUOUS
 10
-86.229365
 20
22.125365
 11
-84.853733
 21
19.7427
  0
LINE
  8
寸法
  6
CONTINUOUS
 10
-84.853733
 20
19.7427
 11
-87.604997
 21
19.7427
  0
LINE
  8
寸法
  6
CONTINUOUS
 10
-86.229365
 20
59.9587
 11
-87.604997
 21
62.341365
  0
LINE
  8
寸法
  6
CONTINUOUS
 10
-86.229365
 20
59.9587
 11
-84.853733
 21
62.341365
  0
LINE
  8
寸法
  6
CONTINUOUS
 10
-84.853733
 20
62.341365
 11
-87.604997
 21
62.341365
  0
LINE
  8
寸法
  6
CONTINUOUS
 10
-52.312705
 20
41.042032
 11
-49.93004
 21
39.6664
  0
LINE
  8
寸法
  6
CONTINUOUS
 10
-52.312705
 20
41.042032
 11
-49.93004
 21
42.417665
  0
LINE
  8
寸法
  6
CONTINUOUS
 10
-49.93004
 20
42.417665
 11
-49.93004
 21
39.6664
  0
LINE
  8
寸法
  6
CONTINUOUS
 10
-120.146025
 20
41.042032
 11
-122.52869
 21
39.6664
  0
LINE
  8
寸法
  6
CONTINUOUS
 10
-120.146025
 20
41.042032
 11
-122.52869
 21
42.417665
  0
LINE
  8
寸法
  6
CONTINUOUS
 10
-122.52869
 20
42.417665
 11
-122.52869
 21
39.6664
  0
LINE
  8
寸法
  6
CONTINUOUS
 10
-44.616655
 20
6.844017
 11
-43.241022
 21
4.461353
  0
LINE
  8
寸法
  6
CONTINUOUS
 10
-44.616655
 20
6.844017
 11
-45.992288
 21
4.461353
  0
LINE
  8
寸法
  6
CONTINUOUS
 10
-45.992288
 20
4.461353
 11
-43.241022
 21
4.461353
  0
LINE
  8
寸法
  6
CONTINUOUS
 10
-47.966143
 20
2.809397
 11
-9.89083
 21
2.809397
  0
INSERT
  2
*GRP_0012
  8
寸法
  6
CONTINUOUS
 10
0.0
 20
0.0
  0
INSERT
  2
*DIM_0013
  8
寸法
  6
CONTINUOUS
 10
0.0
 20
0.0
  0
INSERT
  2
*DIM_0014
  8
寸法
  6
CONTINUOUS
 10
0.0
 20
0.0
  0
LINE
  8
寸法
  6
CONTINUOUS
 10
-47.966143
 20
-13.431982
 11
4.544828
 21
-13.431982
  0
INSERT
  2
*DIM_0015
  8
寸法
  6
CONTINUOUS
 10
0.0
 20
0.0
  0
INSERT
  2
*DIM_0016
  8
寸法
  6
CONTINUOUS
 10
0.0
 20
0.0
  0
INSERT
  2
*DIM_0017
  8
寸法
  6
CONTINUOUS
 10
0.0
 20
0.0
  0
INSERT
  2
*DIM_0018
  8
寸法
  6
CONTINUOUS
 10
0.0
 20
0.0
  0
INSERT
  2
*DIM_0019
  8
寸法
  6
CONTINUOUS
 10
0.0
 20
0.0
  0
INSERT
  2
*DIM_0021
  8
寸法
  6
CONTINUOUS
 10
0.0
 20
0.0
  0
INSERT
  2
*DIM_0022
  8
寸法
  6
CONTINUOUS
 10
0.0
 20
0.0
  0
INSERT
  2
*DIM_0026
  8
寸法
  6
CONTINUOUS
 10
0.0
 20
0.0
  0
INSERT
  2
*DIM_0027
  8
寸法
  6
CONTINUOUS
 10
0.0
 20
0.0
  0
INSERT
  2
*DIM_0028
  8
寸法
  6
CONTINUOUS
 10
0.0
 20
0.0
  0
INSERT
  2
*DIM_0029
  8
寸法
  6
CONTINUOUS
 10
0.0
 20
0.0
  0
INSERT
  2
*DIM_0030
  8
寸法
  6
CONTINUOUS
 10
0.0
 20
0.0
  0
INSERT
  2
*DIM_0031
  8
寸法
  6
CONTINUOUS
 10
0.0
 20
0.0
  0
INSERT
  2
*DIM_0032
  8
寸法
  6
CONTINUOUS
 10
0.0
 20
0.0
  0
INSERT
  2
*DIM_0033
  8
寸法
  6
CONTINUOUS
 10
0.0
 20
0.0
  0
INSERT
  2
*DIM_0034
  8
寸法
  6
CONTINUOUS
 10
0.0
 20
0.0
  0
INSERT
  2
*DIM_0035
  8
寸法
  6
CONTINUOUS
 10
0.0
 20
0.0
  0
ENDSEC
  0
EOF
