  0
SECTION
  2
HEADER
  9
$EXTMIN
 10
-210.0
 20
-148.5
  9
$EXTMAX
 10
210.0
 20
148.5
  9
$PDMODE
 70
    32
  9
$PDSIZE
 40
0.3
  9
$LTSCALE
 40
10.0
  0
ENDSEC
  0
SECTION
  2
TABLES
  0
TABLE
  2
LTYPE
 70
    15
  0
LTYPE
  2
CONTINUOUS
 70
    64
  3
実線
 72
    65
 73
     0
 40
0.0
  0
LTYPE
  2
DASHED
 70
    64
  3
破線A
 72
    65
 73
     2
 40
0.6
 49
0.4
 49
-0.2
  0
LTYPE
  2
DASHEDX2
 70
    64
  3
破線B
 72
    65
 73
     2
 40
1.3
 49
0.9
 49
-0.4
  0
LTYPE
  2
DASHDOT
 70
    64
  3
１点鎖線A
 72
    65
 73
     4
 40
0.5375
 49
0.375
 49
-0.05
 49
0.0625
 49
-0.05
  0
LTYPE
  2
DASHDOTX2
 70
    64
  3
１点鎖線B
 72
    65
 73
     4
 40
1.075
 49
0.75
 49
-0.1
 49
0.125
 49
-0.1
  0
LTYPE
  2
DIVIDE2
 70
    64
  3
２点鎖線A
 72
    65
 73
     6
 40
0.5125
 49
0.3
 49
-0.0375
 49
0.05
 49
-0.0375
 49
0.05
 49
-0.0375
  0
LTYPE
  2
DIVIDE
 70
    64
  3
２点鎖線B
 72
    65
 73
     6
 40
1.05
 49
0.55
 49
-0.1
 49
0.1
 49
-0.1
 49
0.1
 49
-0.1
  0
LTYPE
  2
DOT
 70
    64
  3
点線A
 72
    65
 73
     2
 40
0.1125
 49
0.0625
 49
-0.05
  0
LTYPE
  2
DOTX2
 70
    64
  3
点線B
 72
    65
 73
     2
 40
0.275
 49
0.15
 49
-0.125
  0
LTYPE
  2
CONTINUOUS
 70
    64
  3
実線
 72
    65
 73
     0
 40
0.0
  0
LTYPE
  2
CONTINUOUS
 70
    64
  3
実線
 72
    65
 73
     0
 40
0.0
  0
LTYPE
  2
CONTINUOUS
 70
    64
  3
実線
 72
    65
 73
     0
 40
0.0
  0
LTYPE
  2
CONTINUOUS
 70
    64
  3
実線
 72
    65
 73
     0
 40
0.0
  0
LTYPE
  2
CONTINUOUS
 70
    64
  3
実線
 72
    65
 73
     0
 40
0.0
  0
LTYPE
  2
CONTINUOUS
 70
    64
  3
実線
 72
    65
 73
     0
 40
0.0
  0
ENDTAB
  0
TABLE
  2
LAYER
 70
    34
  0
LAYER
  2
通り芯
 70
     0
 62
    15
  6
CONTINUOUS
  0
LAYER
  2
補助線
 70
     0
 62
    16
  6
DOT
  0
LAYER
  2
躯体
 70
     0
 62
    31
  6
CONTINUOUS
  0
LAYER
  2
型材
 70
     0
 62
    32
  6
CONTINUOUS
  0
LAYER
  2
型材断面
 70
     0
 62
    47
  6
CONTINUOUS
  0
LAYER
  2
ガラス
 70
     0
 62
    48
  6
CONTINUOUS
  0
LAYER
  2
ゴム等
 70
     0
 62
    63
  6
CONTINUOUS
  0
LAYER
  2
ボルト／ビス
 70
     0
 62
    64
  6
CONTINUOUS
  0
LAYER
  2
文字
 70
     0
 62
    79
  6
CONTINUOUS
  0
LAYER
  2
寸法
 70
     0
 62
    80
  6
CONTINUOUS
  0
LAYER
  2
ﾊｯﾁﾝｸﾞ
 70
     0
 62
    95
  6
CONTINUOUS
  0
LAYER
  2
別途部材
 70
     0
 62
    96
  6
CONTINUOUS
  0
LAYER
  2
曲げ物
 70
     0
 62
   111
  6
CONTINUOUS
  0
LAYER
  2
鉄骨等
 70
     0
 62
   112
  6
CONTINUOUS
  0
LAYER
  2
St
 70
     0
 62
   127
  6
CONTINUOUS
  0
LAYER
  2
その他部品等
 70
     0
 62
   128
  6
CONTINUOUS
  0
LAYER
  2
ｶﾞｽｹｯﾄ
 70
     0
 62
   143
  6
CONTINUOUS
  0
LAYER
  2
ｽｹｯﾁ
 70
     0
 62
    14
  6
CONTINUOUS
  0
LAYER
  2
0
 70
     0
 62
    17
  6
CONTINUOUS
  0
LAYER
  2
1
 70
     0
 62
    30
  6
CONTINUOUS
  0
LAYER
  2
4
 70
     0
 62
    33
  6
CONTINUOUS
  0
LAYER
  2
ﾚｲﾔ3
 70
     0
 62
    46
  6
CONTINUOUS
  0
LAYER
  2
外形線
 70
     0
 62
    49
  6
CONTINUOUS
  0
LAYER
  2
部品
 70
     0
 62
    14
  6
CONTINUOUS
  0
LAYER
  2
サッシ芯
 70
     0
 62
    17
  6
DASHDOTX2
  0
LAYER
  2
寸法線
 70
     0
 62
    62
  6
CONTINUOUS
  0
LAYER
  2
姿図外形線
 70
     0
 62
    65
  6
CONTINUOUS
  0
LAYER
  2
姿補助線
 70
     0
 62
    30
  6
CONTINUOUS
  0
LAYER
  2
透視線
 70
     0
 62
    78
  6
DOT
  0
LAYER
  2
用紙
 70
     0
 62
    81
  6
CONTINUOUS
  0
LAYER
  2
実線図枠
 70
     0
 62
    94
  6
CONTINUOUS
  0
LAYER
  2
補助図枠
 70
     0
 62
    97
  6
CONTINUOUS
  0
LAYER
  2
建具記号
 70
     0
 62
   110
  6
CONTINUOUS
  0
LAYER
  2
補助文字
 70
     0
 62
   113
  6
CONTINUOUS
  0
ENDTAB
  0
TABLE
  2
STYLE
 70
    10
  0
STYLE
  2
STANDARD
 70
     0
 40
1.0
 41
1.0
 42
1.0
 50
0.0
 71
     0
  3
TXT
  4
BIGFONT
  0
STYLE
  2
TATE
 70
     4
 40
1.0
 41
1.0
 42
1.0
 50
0.0
 71
     0
  3
TXT
  4
BIGFONT
  0
STYLE
  2
TextStyle03
 70
     0
 40
1.0
 41
1.0
 42
1.0
 50
0.0
 71
     0
  3
MONOTXT
  4
BIGFONT
  0
STYLE
  2
TextStyle04
 70
     0
 40
1.0
 41
1.0
 42
1.0
 50
0.0
 71
     0
  3
MONOTXT
  4
BIGFONT
  0
STYLE
  2
TextStyle05
 70
     0
 40
1.0
 41
1.0
 42
1.0
 50
0.0
 71
     0
  3
MONOTXT
  4
BIGFONT
  0
STYLE
  2
TextStyle06
 70
     0
 40
1.0
 41
1.0
 42
1.0
 50
0.0
 71
     0
  3
MONOTXT
  4
BIGFONT
  0
STYLE
  2
TextStyle07
 70
     0
 40
1.0
 41
1.0
 42
1.0
 50
0.0
 71
     0
  3
MONOTXT
  4
BIGFONT
  0
STYLE
  2
TextStyle08
 70
     0
 40
1.0
 41
1.0
 42
1.0
 50
0.0
 71
     0
  3
MONOTXT
  4
BIGFONT
  0
STYLE
  2
TextStyle09
 70
     0
 40
1.0
 41
1.0
 42
1.0
 50
0.0
 71
     0
  3
MONOTXT
  4
BIGFONT
  0
STYLE
  2
TextStyle10
 70
     0
 40
1.0
 41
1.0
 42
1.0
 50
0.0
 71
     0
  3
MONOTXT
  4
BIGFONT
  0
ENDTAB
  0
ENDSEC
  0
SECTION
  2
BLOCKS
  0
BLOCK
  2
*GRP_0001
 70
    65
 10
0.0
 20
0.0
  0
LINE
  8
型材断面
  6
CONTINUOUS
 10
195.0
 20
133.5
 11
195.0
 21
-133.5
  0
LINE
  8
型材断面
  6
CONTINUOUS
 10
195.0
 20
-133.5
 11
-185.0
 21
-133.5
  0
LINE
  8
型材断面
  6
CONTINUOUS
 10
-185.0
 20
-133.5
 11
-185.0
 21
133.5
  0
LINE
  8
型材断面
  6
CONTINUOUS
 10
195.0
 20
133.5
 11
-185.0
 21
133.5
  0
LINE
  8
型材断面
  6
CONTINUOUS
 10
145.0
 20
-133.5
 11
145.0
 21
-118.5
  0
LINE
  8
型材断面
  6
CONTINUOUS
 10
195.0
 20
-118.5
 11
145.0
 21
-118.5
  0
ENDBLK
  0
BLOCK
  2
*DIM_0002
 70
    65
 10
0.0
 20
0.0
  0
LINE
  8
寸法
  6
BYBLOCK
 62
     0
 10
19.545062
 20
65.262578
 11
18.876165
 21
65.262578
  0
LINE
  8
寸法
  6
BYBLOCK
 62
     0
 10
19.545062
 20
35.262578
 11
18.876165
 21
35.262578
  0
LINE
  8
寸法
  6
BYBLOCK
 62
     0
 10
18.876165
 20
65.262578
 11
18.876165
 21
35.262578
  0
POINT
  8
寸法
 62
     0
 10
18.876165
 20
65.262578
  0
POINT
  8
寸法
 62
     0
 10
18.876165
 20
35.262578
  0
TEXT
  7
TextStyle03
  8
寸法
  6
CONTINUOUS
 62
     0
 10
18.475
 20
39.4
  1
呼称寸法＝900
 40
3.0
 50
90.0
 72
     5
 11
18.475
 21
61.15
  0
ENDBLK
  0
BLOCK
  2
*DIM_0003
 70
    65
 10
0.0
 20
0.0
  0
LINE
  8
寸法
  6
BYBLOCK
 62
     0
 10
-32.48957
 20
-21.260142
 11
-112.48957
 21
-21.260142
  0
POINT
  8
寸法
 62
     0
 10
-32.48957
 20
-21.260142
  0
POINT
  8
寸法
 62
     0
 10
-112.48957
 20
-21.260142
  0
TEXT
  7
TextStyle03
  8
寸法
  6
CONTINUOUS
 62
     0
 10
-82.55625
 20
-20.9
  1
呼称寸法2400
 40
3.0
 72
     5
 11
-62.49375
 21
-20.9
  0
ENDBLK
  0
BLOCK
  2
*DIM_0004
 70
    65
 10
0.0
 20
0.0
  0
LINE
  8
寸法
  6
BYBLOCK
 62
     0
 10
-118.683683
 20
65.262578
 11
-131.555573
 21
65.262578
  0
LINE
  8
寸法
  6
BYBLOCK
 62
     0
 10
-118.683683
 20
58.59591
 11
-131.555573
 21
58.59591
  0
LINE
  8
寸法
  6
BYBLOCK
 62
     0
 10
-131.555573
 20
65.262578
 11
-131.555573
 21
58.59591
  0
POINT
  8
寸法
 62
     0
 10
-131.555573
 20
65.262578
  0
POINT
  8
寸法
 62
     0
 10
-131.555573
 20
58.59591
  0
TEXT
  7
TextStyle03
  8
寸法
  6
CONTINUOUS
 62
     0
 10
-131.95
 20
59.4875
  1
200
 40
3.0
 50
90.0
 72
     5
 11
-131.95
 21
64.3625
  0
ENDBLK
  0
BLOCK
  2
*DIM_0005
 70
    65
 10
0.0
 20
0.0
  0
LINE
  8
寸法
  6
BYBLOCK
 62
     0
 10
-118.683683
 20
41.929245
 11
-131.555573
 21
41.929245
  0
LINE
  8
寸法
  6
BYBLOCK
 62
     0
 10
-131.555573
 20
58.59591
 11
-131.555573
 21
41.929245
  0
POINT
  8
寸法
 62
     0
 10
-131.555573
 20
41.929245
  0
TEXT
  7
TextStyle03
  8
寸法
  6
CONTINUOUS
 62
     0
 10
-131.95
 20
47.8375
  1
500
 40
3.0
 50
90.0
 72
     5
 11
-131.95
 21
52.7125
  0
ENDBLK
  0
BLOCK
  2
*DIM_0006
 70
    65
 10
0.0
 20
0.0
  0
LINE
  8
寸法
  6
BYBLOCK
 62
     0
 10
-118.683683
 20
35.262578
 11
-131.555573
 21
35.262578
  0
LINE
  8
寸法
  6
BYBLOCK
 62
     0
 10
-131.555573
 20
41.929245
 11
-131.555573
 21
35.262578
  0
POINT
  8
寸法
 62
     0
 10
-131.555573
 20
35.262578
  0
TEXT
  7
TextStyle03
  8
寸法
  6
CONTINUOUS
 62
     0
 10
-131.95
 20
36.1625
  1
200
 40
3.0
 50
90.0
 72
     5
 11
-131.95
 21
41.0375
  0
ENDBLK
  0
BLOCK
  2
*DIM_0007
 70
    65
 10
0.0
 20
0.0
  0
LINE
  8
寸法
  6
BYBLOCK
 62
     0
 10
-105.822902
 20
72.64068
 11
-105.822902
 21
83.764163
  0
LINE
  8
寸法
  6
BYBLOCK
 62
     0
 10
-89.156238
 20
72.64068
 11
-89.156238
 21
83.764163
  0
LINE
  8
寸法
  6
BYBLOCK
 62
     0
 10
-105.822902
 20
83.764163
 11
-89.156238
 21
83.764163
  0
POINT
  8
寸法
 62
     0
 10
-105.822902
 20
83.764163
  0
POINT
  8
寸法
 62
     0
 10
-89.156238
 20
83.764163
  0
TEXT
  7
TextStyle03
  8
寸法
  6
CONTINUOUS
 62
     0
 10
-99.9625
 20
84.125
  1
500
 40
3.0
 72
     5
 11
-95.0875
 21
84.125
  0
ENDBLK
  0
BLOCK
  2
*DIM_0008
 70
    65
 10
0.0
 20
0.0
  0
LINE
  8
寸法
  6
BYBLOCK
 62
     0
 10
-72.48957
 20
72.64068
 11
-72.48957
 21
83.764163
  0
LINE
  8
寸法
  6
BYBLOCK
 62
     0
 10
-89.156238
 20
83.764163
 11
-72.48957
 21
83.764163
  0
POINT
  8
寸法
 62
     0
 10
-72.48957
 20
83.764163
  0
TEXT
  7
TextStyle03
  8
寸法
  6
CONTINUOUS
 62
     0
 10
-83.2875
 20
84.125
  1
500
 40
3.0
 72
     5
 11
-78.4125
 21
84.125
  0
ENDBLK
  0
BLOCK
  2
*DIM_0009
 70
    65
 10
0.0
 20
0.0
  0
LINE
  8
寸法
  6
BYBLOCK
 62
     0
 10
-55.822902
 20
72.64068
 11
-55.822902
 21
83.764163
  0
LINE
  8
寸法
  6
BYBLOCK
 62
     0
 10
-72.48957
 20
83.764163
 11
-55.822902
 21
83.764163
  0
POINT
  8
寸法
 62
     0
 10
-55.822902
 20
83.764163
  0
TEXT
  7
TextStyle03
  8
寸法
  6
CONTINUOUS
 62
     0
 10
-66.6125
 20
84.125
  1
500
 40
3.0
 72
     5
 11
-61.7375
 21
84.125
  0
ENDBLK
  0
BLOCK
  2
*DIM_0010
 70
    65
 10
0.0
 20
0.0
  0
LINE
  8
寸法
  6
BYBLOCK
 62
     0
 10
-39.156238
 20
72.64068
 11
-39.156238
 21
83.764163
  0
LINE
  8
寸法
  6
BYBLOCK
 62
     0
 10
-55.822902
 20
83.764163
 11
-39.156238
 21
83.764163
  0
POINT
  8
寸法
 62
     0
 10
-39.156238
 20
83.764163
  0
TEXT
  7
TextStyle03
  8
寸法
  6
CONTINUOUS
 62
     0
 10
-49.9625
 20
84.125
  1
500
 40
3.0
 72
     5
 11
-45.0875
 21
84.125
  0
ENDBLK
  0
BLOCK
  2
*DIM_0011
 70
    65
 10
0.0
 20
0.0
  0
LINE
  8
寸法
  6
BYBLOCK
 62
     0
 10
-32.48957
 20
66.262578
 11
-32.48957
 21
83.764163
  0
LINE
  8
寸法
  6
BYBLOCK
 62
     0
 10
-39.156238
 20
83.764163
 11
-32.48957
 21
83.764163
  0
POINT
  8
寸法
 62
     0
 10
-32.48957
 20
83.764163
  0
TEXT
  7
TextStyle03
  8
寸法
  6
CONTINUOUS
 62
     0
 10
-38.2875
 20
84.125
  1
200
 40
3.0
 72
     5
 11
-33.4125
 21
84.125
  0
ENDBLK
  0
BLOCK
  2
*DIM_0012
 70
    65
 10
0.0
 20
0.0
  0
LINE
  8
寸法
  6
BYBLOCK
 62
     0
 10
-112.48957
 20
66.262578
 11
-112.48957
 21
83.764163
  0
LINE
  8
寸法
  6
BYBLOCK
 62
     0
 10
-105.822902
 20
83.764163
 11
-112.48957
 21
83.764163
  0
POINT
  8
寸法
 62
     0
 10
-105.822902
 20
83.764163
  0
POINT
  8
寸法
 62
     0
 10
-112.48957
 20
83.764163
  0
TEXT
  7
TextStyle03
  8
寸法
  6
CONTINUOUS
 62
     0
 10
-111.6125
 20
84.125
  1
200
 40
3.0
 72
     5
 11
-106.7375
 21
84.125
  0
ENDBLK
  0
BLOCK
  2
*DIM_0013
 70
    65
 10
0.0
 20
0.0
  0
LINE
  8
寸法
  6
BYBLOCK
 62
     0
 10
-97.48957
 20
30.062578
 11
-97.48957
 21
20.685815
  0
LINE
  8
寸法
  6
BYBLOCK
 62
     0
 10
-47.48957
 20
30.062578
 11
-47.48957
 21
20.685815
  0
LINE
  8
寸法
  6
BYBLOCK
 62
     0
 10
-97.48957
 20
20.685815
 11
-47.48957
 21
20.685815
  0
POINT
  8
寸法
 62
     0
 10
-97.48957
 20
20.685815
  0
POINT
  8
寸法
 62
     0
 10
-47.48957
 20
20.685815
  0
TEXT
  7
TextStyle03
  8
寸法
  6
CONTINUOUS
 62
     0
 10
-75.80625
 20
21.05
  1
1500
 40
3.0
 72
     5
 11
-69.24375
 21
21.05
  0
ENDBLK
  0
BLOCK
  2
*DIM_0014
 70
    65
 10
0.0
 20
0.0
  0
LINE
  8
寸法
  6
BYBLOCK
 62
     0
 10
-24.140327
 20
38.962578
 11
-17.319538
 21
38.962578
  0
LINE
  8
寸法
  6
BYBLOCK
 62
     0
 10
-17.319538
 20
35.262578
 11
-17.319538
 21
38.962578
  0
POINT
  8
寸法
 62
     0
 10
-17.319538
 20
35.262578
  0
POINT
  8
寸法
 62
     0
 10
-17.319538
 20
38.962578
  0
TEXT
  7
TextStyle03
  8
寸法
  6
CONTINUOUS
 62
     0
 10
-17.725
 20
29.4375
  1
111
 40
3.0
 50
90.0
 72
     5
 11
-17.725
 21
34.3125
  0
ENDBLK
  0
BLOCK
  2
*DIM_0015
 70
    65
 10
0.0
 20
0.0
  0
LINE
  8
寸法
  6
BYBLOCK
 62
     0
 10
-24.140327
 20
61.562578
 11
-17.319538
 21
61.562578
  0
LINE
  8
寸法
  6
BYBLOCK
 62
     0
 10
-17.319538
 20
65.262578
 11
-17.319538
 21
61.562578
  0
POINT
  8
寸法
 62
     0
 10
-17.319538
 20
65.262578
  0
POINT
  8
寸法
 62
     0
 10
-17.319538
 20
61.562578
  0
TEXT
  7
TextStyle03
  8
寸法
  6
CONTINUOUS
 62
     0
 10
-17.725
 20
66.2375
  1
111
 40
3.0
 50
90.0
 72
     5
 11
-17.725
 21
71.1125
  0
ENDBLK
  0
BLOCK
  2
*DIM_0016
 70
    65
 10
0.0
 20
0.0
  0
LINE
  8
寸法
  6
CONTINUOUS
 10
-116.656238
 20
-57.554748
 11
-116.656238
 21
-15.374582
  0
LINE
  8
寸法
  6
CONTINUOUS
 10
-28.322902
 20
-57.554748
 11
-28.322902
 21
-15.374582
  0
LINE
  8
寸法
  6
CONTINUOUS
 10
-116.656238
 20
-15.374582
 11
-28.322902
 21
-15.374582
  0
POINT
  8
寸法
 10
-116.656238
 20
-15.374582
  0
POINT
  8
寸法
 10
-28.322902
 20
-15.374582
  0
TEXT
  7
TextStyle03
  8
寸法
  6
CONTINUOUS
 10
-75.78125
 20
-15.0
  1
2650
 40
3.0
 72
     5
 11
-69.21875
 21
-15.0
  0
ENDBLK
  0
BLOCK
  2
*DIM_0017
 70
    65
 10
0.0
 20
0.0
  0
LINE
  8
寸法
  6
CONTINUOUS
 10
-112.48957
 20
-21.260142
 11
-116.656238
 21
-21.260142
  0
POINT
  8
寸法
 10
-112.48957
 20
-21.260142
  0
POINT
  8
寸法
 10
-116.656238
 20
-21.260142
  0
TEXT
  7
TextStyle03
  8
寸法
  6
CONTINUOUS
 10
-122.0625
 20
-20.9
  1
125
 40
3.0
 72
     5
 11
-117.1875
 21
-20.9
  0
ENDBLK
  0
BLOCK
  2
*DIM_0018
 70
    65
 10
0.0
 20
0.0
  0
LINE
  8
寸法
  6
CONTINUOUS
 10
-32.48957
 20
-21.260142
 11
-28.322902
 21
-21.260142
  0
POINT
  8
寸法
 10
-32.48957
 20
-21.260142
  0
POINT
  8
寸法
 10
-28.322902
 20
-21.260142
  0
TEXT
  7
TextStyle03
  8
寸法
  6
CONTINUOUS
 10
-27.8125
 20
-20.9
  1
125
 40
3.0
 72
     5
 11
-22.9375
 21
-20.9
  0
ENDBLK
  0
BLOCK
  2
*DIM_0019
 70
    65
 10
0.0
 20
0.0
  0
LINE
  8
寸法
  6
CONTINUOUS
 10
-28.726235
 20
-65.311432
 11
-14.417453
 21
-65.311432
  0
LINE
  8
寸法
  6
CONTINUOUS
 10
-27.322902
 20
-58.554748
 11
-14.417453
 21
-58.554748
  0
LINE
  8
寸法
  6
CONTINUOUS
 10
-14.417453
 20
-65.311432
 11
-14.417453
 21
-58.554748
  0
POINT
  8
寸法
 10
-14.417453
 20
-65.311432
  0
POINT
  8
寸法
 10
-14.417453
 20
-58.554748
  0
TEXT
  7
TextStyle03
  8
寸法
  6
CONTINUOUS
 10
-11.425
 20
-66.075
  1
202.7
 40
3.0
 50
90.0
 72
     5
 11
-11.425
 21
-57.825
  0
ENDBLK
  0
BLOCK
  2
*DIM_0020
 70
    65
 10
0.0
 20
0.0
  0
LINE
  8
寸法
  6
CONTINUOUS
 10
-48.3684
 20
-39.15225
 11
-14.417453
 21
-39.15225
  0
LINE
  8
寸法
  6
CONTINUOUS
 10
-14.417453
 20
-58.554748
 11
-14.417453
 21
-39.15225
  0
POINT
  8
寸法
 10
-14.417453
 20
-39.15225
  0
TEXT
  7
TextStyle03
  8
寸法
  6
CONTINUOUS
 10
-14.8
 20
-51.3125
  1
582
 40
3.0
 50
90.0
 72
     5
 11
-14.8
 21
-46.4375
  0
ENDBLK
  0
BLOCK
  2
*DIM_0021
 70
    65
 10
0.0
 20
0.0
  0
LINE
  8
寸法
  6
CONTINUOUS
 10
54.64456
 20
69.429242
 11
12.647945
 21
69.429242
  0
LINE
  8
寸法
  6
CONTINUOUS
 10
54.64456
 20
31.09591
 11
12.647945
 21
31.09591
  0
LINE
  8
寸法
  6
CONTINUOUS
 10
12.647945
 20
69.429242
 11
12.647945
 21
31.09591
  0
POINT
  8
寸法
 10
12.647945
 20
69.429242
  0
POINT
  8
寸法
 10
12.647945
 20
31.09591
  0
TEXT
  7
TextStyle03
  8
寸法
  6
CONTINUOUS
 10
12.25
 20
46.96875
  1
1150
 40
3.0
 50
90.0
 72
     5
 11
12.25
 21
53.53125
  0
ENDBLK
  0
BLOCK
  2
*DIM_0022
 70
    65
 10
0.0
 20
0.0
  0
LINE
  8
寸法
  6
CONTINUOUS
 10
18.876165
 20
65.262578
 11
18.876165
 21
69.429242
  0
POINT
  8
寸法
 10
18.876165
 20
65.262578
  0
POINT
  8
寸法
 10
18.876165
 20
69.429242
  0
TEXT
  7
TextStyle03
  8
寸法
  6
CONTINUOUS
 10
18.5
 20
69.9375
  1
125
 40
3.0
 50
90.0
 72
     5
 11
18.5
 21
74.8125
  0
ENDBLK
  0
BLOCK
  2
*DIM_0023
 70
    65
 10
0.0
 20
0.0
  0
LINE
  8
寸法
  6
CONTINUOUS
 10
18.876165
 20
35.262578
 11
18.876165
 21
31.09591
  0
POINT
  8
寸法
 10
18.876165
 20
35.262578
  0
POINT
  8
寸法
 10
18.876165
 20
31.09591
  0
TEXT
  7
TextStyle03
  8
寸法
  6
CONTINUOUS
 10
18.5
 20
25.6875
  1
125
 40
3.0
 50
90.0
 72
     5
 11
18.5
 21
30.5625
  0
ENDBLK
  0
BLOCK
  2
*DIM_0024
 70
    65
 10
0.0
 20
0.0
  0
LINE
  8
寸法
  6
CONTINUOUS
 10
62.401245
 20
31.499243
 11
62.401245
 21
12.367453
  0
LINE
  8
寸法
  6
CONTINUOUS
 10
55.64456
 20
30.09591
 11
55.64456
 21
12.367453
  0
LINE
  8
寸法
  6
CONTINUOUS
 10
62.401245
 20
12.367453
 11
55.64456
 21
12.367453
  0
POINT
  8
寸法
 10
62.401245
 20
12.367453
  0
POINT
  8
寸法
 10
55.64456
 20
12.367453
  0
TEXT
  7
TextStyle03
  8
寸法
  6
CONTINUOUS
 10
54.875
 20
9.35
  1
202.7
 40
3.0
 72
     5
 11
63.125
 21
9.35
  0
ENDBLK
  0
BLOCK
  2
*DIM_0025
 70
    65
 10
0.0
 20
0.0
  0
LINE
  8
寸法
  6
CONTINUOUS
 10
36.24205
 20
49.262575
 11
36.24205
 21
12.367453
  0
LINE
  8
寸法
  6
CONTINUOUS
 10
55.64456
 20
12.367453
 11
36.24205
 21
12.367453
  0
POINT
  8
寸法
 10
36.24205
 20
12.367453
  0
TEXT
  7
TextStyle03
  8
寸法
  6
CONTINUOUS
 10
43.4875
 20
12.725
  1
582
 40
3.0
 72
     5
 11
48.3625
 21
12.725
  0
ENDBLK
  0
BLOCK
  2
*GRP_0026
 70
    65
 10
0.0
 20
0.0
  0
LINE
  8
型材断面
  6
DOT
 10
-3.353193
 20
-48.554748
 11
-3.353193
 21
-50.76621
  0
LINE
  8
型材断面
  6
DOT
 10
-2.51986
 20
-50.766197
 11
-2.51986
 21
-51.232865
  0
LINE
  8
型材断面
  6
DOT
 10
84.980142
 20
-48.554748
 11
84.980142
 21
-50.76621
  0
LINE
  8
型材断面
  6
DOT
 10
84.14681
 20
-50.766197
 11
84.14681
 21
-51.232865
  0
LINE
  8
型材断面
  6
DOT
 10
-3.353193
 20
-50.76621
 11
84.980142
 21
-50.76621
  0
LINE
  8
型材断面
  6
DOT
 10
-2.51986
 20
-51.232865
 11
84.14681
 21
-51.232865
  0
LINE
  8
型材断面
  6
DOT
 10
-3.353193
 20
-48.554748
 11
84.980142
 21
-48.554748
  0
LINE
  8
型材断面
  6
DOT
 10
-3.388548
 20
-48.472235
 11
14.415425
 21
-30.668265
  0
LINE
  8
型材断面
  6
DOT
 10
-3.353193
 20
-48.507593
 11
14.486138
 21
-30.668265
  0
LINE
  8
型材断面
  6
DOT
 10
17.692305
 20
-29.15225
 11
63.934645
 21
-29.15225
  0
LINE
  8
型材断面
  6
DOT
 10
15.665895
 20
-30.331262
 11
65.961055
 21
-30.331262
  0
LINE
  8
型材断面
  6
DOT
 10
85.015497
 20
-48.472235
 11
67.211525
 21
-30.668265
  0
LINE
  8
型材断面
  6
DOT
 10
84.980142
 20
-48.507593
 11
67.140812
 21
-30.668265
  0
LINE
  8
ゴム等
  6
DOT
 10
-2.163397
 20
-48.406002
 11
-0.489127
 21
-47.793177
  0
LINE
  8
ゴム等
  6
DOT
 10
-0.489127
 20
-47.793177
 11
1.189625
 21
-47.398283
  0
LINE
  8
ゴム等
  6
DOT
 10
83.790347
 20
-48.406002
 11
82.116078
 21
-47.793177
  0
LINE
  8
ゴム等
  6
DOT
 10
82.116078
 20
-47.793177
 11
80.437325
 21
-47.398283
  0
LINE
  8
ゴム等
  6
DOT
 10
-0.489127
 20
-47.793177
 11
82.116078
 21
-47.793177
  0
LINE
  8
ゴム等
  6
DOT
 10
-2.163397
 20
-48.406002
 11
83.790347
 21
-48.406002
  0
LINE
  8
ゴム等
  6
DOT
 10
1.189625
 20
-47.398283
 11
39.51458
 21
-47.398283
  0
LINE
  8
ゴム等
  6
DOT
 10
42.11237
 20
-47.398283
 11
80.437325
 21
-47.398283
  0
LINE
  8
ゴム等
  6
DOT
 10
39.51458
 20
-47.398283
 11
40.38014
 21
-47.793177
  0
LINE
  8
ゴム等
  6
DOT
 10
41.24681
 20
-47.793177
 11
42.11237
 21
-47.398283
  0
LINE
  8
ゴム等
  6
DOT
 10
16.025638
 20
-29.0344
 11
17.692305
 21
-29.0344
  0
LINE
  8
ゴム等
  6
DOT
 10
17.692305
 20
-29.0344
 11
17.692305
 21
-30.27655
  0
LINE
  8
ゴム等
  6
DOT
 10
15.767748
 20
-30.22941
 11
17.692305
 21
-30.22941
  0
LINE
  8
ゴム等
  6
DOT
 10
17.692305
 20
-30.27655
 11
15.720608
 21
-30.27655
  0
LINE
  8
ゴム等
  6
DOT
 10
14.39177
 20
-30.668265
 11
15.32889
 21
-30.668265
  0
LINE
  8
ゴム等
  6
DOT
 10
14.39177
 20
-30.668265
 11
16.025638
 21
-29.0344
  0
LINE
  8
ゴム等
  6
DOT
 10
15.32889
 20
-30.668265
 11
15.767748
 21
-30.22941
  0
LINE
  8
ゴム等
  6
DOT
 10
15.911345
 20
-30.331262
 11
16.28505
 21
-31.019002
  0
LINE
  8
ゴム等
  6
DOT
 10
16.28505
 20
-31.019002
 11
16.730355
 21
-31.857553
  0
LINE
  8
ゴム等
  6
DOT
 10
39.51458
 20
-31.857553
 11
40.38014
 21
-31.019002
  0
LINE
  8
ゴム等
  6
DOT
 10
41.24681
 20
-31.019002
 11
42.11237
 21
-31.857553
  0
LINE
  8
ゴム等
  6
DOT
 10
16.730355
 20
-31.857553
 11
39.51458
 21
-31.857553
  0
LINE
  8
ゴム等
  6
DOT
 10
1.189625
 20
-47.398283
 11
16.730355
 21
-31.857553
  0
LINE
  8
ゴム等
  6
DOT
 10
-0.489127
 20
-47.793177
 11
16.28505
 21
-31.019002
  0
LINE
  8
ゴム等
  6
DOT
 10
-2.163397
 20
-48.406002
 11
15.916887
 21
-30.32572
  0
LINE
  8
ゴム等
  6
DOT
 10
40.38014
 20
-47.793177
 11
40.38014
 21
-31.019002
  0
LINE
  8
ゴム等
  6
DOT
 10
41.24681
 20
-47.793177
 11
41.24681
 21
-31.019002
  0
LINE
  8
ゴム等
  6
DOT
 10
42.11237
 20
-47.398283
 11
42.11237
 21
-31.857553
  0
LINE
  8
ゴム等
  6
DOT
 10
39.51458
 20
-47.398283
 11
39.51458
 21
-31.857553
  0
LINE
  8
ゴム等
  6
DOT
 10
42.11237
 20
-31.857553
 11
64.896595
 21
-31.857553
  0
LINE
  8
ゴム等
  6
DOT
 10
80.437325
 20
-47.398283
 11
64.896595
 21
-31.857553
  0
LINE
  8
ゴム等
  6
DOT
 10
82.116078
 20
-47.793177
 11
65.3419
 21
-31.019002
  0
LINE
  8
ゴム等
  6
DOT
 10
16.28505
 20
-31.019002
 11
65.3419
 21
-31.019002
  0
LINE
  8
ゴム等
  6
DOT
 10
65.601312
 20
-29.0344
 11
63.934645
 21
-29.0344
  0
LINE
  8
ゴム等
  6
DOT
 10
63.934645
 20
-29.0344
 11
63.934645
 21
-30.27655
  0
LINE
  8
ゴム等
  6
DOT
 10
65.859202
 20
-30.22941
 11
63.934645
 21
-30.22941
  0
LINE
  8
ゴム等
  6
DOT
 10
63.934645
 20
-30.27655
 11
65.906343
 21
-30.27655
  0
LINE
  8
ゴム等
  6
DOT
 10
67.23518
 20
-30.668265
 11
66.29806
 21
-30.668265
  0
LINE
  8
ゴム等
  6
DOT
 10
67.23518
 20
-30.668265
 11
65.601312
 21
-29.0344
  0
LINE
  8
ゴム等
  6
DOT
 10
66.29806
 20
-30.668265
 11
65.859202
 21
-30.22941
  0
LINE
  8
ゴム等
  6
DOT
 10
65.715605
 20
-30.331262
 11
65.3419
 21
-31.019002
  0
LINE
  8
ゴム等
  6
DOT
 10
65.3419
 20
-31.019002
 11
64.896595
 21
-31.857553
  0
LINE
  8
ゴム等
  6
DOT
 10
83.790347
 20
-48.406002
 11
65.715605
 21
-30.331262
  0
ENDBLK
  0
BLOCK
  2
*GRP_0027
 70
    65
 10
0.0
 20
0.0
  0
LINE
  8
補助線
  6
DOT
 62
    64
 10
77.138283
 20
-62.72124
 11
77.275332
 21
-62.816085
  0
LINE
  8
補助線
  6
DOT
 62
    64
 10
77.25423
 20
-62.700135
 11
77.159385
 21
-62.837187
  0
LINE
  8
補助線
  6
DOT
 62
    64
 10
68.01088
 20
-56.40455
 11
68.14793
 21
-56.499392
  0
LINE
  8
補助線
  6
DOT
 62
    64
 10
68.126828
 20
-56.383445
 11
68.031983
 21
-56.520495
  0
LINE
  8
補助線
  6
DOT
 62
    64
 10
59.020528
 20
-50.182702
 11
58.88348
 21
-50.087857
  0
LINE
  8
補助線
  6
DOT
 62
    64
 10
58.999427
 20
-50.066752
 11
58.90458
 21
-50.203805
  0
LINE
  8
型材断面
  6
DOT
 10
77.955127
 20
-62.273115
 11
78.081738
 21
-62.968795
  0
LINE
  8
型材断面
  6
DOT
 10
78.081738
 20
-62.968795
 11
77.702355
 21
-63.516985
  0
LINE
  8
型材断面
  6
DOT
 10
77.702355
 20
-63.516985
 11
77.006675
 21
-63.643595
  0
LINE
  8
型材断面
  6
DOT
 10
59.152135
 20
-49.26035
 11
58.456455
 21
-49.38696
  0
LINE
  8
型材断面
  6
DOT
 10
58.456455
 20
-49.38696
 11
58.077073
 21
-49.93515
  0
LINE
  8
型材断面
  6
DOT
 10
58.077073
 20
-49.93515
 11
58.203682
 21
-50.63083
  0
LINE
  8
型材断面
  6
DOT
 10
77.955127
 20
-62.273115
 11
59.152135
 21
-49.26035
  0
LINE
  8
型材断面
  6
DOT
 10
77.006675
 20
-63.643595
 11
58.203682
 21
-50.63083
  0
CIRCLE
  8
ボルト／ビス
  6
DOT
 10
77.206807
 20
-62.768663
 40
0.250185
  0
CIRCLE
  8
ボルト／ビス
  6
DOT
 10
77.206807
 20
-62.768663
 40
0.301025
  0
LINE
  8
ボルト／ビス
  6
DOT
 62
    64
 10
77.456157
 20
-62.7891
 11
77.34918
 21
-62.56294
  0
LINE
  8
ボルト／ビス
  6
DOT
 62
    64
 10
77.09983
 20
-62.542502
 11
77.34918
 21
-62.56294
  0
LINE
  8
ボルト／ビス
  6
DOT
 62
    64
 10
77.313785
 20
-62.994823
 11
77.064435
 21
-62.974385
  0
LINE
  8
ボルト／ビス
  6
DOT
 62
    64
 10
76.957458
 20
-62.748225
 11
77.064435
 21
-62.974385
  0
LINE
  8
ボルト／ビス
  6
DOT
 62
    64
 10
77.456157
 20
-62.7891
 11
77.313785
 21
-62.994823
  0
LINE
  8
ボルト／ビス
  6
DOT
 62
    64
 10
77.09983
 20
-62.542502
 11
76.957458
 21
-62.748225
  0
CIRCLE
  8
ボルト／ビス
  6
DOT
 62
    64
 10
77.206807
 20
-62.768663
 40
0.216668
  0
CIRCLE
  8
ボルト／ビス
  6
DOT
 10
68.079405
 20
-56.45197
 40
0.250185
  0
CIRCLE
  8
ボルト／ビス
  6
DOT
 10
68.079405
 20
-56.45197
 40
0.301025
  0
LINE
  8
ボルト／ビス
  6
DOT
 62
    64
 10
68.328758
 20
-56.472408
 11
68.22178
 21
-56.246248
  0
LINE
  8
ボルト／ビス
  6
DOT
 62
    64
 10
67.972428
 20
-56.22581
 11
68.22178
 21
-56.246248
  0
LINE
  8
ボルト／ビス
  6
DOT
 62
    64
 10
68.186383
 20
-56.678132
 11
67.937032
 21
-56.657695
  0
LINE
  8
ボルト／ビス
  6
DOT
 62
    64
 10
67.830057
 20
-56.431535
 11
67.937032
 21
-56.657695
  0
LINE
  8
ボルト／ビス
  6
DOT
 62
    64
 10
68.328758
 20
-56.472408
 11
68.186383
 21
-56.678132
  0
LINE
  8
ボルト／ビス
  6
DOT
 62
    64
 10
67.972428
 20
-56.22581
 11
67.830057
 21
-56.431535
  0
CIRCLE
  8
ボルト／ビス
  6
DOT
 62
    64
 10
68.079405
 20
-56.45197
 40
0.216668
  0
CIRCLE
  8
ボルト／ビス
  6
DOT
 10
58.952002
 20
-50.13528
 40
0.250185
  0
CIRCLE
  8
ボルト／ビス
  6
DOT
 10
58.952002
 20
-50.13528
 40
0.301025
  0
LINE
  8
ボルト／ビス
  6
DOT
 62
    64
 10
58.845025
 20
-49.909117
 11
59.094375
 21
-49.929558
  0
LINE
  8
ボルト／ビス
  6
DOT
 62
    64
 10
59.201353
 20
-50.155717
 11
59.094375
 21
-49.929558
  0
LINE
  8
ボルト／ビス
  6
DOT
 62
    64
 10
58.702655
 20
-50.114843
 11
58.80963
 21
-50.341003
  0
LINE
  8
ボルト／ビス
  6
DOT
 62
    64
 10
59.05898
 20
-50.36144
 11
58.80963
 21
-50.341003
  0
LINE
  8
ボルト／ビス
  6
DOT
 62
    64
 10
58.845025
 20
-49.909117
 11
58.702655
 21
-50.114843
  0
LINE
  8
ボルト／ビス
  6
DOT
 62
    64
 10
59.201353
 20
-50.155717
 11
59.05898
 21
-50.36144
  0
CIRCLE
  8
ボルト／ビス
  6
DOT
 62
    64
 10
58.952002
 20
-50.13528
 40
0.216668
  0
ENDBLK
  0
BLOCK
  2
*GRP_0028
 70
    65
 10
0.0
 20
0.0
  0
LINE
  8
補助線
  6
DOT
 62
    64
 10
59.020528
 20
-62.72124
 11
58.883477
 21
-62.816085
  0
LINE
  8
補助線
  6
DOT
 62
    64
 10
58.90458
 20
-62.700135
 11
58.999425
 21
-62.837187
  0
LINE
  8
補助線
  6
DOT
 62
    64
 10
68.14793
 20
-56.40455
 11
68.01088
 21
-56.499392
  0
LINE
  8
補助線
  6
DOT
 62
    64
 10
68.031983
 20
-56.383445
 11
68.126828
 21
-56.520495
  0
LINE
  8
補助線
  6
DOT
 62
    64
 10
77.138283
 20
-50.182702
 11
77.27533
 21
-50.087857
  0
LINE
  8
補助線
  6
DOT
 62
    64
 10
77.159382
 20
-50.066752
 11
77.25423
 21
-50.203805
  0
LINE
  8
型材断面
  6
DOT
 10
58.203682
 20
-62.273115
 11
58.077073
 21
-62.968795
  0
LINE
  8
型材断面
  6
DOT
 10
58.077073
 20
-62.968795
 11
58.456455
 21
-63.516985
  0
LINE
  8
型材断面
  6
DOT
 10
58.456455
 20
-63.516985
 11
59.152135
 21
-63.643595
  0
LINE
  8
型材断面
  6
DOT
 10
77.006675
 20
-49.26035
 11
77.702355
 21
-49.38696
  0
LINE
  8
型材断面
  6
DOT
 10
77.702355
 20
-49.38696
 11
78.081738
 21
-49.93515
  0
LINE
  8
型材断面
  6
DOT
 10
78.081738
 20
-49.93515
 11
77.955127
 21
-50.63083
  0
LINE
  8
型材断面
  6
DOT
 10
58.203682
 20
-62.273115
 11
77.006675
 21
-49.26035
  0
LINE
  8
型材断面
  6
DOT
 10
59.152135
 20
-63.643595
 11
77.955127
 21
-50.63083
  0
CIRCLE
  8
ボルト／ビス
  6
DOT
 10
58.952002
 20
-62.768663
 40
0.250185
  0
CIRCLE
  8
ボルト／ビス
  6
DOT
 10
58.952002
 20
-62.768663
 40
0.301025
  0
LINE
  8
ボルト／ビス
  6
DOT
 62
    64
 10
58.702652
 20
-62.7891
 11
58.80963
 21
-62.56294
  0
LINE
  8
ボルト／ビス
  6
DOT
 62
    64
 10
59.05898
 20
-62.542502
 11
58.80963
 21
-62.56294
  0
LINE
  8
ボルト／ビス
  6
DOT
 62
    64
 10
58.845025
 20
-62.994823
 11
59.094375
 21
-62.974385
  0
LINE
  8
ボルト／ビス
  6
DOT
 62
    64
 10
59.201353
 20
-62.748225
 11
59.094375
 21
-62.974385
  0
LINE
  8
ボルト／ビス
  6
DOT
 62
    64
 10
58.702652
 20
-62.7891
 11
58.845025
 21
-62.994823
  0
LINE
  8
ボルト／ビス
  6
DOT
 62
    64
 10
59.05898
 20
-62.542502
 11
59.201353
 21
-62.748225
  0
CIRCLE
  8
ボルト／ビス
  6
DOT
 62
    64
 10
58.952002
 20
-62.768663
 40
0.216668
  0
CIRCLE
  8
ボルト／ビス
  6
DOT
 10
68.079405
 20
-56.45197
 40
0.250185
  0
CIRCLE
  8
ボルト／ビス
  6
DOT
 10
68.079405
 20
-56.45197
 40
0.301025
  0
LINE
  8
ボルト／ビス
  6
DOT
 62
    64
 10
67.830053
 20
-56.472408
 11
67.93703
 21
-56.246248
  0
LINE
  8
ボルト／ビス
  6
DOT
 62
    64
 10
68.186383
 20
-56.22581
 11
67.93703
 21
-56.246248
  0
LINE
  8
ボルト／ビス
  6
DOT
 62
    64
 10
67.972428
 20
-56.678132
 11
68.221777
 21
-56.657695
  0
LINE
  8
ボルト／ビス
  6
DOT
 62
    64
 10
68.328752
 20
-56.431535
 11
68.221777
 21
-56.657695
  0
LINE
  8
ボルト／ビス
  6
DOT
 62
    64
 10
67.830053
 20
-56.472408
 11
67.972428
 21
-56.678132
  0
LINE
  8
ボルト／ビス
  6
DOT
 62
    64
 10
68.186383
 20
-56.22581
 11
68.328752
 21
-56.431535
  0
CIRCLE
  8
ボルト／ビス
  6
DOT
 62
    64
 10
68.079405
 20
-56.45197
 40
0.216668
  0
CIRCLE
  8
ボルト／ビス
  6
DOT
 10
77.206807
 20
-50.13528
 40
0.250185
  0
CIRCLE
  8
ボルト／ビス
  6
DOT
 10
77.206807
 20
-50.13528
 40
0.301025
  0
LINE
  8
ボルト／ビス
  6
DOT
 62
    64
 10
77.313785
 20
-49.909117
 11
77.064435
 21
-49.929558
  0
LINE
  8
ボルト／ビス
  6
DOT
 62
    64
 10
76.957458
 20
-50.155717
 11
77.064435
 21
-49.929558
  0
LINE
  8
ボルト／ビス
  6
DOT
 62
    64
 10
77.456155
 20
-50.114843
 11
77.34918
 21
-50.341003
  0
LINE
  8
ボルト／ビス
  6
DOT
 62
    64
 10
77.09983
 20
-50.36144
 11
77.34918
 21
-50.341003
  0
LINE
  8
ボルト／ビス
  6
DOT
 62
    64
 10
77.313785
 20
-49.909117
 11
77.456155
 21
-50.114843
  0
LINE
  8
ボルト／ビス
  6
DOT
 62
    64
 10
76.957458
 20
-50.155717
 11
77.09983
 21
-50.36144
  0
CIRCLE
  8
ボルト／ビス
  6
DOT
 62
    64
 10
77.206807
 20
-50.13528
 40
0.216668
  0
ENDBLK
  0
BLOCK
  2
*GRP_0029
 70
    65
 10
0.0
 20
0.0
  0
LINE
  8
補助線
  6
DOT
 62
    64
 10
4.488667
 20
-62.72124
 11
4.351618
 21
-62.816085
  0
LINE
  8
補助線
  6
DOT
 62
    64
 10
4.37272
 20
-62.700135
 11
4.467565
 21
-62.837187
  0
LINE
  8
補助線
  6
DOT
 62
    64
 10
13.61607
 20
-56.40455
 11
13.47902
 21
-56.499392
  0
LINE
  8
補助線
  6
DOT
 62
    64
 10
13.500122
 20
-56.383445
 11
13.594967
 21
-56.520495
  0
LINE
  8
補助線
  6
DOT
 62
    64
 10
22.606423
 20
-50.182702
 11
22.74347
 21
-50.087857
  0
LINE
  8
補助線
  6
DOT
 62
    64
 10
22.627522
 20
-50.066752
 11
22.72237
 21
-50.203805
  0
LINE
  8
型材断面
  6
DOT
 10
3.671823
 20
-62.273115
 11
3.545212
 21
-62.968795
  0
LINE
  8
型材断面
  6
DOT
 10
3.545212
 20
-62.968795
 11
3.924595
 21
-63.516985
  0
LINE
  8
型材断面
  6
DOT
 10
3.924595
 20
-63.516985
 11
4.620275
 21
-63.643595
  0
LINE
  8
型材断面
  6
DOT
 10
22.474815
 20
-49.26035
 11
23.170495
 21
-49.38696
  0
LINE
  8
型材断面
  6
DOT
 10
23.170495
 20
-49.38696
 11
23.549878
 21
-49.93515
  0
LINE
  8
型材断面
  6
DOT
 10
23.549878
 20
-49.93515
 11
23.423267
 21
-50.63083
  0
LINE
  8
型材断面
  6
DOT
 10
3.671823
 20
-62.273115
 11
22.474815
 21
-49.26035
  0
LINE
  8
型材断面
  6
DOT
 10
4.620275
 20
-63.643595
 11
23.423267
 21
-50.63083
  0
CIRCLE
  8
ボルト／ビス
  6
DOT
 10
4.420142
 20
-62.768663
 40
0.250185
  0
CIRCLE
  8
ボルト／ビス
  6
DOT
 10
4.420142
 20
-62.768663
 40
0.301025
  0
LINE
  8
ボルト／ビス
  6
DOT
 62
    64
 10
4.170793
 20
-62.7891
 11
4.27777
 21
-62.56294
  0
LINE
  8
ボルト／ビス
  6
DOT
 62
    64
 10
4.52712
 20
-62.542502
 11
4.27777
 21
-62.56294
  0
LINE
  8
ボルト／ビス
  6
DOT
 62
    64
 10
4.313165
 20
-62.994823
 11
4.562515
 21
-62.974385
  0
LINE
  8
ボルト／ビス
  6
DOT
 62
    64
 10
4.669492
 20
-62.748225
 11
4.562515
 21
-62.974385
  0
LINE
  8
ボルト／ビス
  6
DOT
 62
    64
 10
4.170793
 20
-62.7891
 11
4.313165
 21
-62.994823
  0
LINE
  8
ボルト／ビス
  6
DOT
 62
    64
 10
4.52712
 20
-62.542502
 11
4.669492
 21
-62.748225
  0
CIRCLE
  8
ボルト／ビス
  6
DOT
 62
    64
 10
4.420142
 20
-62.768663
 40
0.216668
  0
CIRCLE
  8
ボルト／ビス
  6
DOT
 10
13.547545
 20
-56.45197
 40
0.250185
  0
CIRCLE
  8
ボルト／ビス
  6
DOT
 10
13.547545
 20
-56.45197
 40
0.301025
  0
LINE
  8
ボルト／ビス
  6
DOT
 62
    64
 10
13.298193
 20
-56.472408
 11
13.40517
 21
-56.246248
  0
LINE
  8
ボルト／ビス
  6
DOT
 62
    64
 10
13.654522
 20
-56.22581
 11
13.40517
 21
-56.246248
  0
LINE
  8
ボルト／ビス
  6
DOT
 62
    64
 10
13.440567
 20
-56.678132
 11
13.689918
 21
-56.657695
  0
LINE
  8
ボルト／ビス
  6
DOT
 62
    64
 10
13.796892
 20
-56.431535
 11
13.689918
 21
-56.657695
  0
LINE
  8
ボルト／ビス
  6
DOT
 62
    64
 10
13.298193
 20
-56.472408
 11
13.440567
 21
-56.678132
  0
LINE
  8
ボルト／ビス
  6
DOT
 62
    64
 10
13.654522
 20
-56.22581
 11
13.796892
 21
-56.431535
  0
CIRCLE
  8
ボルト／ビス
  6
DOT
 62
    64
 10
13.547545
 20
-56.45197
 40
0.216668
  0
CIRCLE
  8
ボルト／ビス
  6
DOT
 10
22.674948
 20
-50.13528
 40
0.250185
  0
CIRCLE
  8
ボルト／ビス
  6
DOT
 10
22.674948
 20
-50.13528
 40
0.301025
  0
LINE
  8
ボルト／ビス
  6
DOT
 62
    64
 10
22.781925
 20
-49.909117
 11
22.532575
 21
-49.929558
  0
LINE
  8
ボルト／ビス
  6
DOT
 62
    64
 10
22.425598
 20
-50.155717
 11
22.532575
 21
-49.929558
  0
LINE
  8
ボルト／ビス
  6
DOT
 62
    64
 10
22.924295
 20
-50.114843
 11
22.81732
 21
-50.341003
  0
LINE
  8
ボルト／ビス
  6
DOT
 62
    64
 10
22.56797
 20
-50.36144
 11
22.81732
 21
-50.341003
  0
LINE
  8
ボルト／ビス
  6
DOT
 62
    64
 10
22.781925
 20
-49.909117
 11
22.924295
 21
-50.114843
  0
LINE
  8
ボルト／ビス
  6
DOT
 62
    64
 10
22.425598
 20
-50.155717
 11
22.56797
 21
-50.36144
  0
CIRCLE
  8
ボルト／ビス
  6
DOT
 62
    64
 10
22.674948
 20
-50.13528
 40
0.216668
  0
ENDBLK
  0
BLOCK
  2
*GRP_0030
 70
    65
 10
0.0
 20
0.0
  0
LINE
  8
補助線
  6
DOT
 62
    64
 10
22.606423
 20
-62.72124
 11
22.743472
 21
-62.816085
  0
LINE
  8
補助線
  6
DOT
 62
    64
 10
22.72237
 20
-62.700135
 11
22.627525
 21
-62.837187
  0
LINE
  8
補助線
  6
DOT
 62
    64
 10
13.47902
 20
-56.40455
 11
13.61607
 21
-56.499392
  0
LINE
  8
補助線
  6
DOT
 62
    64
 10
13.594967
 20
-56.383445
 11
13.500122
 21
-56.520495
  0
LINE
  8
補助線
  6
DOT
 62
    64
 10
4.488667
 20
-50.182702
 11
4.35162
 21
-50.087857
  0
LINE
  8
補助線
  6
DOT
 62
    64
 10
4.467568
 20
-50.066752
 11
4.37272
 21
-50.203805
  0
LINE
  8
型材断面
  6
DOT
 10
23.423267
 20
-62.273115
 11
23.549878
 21
-62.968795
  0
LINE
  8
型材断面
  6
DOT
 10
23.549878
 20
-62.968795
 11
23.170495
 21
-63.516985
  0
LINE
  8
型材断面
  6
DOT
 10
23.170495
 20
-63.516985
 11
22.474815
 21
-63.643595
  0
LINE
  8
型材断面
  6
DOT
 10
4.620275
 20
-49.26035
 11
3.924595
 21
-49.38696
  0
LINE
  8
型材断面
  6
DOT
 10
3.924595
 20
-49.38696
 11
3.545212
 21
-49.93515
  0
LINE
  8
型材断面
  6
DOT
 10
3.545212
 20
-49.93515
 11
3.671823
 21
-50.63083
  0
LINE
  8
型材断面
  6
DOT
 10
23.423267
 20
-62.273115
 11
4.620275
 21
-49.26035
  0
LINE
  8
型材断面
  6
DOT
 10
22.474815
 20
-63.643595
 11
3.671823
 21
-50.63083
  0
CIRCLE
  8
ボルト／ビス
  6
DOT
 10
22.674948
 20
-62.768663
 40
0.250185
  0
CIRCLE
  8
ボルト／ビス
  6
DOT
 10
22.674948
 20
-62.768663
 40
0.301025
  0
LINE
  8
ボルト／ビス
  6
DOT
 62
    64
 10
22.924297
 20
-62.7891
 11
22.81732
 21
-62.56294
  0
LINE
  8
ボルト／ビス
  6
DOT
 62
    64
 10
22.56797
 20
-62.542502
 11
22.81732
 21
-62.56294
  0
LINE
  8
ボルト／ビス
  6
DOT
 62
    64
 10
22.781925
 20
-62.994823
 11
22.532575
 21
-62.974385
  0
LINE
  8
ボルト／ビス
  6
DOT
 62
    64
 10
22.425598
 20
-62.748225
 11
22.532575
 21
-62.974385
  0
LINE
  8
ボルト／ビス
  6
DOT
 62
    64
 10
22.924297
 20
-62.7891
 11
22.781925
 21
-62.994823
  0
LINE
  8
ボルト／ビス
  6
DOT
 62
    64
 10
22.56797
 20
-62.542502
 11
22.425598
 21
-62.748225
  0
CIRCLE
  8
ボルト／ビス
  6
DOT
 62
    64
 10
22.674948
 20
-62.768663
 40
0.216668
  0
CIRCLE
  8
ボルト／ビス
  6
DOT
 10
13.547545
 20
-56.45197
 40
0.250185
  0
CIRCLE
  8
ボルト／ビス
  6
DOT
 10
13.547545
 20
-56.45197
 40
0.301025
  0
LINE
  8
ボルト／ビス
  6
DOT
 62
    64
 10
13.796897
 20
-56.472408
 11
13.68992
 21
-56.246248
  0
LINE
  8
ボルト／ビス
  6
DOT
 62
    64
 10
13.440567
 20
-56.22581
 11
13.68992
 21
-56.246248
  0
LINE
  8
ボルト／ビス
  6
DOT
 62
    64
 10
13.654522
 20
-56.678132
 11
13.405172
 21
-56.657695
  0
LINE
  8
ボルト／ビス
  6
DOT
 62
    64
 10
13.298198
 20
-56.431535
 11
13.405172
 21
-56.657695
  0
LINE
  8
ボルト／ビス
  6
DOT
 62
    64
 10
13.796897
 20
-56.472408
 11
13.654522
 21
-56.678132
  0
LINE
  8
ボルト／ビス
  6
DOT
 62
    64
 10
13.440567
 20
-56.22581
 11
13.298198
 21
-56.431535
  0
CIRCLE
  8
ボルト／ビス
  6
DOT
 62
    64
 10
13.547545
 20
-56.45197
 40
0.216668
  0
CIRCLE
  8
ボルト／ビス
  6
DOT
 10
4.420142
 20
-50.13528
 40
0.250185
  0
CIRCLE
  8
ボルト／ビス
  6
DOT
 10
4.420142
 20
-50.13528
 40
0.301025
  0
LINE
  8
ボルト／ビス
  6
DOT
 62
    64
 10
4.313165
 20
-49.909117
 11
4.562515
 21
-49.929558
  0
LINE
  8
ボルト／ビス
  6
DOT
 62
    64
 10
4.669492
 20
-50.155717
 11
4.562515
 21
-49.929558
  0
LINE
  8
ボルト／ビス
  6
DOT
 62
    64
 10
4.170795
 20
-50.114843
 11
4.27777
 21
-50.341003
  0
LINE
  8
ボルト／ビス
  6
DOT
 62
    64
 10
4.52712
 20
-50.36144
 11
4.27777
 21
-50.341003
  0
LINE
  8
ボルト／ビス
  6
DOT
 62
    64
 10
4.313165
 20
-49.909117
 11
4.170795
 21
-50.114843
  0
LINE
  8
ボルト／ビス
  6
DOT
 62
    64
 10
4.669492
 20
-50.155717
 11
4.52712
 21
-50.36144
  0
CIRCLE
  8
ボルト／ビス
  6
DOT
 62
    64
 10
4.420142
 20
-50.13528
 40
0.216668
  0
ENDBLK
  0
BLOCK
  2
*DIM_0031
 70
    65
 10
0.0
 20
0.0
  0
LINE
  8
寸法
  6
BYBLOCK
 62
     0
 10
87.3818
 20
-61.232865
 11
99.111943
 21
-61.232865
  0
LINE
  8
寸法
  6
BYBLOCK
 62
     0
 10
87.3818
 20
-51.232865
 11
99.111943
 21
-51.232865
  0
LINE
  8
寸法
  6
BYBLOCK
 62
     0
 10
99.111943
 20
-61.232865
 11
99.111943
 21
-51.232865
  0
POINT
  8
寸法
 62
     0
 10
99.111943
 20
-61.232865
  0
POINT
  8
寸法
 62
     0
 10
99.111943
 20
-51.232865
  0
TEXT
  7
TextStyle03
  8
寸法
  6
CONTINUOUS
 62
     0
 10
103.45
 20
-65.4125
  1
上昇高さ300
 40
3.0
 50
90.0
 72
     5
 11
103.45
 21
-47.0375
  0
ENDBLK
  0
BLOCK
  2
*DIM_0032
 70
    65
 10
0.0
 20
0.0
  0
LINE
  8
寸法
  6
CONTINUOUS
 10
96.853843
 20
9.772983
 11
96.853843
 21
3.758432
  0
LINE
  8
寸法
  6
CONTINUOUS
 10
128.402552
 20
9.772983
 11
128.402552
 21
3.758432
  0
LINE
  8
寸法
  6
CONTINUOUS
 10
96.853843
 20
3.758432
 11
128.402552
 21
3.758432
  0
POINT
  8
寸法
 10
96.853843
 20
3.758432
  0
POINT
  8
寸法
 10
128.402552
 20
3.758432
  0
TEXT
  7
TextStyle03
  8
寸法
  6
CONTINUOUS
 10
108.5
 20
4.125
  1
946.5
 40
3.0
 72
     5
 11
116.75
 21
4.125
  0
ENDBLK
  0
BLOCK
  2
*DIM_0033
 70
    65
 10
0.0
 20
0.0
  0
LINE
  8
寸法
  6
CONTINUOUS
 10
129.402552
 20
10.772983
 11
135.763532
 21
10.772983
  0
LINE
  8
寸法
  6
CONTINUOUS
 10
113.628197
 20
33.081285
 11
135.763532
 21
33.081285
  0
LINE
  8
寸法
  6
CONTINUOUS
 10
135.763532
 20
10.772983
 11
135.763532
 21
33.081285
  0
POINT
  8
寸法
 10
135.763532
 20
10.772983
  0
POINT
  8
寸法
 10
135.763532
 20
33.081285
  0
TEXT
  7
TextStyle03
  8
寸法
  6
CONTINUOUS
 10
135.375
 20
17.8
  1
669.3
 40
3.0
 50
90.0
 72
     5
 11
135.375
 21
26.05
  0
ENDBLK
  0
BLOCK
  2
*DIM_0034
 70
    65
 10
0.0
 20
0.0
  0
LINE
  8
寸法
  6
CONTINUOUS
 10
90.884048
 20
54.14798
 11
90.884048
 21
49.056853
  0
LINE
  8
寸法
  6
CONTINUOUS
 10
130.908405
 20
54.14798
 11
130.908405
 21
49.056853
  0
LINE
  8
寸法
  6
CONTINUOUS
 10
90.884048
 20
49.056853
 11
130.908405
 21
49.056853
  0
POINT
  8
寸法
 10
90.884048
 20
49.056853
  0
POINT
  8
寸法
 10
130.908405
 20
49.056853
  0
TEXT
  7
TextStyle03
  8
寸法
  6
CONTINUOUS
 10
105.90625
 20
49.425
  1
1200.7
 40
3.0
 72
     5
 11
115.84375
 21
49.425
  0
ENDBLK
  0
BLOCK
  2
*DIM_0035
 70
    65
 10
0.0
 20
0.0
  0
LINE
  8
寸法
  6
CONTINUOUS
 10
107.292935
 20
79.353648
 11
107.292935
 21
83.955525
  0
LINE
  8
寸法
  6
CONTINUOUS
 10
130.908405
 20
79.353648
 11
130.908405
 21
83.955525
  0
LINE
  8
寸法
  6
CONTINUOUS
 10
107.292935
 20
83.955525
 11
130.908405
 21
83.955525
  0
POINT
  8
寸法
 10
107.292935
 20
83.955525
  0
POINT
  8
寸法
 10
130.908405
 20
83.955525
  0
TEXT
  7
TextStyle03
  8
寸法
  6
CONTINUOUS
 10
114.975
 20
84.325
  1
708.5
 40
3.0
 72
     5
 11
123.225
 21
84.325
  0
ENDBLK
  0
BLOCK
  2
*GRP_0036
 70
    65
 10
0.0
 20
0.0
  0
POLYLINE
  8
寸法
  6
BYBLOCK
 62
     0
 66
     1
  0
VERTEX
  8
寸法
 10
-34.551682
 20
52.370135
  0
VERTEX
  8
寸法
 10
-33.245742
 20
53.676075
  0
VERTEX
  8
寸法
 10
-19.43746
 20
53.676075
  0
SEQEND
  0
ENDBLK
  0
BLOCK
  2
*DIM_0037
 70
    65
 10
0.0
 20
0.0
  0
LINE
  8
寸法
  6
CONTINUOUS
 10
131.908405
 20
78.353648
 11
138.732495
 21
78.353648
  0
LINE
  8
寸法
  6
CONTINUOUS
 10
131.908405
 20
55.14798
 11
138.732495
 21
55.14798
  0
LINE
  8
寸法
  6
CONTINUOUS
 10
138.732495
 20
78.353648
 11
138.732495
 21
55.14798
  0
POINT
  8
寸法
 10
138.732495
 20
78.353648
  0
POINT
  8
寸法
 10
138.732495
 20
55.14798
  0
TEXT
  7
TextStyle03
  8
寸法
  6
CONTINUOUS
 10
138.35
 20
62.625
  1
696.1
 40
3.0
 50
90.0
 72
     5
 11
138.35
 21
70.875
  0
ENDBLK
  0
ENDSEC
  0
SECTION
  2
ENTITIES
  0
POLYLINE
  8
通り芯
  6
CONTINUOUS
 66
     1
 70
     1
  0
VERTEX
  8
通り芯
 10
-210.0
 20
-148.5
  0
VERTEX
  8
通り芯
 10
210.0
 20
-148.5
  0
VERTEX
  8
通り芯
 10
210.0
 20
148.5
  0
VERTEX
  8
通り芯
 10
-210.0
 20
148.5
  0
SEQEND
  0
INSERT
  2
*GRP_0001
  8
型材断面
  6
CONTINUOUS
 10
0.0
 20
0.0
  0
LINE
  8
型材断面
  6
CONTINUOUS
 10
-27.140327
 20
38.962578
 11
-24.54982
 21
39.558635
  0
LINE
  8
型材断面
  6
CONTINUOUS
 10
-27.140327
 20
38.962578
 11
-24.54982
 21
38.36652
  0
LINE
  8
型材断面
  6
CONTINUOUS
 10
-24.54982
 20
38.36652
 11
-24.54982
 21
39.558635
  0
LINE
  8
型材断面
  6
CONTINUOUS
 10
-27.140327
 20
61.562578
 11
-24.54982
 21
60.96652
  0
LINE
  8
型材断面
  6
CONTINUOUS
 10
-27.140327
 20
61.562578
 11
-24.54982
 21
62.158635
  0
LINE
  8
型材断面
  6
CONTINUOUS
 10
-24.54982
 20
62.158635
 11
-24.54982
 21
60.96652
  0
LINE
  8
型材断面
  6
CONTINUOUS
 10
-117.838813
 20
38.962578
 11
-120.42932
 21
39.558635
  0
LINE
  8
型材断面
  6
CONTINUOUS
 10
-117.838813
 20
38.962578
 11
-120.42932
 21
38.36652
  0
LINE
  8
型材断面
  6
CONTINUOUS
 10
-120.42932
 20
38.36652
 11
-120.42932
 21
39.558635
  0
LINE
  8
型材断面
  6
CONTINUOUS
 10
-117.838813
 20
61.562578
 11
-120.42932
 21
60.96652
  0
LINE
  8
型材断面
  6
CONTINUOUS
 10
-117.838813
 20
61.562578
 11
-120.42932
 21
62.158635
  0
LINE
  8
型材断面
  6
CONTINUOUS
 10
-120.42932
 20
62.158635
 11
-120.42932
 21
60.96652
  0
LINE
  8
型材断面
  6
CONTINUOUS
 10
-24.647008
 20
16.357582
 11
-24.05095
 21
13.767078
  0
LINE
  8
型材断面
  6
CONTINUOUS
 10
-24.647008
 20
16.357582
 11
-25.243065
 21
13.767078
  0
LINE
  8
型材断面
  6
CONTINUOUS
 10
-25.243065
 20
13.767078
 11
-24.05095
 21
13.767078
  0
LINE
  8
型材断面
  6
CONTINUOUS
 10
-28.003658
 20
10.323133
 11
10.071655
 21
10.323133
  0
LINE
  8
型材断面
  6
DASHDOT
 10
-32.48957
 20
-65.95488
 11
-32.48957
 21
65.262578
  0
LINE
  8
型材断面
  6
DASHDOT
 10
-112.48957
 20
-65.95488
 11
-112.48957
 21
65.262578
  0
LINE
  8
型材断面
  6
DASHDOT
 10
62.528025
 20
35.262578
 11
-112.48957
 21
35.262578
  0
LINE
  8
型材断面
  6
DASHDOT
 10
62.528025
 20
65.262578
 11
-112.48957
 21
65.262578
  0
LINE
  8
型材断面
  6
CONTINUOUS
 10
-99.02918
 20
48.72297
 11
-99.02918
 21
49.66009
  0
LINE
  8
型材断面
  6
CONTINUOUS
 10
-99.02918
 20
48.72297
 11
-98.09206
 21
48.72297
  0
LINE
  8
型材断面
  6
CONTINUOUS
 10
-98.426692
 20
50.262578
 11
-99.02918
 21
49.66009
  0
LINE
  8
型材断面
  6
CONTINUOUS
 10
-99.02918
 20
48.72297
 11
-97.489573
 21
50.262578
  0
LINE
  8
型材断面
  6
CONTINUOUS
 10
-98.09206
 20
48.72297
 11
-97.747462
 21
49.067568
  0
LINE
  8
型材断面
  6
CONTINUOUS
 10
-97.747462
 20
49.067568
 11
-97.489573
 21
50.262578
  0
LINE
  8
型材断面
  6
CONTINUOUS
 10
-99.02918
 20
51.802185
 11
-99.02918
 21
50.865065
  0
LINE
  8
型材断面
  6
CONTINUOUS
 10
-99.02918
 20
51.802185
 11
-98.09206
 21
51.802185
  0
LINE
  8
型材断面
  6
CONTINUOUS
 10
-98.426692
 20
50.262578
 11
-99.02918
 21
50.865065
  0
LINE
  8
型材断面
  6
CONTINUOUS
 10
-99.02918
 20
51.802185
 11
-97.489573
 21
50.262578
  0
LINE
  8
型材断面
  6
CONTINUOUS
 10
-98.09206
 20
51.802185
 11
-97.747462
 21
51.457588
  0
LINE
  8
型材断面
  6
CONTINUOUS
 10
-97.747462
 20
51.457588
 11
-97.489573
 21
50.262578
  0
LINE
  8
型材断面
  6
CONTINUOUS
 10
-45.94996
 20
48.72297
 11
-45.94996
 21
49.66009
  0
LINE
  8
型材断面
  6
CONTINUOUS
 10
-45.94996
 20
48.72297
 11
-46.88708
 21
48.72297
  0
LINE
  8
型材断面
  6
CONTINUOUS
 10
-46.552448
 20
50.262578
 11
-45.94996
 21
49.66009
  0
LINE
  8
型材断面
  6
CONTINUOUS
 10
-45.94996
 20
48.72297
 11
-47.489567
 21
50.262578
  0
LINE
  8
型材断面
  6
CONTINUOUS
 10
-46.88708
 20
48.72297
 11
-47.231678
 21
49.067568
  0
LINE
  8
型材断面
  6
CONTINUOUS
 10
-47.231678
 20
49.067568
 11
-47.489567
 21
50.262578
  0
LINE
  8
型材断面
  6
CONTINUOUS
 10
-45.94996
 20
51.802185
 11
-45.94996
 21
50.865065
  0
LINE
  8
型材断面
  6
CONTINUOUS
 10
-45.94996
 20
51.802185
 11
-46.88708
 21
51.802185
  0
LINE
  8
型材断面
  6
CONTINUOUS
 10
-46.552448
 20
50.262578
 11
-45.94996
 21
50.865065
  0
LINE
  8
型材断面
  6
CONTINUOUS
 10
-45.94996
 20
51.802185
 11
-47.489567
 21
50.262578
  0
LINE
  8
型材断面
  6
CONTINUOUS
 10
-46.88708
 20
51.802185
 11
-47.231678
 21
51.457588
  0
LINE
  8
型材断面
  6
CONTINUOUS
 10
-47.231678
 20
51.457588
 11
-47.489567
 21
50.262578
  0
LINE
  8
型材断面
  6
CONTINUOUS
 10
-95.728643
 20
51.378177
 11
-49.250497
 21
51.378177
  0
LINE
  8
型材断面
  6
CONTINUOUS
 10
-95.728643
 20
49.146977
 11
-49.250497
 21
49.146977
  0
LINE
  8
型材断面
  6
CONTINUOUS
 10
-116.656235
 20
69.42924
 11
-28.322905
 21
69.42924
  0
LINE
  8
型材断面
  6
CONTINUOUS
 10
-47.489567
 20
50.262578
 11
-28.322905
 21
31.095915
  0
LINE
  8
型材断面
  6
CONTINUOUS
 10
-28.322905
 20
69.42924
 11
-28.322905
 21
31.095915
  0
LINE
  8
型材断面
  6
CONTINUOUS
 10
-116.656235
 20
69.42924
 11
-116.656235
 21
31.095915
  0
LINE
  8
型材断面
  6
CONTINUOUS
 10
-28.322905
 20
31.095915
 11
-116.656235
 21
31.095915
  0
LINE
  8
型材断面
  6
CONTINUOUS
 10
-97.489573
 20
50.262578
 11
-116.656235
 21
31.095915
  0
LINE
  8
型材断面
  6
CONTINUOUS
 10
-97.489573
 20
50.262578
 11
-116.656235
 21
69.42924
  0
LINE
  8
型材断面
  6
DOT
 10
-111.156238
 20
65.262578
 11
-111.156238
 21
35.262578
  0
LINE
  8
型材断面
  6
DOT
 10
-109.822905
 20
65.262578
 11
-109.822905
 21
35.262578
  0
LINE
  8
型材断面
  6
CONTINUOUS
 10
-47.489567
 20
50.262578
 11
-28.322905
 21
69.42924
  0
LINE
  8
型材断面
  6
DOT
 10
-35.156235
 20
65.262578
 11
-35.156235
 21
35.262578
  0
LINE
  8
型材断面
  6
DOT
 10
-33.822902
 20
65.262578
 11
-33.822902
 21
35.262578
  0
LINE
  8
型材断面
  6
DASHDOT
 10
-72.48957
 20
65.262578
 11
-72.48957
 21
-65.311432
  0
LINE
  8
型材断面
  6
CONTINUOUS
 10
-115.252905
 20
-65.311432
 11
-115.252905
 21
-61.408097
  0
LINE
  8
型材断面
  6
CONTINUOUS
 10
-115.252905
 20
-61.408097
 11
-115.07767
 21
-61.232865
  0
LINE
  8
型材断面
  6
CONTINUOUS
 10
-116.656238
 20
-58.554748
 11
-116.656238
 21
-60.76621
  0
LINE
  8
型材断面
  6
CONTINUOUS
 10
-115.822905
 20
-60.766197
 11
-115.822905
 21
-61.232865
  0
LINE
  8
型材断面
  6
CONTINUOUS
 10
-114.419572
 20
-65.311432
 11
-114.419572
 21
-65.648098
  0
LINE
  8
型材断面
  6
CONTINUOUS
 10
-29.726235
 20
-65.311432
 11
-29.726235
 21
-61.408097
  0
LINE
  8
型材断面
  6
CONTINUOUS
 10
-29.726235
 20
-61.408097
 11
-29.90147
 21
-61.232865
  0
LINE
  8
型材断面
  6
CONTINUOUS
 10
-28.322902
 20
-58.554748
 11
-28.322902
 21
-60.76621
  0
LINE
  8
型材断面
  6
CONTINUOUS
 10
-29.156235
 20
-60.766197
 11
-29.156235
 21
-61.232865
  0
LINE
  8
型材断面
  6
CONTINUOUS
 10
-30.559567
 20
-65.311432
 11
-30.559567
 21
-65.648098
  0
LINE
  8
型材断面
  6
CONTINUOUS
 10
-115.252905
 20
-61.408112
 11
-29.726235
 21
-61.408112
  0
LINE
  8
型材断面
  6
CONTINUOUS
 10
-115.252905
 20
-65.311432
 11
-29.726235
 21
-65.311432
  0
LINE
  8
型材断面
  6
CONTINUOUS
 10
-114.419572
 20
-65.648098
 11
-30.559567
 21
-65.648098
  0
LINE
  8
型材断面
  6
CONTINUOUS
 10
-116.656238
 20
-60.76621
 11
-28.322902
 21
-60.76621
  0
LINE
  8
型材断面
  6
CONTINUOUS
 10
-115.822905
 20
-61.232865
 11
-29.156235
 21
-61.232865
  0
LINE
  8
型材断面
  6
CONTINUOUS
 10
-116.656238
 20
-58.554748
 11
-28.322902
 21
-58.554748
  0
LINE
  8
型材断面
  6
CONTINUOUS
 10
-116.691593
 20
-58.472235
 11
-98.88762
 21
-40.668265
  0
LINE
  8
型材断面
  6
CONTINUOUS
 10
-116.656238
 20
-58.507593
 11
-98.816907
 21
-40.668265
  0
LINE
  8
型材断面
  6
CONTINUOUS
 10
-95.61074
 20
-39.15225
 11
-49.3684
 21
-39.15225
  0
LINE
  8
型材断面
  6
CONTINUOUS
 10
-97.63715
 20
-40.331262
 11
-47.34199
 21
-40.331262
  0
LINE
  8
型材断面
  6
CONTINUOUS
 10
-28.287547
 20
-58.472235
 11
-46.09152
 21
-40.668265
  0
LINE
  8
型材断面
  6
CONTINUOUS
 10
-28.322902
 20
-58.507593
 11
-46.162233
 21
-40.668265
  0
LINE
  8
型材断面
  6
DASHDOT
 10
-112.48957
 20
50.262578
 11
62.401245
 21
50.262578
  0
LINE
  8
型材断面
  6
CONTINUOUS
 10
55.597405
 20
69.429242
 11
55.562047
 21
69.464597
  0
LINE
  8
型材断面
  6
CONTINUOUS
 10
62.401245
 20
68.025913
 11
58.497912
 21
68.025913
  0
LINE
  8
型材断面
  6
CONTINUOUS
 10
58.497912
 20
68.025913
 11
58.322677
 21
67.850677
  0
LINE
  8
型材断面
  6
CONTINUOUS
 10
55.64456
 20
69.429242
 11
57.856022
 21
69.429242
  0
LINE
  8
型材断面
  6
CONTINUOUS
 10
57.856012
 20
68.59591
 11
58.322677
 21
68.59591
  0
LINE
  8
型材断面
  6
CONTINUOUS
 10
62.401245
 20
67.192577
 11
62.737912
 21
67.192577
  0
LINE
  8
型材断面
  6
CONTINUOUS
 10
62.401245
 20
32.499243
 11
58.497912
 21
32.499243
  0
LINE
  8
型材断面
  6
CONTINUOUS
 10
58.497912
 20
32.499243
 11
58.322677
 21
32.674477
  0
LINE
  8
型材断面
  6
CONTINUOUS
 10
55.64456
 20
31.09591
 11
57.856022
 21
31.09591
  0
LINE
  8
型材断面
  6
CONTINUOUS
 10
57.856012
 20
31.929242
 11
58.322677
 21
31.929242
  0
LINE
  8
型材断面
  6
CONTINUOUS
 10
62.401245
 20
33.332575
 11
62.737912
 21
33.332575
  0
LINE
  8
型材断面
  6
CONTINUOUS
 10
55.64456
 20
69.429242
 11
55.64456
 21
31.09591
  0
LINE
  8
型材断面
  6
CONTINUOUS
 10
57.856022
 20
69.429242
 11
57.856022
 21
31.09591
  0
LINE
  8
型材断面
  6
CONTINUOUS
 10
58.322677
 20
68.59591
 11
58.322677
 21
31.929242
  0
LINE
  8
型材断面
  6
CONTINUOUS
 10
58.497925
 20
68.025913
 11
58.497925
 21
32.499243
  0
LINE
  8
型材断面
  6
CONTINUOUS
 10
62.401245
 20
68.025913
 11
62.401245
 21
32.499243
  0
LINE
  8
型材断面
  6
CONTINUOUS
 10
62.737912
 20
67.192577
 11
62.737912
 21
33.332575
  0
LINE
  8
型材断面
  6
CONTINUOUS
 10
55.597405
 20
31.09591
 11
36.43074
 21
50.262578
  0
LINE
  8
型材断面
  6
CONTINUOUS
 10
55.597405
 20
69.429242
 11
36.43074
 21
50.262578
  0
LINE
  8
型材断面
  6
CONTINUOUS
 10
55.562047
 20
69.464597
 11
36.36003
 21
50.262578
  0
LINE
  8
型材断面
  6
CONTINUOUS
 10
55.562047
 20
31.060555
 11
36.36003
 21
50.262578
  0
LINE
  8
型材断面
  6
CONTINUOUS
 10
37.06686
 20
50.262575
 11
36.12405
 21
50.262575
  0
LINE
  8
型材断面
  6
CONTINUOUS
 10
37.06686
 20
50.262575
 11
36.12405
 21
50.262575
  0
LINE
  8
型材断面
  6
CONTINUOUS
 10
37.62405
 20
48.762575
 11
37.67119
 21
48.809715
  0
LINE
  8
型材断面
  6
CONTINUOUS
 10
37.67119
 20
48.809715
 11
37.67119
 21
49.658243
  0
LINE
  8
型材断面
  6
CONTINUOUS
 10
36.12405
 20
50.262575
 11
37.62405
 21
48.762575
  0
LINE
  8
型材断面
  6
CONTINUOUS
 10
37.066857
 20
50.262575
 11
37.67119
 21
49.658243
  0
LINE
  8
型材断面
  6
CONTINUOUS
 10
37.62405
 20
51.762965
 11
37.67119
 21
51.715825
  0
LINE
  8
型材断面
  6
CONTINUOUS
 10
37.67119
 20
51.715825
 11
37.67119
 21
50.867297
  0
LINE
  8
型材断面
  6
CONTINUOUS
 10
37.066857
 20
50.262575
 11
37.67119
 21
50.866905
  0
LINE
  8
型材断面
  6
CONTINUOUS
 10
36.12405
 20
50.262575
 11
37.624245
 21
51.76277
  0
LINE
  8
型材断面
  6
CONTINUOUS
 10
37.342778
 20
51.363305
 11
37.401767
 21
51.304315
  0
LINE
  8
型材断面
  6
CONTINUOUS
 10
37.342778
 20
51.363305
 11
36.24205
 21
50.262575
  0
LINE
  8
型材断面
  6
CONTINUOUS
 10
37.342778
 20
49.161845
 11
37.401767
 21
49.220835
  0
LINE
  8
型材断面
  6
CONTINUOUS
 10
37.342778
 20
49.161845
 11
36.24205
 21
50.262575
  0
LINE
  8
型材断面
  6
CONTINUOUS
 10
-1.94986
 20
-65.311432
 11
-1.94986
 21
-61.408097
  0
LINE
  8
型材断面
  6
CONTINUOUS
 10
-1.94986
 20
-61.408097
 11
-1.774625
 21
-61.232865
  0
LINE
  8
型材断面
  6
CONTINUOUS
 10
-3.353193
 20
-58.554748
 11
-3.353193
 21
-60.76621
  0
LINE
  8
型材断面
  6
CONTINUOUS
 10
-2.51986
 20
-60.766197
 11
-2.51986
 21
-61.232865
  0
LINE
  8
型材断面
  6
CONTINUOUS
 10
-1.116528
 20
-65.311432
 11
-1.116528
 21
-65.648098
  0
LINE
  8
型材断面
  6
CONTINUOUS
 10
83.57681
 20
-65.311432
 11
83.57681
 21
-61.408097
  0
LINE
  8
型材断面
  6
CONTINUOUS
 10
83.57681
 20
-61.408097
 11
83.401575
 21
-61.232865
  0
LINE
  8
型材断面
  6
CONTINUOUS
 10
84.980142
 20
-58.554748
 11
84.980142
 21
-60.76621
  0
LINE
  8
型材断面
  6
CONTINUOUS
 10
84.14681
 20
-60.766197
 11
84.14681
 21
-61.232865
  0
LINE
  8
型材断面
  6
CONTINUOUS
 10
82.743477
 20
-65.311432
 11
82.743477
 21
-65.648098
  0
LINE
  8
型材断面
  6
CONTINUOUS
 10
-1.94986
 20
-61.408112
 11
83.57681
 21
-61.408112
  0
LINE
  8
型材断面
  6
CONTINUOUS
 10
-1.94986
 20
-65.311432
 11
83.57681
 21
-65.311432
  0
LINE
  8
型材断面
  6
CONTINUOUS
 10
-1.116528
 20
-65.648098
 11
82.743477
 21
-65.648098
  0
LINE
  8
型材断面
  6
CONTINUOUS
 10
-3.353193
 20
-60.76621
 11
84.980142
 21
-60.76621
  0
LINE
  8
型材断面
  6
CONTINUOUS
 10
-2.51986
 20
-61.232865
 11
84.14681
 21
-61.232865
  0
LINE
  8
型材断面
  6
CONTINUOUS
 10
-3.353193
 20
-58.554748
 11
84.980142
 21
-58.554748
  0
LINE
  8
型材断面
  6
CONTINUOUS
 10
-3.388548
 20
-58.472235
 11
14.415425
 21
-40.668265
  0
LINE
  8
型材断面
  6
CONTINUOUS
 10
-3.353193
 20
-58.507593
 11
14.486138
 21
-40.668265
  0
LINE
  8
型材断面
  6
CONTINUOUS
 10
17.692305
 20
-39.15225
 11
63.934645
 21
-39.15225
  0
LINE
  8
型材断面
  6
CONTINUOUS
 10
15.665895
 20
-40.331262
 11
65.961055
 21
-40.331262
  0
LINE
  8
型材断面
  6
CONTINUOUS
 10
85.015497
 20
-58.472235
 11
67.211525
 21
-40.668265
  0
LINE
  8
型材断面
  6
CONTINUOUS
 10
84.980142
 20
-58.507593
 11
67.140812
 21
-40.668265
  0
INSERT
  2
*GRP_0026
  8
型材断面
  6
CONTINUOUS
 10
0.0
 20
0.0
  0
INSERT
  2
*GRP_0027
  8
型材断面
  6
DOT
 10
0.0
 20
0.0
  0
INSERT
  2
*GRP_0028
  8
型材断面
  6
DOT
 10
0.0
 20
0.0
  0
INSERT
  2
*GRP_0029
  8
型材断面
  6
DOT
 10
0.0
 20
0.0
  0
INSERT
  2
*GRP_0030
  8
型材断面
  6
DOT
 10
0.0
 20
0.0
  0
LINE
  8
型材断面
  6
CONTINUOUS
 10
87.20634
 20
29.703945
 11
103.160755
 21
29.703945
  0
LINE
  8
型材断面
  6
CONTINUOUS
 10
87.20634
 20
80.762242
 11
103.160755
 21
80.762242
  0
LINE
  8
ガラス
  6
CONTINUOUS
 10
128.402552
 20
10.772983
 11
112.628197
 21
33.081285
  0
LINE
  8
ガラス
  6
CONTINUOUS
 10
112.628197
 20
33.081285
 11
96.853843
 21
10.772983
  0
LINE
  8
ガラス
  6
CONTINUOUS
 10
128.402552
 20
10.772983
 11
96.853843
 21
10.772983
  0
LINE
  8
ガラス
  6
CONTINUOUS
 10
130.908405
 20
55.14798
 11
90.884048
 21
55.14798
  0
LINE
  8
ガラス
  6
CONTINUOUS
 10
130.908405
 20
55.14798
 11
130.908405
 21
78.353648
  0
LINE
  8
ガラス
  6
CONTINUOUS
 10
130.908405
 20
78.353648
 11
107.292935
 21
78.353648
  0
LINE
  8
ガラス
  6
CONTINUOUS
 10
90.884048
 20
55.14798
 11
107.292935
 21
78.353648
  0
LINE
  8
ガラス
  6
CONTINUOUS
 10
-86.457805
 20
60.440037
 11
-90.330437
 21
56.567403
  0
LINE
  8
ガラス
  6
CONTINUOUS
 10
-87.338125
 20
58.84168
 11
-88.732082
 21
57.447725
  0
LINE
  8
ガラス
  6
CONTINUOUS
 10
-88.05616
 20
59.559713
 11
-89.450118
 21
58.16576
  0
LINE
  8
ガラス
  6
CONTINUOUS
 10
-55.676393
 20
60.440037
 11
-59.549025
 21
56.567403
  0
LINE
  8
ガラス
  6
CONTINUOUS
 10
-56.556712
 20
58.84168
 11
-57.95067
 21
57.447725
  0
LINE
  8
ガラス
  6
CONTINUOUS
 10
-57.274748
 20
59.559713
 11
-58.668705
 21
58.16576
  0
LINE
  8
ガラス
  6
CONTINUOUS
 10
-86.457805
 20
42.794643
 11
-90.330437
 21
38.922007
  0
LINE
  8
ガラス
  6
CONTINUOUS
 10
-87.338125
 20
41.196285
 11
-88.732082
 21
39.80233
  0
LINE
  8
ガラス
  6
CONTINUOUS
 10
-88.05616
 20
41.914317
 11
-89.450118
 21
40.520365
  0
LINE
  8
ガラス
  6
CONTINUOUS
 10
-55.676393
 20
42.794643
 11
-59.549025
 21
38.922007
  0
LINE
  8
ガラス
  6
CONTINUOUS
 10
-56.556712
 20
41.196285
 11
-57.95067
 21
39.80233
  0
LINE
  8
ガラス
  6
CONTINUOUS
 10
-57.274748
 20
41.914317
 11
-58.668705
 21
40.520365
  0
LINE
  8
ガラス
  6
CONTINUOUS
 10
-106.070953
 20
52.198895
 11
-109.943585
 21
48.32626
  0
LINE
  8
ガラス
  6
CONTINUOUS
 10
-106.951272
 20
50.600538
 11
-108.34523
 21
49.206582
  0
LINE
  8
ガラス
  6
CONTINUOUS
 10
-107.669308
 20
51.31857
 11
-109.063265
 21
49.924618
  0
LINE
  8
ガラス
  6
CONTINUOUS
 10
-34.4541
 20
52.198895
 11
-38.326732
 21
48.32626
  0
LINE
  8
ガラス
  6
CONTINUOUS
 10
-35.33442
 20
50.600538
 11
-36.728377
 21
49.206582
  0
LINE
  8
ガラス
  6
CONTINUOUS
 10
-36.052455
 20
51.31857
 11
-37.446413
 21
49.924618
  0
LINE
  8
ガラス
  6
CONTINUOUS
 10
51.497183
 20
52.198895
 11
47.62455
 21
48.32626
  0
LINE
  8
ガラス
  6
CONTINUOUS
 10
50.616863
 20
50.600538
 11
49.222905
 21
49.206582
  0
LINE
  8
ガラス
  6
CONTINUOUS
 10
49.898827
 20
51.31857
 11
48.50487
 21
49.924618
  0
LINE
  8
ガラス
  6
CONTINUOUS
 10
-86.457805
 20
-48.273975
 11
-90.330437
 21
-52.14661
  0
LINE
  8
ガラス
  6
CONTINUOUS
 10
-87.338125
 20
-49.872332
 11
-88.732082
 21
-51.266287
  0
LINE
  8
ガラス
  6
CONTINUOUS
 10
-88.05616
 20
-49.1543
 11
-89.450118
 21
-50.548253
  0
LINE
  8
ガラス
  6
CONTINUOUS
 10
-55.676393
 20
-48.273975
 11
-59.549025
 21
-52.14661
  0
LINE
  8
ガラス
  6
CONTINUOUS
 10
-56.556712
 20
-49.872332
 11
-57.95067
 21
-51.266287
  0
LINE
  8
ガラス
  6
CONTINUOUS
 10
-57.274748
 20
-49.1543
 11
-58.668705
 21
-50.548253
  0
LINE
  8
ゴム等
  6
CONTINUOUS
 10
-73.788465
 20
48.209978
 11
-72.922905
 21
48.607948
  0
LINE
  8
ゴム等
  6
CONTINUOUS
 10
-72.056235
 20
48.607948
 11
-71.190675
 21
48.209978
  0
LINE
  8
ゴム等
  6
CONTINUOUS
 10
-73.788465
 20
52.315178
 11
-72.922905
 21
51.917208
  0
LINE
  8
ゴム等
  6
CONTINUOUS
 10
-72.056235
 20
51.917208
 11
-71.190675
 21
52.315178
  0
LINE
  8
ゴム等
  6
CONTINUOUS
 10
-72.056235
 20
68.691373
 11
-71.190675
 21
67.852652
  0
LINE
  8
ゴム等
  6
CONTINUOUS
 10
-73.788465
 20
67.852652
 11
-72.922905
 21
68.691373
  0
LINE
  8
ゴム等
  6
CONTINUOUS
 10
-72.056235
 20
31.833783
 11
-71.190675
 21
32.672502
  0
LINE
  8
ゴム等
  6
CONTINUOUS
 10
-73.788465
 20
32.672502
 11
-72.922905
 21
31.833783
  0
LINE
  8
ゴム等
  6
CONTINUOUS
 10
-97.540433
 20
51.378177
 11
-97.018018
 21
51.917208
  0
LINE
  8
ゴム等
  6
CONTINUOUS
 10
-97.018018
 20
51.917208
 11
-96.574273
 21
52.315178
  0
LINE
  8
ゴム等
  6
CONTINUOUS
 10
-97.540433
 20
49.146977
 11
-97.018018
 21
48.607948
  0
LINE
  8
ゴム等
  6
CONTINUOUS
 10
-97.018018
 20
48.607948
 11
-96.574273
 21
48.209978
  0
LINE
  8
ゴム等
  6
CONTINUOUS
 10
-97.747462
 20
49.067568
 11
-95.728643
 21
49.067568
  0
LINE
  8
ゴム等
  6
CONTINUOUS
 10
-95.728643
 20
49.067568
 11
-95.728643
 21
50.262578
  0
LINE
  8
ゴム等
  6
CONTINUOUS
 10
-97.747462
 20
51.457588
 11
-95.728643
 21
51.457588
  0
LINE
  8
ゴム等
  6
CONTINUOUS
 10
-95.728643
 20
51.457588
 11
-95.728643
 21
50.262578
  0
LINE
  8
ゴム等
  6
CONTINUOUS
 10
-96.574273
 20
52.315178
 11
-73.788465
 21
52.315178
  0
LINE
  8
ゴム等
  6
CONTINUOUS
 10
-96.574273
 20
48.209978
 11
-73.788465
 21
48.209978
  0
LINE
  8
ゴム等
  6
CONTINUOUS
 10
-47.961122
 20
51.917208
 11
-48.404868
 21
52.315178
  0
LINE
  8
ゴム等
  6
CONTINUOUS
 10
-47.961122
 20
48.607948
 11
-48.404868
 21
48.209978
  0
LINE
  8
ゴム等
  6
CONTINUOUS
 10
-47.231678
 20
49.067568
 11
-49.250497
 21
49.067568
  0
LINE
  8
ゴム等
  6
CONTINUOUS
 10
-49.250497
 20
49.067568
 11
-49.250497
 21
50.262578
  0
LINE
  8
ゴム等
  6
CONTINUOUS
 10
-47.231678
 20
51.457588
 11
-49.250497
 21
51.457588
  0
LINE
  8
ゴム等
  6
CONTINUOUS
 10
-49.250497
 20
51.457588
 11
-49.250497
 21
50.262578
  0
LINE
  8
ゴム等
  6
CONTINUOUS
 10
-47.961122
 20
51.917208
 11
-47.438707
 21
51.378177
  0
LINE
  8
ゴム等
  6
CONTINUOUS
 10
-47.961122
 20
48.607948
 11
-47.438707
 21
49.146977
  0
LINE
  8
ゴム等
  6
CONTINUOUS
 10
-48.404868
 20
52.315178
 11
-71.190675
 21
52.315178
  0
LINE
  8
ゴム等
  6
CONTINUOUS
 10
-48.404868
 20
48.209978
 11
-71.190675
 21
48.209978
  0
LINE
  8
ゴム等
  6
CONTINUOUS
 10
-97.018018
 20
48.607948
 11
-47.961122
 21
48.607948
  0
LINE
  8
ゴム等
  6
CONTINUOUS
 10
-97.018018
 20
51.917208
 11
-47.961122
 21
51.917208
  0
LINE
  8
ゴム等
  6
CONTINUOUS
 10
-72.056235
 20
51.917208
 11
-72.056235
 21
68.691373
  0
LINE
  8
ゴム等
  6
CONTINUOUS
 10
-72.922905
 20
51.917208
 11
-72.922905
 21
68.691373
  0
LINE
  8
ゴム等
  6
CONTINUOUS
 10
-73.788465
 20
52.315178
 11
-73.788465
 21
67.852652
  0
LINE
  8
ゴム等
  6
CONTINUOUS
 10
-71.190675
 20
52.315178
 11
-71.190675
 21
67.852652
  0
LINE
  8
ゴム等
  6
CONTINUOUS
 10
-71.190675
 20
48.209978
 11
-71.190675
 21
32.672502
  0
LINE
  8
ゴム等
  6
CONTINUOUS
 10
-73.788465
 20
48.209978
 11
-73.788465
 21
32.672502
  0
LINE
  8
ゴム等
  6
CONTINUOUS
 10
-72.922905
 20
48.607948
 11
-72.922905
 21
31.833783
  0
LINE
  8
ゴム等
  6
CONTINUOUS
 10
-72.056235
 20
48.607948
 11
-72.056235
 21
31.833783
  0
LINE
  8
ゴム等
  6
CONTINUOUS
 10
-96.574273
 20
48.209978
 11
-112.111748
 21
32.672502
  0
LINE
  8
ゴム等
  6
CONTINUOUS
 10
-73.788465
 20
32.672502
 11
-112.111748
 21
32.672502
  0
LINE
  8
ゴム等
  6
CONTINUOUS
 10
-97.018018
 20
48.607948
 11
-113.79218
 21
31.833783
  0
LINE
  8
ゴム等
  6
CONTINUOUS
 10
-97.540433
 20
49.146977
 11
-115.466453
 21
31.220958
  0
LINE
  8
ゴム等
  6
CONTINUOUS
 10
-100.457473
 20
50.262578
 11
-115.079648
 21
35.640402
  0
LINE
  8
ゴム等
  6
CONTINUOUS
 10
-99.615758
 20
50.262578
 11
-115.918365
 21
33.959967
  0
LINE
  8
ゴム等
  6
CONTINUOUS
 10
-98.554313
 20
50.262578
 11
-116.531193
 21
32.285698
  0
LINE
  8
ゴム等
  6
CONTINUOUS
 10
-115.079648
 20
35.640402
 11
-115.079648
 21
64.884752
  0
LINE
  8
ゴム等
  6
CONTINUOUS
 10
-100.457473
 20
50.262578
 11
-115.079648
 21
64.884752
  0
LINE
  8
ゴム等
  6
CONTINUOUS
 10
-99.615758
 20
50.262578
 11
-115.918365
 21
66.565187
  0
LINE
  8
ゴム等
  6
CONTINUOUS
 10
-115.918365
 20
33.959967
 11
-115.918365
 21
66.565187
  0
LINE
  8
ゴム等
  6
CONTINUOUS
 10
-116.531193
 20
32.285698
 11
-116.531193
 21
68.239458
  0
LINE
  8
ゴム等
  6
CONTINUOUS
 10
-98.554313
 20
50.262578
 11
-116.531193
 21
68.239458
  0
LINE
  8
ゴム等
  6
CONTINUOUS
 10
-96.574273
 20
52.315178
 11
-112.111748
 21
67.852652
  0
LINE
  8
ゴム等
  6
CONTINUOUS
 10
-73.788465
 20
67.852652
 11
-112.111748
 21
67.852652
  0
LINE
  8
ゴム等
  6
CONTINUOUS
 10
-97.018018
 20
51.917208
 11
-113.79218
 21
68.691373
  0
LINE
  8
ゴム等
  6
CONTINUOUS
 10
-97.540433
 20
51.378177
 11
-115.466453
 21
69.304198
  0
LINE
  8
ゴム等
  6
CONTINUOUS
 10
-71.190675
 20
67.852652
 11
-32.867393
 21
67.852652
  0
LINE
  8
ゴム等
  6
CONTINUOUS
 10
-48.404868
 20
52.315178
 11
-32.867393
 21
67.852652
  0
LINE
  8
ゴム等
  6
CONTINUOUS
 10
-113.79218
 20
68.691373
 11
-31.18696
 21
68.691373
  0
LINE
  8
ゴム等
  6
CONTINUOUS
 10
-47.961122
 20
51.917208
 11
-31.18696
 21
68.691373
  0
LINE
  8
ゴム等
  6
CONTINUOUS
 10
-115.466453
 20
69.304198
 11
-29.512687
 21
69.304198
  0
LINE
  8
ゴム等
  6
CONTINUOUS
 10
-47.438707
 20
51.378177
 11
-29.512687
 21
69.304198
  0
LINE
  8
ゴム等
  6
CONTINUOUS
 10
-44.521667
 20
50.262578
 11
-29.899492
 21
64.884752
  0
LINE
  8
ゴム等
  6
CONTINUOUS
 10
-45.363382
 20
50.262578
 11
-29.060775
 21
66.565187
  0
LINE
  8
ゴム等
  6
CONTINUOUS
 10
-46.424827
 20
50.262578
 11
-28.447948
 21
68.239458
  0
LINE
  8
ゴム等
  6
CONTINUOUS
 10
-44.521667
 20
50.262578
 11
-29.899492
 21
35.640402
  0
LINE
  8
ゴム等
  6
CONTINUOUS
 10
-29.899492
 20
64.884752
 11
-29.899492
 21
35.640402
  0
LINE
  8
ゴム等
  6
CONTINUOUS
 10
-29.060775
 20
66.565187
 11
-29.060775
 21
33.959967
  0
LINE
  8
ゴム等
  6
CONTINUOUS
 10
-45.363382
 20
50.262578
 11
-29.060775
 21
33.959967
  0
LINE
  8
ゴム等
  6
CONTINUOUS
 10
-46.424827
 20
50.262578
 11
-28.447948
 21
32.285698
  0
LINE
  8
ゴム等
  6
CONTINUOUS
 10
-28.447948
 20
68.239458
 11
-28.447948
 21
32.285698
  0
LINE
  8
ゴム等
  6
CONTINUOUS
 10
-71.190675
 20
32.672502
 11
-32.867393
 21
32.672502
  0
LINE
  8
ゴム等
  6
CONTINUOUS
 10
-48.404868
 20
48.209978
 11
-32.867393
 21
32.672502
  0
LINE
  8
ゴム等
  6
CONTINUOUS
 10
-47.961122
 20
48.607948
 11
-31.18696
 21
31.833783
  0
LINE
  8
ゴム等
  6
CONTINUOUS
 10
-113.79218
 20
31.833783
 11
-31.18696
 21
31.833783
  0
LINE
  8
ゴム等
  6
CONTINUOUS
 10
-47.438707
 20
49.146977
 11
-29.512687
 21
31.220958
  0
LINE
  8
ゴム等
  6
CONTINUOUS
 10
-115.466453
 20
31.220958
 11
-29.512687
 21
31.220958
  0
LINE
  8
ゴム等
  6
CONTINUOUS
 10
-28.447948
 20
68.239458
 11
-29.060775
 21
66.565187
  0
LINE
  8
ゴム等
  6
CONTINUOUS
 10
-29.060775
 20
66.565187
 11
-29.899492
 21
64.884752
  0
LINE
  8
ゴム等
  6
CONTINUOUS
 10
-29.512687
 20
69.304198
 11
-31.18696
 21
68.691373
  0
LINE
  8
ゴム等
  6
CONTINUOUS
 10
-31.18696
 20
68.691373
 11
-32.867393
 21
67.852652
  0
LINE
  8
ゴム等
  6
CONTINUOUS
 10
-28.447948
 20
32.285698
 11
-29.060775
 21
33.959967
  0
LINE
  8
ゴム等
  6
CONTINUOUS
 10
-29.060775
 20
33.959967
 11
-29.899492
 21
35.640402
  0
LINE
  8
ゴム等
  6
CONTINUOUS
 10
-29.512687
 20
31.220958
 11
-31.18696
 21
31.833783
  0
LINE
  8
ゴム等
  6
CONTINUOUS
 10
-31.18696
 20
31.833783
 11
-32.867393
 21
32.672502
  0
LINE
  8
ゴム等
  6
CONTINUOUS
 10
-116.531193
 20
32.285698
 11
-115.918365
 21
33.959967
  0
LINE
  8
ゴム等
  6
CONTINUOUS
 10
-115.918365
 20
33.959967
 11
-115.079648
 21
35.640402
  0
LINE
  8
ゴム等
  6
CONTINUOUS
 10
-115.466453
 20
31.220958
 11
-113.79218
 21
31.833783
  0
LINE
  8
ゴム等
  6
CONTINUOUS
 10
-113.79218
 20
31.833783
 11
-112.111748
 21
32.672502
  0
LINE
  8
ゴム等
  6
CONTINUOUS
 10
-116.531193
 20
68.239458
 11
-115.918365
 21
66.565187
  0
LINE
  8
ゴム等
  6
CONTINUOUS
 10
-115.918365
 20
66.565187
 11
-115.079648
 21
64.884752
  0
LINE
  8
ゴム等
  6
CONTINUOUS
 10
-115.466453
 20
69.304198
 11
-113.79218
 21
68.691373
  0
LINE
  8
ゴム等
  6
CONTINUOUS
 10
-113.79218
 20
68.691373
 11
-112.111748
 21
67.852652
  0
LINE
  8
ゴム等
  6
CONTINUOUS
 10
-115.466443
 20
-58.406002
 11
-113.792173
 21
-57.793177
  0
LINE
  8
ゴム等
  6
CONTINUOUS
 10
-113.792173
 20
-57.793177
 11
-112.11342
 21
-57.398283
  0
LINE
  8
ゴム等
  6
CONTINUOUS
 10
-29.512698
 20
-58.406002
 11
-31.186967
 21
-57.793177
  0
LINE
  8
ゴム等
  6
CONTINUOUS
 10
-31.186967
 20
-57.793177
 11
-32.86572
 21
-57.398283
  0
LINE
  8
ゴム等
  6
CONTINUOUS
 10
-113.792173
 20
-57.793177
 11
-31.186967
 21
-57.793177
  0
LINE
  8
ゴム等
  6
CONTINUOUS
 10
-115.466443
 20
-58.406002
 11
-29.512698
 21
-58.406002
  0
LINE
  8
ゴム等
  6
CONTINUOUS
 10
-112.11342
 20
-57.398283
 11
-73.788465
 21
-57.398283
  0
LINE
  8
ゴム等
  6
CONTINUOUS
 10
-71.190675
 20
-57.398283
 11
-32.86572
 21
-57.398283
  0
LINE
  8
ゴム等
  6
CONTINUOUS
 10
-73.788465
 20
-57.398283
 11
-72.922905
 21
-57.793177
  0
LINE
  8
ゴム等
  6
CONTINUOUS
 10
-72.056235
 20
-57.793177
 11
-71.190675
 21
-57.398283
  0
LINE
  8
ゴム等
  6
CONTINUOUS
 10
-97.277408
 20
-39.0344
 11
-95.61074
 21
-39.0344
  0
LINE
  8
ゴム等
  6
CONTINUOUS
 10
-95.61074
 20
-39.0344
 11
-95.61074
 21
-40.27655
  0
LINE
  8
ゴム等
  6
CONTINUOUS
 10
-97.535297
 20
-40.22941
 11
-95.61074
 21
-40.22941
  0
LINE
  8
ゴム等
  6
CONTINUOUS
 10
-95.61074
 20
-40.27655
 11
-97.582438
 21
-40.27655
  0
LINE
  8
ゴム等
  6
CONTINUOUS
 10
-98.911275
 20
-40.668265
 11
-97.974155
 21
-40.668265
  0
LINE
  8
ゴム等
  6
CONTINUOUS
 10
-98.911275
 20
-40.668265
 11
-97.277408
 21
-39.0344
  0
LINE
  8
ゴム等
  6
CONTINUOUS
 10
-97.974155
 20
-40.668265
 11
-97.535297
 21
-40.22941
  0
LINE
  8
ゴム等
  6
CONTINUOUS
 10
-97.3917
 20
-40.331262
 11
-97.017995
 21
-41.019002
  0
LINE
  8
ゴム等
  6
CONTINUOUS
 10
-97.017995
 20
-41.019002
 11
-96.57269
 21
-41.857553
  0
LINE
  8
ゴム等
  6
CONTINUOUS
 10
-73.788465
 20
-41.857553
 11
-72.922905
 21
-41.019002
  0
LINE
  8
ゴム等
  6
CONTINUOUS
 10
-72.056235
 20
-41.019002
 11
-71.190675
 21
-41.857553
  0
LINE
  8
ゴム等
  6
CONTINUOUS
 10
-96.57269
 20
-41.857553
 11
-73.788465
 21
-41.857553
  0
LINE
  8
ゴム等
  6
CONTINUOUS
 10
-112.11342
 20
-57.398283
 11
-96.57269
 21
-41.857553
  0
LINE
  8
ゴム等
  6
CONTINUOUS
 10
-113.792173
 20
-57.793177
 11
-97.017995
 21
-41.019002
  0
LINE
  8
ゴム等
  6
CONTINUOUS
 10
-115.466443
 20
-58.406002
 11
-97.386157
 21
-40.32572
  0
LINE
  8
ゴム等
  6
CONTINUOUS
 10
-72.922905
 20
-57.793177
 11
-72.922905
 21
-41.019002
  0
LINE
  8
ゴム等
  6
CONTINUOUS
 10
-72.056235
 20
-57.793177
 11
-72.056235
 21
-41.019002
  0
LINE
  8
ゴム等
  6
CONTINUOUS
 10
-71.190675
 20
-57.398283
 11
-71.190675
 21
-41.857553
  0
LINE
  8
ゴム等
  6
CONTINUOUS
 10
-73.788465
 20
-57.398283
 11
-73.788465
 21
-41.857553
  0
LINE
  8
ゴム等
  6
CONTINUOUS
 10
-71.190675
 20
-41.857553
 11
-48.40645
 21
-41.857553
  0
LINE
  8
ゴム等
  6
CONTINUOUS
 10
-32.86572
 20
-57.398283
 11
-48.40645
 21
-41.857553
  0
LINE
  8
ゴム等
  6
CONTINUOUS
 10
-31.186967
 20
-57.793177
 11
-47.961145
 21
-41.019002
  0
LINE
  8
ゴム等
  6
CONTINUOUS
 10
-97.017995
 20
-41.019002
 11
-47.961145
 21
-41.019002
  0
LINE
  8
ゴム等
  6
CONTINUOUS
 10
-47.701732
 20
-39.0344
 11
-49.3684
 21
-39.0344
  0
LINE
  8
ゴム等
  6
CONTINUOUS
 10
-49.3684
 20
-39.0344
 11
-49.3684
 21
-40.27655
  0
LINE
  8
ゴム等
  6
CONTINUOUS
 10
-47.443843
 20
-40.22941
 11
-49.3684
 21
-40.22941
  0
LINE
  8
ゴム等
  6
CONTINUOUS
 10
-49.3684
 20
-40.27655
 11
-47.396702
 21
-40.27655
  0
LINE
  8
ゴム等
  6
CONTINUOUS
 10
-46.067865
 20
-40.668265
 11
-47.004985
 21
-40.668265
  0
LINE
  8
ゴム等
  6
CONTINUOUS
 10
-46.067865
 20
-40.668265
 11
-47.701732
 21
-39.0344
  0
LINE
  8
ゴム等
  6
CONTINUOUS
 10
-47.004985
 20
-40.668265
 11
-47.443843
 21
-40.22941
  0
LINE
  8
ゴム等
  6
CONTINUOUS
 10
-47.58744
 20
-40.331262
 11
-47.961145
 21
-41.019002
  0
LINE
  8
ゴム等
  6
CONTINUOUS
 10
-47.961145
 20
-41.019002
 11
-48.40645
 21
-41.857553
  0
LINE
  8
ゴム等
  6
CONTINUOUS
 10
-29.512698
 20
-58.406002
 11
-47.58744
 21
-40.331262
  0
LINE
  8
ゴム等
  6
CONTINUOUS
 10
54.488095
 20
64.886427
 11
54.88299
 21
66.565178
  0
LINE
  8
ゴム等
  6
CONTINUOUS
 10
54.88299
 20
66.565178
 11
55.495817
 21
68.239447
  0
LINE
  8
ゴム等
  6
CONTINUOUS
 10
55.495817
 20
32.285705
 11
54.88299
 21
33.959975
  0
LINE
  8
ゴム等
  6
CONTINUOUS
 10
54.88299
 20
33.959975
 11
54.488095
 21
35.638727
  0
LINE
  8
ゴム等
  6
CONTINUOUS
 10
54.488095
 20
64.886427
 11
54.488095
 21
35.638727
  0
LINE
  8
ゴム等
  6
CONTINUOUS
 10
54.88299
 20
66.565178
 11
54.88299
 21
33.959975
  0
LINE
  8
ゴム等
  6
CONTINUOUS
 10
55.495817
 20
68.239447
 11
55.495817
 21
32.285705
  0
LINE
  8
ゴム等
  6
CONTINUOUS
 10
54.488095
 20
35.638727
 11
39.864248
 21
50.262578
  0
LINE
  8
ゴム等
  6
CONTINUOUS
 10
54.488095
 20
64.886427
 11
39.864248
 21
50.262578
  0
LINE
  8
ゴム等
  6
CONTINUOUS
 10
54.88299
 20
66.565178
 11
38.58039
 21
50.262578
  0
LINE
  8
ゴム等
  6
CONTINUOUS
 10
54.88299
 20
33.959975
 11
38.58039
 21
50.262578
  0
LINE
  8
ゴム等
  6
CONTINUOUS
 10
55.495817
 20
32.285705
 11
37.518947
 21
50.262578
  0
LINE
  8
ゴム等
  6
CONTINUOUS
 10
55.495817
 20
68.239447
 11
37.518947
 21
50.262578
  0
LINE
  8
ゴム等
  6
CONTINUOUS
 10
-2.163397
 20
-58.406002
 11
-0.489127
 21
-57.793177
  0
LINE
  8
ゴム等
  6
CONTINUOUS
 10
-0.489127
 20
-57.793177
 11
1.189625
 21
-57.398283
  0
LINE
  8
ゴム等
  6
CONTINUOUS
 10
83.790347
 20
-58.406002
 11
82.116078
 21
-57.793177
  0
LINE
  8
ゴム等
  6
CONTINUOUS
 10
82.116078
 20
-57.793177
 11
80.437325
 21
-57.398283
  0
LINE
  8
ゴム等
  6
CONTINUOUS
 10
-0.489127
 20
-57.793177
 11
82.116078
 21
-57.793177
  0
LINE
  8
ゴム等
  6
CONTINUOUS
 10
-2.163397
 20
-58.406002
 11
83.790347
 21
-58.406002
  0
LINE
  8
ゴム等
  6
CONTINUOUS
 10
1.189625
 20
-57.398283
 11
39.51458
 21
-57.398283
  0
LINE
  8
ゴム等
  6
CONTINUOUS
 10
42.11237
 20
-57.398283
 11
80.437325
 21
-57.398283
  0
LINE
  8
ゴム等
  6
CONTINUOUS
 10
39.51458
 20
-57.398283
 11
40.38014
 21
-57.793177
  0
LINE
  8
ゴム等
  6
CONTINUOUS
 10
41.24681
 20
-57.793177
 11
42.11237
 21
-57.398283
  0
LINE
  8
ゴム等
  6
CONTINUOUS
 10
16.025638
 20
-39.0344
 11
17.692305
 21
-39.0344
  0
LINE
  8
ゴム等
  6
CONTINUOUS
 10
17.692305
 20
-39.0344
 11
17.692305
 21
-40.27655
  0
LINE
  8
ゴム等
  6
CONTINUOUS
 10
15.767748
 20
-40.22941
 11
17.692305
 21
-40.22941
  0
LINE
  8
ゴム等
  6
CONTINUOUS
 10
17.692305
 20
-40.27655
 11
15.720608
 21
-40.27655
  0
LINE
  8
ゴム等
  6
CONTINUOUS
 10
14.39177
 20
-40.668265
 11
15.32889
 21
-40.668265
  0
LINE
  8
ゴム等
  6
CONTINUOUS
 10
14.39177
 20
-40.668265
 11
16.025638
 21
-39.0344
  0
LINE
  8
ゴム等
  6
CONTINUOUS
 10
15.32889
 20
-40.668265
 11
15.767748
 21
-40.22941
  0
LINE
  8
ゴム等
  6
CONTINUOUS
 10
15.911345
 20
-40.331262
 11
16.28505
 21
-41.019002
  0
LINE
  8
ゴム等
  6
CONTINUOUS
 10
16.28505
 20
-41.019002
 11
16.730355
 21
-41.857553
  0
LINE
  8
ゴム等
  6
CONTINUOUS
 10
39.51458
 20
-41.857553
 11
40.38014
 21
-41.019002
  0
LINE
  8
ゴム等
  6
CONTINUOUS
 10
41.24681
 20
-41.019002
 11
42.11237
 21
-41.857553
  0
LINE
  8
ゴム等
  6
CONTINUOUS
 10
16.730355
 20
-41.857553
 11
39.51458
 21
-41.857553
  0
LINE
  8
ゴム等
  6
CONTINUOUS
 10
1.189625
 20
-57.398283
 11
16.730355
 21
-41.857553
  0
LINE
  8
ゴム等
  6
CONTINUOUS
 10
-0.489127
 20
-57.793177
 11
16.28505
 21
-41.019002
  0
LINE
  8
ゴム等
  6
CONTINUOUS
 10
-2.163397
 20
-58.406002
 11
15.916887
 21
-40.32572
  0
LINE
  8
ゴム等
  6
CONTINUOUS
 10
40.38014
 20
-57.793177
 11
40.38014
 21
-41.019002
  0
LINE
  8
ゴム等
  6
CONTINUOUS
 10
41.24681
 20
-57.793177
 11
41.24681
 21
-41.019002
  0
LINE
  8
ゴム等
  6
CONTINUOUS
 10
42.11237
 20
-57.398283
 11
42.11237
 21
-41.857553
  0
LINE
  8
ゴム等
  6
CONTINUOUS
 10
39.51458
 20
-57.398283
 11
39.51458
 21
-41.857553
  0
LINE
  8
ゴム等
  6
CONTINUOUS
 10
42.11237
 20
-41.857553
 11
64.896595
 21
-41.857553
  0
LINE
  8
ゴム等
  6
CONTINUOUS
 10
80.437325
 20
-57.398283
 11
64.896595
 21
-41.857553
  0
LINE
  8
ゴム等
  6
CONTINUOUS
 10
82.116078
 20
-57.793177
 11
65.3419
 21
-41.019002
  0
LINE
  8
ゴム等
  6
CONTINUOUS
 10
16.28505
 20
-41.019002
 11
65.3419
 21
-41.019002
  0
LINE
  8
ゴム等
  6
CONTINUOUS
 10
65.601312
 20
-39.0344
 11
63.934645
 21
-39.0344
  0
LINE
  8
ゴム等
  6
CONTINUOUS
 10
63.934645
 20
-39.0344
 11
63.934645
 21
-40.27655
  0
LINE
  8
ゴム等
  6
CONTINUOUS
 10
65.859202
 20
-40.22941
 11
63.934645
 21
-40.22941
  0
LINE
  8
ゴム等
  6
CONTINUOUS
 10
63.934645
 20
-40.27655
 11
65.906343
 21
-40.27655
  0
LINE
  8
ゴム等
  6
CONTINUOUS
 10
67.23518
 20
-40.668265
 11
66.29806
 21
-40.668265
  0
LINE
  8
ゴム等
  6
CONTINUOUS
 10
67.23518
 20
-40.668265
 11
65.601312
 21
-39.0344
  0
LINE
  8
ゴム等
  6
CONTINUOUS
 10
66.29806
 20
-40.668265
 11
65.859202
 21
-40.22941
  0
LINE
  8
ゴム等
  6
CONTINUOUS
 10
65.715605
 20
-40.331262
 11
65.3419
 21
-41.019002
  0
LINE
  8
ゴム等
  6
CONTINUOUS
 10
65.3419
 20
-41.019002
 11
64.896595
 21
-41.857553
  0
LINE
  8
ゴム等
  6
CONTINUOUS
 10
83.790347
 20
-58.406002
 11
65.715605
 21
-40.331262
  0
TEXT
  7
TextStyle03
  8
文字
  6
CONTINUOUS
 10
-130.05
 20
8.975
  1
アンカーピッチ
 40
3.0
 50
90.0
 72
     5
 11
-130.05
 21
32.225
  0
TEXT
  7
TextStyle03
  8
文字
  6
CONTINUOUS
 10
-139.75
 20
84.25
  1
アンカーピッチ
 40
3.0
 72
     5
 11
-116.5
 21
84.25
  0
TEXT
  7
TextStyle03
  8
文字
  6
CONTINUOUS
 10
-21.6
 20
22.275
  1
は排水穴位置を示す
 40
3.0
 72
     5
 11
8.4
 21
22.275
  0
TEXT
  7
TextStyle03
  8
文字
  6
CONTINUOUS
 10
154.0
 20
22.75
  1
×　２枚
 40
4.0
 72
     5
 11
171.5
 21
22.75
  0
TEXT
  7
TextStyle03
  8
文字
  6
CONTINUOUS
 10
154.0
 20
69.575
  1
×　右２枚
 40
4.0
 72
     5
 11
176.0
 21
69.575
  0
TEXT
  7
TextStyle03
  8
文字
  6
CONTINUOUS
 10
154.0
 20
65.075
  1
×　左２枚
 40
4.0
 72
     5
 11
176.0
 21
65.075
  0
TEXT
  7
TextStyle03
  8
文字
  6
CONTINUOUS
 10
-21.8
 20
15.05
  1
はケーシング位置を示す
 40
3.0
 72
     5
 11
14.95
 21
15.05
  0
TEXT
  7
TextStyle03
  8
文字
  6
CONTINUOUS
 10
-21.8
 20
11.675
  1
４ヶ所中1ヶ所に設定
 40
3.0
 72
     5
 11
9.8875
 21
11.675
  0
TEXT
  7
TextStyle03
  8
文字
  6
CONTINUOUS
 10
-27.9
 20
6.075
  1
アームユニット数　４ヶ所
 40
3.0
 72
     5
 11
12.225
 21
6.075
  0
TEXT
  7
TextStyle03
  8
文字
  6
CONTINUOUS
 10
57.55
 20
123.625
  1
シリーズ：ＤＦＹ
 40
5.0
 72
     5
 11
101.925
 21
123.625
  0
TEXT
  7
TextStyle03
  8
文字
  6
CONTINUOUS
 10
57.55
 20
118.0
  1
　　　　　山型四角錘（上下可動）900×2400タイプ
 40
5.0
 72
     5
 11
189.1125
 21
118.0
  0
TEXT
  7
TextStyle03
  8
文字
  6
CONTINUOUS
 10
57.55
 20
112.375
  1
図面名　：外観姿図
 40
5.0
 72
     5
 11
107.55
 21
112.375
  0
TEXT
  7
TextStyle03
  8
文字
  6
CONTINUOUS
 10
57.55
 20
106.75
  1

 40
5.0
 41
1.125
  0
TEXT
  7
TextStyle03
  8
文字
  6
CONTINUOUS
 10
57.55
 20
101.125
  1
ＮＳコード：ＮＳ４Ｙ
 40
5.0
 72
     5
 11
113.175
 21
101.125
  0
TEXT
  7
TextStyle03
  8
文字
  6
CONTINUOUS
 10
86.825
 20
30.525
  1
ガラス寸法
 40
3.0
 72
     5
 11
103.325
 21
30.525
  0
TEXT
  7
TextStyle03
  8
文字
  6
CONTINUOUS
 10
86.825
 20
81.575
  1
ガラス寸法
 40
3.0
 72
     5
 11
103.325
 21
81.575
  0
TEXT
  7
TextStyle03
  8
文字
  6
CONTINUOUS
 10
-18.9
 20
52.3
  1
バランスステー
 40
3.0
 72
     5
 11
4.35
 21
52.3
  0
INSERT
  2
*DIM_0002
  8
寸法
  6
CONTINUOUS
 10
0.0
 20
0.0
  0
INSERT
  2
*DIM_0003
  8
寸法
  6
CONTINUOUS
 10
0.0
 20
0.0
  0
INSERT
  2
*DIM_0004
  8
寸法
  6
CONTINUOUS
 10
0.0
 20
0.0
  0
INSERT
  2
*DIM_0005
  8
寸法
  6
CONTINUOUS
 10
0.0
 20
0.0
  0
INSERT
  2
*DIM_0006
  8
寸法
  6
CONTINUOUS
 10
0.0
 20
0.0
  0
INSERT
  2
*DIM_0007
  8
寸法
  6
CONTINUOUS
 10
0.0
 20
0.0
  0
INSERT
  2
*DIM_0008
  8
寸法
  6
CONTINUOUS
 10
0.0
 20
0.0
  0
INSERT
  2
*DIM_0009
  8
寸法
  6
CONTINUOUS
 10
0.0
 20
0.0
  0
INSERT
  2
*DIM_0010
  8
寸法
  6
CONTINUOUS
 10
0.0
 20
0.0
  0
INSERT
  2
*DIM_0011
  8
寸法
  6
CONTINUOUS
 10
0.0
 20
0.0
  0
INSERT
  2
*DIM_0012
  8
寸法
  6
CONTINUOUS
 10
0.0
 20
0.0
  0
LINE
  8
寸法
  6
CONTINUOUS
 10
-47.48957
 20
31.062578
 11
-46.113937
 21
28.679912
  0
LINE
  8
寸法
  6
CONTINUOUS
 10
-47.48957
 20
31.062578
 11
-48.865203
 21
28.679912
  0
LINE
  8
寸法
  6
CONTINUOUS
 10
-48.865203
 20
28.679912
 11
-46.113937
 21
28.679912
  0
LINE
  8
寸法
  6
CONTINUOUS
 10
-97.48957
 20
31.062578
 11
-98.865203
 21
28.679912
  0
LINE
  8
寸法
  6
CONTINUOUS
 10
-97.48957
 20
31.062578
 11
-96.113937
 21
28.679912
  0
LINE
  8
寸法
  6
CONTINUOUS
 10
-96.113937
 20
28.679912
 11
-98.865203
 21
28.679912
  0
LINE
  8
寸法
  6
CONTINUOUS
 10
-97.48957
 20
69.462578
 11
-98.865203
 21
71.845242
  0
LINE
  8
寸法
  6
CONTINUOUS
 10
-97.48957
 20
69.462578
 11
-96.113937
 21
71.845242
  0
LINE
  8
寸法
  6
CONTINUOUS
 10
-96.113937
 20
71.845242
 11
-98.865203
 21
71.845242
  0
LINE
  8
寸法
  6
CONTINUOUS
 10
-47.48957
 20
69.462578
 11
-46.113937
 21
71.845242
  0
LINE
  8
寸法
  6
CONTINUOUS
 10
-47.48957
 20
69.462578
 11
-48.865203
 21
71.845242
  0
LINE
  8
寸法
  6
CONTINUOUS
 10
-48.865203
 20
71.845242
 11
-46.113937
 21
71.845242
  0
LINE
  8
寸法
  6
CONTINUOUS
 10
-116.689563
 20
50.262578
 11
-119.072228
 21
51.63821
  0
LINE
  8
寸法
  6
CONTINUOUS
 10
-116.689563
 20
50.262578
 11
-119.072228
 21
48.886945
  0
LINE
  8
寸法
  6
CONTINUOUS
 10
-119.072228
 20
48.886945
 11
-119.072228
 21
51.63821
  0
LINE
  8
寸法
  6
CONTINUOUS
 10
-28.289577
 20
50.262578
 11
-25.906912
 21
51.63821
  0
LINE
  8
寸法
  6
CONTINUOUS
 10
-28.289577
 20
50.262578
 11
-25.906912
 21
48.886945
  0
LINE
  8
寸法
  6
CONTINUOUS
 10
-25.906912
 20
48.886945
 11
-25.906912
 21
51.63821
  0
LINE
  8
寸法
  6
CONTINUOUS
 10
-24.65417
 20
24.719595
 11
-23.278538
 21
22.33693
  0
LINE
  8
寸法
  6
CONTINUOUS
 10
-24.65417
 20
24.719595
 11
-26.029803
 21
22.33693
  0
LINE
  8
寸法
  6
CONTINUOUS
 10
-26.029803
 20
22.33693
 11
-23.278538
 21
22.33693
  0
LINE
  8
寸法
  6
CONTINUOUS
 10
-28.003658
 20
20.684975
 11
10.071655
 21
20.684975
  0
INSERT
  2
*DIM_0013
  8
寸法
  6
CONTINUOUS
 10
0.0
 20
0.0
  0
INSERT
  2
*DIM_0014
  8
寸法
  6
CONTINUOUS
 10
0.0
 20
0.0
  0
INSERT
  2
*DIM_0015
  8
寸法
  6
CONTINUOUS
 10
0.0
 20
0.0
  0
LINE
  8
寸法
  6
CONTINUOUS
 10
-28.003658
 20
4.443595
 11
10.071655
 21
4.443595
  0
INSERT
  2
*DIM_0016
  8
寸法
  6
CONTINUOUS
 10
0.0
 20
0.0
  0
INSERT
  2
*DIM_0017
  8
寸法
  6
CONTINUOUS
 10
0.0
 20
0.0
  0
INSERT
  2
*DIM_0018
  8
寸法
  6
CONTINUOUS
 10
0.0
 20
0.0
  0
INSERT
  2
*DIM_0019
  8
寸法
  6
CONTINUOUS
 10
0.0
 20
0.0
  0
INSERT
  2
*DIM_0020
  8
寸法
  6
CONTINUOUS
 10
0.0
 20
0.0
  0
INSERT
  2
*DIM_0021
  8
寸法
  6
CONTINUOUS
 10
0.0
 20
0.0
  0
INSERT
  2
*DIM_0022
  8
寸法
  6
CONTINUOUS
 10
0.0
 20
0.0
  0
INSERT
  2
*DIM_0023
  8
寸法
  6
CONTINUOUS
 10
0.0
 20
0.0
  0
INSERT
  2
*DIM_0024
  8
寸法
  6
CONTINUOUS
 10
0.0
 20
0.0
  0
INSERT
  2
*DIM_0025
  8
寸法
  6
CONTINUOUS
 10
0.0
 20
0.0
  0
INSERT
  2
*DIM_0031
  8
寸法
  6
CONTINUOUS
 10
0.0
 20
0.0
  0
INSERT
  2
*DIM_0032
  8
寸法
  6
CONTINUOUS
 10
0.0
 20
0.0
  0
INSERT
  2
*DIM_0033
  8
寸法
  6
CONTINUOUS
 10
0.0
 20
0.0
  0
INSERT
  2
*DIM_0034
  8
寸法
  6
CONTINUOUS
 10
0.0
 20
0.0
  0
INSERT
  2
*DIM_0035
  8
寸法
  6
CONTINUOUS
 10
0.0
 20
0.0
  0
INSERT
  2
*GRP_0036
  8
寸法
  6
CONTINUOUS
 10
0.0
 20
0.0
  0
INSERT
  2
*DIM_0037
  8
寸法
  6
CONTINUOUS
 10
0.0
 20
0.0
  0
ENDSEC
  0
EOF
