  0
SECTION
  2
HEADER
  9
$EXTMIN
 10
-210.0
 20
-148.5
  9
$EXTMAX
 10
210.0
 20
148.5
  9
$PDMODE
 70
    32
  9
$PDSIZE
 40
1.5
  9
$LTSCALE
 40
10.0
  0
ENDSEC
  0
SECTION
  2
TABLES
  0
TABLE
  2
LTYPE
 70
    15
  0
LTYPE
  2
CONTINUOUS
 70
    64
  3
実線
 72
    65
 73
     0
 40
0.0
  0
LTYPE
  2
DASHED
 70
    64
  3
破線A
 72
    65
 73
     2
 40
0.6
 49
0.4
 49
-0.2
  0
LTYPE
  2
DASHEDX2
 70
    64
  3
破線B
 72
    65
 73
     2
 40
1.3
 49
0.9
 49
-0.4
  0
LTYPE
  2
DASHDOT
 70
    64
  3
１点鎖線A
 72
    65
 73
     4
 40
0.5375
 49
0.375
 49
-0.05
 49
0.0625
 49
-0.05
  0
LTYPE
  2
DASHDOTX2
 70
    64
  3
１点鎖線B
 72
    65
 73
     4
 40
1.075
 49
0.75
 49
-0.1
 49
0.125
 49
-0.1
  0
LTYPE
  2
DIVIDE2
 70
    64
  3
２点鎖線A
 72
    65
 73
     6
 40
0.5125
 49
0.3
 49
-0.0375
 49
0.05
 49
-0.0375
 49
0.05
 49
-0.0375
  0
LTYPE
  2
DIVIDE
 70
    64
  3
２点鎖線B
 72
    65
 73
     6
 40
1.05
 49
0.55
 49
-0.1
 49
0.1
 49
-0.1
 49
0.1
 49
-0.1
  0
LTYPE
  2
DOT
 70
    64
  3
点線A
 72
    65
 73
     2
 40
0.1125
 49
0.0625
 49
-0.05
  0
LTYPE
  2
DOTX2
 70
    64
  3
点線B
 72
    65
 73
     2
 40
0.275
 49
0.15
 49
-0.125
  0
LTYPE
  2
CONTINUOUS
 70
    64
  3
実線
 72
    65
 73
     0
 40
0.0
  0
LTYPE
  2
CONTINUOUS
 70
    64
  3
実線
 72
    65
 73
     0
 40
0.0
  0
LTYPE
  2
CONTINUOUS
 70
    64
  3
実線
 72
    65
 73
     0
 40
0.0
  0
LTYPE
  2
CONTINUOUS
 70
    64
  3
実線
 72
    65
 73
     0
 40
0.0
  0
LTYPE
  2
CONTINUOUS
 70
    64
  3
実線
 72
    65
 73
     0
 40
0.0
  0
LTYPE
  2
CONTINUOUS
 70
    64
  3
実線
 72
    65
 73
     0
 40
0.0
  0
ENDTAB
  0
TABLE
  2
LAYER
 70
    34
  0
LAYER
  2
通り芯
 70
     0
 62
    15
  6
CONTINUOUS
  0
LAYER
  2
補助線
 70
     0
 62
    16
  6
DOT
  0
LAYER
  2
躯体
 70
     0
 62
    31
  6
CONTINUOUS
  0
LAYER
  2
型材
 70
     0
 62
    32
  6
CONTINUOUS
  0
LAYER
  2
型材断面
 70
     0
 62
    47
  6
CONTINUOUS
  0
LAYER
  2
ガラス
 70
     0
 62
    48
  6
CONTINUOUS
  0
LAYER
  2
ゴム等
 70
     0
 62
    63
  6
CONTINUOUS
  0
LAYER
  2
ボルト／ビス
 70
     0
 62
    64
  6
CONTINUOUS
  0
LAYER
  2
文字
 70
     0
 62
    79
  6
CONTINUOUS
  0
LAYER
  2
寸法
 70
     0
 62
    80
  6
CONTINUOUS
  0
LAYER
  2
ﾊｯﾁﾝｸﾞ
 70
     0
 62
    95
  6
CONTINUOUS
  0
LAYER
  2
別途部材
 70
     0
 62
    96
  6
CONTINUOUS
  0
LAYER
  2
曲げ物
 70
     0
 62
   111
  6
CONTINUOUS
  0
LAYER
  2
鉄骨等
 70
     0
 62
   112
  6
CONTINUOUS
  0
LAYER
  2
St
 70
     0
 62
   127
  6
CONTINUOUS
  0
LAYER
  2
その他部品等
 70
     0
 62
   128
  6
CONTINUOUS
  0
LAYER
  2
ｶﾞｽｹｯﾄ
 70
     0
 62
   143
  6
CONTINUOUS
  0
LAYER
  2
ｽｹｯﾁ
 70
     0
 62
    14
  6
CONTINUOUS
  0
LAYER
  2
0
 70
     0
 62
    17
  6
CONTINUOUS
  0
LAYER
  2
1
 70
     0
 62
    30
  6
CONTINUOUS
  0
LAYER
  2
4
 70
     0
 62
    33
  6
CONTINUOUS
  0
LAYER
  2
ﾚｲﾔ3
 70
     0
 62
    46
  6
CONTINUOUS
  0
LAYER
  2
外形線
 70
     0
 62
    49
  6
CONTINUOUS
  0
LAYER
  2
部品
 70
     0
 62
    14
  6
CONTINUOUS
  0
LAYER
  2
サッシ芯
 70
     0
 62
    17
  6
DASHDOTX2
  0
LAYER
  2
寸法線
 70
     0
 62
    62
  6
CONTINUOUS
  0
LAYER
  2
姿図外形線
 70
     0
 62
    65
  6
CONTINUOUS
  0
LAYER
  2
姿補助線
 70
     0
 62
    30
  6
CONTINUOUS
  0
LAYER
  2
透視線
 70
     0
 62
    78
  6
DOT
  0
LAYER
  2
用紙
 70
     0
 62
    81
  6
CONTINUOUS
  0
LAYER
  2
実線図枠
 70
     0
 62
    94
  6
CONTINUOUS
  0
LAYER
  2
補助図枠
 70
     0
 62
    97
  6
CONTINUOUS
  0
LAYER
  2
建具記号
 70
     0
 62
   110
  6
CONTINUOUS
  0
LAYER
  2
補助文字
 70
     0
 62
   113
  6
CONTINUOUS
  0
ENDTAB
  0
TABLE
  2
STYLE
 70
    10
  0
STYLE
  2
STANDARD
 70
     0
 40
1.0
 41
1.0
 42
1.0
 50
0.0
 71
     0
  3
TXT
  4
BIGFONT
  0
STYLE
  2
TATE
 70
     4
 40
1.0
 41
1.0
 42
1.0
 50
0.0
 71
     0
  3
TXT
  4
BIGFONT
  0
STYLE
  2
TextStyle03
 70
     0
 40
1.0
 41
1.0
 42
1.0
 50
0.0
 71
     0
  3
MONOTXT
  4
BIGFONT
  0
STYLE
  2
TextStyle04
 70
     0
 40
1.0
 41
1.0
 42
1.0
 50
0.0
 71
     0
  3
MONOTXT
  4
BIGFONT
  0
STYLE
  2
TextStyle05
 70
     0
 40
1.0
 41
1.0
 42
1.0
 50
0.0
 71
     0
  3
MONOTXT
  4
BIGFONT
  0
STYLE
  2
TextStyle06
 70
     0
 40
1.0
 41
1.0
 42
1.0
 50
0.0
 71
     0
  3
MONOTXT
  4
BIGFONT
  0
STYLE
  2
TextStyle07
 70
     0
 40
1.0
 41
1.0
 42
1.0
 50
0.0
 71
     0
  3
MONOTXT
  4
BIGFONT
  0
STYLE
  2
TextStyle08
 70
     0
 40
1.0
 41
1.0
 42
1.0
 50
0.0
 71
     0
  3
MONOTXT
  4
BIGFONT
  0
STYLE
  2
TextStyle09
 70
     0
 40
1.0
 41
1.0
 42
1.0
 50
0.0
 71
     0
  3
MONOTXT
  4
BIGFONT
  0
STYLE
  2
TextStyle10
 70
     0
 40
1.0
 41
1.0
 42
1.0
 50
0.0
 71
     0
  3
MONOTXT
  4
BIGFONT
  0
ENDTAB
  0
ENDSEC
  0
SECTION
  2
BLOCKS
  0
BLOCK
  2
*GRP_0001
 70
    65
 10
0.0
 20
0.0
  0
LINE
  8
型材断面
  6
CONTINUOUS
 10
195.0
 20
133.5
 11
195.0
 21
-133.5
  0
LINE
  8
型材断面
  6
CONTINUOUS
 10
195.0
 20
-133.5
 11
-185.0
 21
-133.5
  0
LINE
  8
型材断面
  6
CONTINUOUS
 10
-185.0
 20
-133.5
 11
-185.0
 21
133.5
  0
LINE
  8
型材断面
  6
CONTINUOUS
 10
195.0
 20
133.5
 11
-185.0
 21
133.5
  0
LINE
  8
型材断面
  6
CONTINUOUS
 10
145.0
 20
-133.5
 11
145.0
 21
-118.5
  0
LINE
  8
型材断面
  6
CONTINUOUS
 10
195.0
 20
-118.5
 11
145.0
 21
-118.5
  0
ENDBLK
  0
BLOCK
  2
*DIM_0002
 70
    65
 10
0.0
 20
0.0
  0
LINE
  8
寸法
  6
BYBLOCK
 62
     0
 10
-95.755937
 20
-35.080245
 11
-95.755937
 21
-33.416065
  0
LINE
  8
寸法
  6
BYBLOCK
 62
     0
 10
-30.755937
 20
-35.080245
 11
-30.755937
 21
-33.416065
  0
LINE
  8
寸法
  6
BYBLOCK
 62
     0
 10
-95.755937
 20
-33.416065
 11
-30.755937
 21
-33.416065
  0
POINT
  8
寸法
 62
     0
 10
-95.755937
 20
-33.416065
  0
POINT
  8
寸法
 62
     0
 10
-30.755937
 20
-33.416065
  0
TEXT
  7
TextStyle03
  8
寸法
  6
CONTINUOUS
 62
     0
 10
-74.99375
 20
-33.05
  1
呼称寸法　1300
 40
3.0
 72
     5
 11
-51.55625
 21
-33.05
  0
ENDBLK
  0
BLOCK
  2
*DIM_0003
 70
    65
 10
0.0
 20
0.0
  0
LINE
  8
寸法
  6
BYBLOCK
 62
     0
 10
-26.810743
 20
-71.819873
 11
-26.810743
 21
-33.416065
  0
LINE
  8
寸法
  6
BYBLOCK
 62
     0
 10
-30.755937
 20
-33.416065
 11
-26.810743
 21
-33.416065
  0
POINT
  8
寸法
 62
     0
 10
-26.810743
 20
-33.416065
  0
TEXT
  7
TextStyle03
  8
寸法
  6
CONTINUOUS
 62
     0
 10
-25.33125
 20
-33.05
  1
78.9
 40
3.0
 72
     5
 11
-18.76875
 21
-33.05
  0
ENDBLK
  0
BLOCK
  2
*DIM_0004
 70
    65
 10
0.0
 20
0.0
  0
LINE
  8
寸法
  6
BYBLOCK
 62
     0
 10
-99.70113
 20
-71.819873
 11
-99.70113
 21
-33.416065
  0
LINE
  8
寸法
  6
BYBLOCK
 62
     0
 10
-95.755937
 20
-33.416065
 11
-99.70113
 21
-33.416065
  0
POINT
  8
寸法
 62
     0
 10
-95.755937
 20
-33.416065
  0
POINT
  8
寸法
 62
     0
 10
-99.70113
 20
-33.416065
  0
TEXT
  7
TextStyle03
  8
寸法
  6
CONTINUOUS
 62
     0
 10
-107.78125
 20
-33.05
  1
78.9
 40
3.0
 72
     5
 11
-101.21875
 21
-33.05
  0
ENDBLK
  0
BLOCK
  2
*DIM_0005
 70
    65
 10
0.0
 20
0.0
  0
LINE
  8
寸法
  6
BYBLOCK
 62
     0
 10
-62.255935
 20
-52.069873
 11
-10.143282
 21
-52.069873
  0
LINE
  8
寸法
  6
BYBLOCK
 62
     0
 10
-10.143282
 20
-69.569873
 11
-10.143282
 21
-52.069873
  0
POINT
  8
寸法
 62
     0
 10
-10.143282
 20
-69.569873
  0
POINT
  8
寸法
 62
     0
 10
-10.143282
 20
-52.069873
  0
TEXT
  7
TextStyle03
  8
寸法
  6
CONTINUOUS
 62
     0
 10
-10.525
 20
-63.2875
  1
350
 40
3.0
 50
90.0
 72
     5
 11
-10.525
 21
-58.4125
  0
ENDBLK
  0
BLOCK
  2
*GRP_0006
 70
    65
 10
0.0
 20
0.0
  0
POLYLINE
  8
寸法
  6
BYBLOCK
 62
     0
 66
     1
  0
VERTEX
  8
寸法
 10
-34.969535
 20
20.654355
  0
VERTEX
  8
寸法
 10
-28.553032
 20
14.237853
  0
VERTEX
  8
寸法
 10
-22.645905
 20
14.237853
  0
SEQEND
  0
ENDBLK
  0
BLOCK
  2
*GRP_0007
 70
    65
 10
0.0
 20
0.0
  0
INSERT
  2
*GRP_0008
  8
補助線
  6
CONTINUOUS
 10
0.0
 20
0.0
  0
LINE
  8
ボルト／ビス
  6
CONTINUOUS
 10
-55.755937
 20
60.659058
 11
-56.005937
 21
60.51472
  0
LINE
  8
ボルト／ビス
  6
CONTINUOUS
 10
-55.755937
 20
60.659058
 11
-55.505937
 21
60.51472
  0
LINE
  8
ボルト／ビス
  6
CONTINUOUS
 10
-56.005937
 20
60.226045
 11
-55.755937
 21
60.081708
  0
LINE
  8
ボルト／ビス
  6
CONTINUOUS
 10
-55.505937
 20
60.226045
 11
-55.755937
 21
60.081708
  0
CIRCLE
  8
ボルト／ビス
  6
CONTINUOUS
 10
-55.755937
 20
60.370383
 40
0.25
  0
LINE
  8
ボルト／ビス
  6
CONTINUOUS
 10
-55.505937
 20
60.51472
 11
-55.505937
 21
60.226045
  0
LINE
  8
ボルト／ビス
  6
CONTINUOUS
 10
-56.005937
 20
60.226045
 11
-56.005937
 21
60.51472
  0
ENDBLK
  0
BLOCK
  2
*GRP_0008
 70
    65
 10
0.0
 20
0.0
  0
LINE
  8
補助線
  6
BYBLOCK
 62
     0
 10
-55.630937
 20
60.370383
 11
-55.880937
 21
60.370383
  0
LINE
  8
補助線
  6
BYBLOCK
 62
     0
 10
-55.755937
 20
60.495383
 11
-55.755937
 21
60.245383
  0
ENDBLK
  0
BLOCK
  2
*GRP_0009
 70
    65
 10
0.0
 20
0.0
  0
INSERT
  2
*GRP_0010
  8
補助線
  6
CONTINUOUS
 10
0.0
 20
0.0
  0
LINE
  8
ボルト／ビス
  6
CONTINUOUS
 10
-40.755937
 20
60.659058
 11
-41.005937
 21
60.51472
  0
LINE
  8
ボルト／ビス
  6
CONTINUOUS
 10
-40.755937
 20
60.659058
 11
-40.505937
 21
60.51472
  0
LINE
  8
ボルト／ビス
  6
CONTINUOUS
 10
-41.005937
 20
60.226045
 11
-40.755937
 21
60.081708
  0
LINE
  8
ボルト／ビス
  6
CONTINUOUS
 10
-40.505937
 20
60.226045
 11
-40.755937
 21
60.081708
  0
CIRCLE
  8
ボルト／ビス
  6
CONTINUOUS
 10
-40.755937
 20
60.370383
 40
0.25
  0
LINE
  8
ボルト／ビス
  6
CONTINUOUS
 10
-40.505937
 20
60.51472
 11
-40.505937
 21
60.226045
  0
LINE
  8
ボルト／ビス
  6
CONTINUOUS
 10
-41.005937
 20
60.226045
 11
-41.005937
 21
60.51472
  0
ENDBLK
  0
BLOCK
  2
*GRP_0010
 70
    65
 10
0.0
 20
0.0
  0
LINE
  8
補助線
  6
BYBLOCK
 62
     0
 10
-40.630937
 20
60.370383
 11
-40.880937
 21
60.370383
  0
LINE
  8
補助線
  6
BYBLOCK
 62
     0
 10
-40.755937
 20
60.495383
 11
-40.755937
 21
60.245383
  0
ENDBLK
  0
BLOCK
  2
*GRP_0011
 70
    65
 10
0.0
 20
0.0
  0
INSERT
  2
*GRP_0013
  8
補助線
  6
CONTINUOUS
 10
0.0
 20
0.0
  0
LINE
  8
ボルト／ビス
  6
CONTINUOUS
 10
-70.755937
 20
60.659058
 11
-70.505937
 21
60.51472
  0
LINE
  8
ボルト／ビス
  6
CONTINUOUS
 10
-70.755937
 20
60.659058
 11
-71.005937
 21
60.51472
  0
LINE
  8
ボルト／ビス
  6
CONTINUOUS
 10
-70.505937
 20
60.226045
 11
-70.755937
 21
60.081708
  0
LINE
  8
ボルト／ビス
  6
CONTINUOUS
 10
-71.005937
 20
60.226045
 11
-70.755937
 21
60.081708
  0
CIRCLE
  8
ボルト／ビス
  6
CONTINUOUS
 10
-70.755937
 20
60.370383
 40
0.25
  0
LINE
  8
ボルト／ビス
  6
CONTINUOUS
 10
-71.005937
 20
60.51472
 11
-71.005937
 21
60.226045
  0
LINE
  8
ボルト／ビス
  6
CONTINUOUS
 10
-70.505937
 20
60.226045
 11
-70.505937
 21
60.51472
  0
ENDBLK
  0
BLOCK
  2
*GRP_0012
 70
    65
 10
0.0
 20
0.0
  0
INSERT
  2
*GRP_0014
  8
補助線
  6
CONTINUOUS
 10
0.0
 20
0.0
  0
LINE
  8
ボルト／ビス
  6
CONTINUOUS
 10
-85.755937
 20
60.659058
 11
-85.505937
 21
60.51472
  0
LINE
  8
ボルト／ビス
  6
CONTINUOUS
 10
-85.755937
 20
60.659058
 11
-86.005937
 21
60.51472
  0
LINE
  8
ボルト／ビス
  6
CONTINUOUS
 10
-85.505937
 20
60.226045
 11
-85.755937
 21
60.081708
  0
LINE
  8
ボルト／ビス
  6
CONTINUOUS
 10
-86.005937
 20
60.226045
 11
-85.755937
 21
60.081708
  0
CIRCLE
  8
ボルト／ビス
  6
CONTINUOUS
 10
-85.755937
 20
60.370383
 40
0.25
  0
LINE
  8
ボルト／ビス
  6
CONTINUOUS
 10
-86.005937
 20
60.51472
 11
-86.005937
 21
60.226045
  0
LINE
  8
ボルト／ビス
  6
CONTINUOUS
 10
-85.505937
 20
60.226045
 11
-85.505937
 21
60.51472
  0
ENDBLK
  0
BLOCK
  2
*GRP_0013
 70
    65
 10
0.0
 20
0.0
  0
LINE
  8
補助線
  6
BYBLOCK
 62
     0
 10
-70.880937
 20
60.370383
 11
-70.630937
 21
60.370383
  0
LINE
  8
補助線
  6
BYBLOCK
 62
     0
 10
-70.755937
 20
60.495383
 11
-70.755937
 21
60.245383
  0
ENDBLK
  0
BLOCK
  2
*GRP_0014
 70
    65
 10
0.0
 20
0.0
  0
LINE
  8
補助線
  6
BYBLOCK
 62
     0
 10
-85.880937
 20
60.370383
 11
-85.630937
 21
60.370383
  0
LINE
  8
補助線
  6
BYBLOCK
 62
     0
 10
-85.755937
 20
60.495383
 11
-85.755937
 21
60.245383
  0
ENDBLK
  0
BLOCK
  2
*GRP_0015
 70
    65
 10
0.0
 20
0.0
  0
INSERT
  2
*GRP_0017
  8
補助線
  6
CONTINUOUS
 10
0.0
 20
0.0
  0
LINE
  8
ボルト／ビス
  6
CONTINUOUS
 10
-97.04461
 20
34.370385
 11
-96.900273
 21
34.120385
  0
LINE
  8
ボルト／ビス
  6
CONTINUOUS
 10
-97.04461
 20
34.370385
 11
-96.900273
 21
34.620385
  0
LINE
  8
ボルト／ビス
  6
CONTINUOUS
 10
-96.611597
 20
34.120385
 11
-96.46726
 21
34.370385
  0
LINE
  8
ボルト／ビス
  6
CONTINUOUS
 10
-96.611597
 20
34.620385
 11
-96.46726
 21
34.370385
  0
CIRCLE
  8
ボルト／ビス
  6
CONTINUOUS
 10
-96.755935
 20
34.370385
 40
0.25
  0
LINE
  8
ボルト／ビス
  6
CONTINUOUS
 10
-96.900273
 20
34.620385
 11
-96.611597
 21
34.620385
  0
LINE
  8
ボルト／ビス
  6
CONTINUOUS
 10
-96.611597
 20
34.120385
 11
-96.900273
 21
34.120385
  0
ENDBLK
  0
BLOCK
  2
*GRP_0016
 70
    65
 10
0.0
 20
0.0
  0
INSERT
  2
*GRP_0018
  8
補助線
  6
CONTINUOUS
 10
0.0
 20
0.0
  0
LINE
  8
ボルト／ビス
  6
CONTINUOUS
 10
-97.04461
 20
49.370385
 11
-96.900273
 21
49.120385
  0
LINE
  8
ボルト／ビス
  6
CONTINUOUS
 10
-97.04461
 20
49.370385
 11
-96.900273
 21
49.620385
  0
LINE
  8
ボルト／ビス
  6
CONTINUOUS
 10
-96.611597
 20
49.120385
 11
-96.46726
 21
49.370385
  0
LINE
  8
ボルト／ビス
  6
CONTINUOUS
 10
-96.611597
 20
49.620385
 11
-96.46726
 21
49.370385
  0
CIRCLE
  8
ボルト／ビス
  6
CONTINUOUS
 10
-96.755935
 20
49.370385
 40
0.25
  0
LINE
  8
ボルト／ビス
  6
CONTINUOUS
 10
-96.900273
 20
49.620385
 11
-96.611597
 21
49.620385
  0
LINE
  8
ボルト／ビス
  6
CONTINUOUS
 10
-96.611597
 20
49.120385
 11
-96.900273
 21
49.120385
  0
ENDBLK
  0
BLOCK
  2
*GRP_0017
 70
    65
 10
0.0
 20
0.0
  0
LINE
  8
補助線
  6
BYBLOCK
 62
     0
 10
-96.755935
 20
34.495385
 11
-96.755935
 21
34.245385
  0
LINE
  8
補助線
  6
BYBLOCK
 62
     0
 10
-96.880935
 20
34.370385
 11
-96.630935
 21
34.370385
  0
ENDBLK
  0
BLOCK
  2
*GRP_0018
 70
    65
 10
0.0
 20
0.0
  0
LINE
  8
補助線
  6
BYBLOCK
 62
     0
 10
-96.755935
 20
49.495385
 11
-96.755935
 21
49.245385
  0
LINE
  8
補助線
  6
BYBLOCK
 62
     0
 10
-96.880935
 20
49.370385
 11
-96.630935
 21
49.370385
  0
ENDBLK
  0
BLOCK
  2
*GRP_0019
 70
    65
 10
0.0
 20
0.0
  0
INSERT
  2
*GRP_0021
  8
補助線
  6
CONTINUOUS
 10
0.0
 20
0.0
  0
LINE
  8
ボルト／ビス
  6
CONTINUOUS
 10
-97.04461
 20
19.37038
 11
-96.900273
 21
19.62038
  0
LINE
  8
ボルト／ビス
  6
CONTINUOUS
 10
-97.04461
 20
19.37038
 11
-96.900273
 21
19.12038
  0
LINE
  8
ボルト／ビス
  6
CONTINUOUS
 10
-96.611597
 20
19.62038
 11
-96.46726
 21
19.37038
  0
LINE
  8
ボルト／ビス
  6
CONTINUOUS
 10
-96.611597
 20
19.12038
 11
-96.46726
 21
19.37038
  0
CIRCLE
  8
ボルト／ビス
  6
CONTINUOUS
 10
-96.755935
 20
19.37038
 40
0.25
  0
LINE
  8
ボルト／ビス
  6
CONTINUOUS
 10
-96.900273
 20
19.12038
 11
-96.611597
 21
19.12038
  0
LINE
  8
ボルト／ビス
  6
CONTINUOUS
 10
-96.611597
 20
19.62038
 11
-96.900273
 21
19.62038
  0
ENDBLK
  0
BLOCK
  2
*GRP_0020
 70
    65
 10
0.0
 20
0.0
  0
INSERT
  2
*GRP_0022
  8
補助線
  6
CONTINUOUS
 10
0.0
 20
0.0
  0
LINE
  8
ボルト／ビス
  6
CONTINUOUS
 10
-97.04461
 20
4.37038
 11
-96.900273
 21
4.62038
  0
LINE
  8
ボルト／ビス
  6
CONTINUOUS
 10
-97.04461
 20
4.37038
 11
-96.900273
 21
4.12038
  0
LINE
  8
ボルト／ビス
  6
CONTINUOUS
 10
-96.611597
 20
4.62038
 11
-96.46726
 21
4.37038
  0
LINE
  8
ボルト／ビス
  6
CONTINUOUS
 10
-96.611597
 20
4.12038
 11
-96.46726
 21
4.37038
  0
CIRCLE
  8
ボルト／ビス
  6
CONTINUOUS
 10
-96.755935
 20
4.37038
 40
0.25
  0
LINE
  8
ボルト／ビス
  6
CONTINUOUS
 10
-96.900273
 20
4.12038
 11
-96.611597
 21
4.12038
  0
LINE
  8
ボルト／ビス
  6
CONTINUOUS
 10
-96.611597
 20
4.62038
 11
-96.900273
 21
4.62038
  0
ENDBLK
  0
BLOCK
  2
*GRP_0021
 70
    65
 10
0.0
 20
0.0
  0
LINE
  8
補助線
  6
BYBLOCK
 62
     0
 10
-96.755935
 20
19.24538
 11
-96.755935
 21
19.49538
  0
LINE
  8
補助線
  6
BYBLOCK
 62
     0
 10
-96.880935
 20
19.37038
 11
-96.630935
 21
19.37038
  0
ENDBLK
  0
BLOCK
  2
*GRP_0022
 70
    65
 10
0.0
 20
0.0
  0
LINE
  8
補助線
  6
BYBLOCK
 62
     0
 10
-96.755935
 20
4.24538
 11
-96.755935
 21
4.49538
  0
LINE
  8
補助線
  6
BYBLOCK
 62
     0
 10
-96.880935
 20
4.37038
 11
-96.630935
 21
4.37038
  0
ENDBLK
  0
BLOCK
  2
*GRP_0023
 70
    65
 10
0.0
 20
0.0
  0
INSERT
  2
*GRP_0025
  8
補助線
  6
CONTINUOUS
 10
0.0
 20
0.0
  0
LINE
  8
ボルト／ビス
  6
CONTINUOUS
 10
-70.75594
 20
-6.91829
 11
-70.50594
 21
-6.773952
  0
LINE
  8
ボルト／ビス
  6
CONTINUOUS
 10
-70.75594
 20
-6.91829
 11
-71.00594
 21
-6.773952
  0
LINE
  8
ボルト／ビス
  6
CONTINUOUS
 10
-70.50594
 20
-6.485278
 11
-70.75594
 21
-6.34094
  0
LINE
  8
ボルト／ビス
  6
CONTINUOUS
 10
-71.00594
 20
-6.485278
 11
-70.75594
 21
-6.34094
  0
CIRCLE
  8
ボルト／ビス
  6
CONTINUOUS
 10
-70.75594
 20
-6.629615
 40
0.25
  0
LINE
  8
ボルト／ビス
  6
CONTINUOUS
 10
-71.00594
 20
-6.773952
 11
-71.00594
 21
-6.485278
  0
LINE
  8
ボルト／ビス
  6
CONTINUOUS
 10
-70.50594
 20
-6.485278
 11
-70.50594
 21
-6.773952
  0
ENDBLK
  0
BLOCK
  2
*GRP_0024
 70
    65
 10
0.0
 20
0.0
  0
INSERT
  2
*GRP_0026
  8
補助線
  6
CONTINUOUS
 10
0.0
 20
0.0
  0
LINE
  8
ボルト／ビス
  6
CONTINUOUS
 10
-85.75594
 20
-6.91829
 11
-85.50594
 21
-6.773952
  0
LINE
  8
ボルト／ビス
  6
CONTINUOUS
 10
-85.75594
 20
-6.91829
 11
-86.00594
 21
-6.773952
  0
LINE
  8
ボルト／ビス
  6
CONTINUOUS
 10
-85.50594
 20
-6.485278
 11
-85.75594
 21
-6.34094
  0
LINE
  8
ボルト／ビス
  6
CONTINUOUS
 10
-86.00594
 20
-6.485278
 11
-85.75594
 21
-6.34094
  0
CIRCLE
  8
ボルト／ビス
  6
CONTINUOUS
 10
-85.75594
 20
-6.629615
 40
0.25
  0
LINE
  8
ボルト／ビス
  6
CONTINUOUS
 10
-86.00594
 20
-6.773952
 11
-86.00594
 21
-6.485278
  0
LINE
  8
ボルト／ビス
  6
CONTINUOUS
 10
-85.50594
 20
-6.485278
 11
-85.50594
 21
-6.773952
  0
ENDBLK
  0
BLOCK
  2
*GRP_0025
 70
    65
 10
0.0
 20
0.0
  0
LINE
  8
補助線
  6
BYBLOCK
 62
     0
 10
-70.88094
 20
-6.629615
 11
-70.63094
 21
-6.629615
  0
LINE
  8
補助線
  6
BYBLOCK
 62
     0
 10
-70.75594
 20
-6.754615
 11
-70.75594
 21
-6.504615
  0
ENDBLK
  0
BLOCK
  2
*GRP_0026
 70
    65
 10
0.0
 20
0.0
  0
LINE
  8
補助線
  6
BYBLOCK
 62
     0
 10
-85.88094
 20
-6.629615
 11
-85.63094
 21
-6.629615
  0
LINE
  8
補助線
  6
BYBLOCK
 62
     0
 10
-85.75594
 20
-6.754615
 11
-85.75594
 21
-6.504615
  0
ENDBLK
  0
BLOCK
  2
*GRP_0027
 70
    65
 10
0.0
 20
0.0
  0
INSERT
  2
*GRP_0029
  8
補助線
  6
CONTINUOUS
 10
0.0
 20
0.0
  0
LINE
  8
ボルト／ビス
  6
CONTINUOUS
 10
-55.755935
 20
-6.91829
 11
-56.005935
 21
-6.773952
  0
LINE
  8
ボルト／ビス
  6
CONTINUOUS
 10
-55.755935
 20
-6.91829
 11
-55.505935
 21
-6.773952
  0
LINE
  8
ボルト／ビス
  6
CONTINUOUS
 10
-56.005935
 20
-6.485278
 11
-55.755935
 21
-6.34094
  0
LINE
  8
ボルト／ビス
  6
CONTINUOUS
 10
-55.505935
 20
-6.485278
 11
-55.755935
 21
-6.34094
  0
CIRCLE
  8
ボルト／ビス
  6
CONTINUOUS
 10
-55.755935
 20
-6.629615
 40
0.25
  0
LINE
  8
ボルト／ビス
  6
CONTINUOUS
 10
-55.505935
 20
-6.773952
 11
-55.505935
 21
-6.485278
  0
LINE
  8
ボルト／ビス
  6
CONTINUOUS
 10
-56.005935
 20
-6.485278
 11
-56.005935
 21
-6.773952
  0
ENDBLK
  0
BLOCK
  2
*GRP_0028
 70
    65
 10
0.0
 20
0.0
  0
INSERT
  2
*GRP_0030
  8
補助線
  6
CONTINUOUS
 10
0.0
 20
0.0
  0
LINE
  8
ボルト／ビス
  6
CONTINUOUS
 10
-40.755935
 20
-6.91829
 11
-41.005935
 21
-6.773952
  0
LINE
  8
ボルト／ビス
  6
CONTINUOUS
 10
-40.755935
 20
-6.91829
 11
-40.505935
 21
-6.773952
  0
LINE
  8
ボルト／ビス
  6
CONTINUOUS
 10
-41.005935
 20
-6.485278
 11
-40.755935
 21
-6.34094
  0
LINE
  8
ボルト／ビス
  6
CONTINUOUS
 10
-40.505935
 20
-6.485278
 11
-40.755935
 21
-6.34094
  0
CIRCLE
  8
ボルト／ビス
  6
CONTINUOUS
 10
-40.755935
 20
-6.629615
 40
0.25
  0
LINE
  8
ボルト／ビス
  6
CONTINUOUS
 10
-40.505935
 20
-6.773952
 11
-40.505935
 21
-6.485278
  0
LINE
  8
ボルト／ビス
  6
CONTINUOUS
 10
-41.005935
 20
-6.485278
 11
-41.005935
 21
-6.773952
  0
ENDBLK
  0
BLOCK
  2
*GRP_0029
 70
    65
 10
0.0
 20
0.0
  0
LINE
  8
補助線
  6
BYBLOCK
 62
     0
 10
-55.630935
 20
-6.629615
 11
-55.880935
 21
-6.629615
  0
LINE
  8
補助線
  6
BYBLOCK
 62
     0
 10
-55.755935
 20
-6.754615
 11
-55.755935
 21
-6.504615
  0
ENDBLK
  0
BLOCK
  2
*GRP_0030
 70
    65
 10
0.0
 20
0.0
  0
LINE
  8
補助線
  6
BYBLOCK
 62
     0
 10
-40.630935
 20
-6.629615
 11
-40.880935
 21
-6.629615
  0
LINE
  8
補助線
  6
BYBLOCK
 62
     0
 10
-40.755935
 20
-6.754615
 11
-40.755935
 21
-6.504615
  0
ENDBLK
  0
BLOCK
  2
*GRP_0031
 70
    65
 10
0.0
 20
0.0
  0
INSERT
  2
*GRP_0033
  8
補助線
  6
CONTINUOUS
 10
0.0
 20
0.0
  0
LINE
  8
ボルト／ビス
  6
CONTINUOUS
 10
-29.467263
 20
19.370383
 11
-29.6116
 21
19.620383
  0
LINE
  8
ボルト／ビス
  6
CONTINUOUS
 10
-29.467263
 20
19.370383
 11
-29.6116
 21
19.120383
  0
LINE
  8
ボルト／ビス
  6
CONTINUOUS
 10
-29.900275
 20
19.620383
 11
-30.044613
 21
19.370383
  0
LINE
  8
ボルト／ビス
  6
CONTINUOUS
 10
-29.900275
 20
19.120383
 11
-30.044613
 21
19.370383
  0
CIRCLE
  8
ボルト／ビス
  6
CONTINUOUS
 10
-29.755937
 20
19.370383
 40
0.25
  0
LINE
  8
ボルト／ビス
  6
CONTINUOUS
 10
-29.6116
 20
19.120383
 11
-29.900275
 21
19.120383
  0
LINE
  8
ボルト／ビス
  6
CONTINUOUS
 10
-29.900275
 20
19.620383
 11
-29.6116
 21
19.620383
  0
ENDBLK
  0
BLOCK
  2
*GRP_0032
 70
    65
 10
0.0
 20
0.0
  0
INSERT
  2
*GRP_0034
  8
補助線
  6
CONTINUOUS
 10
0.0
 20
0.0
  0
LINE
  8
ボルト／ビス
  6
CONTINUOUS
 10
-29.467263
 20
4.370383
 11
-29.6116
 21
4.620383
  0
LINE
  8
ボルト／ビス
  6
CONTINUOUS
 10
-29.467263
 20
4.370383
 11
-29.6116
 21
4.120383
  0
LINE
  8
ボルト／ビス
  6
CONTINUOUS
 10
-29.900275
 20
4.620383
 11
-30.044613
 21
4.370383
  0
LINE
  8
ボルト／ビス
  6
CONTINUOUS
 10
-29.900275
 20
4.120383
 11
-30.044613
 21
4.370383
  0
CIRCLE
  8
ボルト／ビス
  6
CONTINUOUS
 10
-29.755937
 20
4.370383
 40
0.25
  0
LINE
  8
ボルト／ビス
  6
CONTINUOUS
 10
-29.6116
 20
4.120383
 11
-29.900275
 21
4.120383
  0
LINE
  8
ボルト／ビス
  6
CONTINUOUS
 10
-29.900275
 20
4.620383
 11
-29.6116
 21
4.620383
  0
ENDBLK
  0
BLOCK
  2
*GRP_0033
 70
    65
 10
0.0
 20
0.0
  0
LINE
  8
補助線
  6
BYBLOCK
 62
     0
 10
-29.755937
 20
19.245383
 11
-29.755937
 21
19.495383
  0
LINE
  8
補助線
  6
BYBLOCK
 62
     0
 10
-29.630937
 20
19.370383
 11
-29.880937
 21
19.370383
  0
ENDBLK
  0
BLOCK
  2
*GRP_0034
 70
    65
 10
0.0
 20
0.0
  0
LINE
  8
補助線
  6
BYBLOCK
 62
     0
 10
-29.755937
 20
4.245383
 11
-29.755937
 21
4.495383
  0
LINE
  8
補助線
  6
BYBLOCK
 62
     0
 10
-29.630937
 20
4.370383
 11
-29.880937
 21
4.370383
  0
ENDBLK
  0
BLOCK
  2
*GRP_0035
 70
    65
 10
0.0
 20
0.0
  0
INSERT
  2
*GRP_0037
  8
補助線
  6
CONTINUOUS
 10
0.0
 20
0.0
  0
LINE
  8
ボルト／ビス
  6
CONTINUOUS
 10
-29.467263
 20
34.370383
 11
-29.6116
 21
34.120383
  0
LINE
  8
ボルト／ビス
  6
CONTINUOUS
 10
-29.467263
 20
34.370383
 11
-29.6116
 21
34.620383
  0
LINE
  8
ボルト／ビス
  6
CONTINUOUS
 10
-29.900275
 20
34.120383
 11
-30.044613
 21
34.370383
  0
LINE
  8
ボルト／ビス
  6
CONTINUOUS
 10
-29.900275
 20
34.620383
 11
-30.044613
 21
34.370383
  0
CIRCLE
  8
ボルト／ビス
  6
CONTINUOUS
 10
-29.755937
 20
34.370383
 40
0.25
  0
LINE
  8
ボルト／ビス
  6
CONTINUOUS
 10
-29.6116
 20
34.620383
 11
-29.900275
 21
34.620383
  0
LINE
  8
ボルト／ビス
  6
CONTINUOUS
 10
-29.900275
 20
34.120383
 11
-29.6116
 21
34.120383
  0
ENDBLK
  0
BLOCK
  2
*GRP_0036
 70
    65
 10
0.0
 20
0.0
  0
INSERT
  2
*GRP_0038
  8
補助線
  6
CONTINUOUS
 10
0.0
 20
0.0
  0
LINE
  8
ボルト／ビス
  6
CONTINUOUS
 10
-29.467263
 20
49.370383
 11
-29.6116
 21
49.120383
  0
LINE
  8
ボルト／ビス
  6
CONTINUOUS
 10
-29.467263
 20
49.370383
 11
-29.6116
 21
49.620383
  0
LINE
  8
ボルト／ビス
  6
CONTINUOUS
 10
-29.900275
 20
49.120383
 11
-30.044613
 21
49.370383
  0
LINE
  8
ボルト／ビス
  6
CONTINUOUS
 10
-29.900275
 20
49.620383
 11
-30.044613
 21
49.370383
  0
CIRCLE
  8
ボルト／ビス
  6
CONTINUOUS
 10
-29.755937
 20
49.370383
 40
0.25
  0
LINE
  8
ボルト／ビス
  6
CONTINUOUS
 10
-29.6116
 20
49.620383
 11
-29.900275
 21
49.620383
  0
LINE
  8
ボルト／ビス
  6
CONTINUOUS
 10
-29.900275
 20
49.120383
 11
-29.6116
 21
49.120383
  0
ENDBLK
  0
BLOCK
  2
*GRP_0037
 70
    65
 10
0.0
 20
0.0
  0
LINE
  8
補助線
  6
BYBLOCK
 62
     0
 10
-29.755937
 20
34.495383
 11
-29.755937
 21
34.245383
  0
LINE
  8
補助線
  6
BYBLOCK
 62
     0
 10
-29.630937
 20
34.370383
 11
-29.880937
 21
34.370383
  0
ENDBLK
  0
BLOCK
  2
*GRP_0038
 70
    65
 10
0.0
 20
0.0
  0
LINE
  8
補助線
  6
BYBLOCK
 62
     0
 10
-29.755937
 20
49.495383
 11
-29.755937
 21
49.245383
  0
LINE
  8
補助線
  6
BYBLOCK
 62
     0
 10
-29.630937
 20
49.370383
 11
-29.880937
 21
49.370383
  0
ENDBLK
  0
BLOCK
  2
*DIM_0039
 70
    65
 10
0.0
 20
0.0
  0
LINE
  8
寸法
  6
BYBLOCK
 62
     0
 10
-27.255935
 20
-69.569873
 11
-10.143282
 21
-69.569873
  0
LINE
  8
寸法
  6
BYBLOCK
 62
     0
 10
-26.805937
 20
-79.7448
 11
-10.143282
 21
-79.7448
  0
LINE
  8
寸法
  6
BYBLOCK
 62
     0
 10
-10.143282
 20
-69.569873
 11
-10.143282
 21
-79.7448
  0
POINT
  8
寸法
 62
     0
 10
-10.143282
 20
-69.569873
  0
POINT
  8
寸法
 62
     0
 10
-10.143282
 20
-79.7448
  0
TEXT
  7
TextStyle03
  8
寸法
  6
CONTINUOUS
 62
     0
 10
-10.525
 20
-78.8
  1
203.5
 40
3.0
 50
90.0
 72
     5
 11
-10.525
 21
-70.55
  0
ENDBLK
  0
BLOCK
  2
*DIM_0040
 70
    65
 10
0.0
 20
0.0
  0
LINE
  8
寸法
  6
BYBLOCK
 62
     0
 10
-29.755935
 20
-5.629618
 11
-13.666435
 21
-5.629618
  0
LINE
  8
寸法
  6
BYBLOCK
 62
     0
 10
-21.732057
 20
0.220383
 11
-13.666435
 21
0.220383
  0
LINE
  8
寸法
  6
BYBLOCK
 62
     0
 10
-13.666435
 20
-5.629618
 11
-13.666435
 21
0.220383
  0
POINT
  8
寸法
 62
     0
 10
-13.666435
 20
-5.629618
  0
POINT
  8
寸法
 62
     0
 10
-13.666435
 20
0.220383
  0
TEXT
  7
TextStyle03
  8
寸法
  6
CONTINUOUS
 62
     0
 10
-14.05
 20
-5.1375
  1
117
 40
3.0
 50
90.0
 72
     5
 11
-14.05
 21
-0.2625
  0
ENDBLK
  0
BLOCK
  2
*DIM_0041
 70
    65
 10
0.0
 20
0.0
  0
LINE
  8
寸法
  6
BYBLOCK
 62
     0
 10
-29.755935
 20
59.370383
 11
-13.666435
 21
59.370383
  0
LINE
  8
寸法
  6
BYBLOCK
 62
     0
 10
-21.732057
 20
53.520383
 11
-13.666435
 21
53.520383
  0
LINE
  8
寸法
  6
BYBLOCK
 62
     0
 10
-13.666435
 20
59.370383
 11
-13.666435
 21
53.520383
  0
POINT
  8
寸法
 62
     0
 10
-13.666435
 20
59.370383
  0
POINT
  8
寸法
 62
     0
 10
-13.666435
 20
53.520383
  0
TEXT
  7
TextStyle03
  8
寸法
  6
CONTINUOUS
 62
     0
 10
-14.05
 20
53.9875
  1
117
 40
3.0
 50
90.0
 72
     5
 11
-14.05
 21
58.8625
  0
ENDBLK
  0
BLOCK
  2
*GRP_0042
 70
    65
 10
0.0
 20
0.0
  0
LINE
  8
型材断面
  6
CONTINUOUS
 10
115.368687
 20
-76.395395
 11
115.73433
 21
-77.391038
  0
LINE
  8
型材断面
  6
CONTINUOUS
 10
115.73433
 20
-77.391038
 11
115.31433
 21
-78.298563
  0
LINE
  8
型材断面
  6
CONTINUOUS
 10
115.31433
 20
-78.298563
 11
114.318687
 21
-78.664205
  0
LINE
  8
型材断面
  6
CONTINUOUS
 10
71.35377
 20
-56.025392
 11
115.368687
 21
-76.395395
  0
LINE
  8
型材断面
  6
CONTINUOUS
 10
70.358125
 20
-56.391035
 11
71.35377
 21
-56.025392
  0
LINE
  8
型材断面
  6
CONTINUOUS
 10
70.358125
 20
-56.391035
 11
69.938125
 21
-57.29856
  0
LINE
  8
型材断面
  6
CONTINUOUS
 10
70.30377
 20
-58.294203
 11
114.318687
 21
-78.664205
  0
LINE
  8
型材断面
  6
CONTINUOUS
 10
69.938125
 20
-57.29856
 11
70.30377
 21
-58.294203
  0
INSERT
  2
*GRP_0044
  8
ボルト／ビス
  6
CONTINUOUS
 62
    64
 10
0.0
 20
0.0
  0
INSERT
  2
*GRP_0045
  8
ボルト／ビス
  6
CONTINUOUS
 62
    64
 10
0.0
 20
0.0
  0
INSERT
  2
*GRP_0046
  8
ボルト／ビス
  6
CONTINUOUS
 62
    64
 10
0.0
 20
0.0
  0
ENDBLK
  0
BLOCK
  2
*GRP_0043
 70
    65
 10
0.0
 20
0.0
  0
LINE
  8
型材断面
  6
CONTINUOUS
 10
70.303767
 20
-76.395395
 11
69.938125
 21
-77.391038
  0
LINE
  8
型材断面
  6
CONTINUOUS
 10
69.938125
 20
-77.391038
 11
70.358125
 21
-78.298563
  0
LINE
  8
型材断面
  6
CONTINUOUS
 10
70.358125
 20
-78.298563
 11
71.353767
 21
-78.664205
  0
LINE
  8
型材断面
  6
CONTINUOUS
 10
114.318685
 20
-56.025392
 11
70.303767
 21
-76.395395
  0
LINE
  8
型材断面
  6
CONTINUOUS
 10
115.31433
 20
-56.391035
 11
114.318685
 21
-56.025392
  0
LINE
  8
型材断面
  6
CONTINUOUS
 10
115.31433
 20
-56.391035
 11
115.73433
 21
-57.29856
  0
LINE
  8
型材断面
  6
CONTINUOUS
 10
115.368685
 20
-58.294203
 11
71.353767
 21
-78.664205
  0
LINE
  8
型材断面
  6
CONTINUOUS
 10
115.73433
 20
-57.29856
 11
115.368685
 21
-58.294203
  0
INSERT
  2
*GRP_0047
  8
ボルト／ビス
  6
CONTINUOUS
 62
    64
 10
0.0
 20
0.0
  0
INSERT
  2
*GRP_0048
  8
ボルト／ビス
  6
CONTINUOUS
 62
    64
 10
0.0
 20
0.0
  0
INSERT
  2
*GRP_0049
  8
ボルト／ビス
  6
CONTINUOUS
 62
    64
 10
0.0
 20
0.0
  0
ENDBLK
  0
BLOCK
  2
*GRP_0044
 70
    65
 10
0.0
 20
0.0
  0
INSERT
  2
*GRP_0050
  8
補助線
  6
CONTINUOUS
 62
    64
 10
0.0
 20
0.0
  0
LINE
  8
ボルト／ビス
  6
CONTINUOUS
 62
    64
 10
71.47652
 20
-56.95063
 11
71.016515
 21
-56.992215
  0
LINE
  8
ボルト／ビス
  6
CONTINUOUS
 62
    64
 10
71.47652
 20
-56.95063
 11
71.742535
 21
-57.328215
  0
LINE
  8
ボルト／ビス
  6
CONTINUOUS
 62
    64
 10
71.088543
 20
-57.788965
 11
70.822528
 21
-57.411383
  0
LINE
  8
ボルト／ビス
  6
CONTINUOUS
 62
    64
 10
71.088543
 20
-57.788965
 11
71.548545
 21
-57.747383
  0
CIRCLE
  8
ボルト／ビス
  6
CONTINUOUS
 62
    64
 10
71.28253
 20
-57.369798
 40
0.4
  0
LINE
  8
ボルト／ビス
  6
CONTINUOUS
 62
    64
 10
71.742535
 20
-57.328215
 11
71.548545
 21
-57.747383
  0
LINE
  8
ボルト／ビス
  6
CONTINUOUS
 62
    64
 10
71.016515
 20
-56.992215
 11
70.822528
 21
-57.411383
  0
ENDBLK
  0
BLOCK
  2
*GRP_0045
 70
    65
 10
0.0
 20
0.0
  0
INSERT
  2
*GRP_0051
  8
補助線
  6
CONTINUOUS
 62
    64
 10
0.0
 20
0.0
  0
LINE
  8
ボルト／ビス
  6
CONTINUOUS
 62
    64
 10
114.583915
 20
-76.900633
 11
114.84993
 21
-77.278218
  0
LINE
  8
ボルト／ビス
  6
CONTINUOUS
 62
    64
 10
114.583915
 20
-76.900633
 11
114.12391
 21
-76.942217
  0
LINE
  8
ボルト／ビス
  6
CONTINUOUS
 62
    64
 10
114.195935
 20
-77.738968
 11
114.65594
 21
-77.697383
  0
LINE
  8
ボルト／ビス
  6
CONTINUOUS
 62
    64
 10
114.195935
 20
-77.738968
 11
113.92992
 21
-77.361383
  0
CIRCLE
  8
ボルト／ビス
  6
CONTINUOUS
 62
    64
 10
114.389925
 20
-77.3198
 40
0.4
  0
LINE
  8
ボルト／ビス
  6
CONTINUOUS
 62
    64
 10
114.12391
 20
-76.942217
 11
113.92992
 21
-77.361383
  0
LINE
  8
ボルト／ビス
  6
CONTINUOUS
 62
    64
 10
114.84993
 20
-77.278218
 11
114.65594
 21
-77.697383
  0
ENDBLK
  0
BLOCK
  2
*GRP_0046
 70
    65
 10
0.0
 20
0.0
  0
INSERT
  2
*GRP_0052
  8
補助線
  6
CONTINUOUS
 62
    64
 10
0.0
 20
0.0
  0
LINE
  8
ボルト／ビス
  6
CONTINUOUS
 62
    64
 10
93.030218
 20
-66.925633
 11
92.570212
 21
-66.967215
  0
LINE
  8
ボルト／ビス
  6
CONTINUOUS
 62
    64
 10
93.030218
 20
-66.925633
 11
93.296233
 21
-67.303215
  0
LINE
  8
ボルト／ビス
  6
CONTINUOUS
 62
    64
 10
92.642238
 20
-67.763965
 11
92.376223
 21
-67.386383
  0
LINE
  8
ボルト／ビス
  6
CONTINUOUS
 62
    64
 10
92.642238
 20
-67.763965
 11
93.102242
 21
-67.722383
  0
CIRCLE
  8
ボルト／ビス
  6
CONTINUOUS
 62
    64
 10
92.836227
 20
-67.3448
 40
0.4
  0
LINE
  8
ボルト／ビス
  6
CONTINUOUS
 62
    64
 10
93.296233
 20
-67.303215
 11
93.102242
 21
-67.722383
  0
LINE
  8
ボルト／ビス
  6
CONTINUOUS
 62
    64
 10
92.570212
 20
-66.967215
 11
92.376223
 21
-67.386383
  0
ENDBLK
  0
BLOCK
  2
*GRP_0047
 70
    65
 10
0.0
 20
0.0
  0
INSERT
  2
*GRP_0053
  8
補助線
  6
CONTINUOUS
 62
    64
 10
0.0
 20
0.0
  0
LINE
  8
ボルト／ビス
  6
CONTINUOUS
 62
    64
 10
114.195935
 20
-56.95063
 11
114.65594
 21
-56.992215
  0
LINE
  8
ボルト／ビス
  6
CONTINUOUS
 62
    64
 10
114.195935
 20
-56.95063
 11
113.92992
 21
-57.328215
  0
LINE
  8
ボルト／ビス
  6
CONTINUOUS
 62
    64
 10
114.583913
 20
-57.788965
 11
114.849928
 21
-57.411383
  0
LINE
  8
ボルト／ビス
  6
CONTINUOUS
 62
    64
 10
114.583913
 20
-57.788965
 11
114.12391
 21
-57.747383
  0
CIRCLE
  8
ボルト／ビス
  6
CONTINUOUS
 62
    64
 10
114.389925
 20
-57.369798
 40
0.4
  0
LINE
  8
ボルト／ビス
  6
CONTINUOUS
 62
    64
 10
113.92992
 20
-57.328215
 11
114.12391
 21
-57.747383
  0
LINE
  8
ボルト／ビス
  6
CONTINUOUS
 62
    64
 10
114.65594
 20
-56.992215
 11
114.849928
 21
-57.411383
  0
ENDBLK
  0
BLOCK
  2
*GRP_0048
 70
    65
 10
0.0
 20
0.0
  0
INSERT
  2
*GRP_0054
  8
補助線
  6
CONTINUOUS
 62
    64
 10
0.0
 20
0.0
  0
LINE
  8
ボルト／ビス
  6
CONTINUOUS
 62
    64
 10
71.08854
 20
-76.900633
 11
70.822525
 21
-77.278218
  0
LINE
  8
ボルト／ビス
  6
CONTINUOUS
 62
    64
 10
71.08854
 20
-76.900633
 11
71.548545
 21
-76.942217
  0
LINE
  8
ボルト／ビス
  6
CONTINUOUS
 62
    64
 10
71.47652
 20
-77.738968
 11
71.016515
 21
-77.697383
  0
LINE
  8
ボルト／ビス
  6
CONTINUOUS
 62
    64
 10
71.47652
 20
-77.738968
 11
71.742535
 21
-77.361383
  0
CIRCLE
  8
ボルト／ビス
  6
CONTINUOUS
 62
    64
 10
71.28253
 20
-77.3198
 40
0.4
  0
LINE
  8
ボルト／ビス
  6
CONTINUOUS
 62
    64
 10
71.548545
 20
-76.942217
 11
71.742535
 21
-77.361383
  0
LINE
  8
ボルト／ビス
  6
CONTINUOUS
 62
    64
 10
70.822525
 20
-77.278218
 11
71.016515
 21
-77.697383
  0
ENDBLK
  0
BLOCK
  2
*GRP_0049
 70
    65
 10
0.0
 20
0.0
  0
INSERT
  2
*GRP_0055
  8
補助線
  6
CONTINUOUS
 62
    64
 10
0.0
 20
0.0
  0
LINE
  8
ボルト／ビス
  6
CONTINUOUS
 62
    64
 10
92.642238
 20
-66.925633
 11
93.102242
 21
-66.967215
  0
LINE
  8
ボルト／ビス
  6
CONTINUOUS
 62
    64
 10
92.642238
 20
-66.925633
 11
92.376223
 21
-67.303215
  0
LINE
  8
ボルト／ビス
  6
CONTINUOUS
 62
    64
 10
93.030218
 20
-67.763965
 11
93.296233
 21
-67.386383
  0
LINE
  8
ボルト／ビス
  6
CONTINUOUS
 62
    64
 10
93.030218
 20
-67.763965
 11
92.570212
 21
-67.722383
  0
CIRCLE
  8
ボルト／ビス
  6
CONTINUOUS
 62
    64
 10
92.836227
 20
-67.3448
 40
0.4
  0
LINE
  8
ボルト／ビス
  6
CONTINUOUS
 62
    64
 10
92.376223
 20
-67.303215
 11
92.570212
 21
-67.722383
  0
LINE
  8
ボルト／ビス
  6
CONTINUOUS
 62
    64
 10
93.102242
 20
-66.967215
 11
93.296233
 21
-67.386383
  0
ENDBLK
  0
BLOCK
  2
*GRP_0050
 70
    65
 10
0.0
 20
0.0
  0
LINE
  8
補助線
  6
BYBLOCK
 62
    64
 10
71.395973
 20
-57.422297
 11
71.16909
 21
-57.317298
  0
LINE
  8
補助線
  6
BYBLOCK
 62
    64
 10
71.33503
 20
-57.256358
 11
71.23003
 21
-57.483237
  0
ENDBLK
  0
BLOCK
  2
*GRP_0051
 70
    65
 10
0.0
 20
0.0
  0
LINE
  8
補助線
  6
BYBLOCK
 62
    64
 10
114.276485
 20
-77.2673
 11
114.503365
 21
-77.3723
  0
LINE
  8
補助線
  6
BYBLOCK
 62
    64
 10
114.442425
 20
-77.20636
 11
114.337425
 21
-77.43324
  0
ENDBLK
  0
BLOCK
  2
*GRP_0052
 70
    65
 10
0.0
 20
0.0
  0
LINE
  8
補助線
  6
BYBLOCK
 62
    64
 10
92.949668
 20
-67.3973
 11
92.722788
 21
-67.2923
  0
LINE
  8
補助線
  6
BYBLOCK
 62
    64
 10
92.888727
 20
-67.231358
 11
92.783727
 21
-67.45824
  0
ENDBLK
  0
BLOCK
  2
*GRP_0053
 70
    65
 10
0.0
 20
0.0
  0
LINE
  8
補助線
  6
BYBLOCK
 62
    64
 10
114.276483
 20
-57.422297
 11
114.503365
 21
-57.317298
  0
LINE
  8
補助線
  6
BYBLOCK
 62
    64
 10
114.337425
 20
-57.256358
 11
114.442425
 21
-57.483237
  0
ENDBLK
  0
BLOCK
  2
*GRP_0054
 70
    65
 10
0.0
 20
0.0
  0
LINE
  8
補助線
  6
BYBLOCK
 62
    64
 10
71.39597
 20
-77.2673
 11
71.16909
 21
-77.3723
  0
LINE
  8
補助線
  6
BYBLOCK
 62
    64
 10
71.23003
 20
-77.20636
 11
71.33503
 21
-77.43324
  0
ENDBLK
  0
BLOCK
  2
*GRP_0055
 70
    65
 10
0.0
 20
0.0
  0
LINE
  8
補助線
  6
BYBLOCK
 62
    64
 10
92.722788
 20
-67.3973
 11
92.949668
 21
-67.2923
  0
LINE
  8
補助線
  6
BYBLOCK
 62
    64
 10
92.783727
 20
-67.231358
 11
92.888727
 21
-67.45824
  0
ENDBLK
  0
BLOCK
  2
*DIM_0056
 70
    65
 10
0.0
 20
0.0
  0
LINE
  8
寸法
  6
BYBLOCK
 62
     0
 10
-80.755937
 20
82.238818
 11
-80.755937
 21
92.594355
  0
LINE
  8
寸法
  6
BYBLOCK
 62
     0
 10
-45.755937
 20
82.238818
 11
-45.755937
 21
92.594355
  0
LINE
  8
寸法
  6
BYBLOCK
 62
     0
 10
-80.755937
 20
92.594355
 11
-45.755937
 21
92.594355
  0
POINT
  8
寸法
 62
     0
 10
-80.755937
 20
92.594355
  0
POINT
  8
寸法
 62
     0
 10
-45.755937
 20
92.594355
  0
TEXT
  7
TextStyle03
  8
寸法
  6
CONTINUOUS
 62
     0
 10
-65.7125
 20
92.975
  1
700
 40
3.0
 72
     5
 11
-60.8375
 21
92.975
  0
ENDBLK
  0
BLOCK
  2
*DIM_0057
 70
    65
 10
0.0
 20
0.0
  0
LINE
  8
寸法
  6
BYBLOCK
 62
     0
 10
-123.904373
 20
44.370385
 11
-134.25991
 21
44.370385
  0
LINE
  8
寸法
  6
BYBLOCK
 62
     0
 10
-123.904375
 20
9.370385
 11
-134.259912
 21
9.370385
  0
LINE
  8
寸法
  6
BYBLOCK
 62
     0
 10
-134.25991
 20
44.370385
 11
-134.259912
 21
9.370385
  0
POINT
  8
寸法
 62
     0
 10
-134.25991
 20
44.370385
  0
POINT
  8
寸法
 62
     0
 10
-134.259912
 20
9.370385
  0
TEXT
  7
TextStyle03
  8
寸法
  6
CONTINUOUS
 62
     0
 10
-134.65
 20
24.4375
  1
700
 40
3.0
 50
90.0
 72
     5
 11
-134.65
 21
29.3125
  0
ENDBLK
  0
BLOCK
  2
*DIM_0058
 70
    65
 10
0.0
 20
0.0
  0
LINE
  8
寸法
  6
BYBLOCK
 62
     0
 10
170.304785
 20
74.557477
 11
179.967098
 21
74.557477
  0
LINE
  8
寸法
  6
BYBLOCK
 62
     0
 10
170.304785
 20
10.557477
 11
179.967098
 21
10.557477
  0
LINE
  8
寸法
  6
BYBLOCK
 62
     0
 10
179.967098
 20
74.557477
 11
179.967098
 21
10.557477
  0
POINT
  8
寸法
 62
     0
 10
179.967098
 20
74.557477
  0
POINT
  8
寸法
 62
     0
 10
179.967098
 20
10.557477
  0
TEXT
  7
TextStyle03
  8
寸法
  6
CONTINUOUS
 62
     0
 10
179.575
 20
39.24375
  1
1280
 40
3.0
 50
90.0
 72
     5
 11
179.575
 21
45.80625
  0
ENDBLK
  0
BLOCK
  2
*DIM_0059
 70
    65
 10
0.0
 20
0.0
  0
LINE
  8
寸法
  6
BYBLOCK
 62
     0
 10
103.304785
 20
77.557477
 11
103.304785
 21
85.30483
  0
LINE
  8
寸法
  6
BYBLOCK
 62
     0
 10
167.304785
 20
77.557477
 11
167.304785
 21
85.30483
  0
LINE
  8
寸法
  6
BYBLOCK
 62
     0
 10
103.304785
 20
85.30483
 11
167.304785
 21
85.30483
  0
POINT
  8
寸法
 62
     0
 10
103.304785
 20
85.30483
  0
POINT
  8
寸法
 62
     0
 10
167.304785
 20
85.30483
  0
TEXT
  7
TextStyle03
  8
寸法
  6
CONTINUOUS
 62
     0
 10
131.99375
 20
85.65
  1
1280
 40
3.0
 72
     5
 11
138.55625
 21
85.65
  0
ENDBLK
  0
BLOCK
  2
*GRP_0061
 70
    65
 10
0.0
 20
0.0
  0
LINE
  8
ボルト／ビス
  6
CONTINUOUS
 10
-96.755937
 20
-69.569875
 11
-96.755937
 21
-68.869875
  0
LINE
  8
ボルト／ビス
  6
CONTINUOUS
 10
-97.305937
 20
-69.569875
 11
-97.305937
 21
-69.469875
  0
LINE
  8
ボルト／ビス
  6
CONTINUOUS
 10
-97.305937
 20
-69.469875
 11
-96.205937
 21
-69.469875
  0
LINE
  8
ボルト／ビス
  6
CONTINUOUS
 10
-96.205937
 20
-69.469875
 11
-96.205937
 21
-69.569875
  0
LINE
  8
ボルト／ビス
  6
CONTINUOUS
 10
-97.305937
 20
-69.569875
 11
-96.205937
 21
-69.569875
  0
LINE
  8
ボルト／ビス
  6
CONTINUOUS
 10
-97.205937
 20
-69.419875
 11
-97.205937
 21
-69.469875
  0
LINE
  8
ボルト／ビス
  6
CONTINUOUS
 10
-97.205937
 20
-69.419875
 11
-96.305937
 21
-69.419875
  0
LINE
  8
ボルト／ビス
  6
CONTINUOUS
 10
-96.305937
 20
-69.419875
 11
-96.305937
 21
-69.469875
  0
LINE
  8
ボルト／ビス
  6
CONTINUOUS
 62
    64
 10
-96.9965
 20
-69.119875
 11
-97.044613
 21
-69.137388
  0
ARC
  8
ボルト／ビス
  6
CONTINUOUS
 62
    64
 10
-96.972445
 20
-69.277343
 40
0.157468
 50
62.721967
 51
90.0
  0
ARC
  8
ボルト／ビス
  6
CONTINUOUS
 62
    64
 10
-96.755939
 20
-69.723479
 40
0.603603
 50
76.165002
 51
103.834985
  0
LINE
  8
ボルト／ビス
  6
CONTINUOUS
 62
    64
 10
-96.515375
 20
-69.119875
 11
-96.467263
 21
-69.137388
  0
ARC
  8
ボルト／ビス
  6
CONTINUOUS
 62
    64
 10
-96.539432
 20
-69.277343
 40
0.157468
 50
90.0
 51
117.278033
  0
LINE
  8
ボルト／ビス
  6
CONTINUOUS
 62
    64
 10
-96.9965
 20
-69.119875
 11
-96.515375
 21
-69.119875
  0
LINE
  8
ボルト／ビス
  6
CONTINUOUS
 62
    64
 10
-96.467263
 20
-69.137388
 11
-96.467263
 21
-69.319875
  0
LINE
  8
ボルト／ビス
  6
CONTINUOUS
 62
    64
 10
-96.6116
 20
-69.137388
 11
-96.6116
 21
-69.319875
  0
LINE
  8
ボルト／ビス
  6
CONTINUOUS
 62
    64
 10
-97.044613
 20
-69.137388
 11
-97.044613
 21
-69.319875
  0
LINE
  8
ボルト／ビス
  6
CONTINUOUS
 62
    64
 10
-96.900275
 20
-69.137388
 11
-96.900275
 21
-69.319875
  0
LINE
  8
ボルト／ビス
  6
CONTINUOUS
 10
-97.044613
 20
-69.319875
 11
-96.467263
 21
-69.319875
  0
LINE
  8
ボルト／ビス
  6
CONTINUOUS
 10
-97.055937
 20
-69.319875
 11
-97.055937
 21
-69.419875
  0
LINE
  8
ボルト／ビス
  6
CONTINUOUS
 10
-97.055937
 20
-69.319875
 11
-96.455937
 21
-69.319875
  0
LINE
  8
ボルト／ビス
  6
CONTINUOUS
 10
-96.455937
 20
-69.319875
 11
-96.455937
 21
-69.419875
  0
ENDBLK
  0
BLOCK
  2
*GRP_0062
 70
    65
 10
0.0
 20
0.0
  0
LINE
  8
ボルト／ビス
  6
CONTINUOUS
 10
-29.755937
 20
-69.569875
 11
-29.755937
 21
-68.869875
  0
LINE
  8
ボルト／ビス
  6
CONTINUOUS
 10
-29.205937
 20
-69.569875
 11
-29.205937
 21
-69.469875
  0
LINE
  8
ボルト／ビス
  6
CONTINUOUS
 10
-29.205937
 20
-69.469875
 11
-30.305937
 21
-69.469875
  0
LINE
  8
ボルト／ビス
  6
CONTINUOUS
 10
-30.305937
 20
-69.469875
 11
-30.305937
 21
-69.569875
  0
LINE
  8
ボルト／ビス
  6
CONTINUOUS
 10
-29.205937
 20
-69.569875
 11
-30.305937
 21
-69.569875
  0
LINE
  8
ボルト／ビス
  6
CONTINUOUS
 10
-29.305937
 20
-69.419875
 11
-29.305937
 21
-69.469875
  0
LINE
  8
ボルト／ビス
  6
CONTINUOUS
 10
-29.305937
 20
-69.419875
 11
-30.205937
 21
-69.419875
  0
LINE
  8
ボルト／ビス
  6
CONTINUOUS
 10
-30.205937
 20
-69.419875
 11
-30.205937
 21
-69.469875
  0
LINE
  8
ボルト／ビス
  6
CONTINUOUS
 62
    64
 10
-29.515375
 20
-69.119875
 11
-29.467263
 21
-69.137388
  0
ARC
  8
ボルト／ビス
  6
CONTINUOUS
 62
    64
 10
-29.53943
 20
-69.277343
 40
0.157468
 50
90.0
 51
117.278033
  0
ARC
  8
ボルト／ビス
  6
CONTINUOUS
 62
    64
 10
-29.755936
 20
-69.723479
 40
0.603603
 50
76.165015
 51
103.834998
  0
LINE
  8
ボルト／ビス
  6
CONTINUOUS
 62
    64
 10
-29.9965
 20
-69.119875
 11
-30.044613
 21
-69.137388
  0
ARC
  8
ボルト／ビス
  6
CONTINUOUS
 62
    64
 10
-29.972443
 20
-69.277343
 40
0.157468
 50
62.721967
 51
90.0
  0
LINE
  8
ボルト／ビス
  6
CONTINUOUS
 62
    64
 10
-29.515375
 20
-69.119875
 11
-29.9965
 21
-69.119875
  0
LINE
  8
ボルト／ビス
  6
CONTINUOUS
 62
    64
 10
-30.044613
 20
-69.137388
 11
-30.044613
 21
-69.319875
  0
LINE
  8
ボルト／ビス
  6
CONTINUOUS
 62
    64
 10
-29.900275
 20
-69.137388
 11
-29.900275
 21
-69.319875
  0
LINE
  8
ボルト／ビス
  6
CONTINUOUS
 62
    64
 10
-29.467263
 20
-69.137388
 11
-29.467263
 21
-69.319875
  0
LINE
  8
ボルト／ビス
  6
CONTINUOUS
 62
    64
 10
-29.6116
 20
-69.137388
 11
-29.6116
 21
-69.319875
  0
LINE
  8
ボルト／ビス
  6
CONTINUOUS
 10
-29.467263
 20
-69.319875
 11
-30.044613
 21
-69.319875
  0
LINE
  8
ボルト／ビス
  6
CONTINUOUS
 10
-29.455937
 20
-69.319875
 11
-29.455937
 21
-69.419875
  0
LINE
  8
ボルト／ビス
  6
CONTINUOUS
 10
-29.455937
 20
-69.319875
 11
-30.055937
 21
-69.319875
  0
LINE
  8
ボルト／ビス
  6
CONTINUOUS
 10
-30.055937
 20
-69.319875
 11
-30.055937
 21
-69.419875
  0
ENDBLK
  0
BLOCK
  2
*GRP_0063
 70
    65
 10
0.0
 20
0.0
  0
LINE
  8
ボルト／ビス
  6
CONTINUOUS
 10
50.389922
 20
-69.569875
 11
50.389922
 21
-68.869875
  0
LINE
  8
ボルト／ビス
  6
CONTINUOUS
 10
50.939922
 20
-69.569875
 11
50.939922
 21
-69.469875
  0
LINE
  8
ボルト／ビス
  6
CONTINUOUS
 10
50.939922
 20
-69.469875
 11
49.839922
 21
-69.469875
  0
LINE
  8
ボルト／ビス
  6
CONTINUOUS
 10
49.839922
 20
-69.469875
 11
49.839922
 21
-69.569875
  0
LINE
  8
ボルト／ビス
  6
CONTINUOUS
 10
50.939922
 20
-69.569875
 11
49.839922
 21
-69.569875
  0
LINE
  8
ボルト／ビス
  6
CONTINUOUS
 10
50.839922
 20
-69.419875
 11
50.839922
 21
-69.469875
  0
LINE
  8
ボルト／ビス
  6
CONTINUOUS
 10
50.839922
 20
-69.419875
 11
49.939922
 21
-69.419875
  0
LINE
  8
ボルト／ビス
  6
CONTINUOUS
 10
49.939922
 20
-69.419875
 11
49.939922
 21
-69.469875
  0
LINE
  8
ボルト／ビス
  6
CONTINUOUS
 62
    64
 10
50.630485
 20
-69.119875
 11
50.678598
 21
-69.137388
  0
ARC
  8
ボルト／ビス
  6
CONTINUOUS
 62
    64
 10
50.606429
 20
-69.277342
 40
0.157468
 50
90.0
 51
117.278033
  0
ARC
  8
ボルト／ビス
  6
CONTINUOUS
 62
    64
 10
50.389922
 20
-69.723478
 40
0.603603
 50
76.165015
 51
103.834998
  0
LINE
  8
ボルト／ビス
  6
CONTINUOUS
 62
    64
 10
50.14936
 20
-69.119875
 11
50.101247
 21
-69.137388
  0
ARC
  8
ボルト／ビス
  6
CONTINUOUS
 62
    64
 10
50.173416
 20
-69.277342
 40
0.157468
 50
62.721967
 51
90.0
  0
LINE
  8
ボルト／ビス
  6
CONTINUOUS
 62
    64
 10
50.630485
 20
-69.119875
 11
50.14936
 21
-69.119875
  0
LINE
  8
ボルト／ビス
  6
CONTINUOUS
 62
    64
 10
50.101247
 20
-69.137388
 11
50.101247
 21
-69.319875
  0
LINE
  8
ボルト／ビス
  6
CONTINUOUS
 62
    64
 10
50.245585
 20
-69.137388
 11
50.245585
 21
-69.319875
  0
LINE
  8
ボルト／ビス
  6
CONTINUOUS
 62
    64
 10
50.678598
 20
-69.137388
 11
50.678598
 21
-69.319875
  0
LINE
  8
ボルト／ビス
  6
CONTINUOUS
 62
    64
 10
50.53426
 20
-69.137388
 11
50.53426
 21
-69.319875
  0
LINE
  8
ボルト／ビス
  6
CONTINUOUS
 10
50.678598
 20
-69.319875
 11
50.101247
 21
-69.319875
  0
LINE
  8
ボルト／ビス
  6
CONTINUOUS
 10
50.689922
 20
-69.319875
 11
50.689922
 21
-69.419875
  0
LINE
  8
ボルト／ビス
  6
CONTINUOUS
 10
50.689922
 20
-69.319875
 11
50.089922
 21
-69.319875
  0
LINE
  8
ボルト／ビス
  6
CONTINUOUS
 10
50.089922
 20
-69.319875
 11
50.089922
 21
-69.419875
  0
ENDBLK
  0
BLOCK
  2
*GRP_0064
 70
    65
 10
0.0
 20
0.0
  0
LINE
  8
ボルト／ビス
  6
CONTINUOUS
 10
117.389927
 20
-69.569875
 11
117.389927
 21
-68.869875
  0
LINE
  8
ボルト／ビス
  6
CONTINUOUS
 10
117.939927
 20
-69.569875
 11
117.939927
 21
-69.469875
  0
LINE
  8
ボルト／ビス
  6
CONTINUOUS
 10
117.939927
 20
-69.469875
 11
116.839927
 21
-69.469875
  0
LINE
  8
ボルト／ビス
  6
CONTINUOUS
 10
116.839927
 20
-69.469875
 11
116.839927
 21
-69.569875
  0
LINE
  8
ボルト／ビス
  6
CONTINUOUS
 10
117.939927
 20
-69.569875
 11
116.839927
 21
-69.569875
  0
LINE
  8
ボルト／ビス
  6
CONTINUOUS
 10
117.839927
 20
-69.419875
 11
117.839927
 21
-69.469875
  0
LINE
  8
ボルト／ビス
  6
CONTINUOUS
 10
117.839927
 20
-69.419875
 11
116.939927
 21
-69.419875
  0
LINE
  8
ボルト／ビス
  6
CONTINUOUS
 10
116.939927
 20
-69.419875
 11
116.939927
 21
-69.469875
  0
LINE
  8
ボルト／ビス
  6
CONTINUOUS
 62
    64
 10
117.63049
 20
-69.119875
 11
117.678602
 21
-69.137388
  0
ARC
  8
ボルト／ビス
  6
CONTINUOUS
 62
    64
 10
117.606435
 20
-69.277342
 40
0.157468
 50
90.0
 51
117.278033
  0
ARC
  8
ボルト／ビス
  6
CONTINUOUS
 62
    64
 10
117.389928
 20
-69.723478
 40
0.603603
 50
76.165015
 51
103.834998
  0
LINE
  8
ボルト／ビス
  6
CONTINUOUS
 62
    64
 10
117.149365
 20
-69.119875
 11
117.101253
 21
-69.137388
  0
ARC
  8
ボルト／ビス
  6
CONTINUOUS
 62
    64
 10
117.173422
 20
-69.277342
 40
0.157468
 50
62.721967
 51
90.0
  0
LINE
  8
ボルト／ビス
  6
CONTINUOUS
 62
    64
 10
117.63049
 20
-69.119875
 11
117.149365
 21
-69.119875
  0
LINE
  8
ボルト／ビス
  6
CONTINUOUS
 62
    64
 10
117.101253
 20
-69.137388
 11
117.101253
 21
-69.319875
  0
LINE
  8
ボルト／ビス
  6
CONTINUOUS
 62
    64
 10
117.24559
 20
-69.137388
 11
117.24559
 21
-69.319875
  0
LINE
  8
ボルト／ビス
  6
CONTINUOUS
 62
    64
 10
117.678602
 20
-69.137388
 11
117.678602
 21
-69.319875
  0
LINE
  8
ボルト／ビス
  6
CONTINUOUS
 62
    64
 10
117.534265
 20
-69.137388
 11
117.534265
 21
-69.319875
  0
LINE
  8
ボルト／ビス
  6
CONTINUOUS
 10
117.678602
 20
-69.319875
 11
117.101253
 21
-69.319875
  0
LINE
  8
ボルト／ビス
  6
CONTINUOUS
 10
117.689927
 20
-69.319875
 11
117.689927
 21
-69.419875
  0
LINE
  8
ボルト／ビス
  6
CONTINUOUS
 10
117.689927
 20
-69.319875
 11
117.089927
 21
-69.319875
  0
LINE
  8
ボルト／ビス
  6
CONTINUOUS
 10
117.089927
 20
-69.319875
 11
117.089927
 21
-69.419875
  0
ENDBLK
  0
BLOCK
  2
*GRP_0065
 70
    65
 10
0.0
 20
0.0
  0
LINE
  8
型材断面
  6
DOT
 62
    47
 10
49.294923
 20
-58.5448
 11
50.464922
 21
-58.5448
  0
LINE
  8
型材断面
  6
DOT
 10
49.144923
 20
-55.7948
 11
49.144923
 21
-55.1198
  0
LINE
  8
型材断面
  6
DOT
 62
    47
 10
47.969923
 20
-59.803838
 11
47.969923
 21
-59.303838
  0
LINE
  8
型材断面
  6
DOT
 62
    47
 10
47.969923
 20
-59.303838
 11
49.144923
 21
-59.153838
  0
LINE
  8
型材断面
  6
DOT
 62
    47
 10
49.144923
 20
-58.5448
 11
49.144923
 21
-59.153838
  0
LINE
  8
型材断面
  6
DOT
 62
    47
 10
48.439922
 20
-58.5448
 11
48.439922
 21
-55.7948
  0
LINE
  8
型材断面
  6
DOT
 10
49.144923
 20
-55.1198
 11
83.889922
 21
-55.1198
  0
LINE
  8
型材断面
  6
DOT
 10
48.439922
 20
-55.7948
 11
83.889922
 21
-55.7948
  0
LINE
  8
型材断面
  6
DOT
 62
    47
 10
48.439922
 20
-58.5448
 11
83.889922
 21
-58.5448
  0
LINE
  8
型材断面
  6
DOT
 10
49.144923
 20
-59.153838
 11
83.889922
 21
-59.153838
  0
LINE
  8
型材断面
  6
DOT
 10
47.969923
 20
-59.303838
 11
83.889922
 21
-59.303838
  0
LINE
  8
型材断面
  6
DOT
 62
    47
 10
47.969923
 20
-59.803838
 11
83.889922
 21
-59.803838
  0
LINE
  8
型材断面
  6
DOT
 62
    47
 10
118.484923
 20
-58.5448
 11
117.314922
 21
-58.5448
  0
LINE
  8
型材断面
  6
DOT
 10
118.634922
 20
-55.7948
 11
118.634922
 21
-55.1198
  0
LINE
  8
型材断面
  6
DOT
 62
    47
 10
119.809923
 20
-59.803838
 11
119.809923
 21
-59.303838
  0
LINE
  8
型材断面
  6
DOT
 62
    47
 10
119.809923
 20
-59.303838
 11
118.634922
 21
-59.153838
  0
LINE
  8
型材断面
  6
DOT
 62
    47
 10
118.634922
 20
-58.5448
 11
118.634922
 21
-59.153838
  0
LINE
  8
型材断面
  6
DOT
 62
    47
 10
119.339922
 20
-58.5448
 11
119.339922
 21
-55.7948
  0
LINE
  8
型材断面
  6
DOT
 10
118.634922
 20
-55.1198
 11
83.889922
 21
-55.1198
  0
LINE
  8
型材断面
  6
DOT
 10
119.339922
 20
-55.7948
 11
83.889922
 21
-55.7948
  0
LINE
  8
型材断面
  6
DOT
 62
    47
 10
119.339922
 20
-58.5448
 11
83.889922
 21
-58.5448
  0
LINE
  8
型材断面
  6
DOT
 10
118.634922
 20
-59.153838
 11
83.889922
 21
-59.153838
  0
LINE
  8
型材断面
  6
DOT
 10
119.809923
 20
-59.303838
 11
83.889922
 21
-59.303838
  0
LINE
  8
型材断面
  6
DOT
 62
    47
 10
119.809923
 20
-59.803838
 11
83.889922
 21
-59.803838
  0
LINE
  8
別途部材
  6
DOT
 62
    96
 10
48.889922
 20
-53.569873
 11
48.289922
 21
-55.069873
  0
LINE
  8
別途部材
  6
DOT
 62
    96
 10
48.889922
 20
-53.569873
 11
83.889925
 21
-53.569873
  0
LINE
  8
別途部材
  6
DOT
 10
48.289922
 20
-55.069873
 11
83.889925
 21
-55.069873
  0
LINE
  8
別途部材
  6
DOT
 62
    96
 10
118.889925
 20
-53.569873
 11
119.489925
 21
-55.069873
  0
LINE
  8
別途部材
  6
DOT
 62
    96
 10
118.889925
 20
-53.569873
 11
83.889925
 21
-53.569873
  0
LINE
  8
別途部材
  6
DOT
 10
119.489925
 20
-55.069873
 11
83.889925
 21
-55.069873
  0
ARC
  8
別途部材
  6
DOT
 10
83.889923
 20
-74.998446
 40
38.928572
 50
33.39849
 51
146.60151
  0
INSERT
  2
*GRP_0066
  8
別途部材
  6
DOT
 10
0.0
 20
0.0
  0
INSERT
  2
*GRP_0067
  8
別途部材
  6
DOT
 10
0.0
 20
0.0
  0
ENDBLK
  0
BLOCK
  2
*GRP_0066
 70
    65
 10
0.0
 20
0.0
  0
LINE
  8
ボルト／ビス
  6
DOT
 10
50.389922
 20
-53.569875
 11
50.389922
 21
-52.869875
  0
LINE
  8
ボルト／ビス
  6
DOT
 10
50.939922
 20
-53.569875
 11
50.939922
 21
-53.469875
  0
LINE
  8
ボルト／ビス
  6
DOT
 10
50.939922
 20
-53.469875
 11
49.839922
 21
-53.469875
  0
LINE
  8
ボルト／ビス
  6
DOT
 10
49.839922
 20
-53.469875
 11
49.839922
 21
-53.569875
  0
LINE
  8
ボルト／ビス
  6
DOT
 10
50.939922
 20
-53.569875
 11
49.839922
 21
-53.569875
  0
LINE
  8
ボルト／ビス
  6
DOT
 10
50.839922
 20
-53.419875
 11
50.839922
 21
-53.469875
  0
LINE
  8
ボルト／ビス
  6
DOT
 10
50.839922
 20
-53.419875
 11
49.939922
 21
-53.419875
  0
LINE
  8
ボルト／ビス
  6
DOT
 10
49.939922
 20
-53.419875
 11
49.939922
 21
-53.469875
  0
LINE
  8
ボルト／ビス
  6
DOT
 62
    64
 10
50.630485
 20
-53.119875
 11
50.678598
 21
-53.137388
  0
ARC
  8
ボルト／ビス
  6
DOT
 62
    64
 10
50.606429
 20
-53.277343
 40
0.157468
 50
90.0
 51
117.278033
  0
ARC
  8
ボルト／ビス
  6
DOT
 62
    64
 10
50.389922
 20
-53.723479
 40
0.603603
 50
76.165015
 51
103.834998
  0
LINE
  8
ボルト／ビス
  6
DOT
 62
    64
 10
50.14936
 20
-53.119875
 11
50.101247
 21
-53.137388
  0
ARC
  8
ボルト／ビス
  6
DOT
 62
    64
 10
50.173416
 20
-53.277343
 40
0.157468
 50
62.721967
 51
90.0
  0
LINE
  8
ボルト／ビス
  6
DOT
 62
    64
 10
50.630485
 20
-53.119875
 11
50.14936
 21
-53.119875
  0
LINE
  8
ボルト／ビス
  6
DOT
 62
    64
 10
50.101247
 20
-53.137388
 11
50.101247
 21
-53.319875
  0
LINE
  8
ボルト／ビス
  6
DOT
 62
    64
 10
50.245585
 20
-53.137388
 11
50.245585
 21
-53.319875
  0
LINE
  8
ボルト／ビス
  6
DOT
 62
    64
 10
50.678598
 20
-53.137388
 11
50.678598
 21
-53.319875
  0
LINE
  8
ボルト／ビス
  6
DOT
 62
    64
 10
50.53426
 20
-53.137388
 11
50.53426
 21
-53.319875
  0
LINE
  8
ボルト／ビス
  6
DOT
 10
50.678598
 20
-53.319875
 11
50.101247
 21
-53.319875
  0
LINE
  8
ボルト／ビス
  6
DOT
 10
50.689922
 20
-53.319875
 11
50.689922
 21
-53.419875
  0
LINE
  8
ボルト／ビス
  6
DOT
 10
50.689922
 20
-53.319875
 11
50.089922
 21
-53.319875
  0
LINE
  8
ボルト／ビス
  6
DOT
 10
50.089922
 20
-53.319875
 11
50.089922
 21
-53.419875
  0
ENDBLK
  0
BLOCK
  2
*GRP_0067
 70
    65
 10
0.0
 20
0.0
  0
LINE
  8
ボルト／ビス
  6
DOT
 10
117.389927
 20
-53.569875
 11
117.389927
 21
-52.869875
  0
LINE
  8
ボルト／ビス
  6
DOT
 10
117.939927
 20
-53.569875
 11
117.939927
 21
-53.469875
  0
LINE
  8
ボルト／ビス
  6
DOT
 10
117.939927
 20
-53.469875
 11
116.839927
 21
-53.469875
  0
LINE
  8
ボルト／ビス
  6
DOT
 10
116.839927
 20
-53.469875
 11
116.839927
 21
-53.569875
  0
LINE
  8
ボルト／ビス
  6
DOT
 10
117.939927
 20
-53.569875
 11
116.839927
 21
-53.569875
  0
LINE
  8
ボルト／ビス
  6
DOT
 10
117.839927
 20
-53.419875
 11
117.839927
 21
-53.469875
  0
LINE
  8
ボルト／ビス
  6
DOT
 10
117.839927
 20
-53.419875
 11
116.939927
 21
-53.419875
  0
LINE
  8
ボルト／ビス
  6
DOT
 10
116.939927
 20
-53.419875
 11
116.939927
 21
-53.469875
  0
LINE
  8
ボルト／ビス
  6
DOT
 62
    64
 10
117.63049
 20
-53.119875
 11
117.678602
 21
-53.137388
  0
ARC
  8
ボルト／ビス
  6
DOT
 62
    64
 10
117.606435
 20
-53.277343
 40
0.157468
 50
90.0
 51
117.278033
  0
ARC
  8
ボルト／ビス
  6
DOT
 62
    64
 10
117.389928
 20
-53.723479
 40
0.603603
 50
76.165015
 51
103.834998
  0
LINE
  8
ボルト／ビス
  6
DOT
 62
    64
 10
117.149365
 20
-53.119875
 11
117.101253
 21
-53.137388
  0
ARC
  8
ボルト／ビス
  6
DOT
 62
    64
 10
117.173422
 20
-53.277343
 40
0.157468
 50
62.721967
 51
90.0
  0
LINE
  8
ボルト／ビス
  6
DOT
 62
    64
 10
117.63049
 20
-53.119875
 11
117.149365
 21
-53.119875
  0
LINE
  8
ボルト／ビス
  6
DOT
 62
    64
 10
117.101253
 20
-53.137388
 11
117.101253
 21
-53.319875
  0
LINE
  8
ボルト／ビス
  6
DOT
 62
    64
 10
117.24559
 20
-53.137388
 11
117.24559
 21
-53.319875
  0
LINE
  8
ボルト／ビス
  6
DOT
 62
    64
 10
117.678602
 20
-53.137388
 11
117.678602
 21
-53.319875
  0
LINE
  8
ボルト／ビス
  6
DOT
 62
    64
 10
117.534265
 20
-53.137388
 11
117.534265
 21
-53.319875
  0
LINE
  8
ボルト／ビス
  6
DOT
 10
117.678602
 20
-53.319875
 11
117.101253
 21
-53.319875
  0
LINE
  8
ボルト／ビス
  6
DOT
 10
117.689927
 20
-53.319875
 11
117.689927
 21
-53.419875
  0
LINE
  8
ボルト／ビス
  6
DOT
 10
117.689927
 20
-53.319875
 11
117.089927
 21
-53.319875
  0
LINE
  8
ボルト／ビス
  6
DOT
 10
117.089927
 20
-53.319875
 11
117.089927
 21
-53.419875
  0
ENDBLK
  0
BLOCK
  2
*DIM_0068
 70
    65
 10
0.0
 20
0.0
  0
LINE
  8
寸法
  6
BYBLOCK
 62
     0
 10
122.809923
 20
-59.803838
 11
135.982735
 21
-59.803838
  0
LINE
  8
寸法
  6
BYBLOCK
 62
     0
 10
122.809923
 20
-75.803838
 11
135.982735
 21
-75.803838
  0
LINE
  8
寸法
  6
BYBLOCK
 62
     0
 10
135.982735
 20
-59.803838
 11
135.982735
 21
-75.803838
  0
POINT
  8
寸法
 62
     0
 10
135.982735
 20
-59.803838
  0
POINT
  8
寸法
 62
     0
 10
135.982735
 20
-75.803838
  0
TEXT
  7
TextStyle03
  8
寸法
  6
CONTINUOUS
 62
     0
 10
140.6
 20
-76.9375
  1
上昇高さ320
 40
3.0
 50
90.0
 72
     5
 11
140.6
 21
-58.5625
  0
ENDBLK
  0
ENDSEC
  0
SECTION
  2
ENTITIES
  0
POLYLINE
  8
通り芯
  6
CONTINUOUS
 66
     1
 70
     1
  0
VERTEX
  8
通り芯
 10
-210.0
 20
-148.5
  0
VERTEX
  8
通り芯
 10
210.0
 20
-148.5
  0
VERTEX
  8
通り芯
 10
210.0
 20
148.5
  0
VERTEX
  8
通り芯
 10
-210.0
 20
148.5
  0
SEQEND
  0
INSERT
  2
*GRP_0001
  8
型材断面
  6
CONTINUOUS
 10
0.0
 20
0.0
  0
LINE
  8
型材断面
  6
DASHDOT
 10
-30.755937
 20
-85.083888
 11
-30.755937
 21
59.370383
  0
LINE
  8
型材断面
  6
DASHDOT
 10
-95.755937
 20
-85.083888
 11
-95.755937
 21
59.370383
  0
LINE
  8
型材断面
  6
DOT
 10
-35.865297
 20
59.370383
 11
-35.865297
 21
-5.629618
  0
LINE
  8
型材断面
  6
DOT
 10
-33.865297
 20
59.370383
 11
-33.865297
 21
-5.629618
  0
LINE
  8
型材断面
  6
CONTINUOUS
 10
-22.732063
 20
26.870383
 11
-18.846303
 21
24.626937
  0
LINE
  8
型材断面
  6
CONTINUOUS
 10
-22.732063
 20
26.870383
 11
-18.846303
 21
29.113827
  0
LINE
  8
型材断面
  6
CONTINUOUS
 10
-18.846303
 20
29.113827
 11
-18.846303
 21
24.626937
  0
LINE
  8
型材断面
  6
CONTINUOUS
 10
-63.255937
 20
67.394257
 11
-65.499382
 21
71.280018
  0
LINE
  8
型材断面
  6
CONTINUOUS
 10
-63.255937
 20
67.394257
 11
-61.012493
 21
71.280018
  0
LINE
  8
型材断面
  6
CONTINUOUS
 10
-61.012493
 20
71.280018
 11
-65.499382
 21
71.280018
  0
LINE
  8
型材断面
  6
CONTINUOUS
 10
-63.255937
 20
-13.653492
 11
-65.499382
 21
-17.539253
  0
LINE
  8
型材断面
  6
CONTINUOUS
 10
-63.255937
 20
-13.653492
 11
-61.012493
 21
-17.539253
  0
LINE
  8
型材断面
  6
CONTINUOUS
 10
-61.012493
 20
-17.539253
 11
-65.499382
 21
-17.539253
  0
LINE
  8
型材断面
  6
CONTINUOUS
 10
-103.779813
 20
26.870383
 11
-107.665572
 21
24.626937
  0
LINE
  8
型材断面
  6
CONTINUOUS
 10
-103.779813
 20
26.870383
 11
-107.665572
 21
29.113827
  0
LINE
  8
型材断面
  6
CONTINUOUS
 10
-107.665572
 20
29.113827
 11
-107.665572
 21
24.626937
  0
LINE
  8
型材断面
  6
CONTINUOUS
 10
4.930422
 20
-11.415415
 11
2.686977
 21
-15.301175
  0
LINE
  8
型材断面
  6
CONTINUOUS
 10
4.930422
 20
-11.415415
 11
7.173868
 21
-15.301175
  0
LINE
  8
型材断面
  6
CONTINUOUS
 10
7.173868
 20
-15.301175
 11
2.686977
 21
-15.301175
  0
LINE
  8
型材断面
  6
CONTINUOUS
 10
4.930422
 20
-19.104962
 11
5.824508
 21
-22.990722
  0
LINE
  8
型材断面
  6
CONTINUOUS
 10
4.930422
 20
-19.104962
 11
4.036338
 21
-22.990722
  0
LINE
  8
型材断面
  6
CONTINUOUS
 10
4.036338
 20
-22.990722
 11
5.824508
 21
-22.990722
  0
LINE
  8
型材断面
  6
CONTINUOUS
 10
-4.103457
 20
-16.709068
 11
48.553223
 21
-16.709068
  0
LINE
  8
型材断面
  6
CONTINUOUS
 10
-4.103457
 20
-27.90906
 11
48.553223
 21
-27.90906
  0
LINE
  8
型材断面
  6
CONTINUOUS
 10
-4.103457
 20
-34.749005
 11
48.553223
 21
-34.749005
  0
LINE
  8
型材断面
  6
DASHDOT
 10
-63.255937
 20
-85.083888
 11
-63.255937
 21
59.370383
  0
LINE
  8
型材断面
  6
DASHDOT
 10
-95.755937
 20
26.870383
 11
-30.755937
 21
26.870383
  0
LINE
  8
型材断面
  6
DASHDOT
 10
-95.755937
 20
59.370383
 11
-30.755937
 21
59.370383
  0
LINE
  8
型材断面
  6
DASHDOT
 10
-95.755937
 20
-5.629618
 11
-30.755937
 21
-5.629618
  0
LINE
  8
型材断面
  6
DASHDOT
 10
-95.755937
 20
-71.1198
 11
-95.755937
 21
-80.149898
  0
LINE
  8
型材断面
  6
CONTINUOUS
 62
    47
 10
-97.850937
 20
-74.5448
 11
-96.680937
 21
-74.5448
  0
LINE
  8
型材断面
  6
CONTINUOUS
 10
-98.000937
 20
-71.7948
 11
-98.000937
 21
-71.1198
  0
LINE
  8
型材断面
  6
CONTINUOUS
 62
    47
 10
-99.175937
 20
-75.803838
 11
-99.175937
 21
-75.303838
  0
LINE
  8
型材断面
  6
CONTINUOUS
 62
    47
 10
-99.175937
 20
-75.303838
 11
-98.000937
 21
-75.153838
  0
LINE
  8
型材断面
  6
CONTINUOUS
 62
    47
 10
-98.000937
 20
-74.5448
 11
-98.000937
 21
-75.153838
  0
LINE
  8
型材断面
  6
CONTINUOUS
 62
    47
 10
-98.705937
 20
-74.5448
 11
-98.705937
 21
-71.7948
  0
LINE
  8
型材断面
  6
CONTINUOUS
 62
    47
 10
-97.855937
 20
-80.4948
 11
-97.855937
 21
-79.7448
  0
LINE
  8
型材断面
  6
CONTINUOUS
 62
    47
 10
-98.705937
 20
-79.7448
 11
-98.705937
 21
-75.803838
  0
LINE
  8
型材断面
  6
CONTINUOUS
 10
-98.000937
 20
-71.1198
 11
-63.255937
 21
-71.1198
  0
LINE
  8
型材断面
  6
CONTINUOUS
 10
-98.705937
 20
-71.7948
 11
-63.255937
 21
-71.7948
  0
LINE
  8
型材断面
  6
CONTINUOUS
 62
    47
 10
-98.705937
 20
-74.5448
 11
-63.255937
 21
-74.5448
  0
LINE
  8
型材断面
  6
CONTINUOUS
 10
-98.000937
 20
-75.153838
 11
-63.255937
 21
-75.153838
  0
LINE
  8
型材断面
  6
CONTINUOUS
 10
-99.175937
 20
-75.303838
 11
-63.255937
 21
-75.303838
  0
LINE
  8
型材断面
  6
CONTINUOUS
 62
    47
 10
-99.175937
 20
-75.803838
 11
-63.255937
 21
-75.803838
  0
LINE
  8
型材断面
  6
CONTINUOUS
 62
    47
 10
-97.855937
 20
-80.4948
 11
-63.255937
 21
-80.4948
  0
LINE
  8
型材断面
  6
CONTINUOUS
 62
    47
 10
-98.705937
 20
-79.7448
 11
-63.255937
 21
-79.7448
  0
LINE
  8
型材断面
  6
DASHDOT
 10
-30.755937
 20
-71.1198
 11
-30.755937
 21
-80.149898
  0
LINE
  8
型材断面
  6
CONTINUOUS
 62
    47
 10
-28.660937
 20
-74.5448
 11
-29.830937
 21
-74.5448
  0
LINE
  8
型材断面
  6
CONTINUOUS
 10
-28.510938
 20
-71.7948
 11
-28.510938
 21
-71.1198
  0
LINE
  8
型材断面
  6
CONTINUOUS
 62
    47
 10
-27.335938
 20
-75.803838
 11
-27.335938
 21
-75.303838
  0
LINE
  8
型材断面
  6
CONTINUOUS
 62
    47
 10
-27.335938
 20
-75.303838
 11
-28.510938
 21
-75.153838
  0
LINE
  8
型材断面
  6
CONTINUOUS
 62
    47
 10
-28.510938
 20
-74.5448
 11
-28.510938
 21
-75.153838
  0
LINE
  8
型材断面
  6
CONTINUOUS
 62
    47
 10
-27.805937
 20
-74.5448
 11
-27.805937
 21
-71.7948
  0
LINE
  8
型材断面
  6
CONTINUOUS
 62
    47
 10
-28.655937
 20
-80.4948
 11
-28.655937
 21
-79.7448
  0
LINE
  8
型材断面
  6
CONTINUOUS
 62
    47
 10
-27.805937
 20
-79.7448
 11
-27.805937
 21
-75.803838
  0
LINE
  8
型材断面
  6
CONTINUOUS
 10
-28.510938
 20
-71.1198
 11
-63.255937
 21
-71.1198
  0
LINE
  8
型材断面
  6
CONTINUOUS
 10
-27.805937
 20
-71.7948
 11
-63.255937
 21
-71.7948
  0
LINE
  8
型材断面
  6
CONTINUOUS
 62
    47
 10
-27.805937
 20
-74.5448
 11
-63.255937
 21
-74.5448
  0
LINE
  8
型材断面
  6
CONTINUOUS
 10
-28.510938
 20
-75.153838
 11
-63.255937
 21
-75.153838
  0
LINE
  8
型材断面
  6
CONTINUOUS
 10
-27.335938
 20
-75.303838
 11
-63.255937
 21
-75.303838
  0
LINE
  8
型材断面
  6
CONTINUOUS
 62
    47
 10
-27.335938
 20
-75.803838
 11
-63.255937
 21
-75.803838
  0
LINE
  8
型材断面
  6
CONTINUOUS
 62
    47
 10
-28.655937
 20
-80.4948
 11
-63.255937
 21
-80.4948
  0
LINE
  8
型材断面
  6
CONTINUOUS
 62
    47
 10
-27.805937
 20
-79.7448
 11
-63.255937
 21
-79.7448
  0
LINE
  8
型材断面
  6
CONTINUOUS
 10
-27.655935
 20
-8.729618
 11
-27.335935
 21
-9.049618
  0
LINE
  8
型材断面
  6
CONTINUOUS
 10
-22.732057
 20
0.220383
 11
-18.846298
 21
1.114467
  0
LINE
  8
型材断面
  6
CONTINUOUS
 10
-22.732057
 20
0.220383
 11
-18.846298
 21
-0.673703
  0
LINE
  8
型材断面
  6
CONTINUOUS
 10
-18.846298
 20
-0.673703
 11
-18.846298
 21
1.114467
  0
LINE
  8
型材断面
  6
CONTINUOUS
 10
-27.335935
 20
-9.049618
 11
-27.335935
 21
26.870383
  0
LINE
  8
型材断面
  6
CONTINUOUS
 10
-27.335935
 20
-9.049618
 11
-63.255937
 21
-9.049618
  0
LINE
  8
型材断面
  6
CONTINUOUS
 10
-27.655935
 20
62.470383
 11
-27.335935
 21
62.790382
  0
LINE
  8
型材断面
  6
CONTINUOUS
 10
-22.732057
 20
53.520383
 11
-18.846298
 21
52.626297
  0
LINE
  8
型材断面
  6
CONTINUOUS
 10
-22.732057
 20
53.520383
 11
-18.846298
 21
54.414467
  0
LINE
  8
型材断面
  6
CONTINUOUS
 10
-18.846298
 20
54.414467
 11
-18.846298
 21
52.626297
  0
LINE
  8
型材断面
  6
CONTINUOUS
 10
-27.335935
 20
62.790382
 11
-27.335935
 21
26.870383
  0
LINE
  8
型材断面
  6
CONTINUOUS
 10
-27.335935
 20
62.790382
 11
-63.255937
 21
62.790382
  0
LINE
  8
型材断面
  6
CONTINUOUS
 10
-98.85594
 20
62.470383
 11
-99.17594
 21
62.790382
  0
LINE
  8
型材断面
  6
CONTINUOUS
 10
-99.17594
 20
62.790382
 11
-99.17594
 21
26.870383
  0
LINE
  8
型材断面
  6
CONTINUOUS
 10
-99.17594
 20
62.790382
 11
-63.255937
 21
62.790382
  0
LINE
  8
型材断面
  6
CONTINUOUS
 10
-98.85594
 20
-8.729618
 11
-99.17594
 21
-9.049618
  0
LINE
  8
型材断面
  6
CONTINUOUS
 10
-99.17594
 20
-9.049618
 11
-99.17594
 21
26.870383
  0
LINE
  8
型材断面
  6
CONTINUOUS
 10
-99.17594
 20
-9.049618
 11
-63.255937
 21
-9.049618
  0
LINE
  8
型材断面
  6
CONTINUOUS
 10
-103.779817
 20
0.220383
 11
-107.665578
 21
1.114467
  0
LINE
  8
型材断面
  6
CONTINUOUS
 10
-103.779817
 20
0.220383
 11
-107.665578
 21
-0.673703
  0
LINE
  8
型材断面
  6
CONTINUOUS
 10
-107.665578
 20
-0.673703
 11
-107.665578
 21
1.114467
  0
LINE
  8
型材断面
  6
CONTINUOUS
 10
-103.779817
 20
53.520383
 11
-107.665578
 21
52.626297
  0
LINE
  8
型材断面
  6
CONTINUOUS
 10
-103.779817
 20
53.520383
 11
-107.665578
 21
54.414467
  0
LINE
  8
型材断面
  6
CONTINUOUS
 10
-107.665578
 20
54.414467
 11
-107.665578
 21
52.626297
  0
LINE
  8
型材断面
  6
CONTINUOUS
 62
    47
 10
49.294923
 20
-74.5448
 11
50.464922
 21
-74.5448
  0
LINE
  8
型材断面
  6
CONTINUOUS
 10
49.144923
 20
-71.7948
 11
49.144923
 21
-71.1198
  0
LINE
  8
型材断面
  6
CONTINUOUS
 62
    47
 10
47.969923
 20
-75.803838
 11
47.969923
 21
-75.303838
  0
LINE
  8
型材断面
  6
CONTINUOUS
 62
    47
 10
47.969923
 20
-75.303838
 11
49.144923
 21
-75.153838
  0
LINE
  8
型材断面
  6
CONTINUOUS
 62
    47
 10
49.144923
 20
-74.5448
 11
49.144923
 21
-75.153838
  0
LINE
  8
型材断面
  6
CONTINUOUS
 62
    47
 10
48.439922
 20
-74.5448
 11
48.439922
 21
-71.7948
  0
LINE
  8
型材断面
  6
CONTINUOUS
 62
    47
 10
49.289922
 20
-80.4948
 11
49.289922
 21
-79.7448
  0
LINE
  8
型材断面
  6
CONTINUOUS
 62
    47
 10
48.439922
 20
-79.7448
 11
48.439922
 21
-75.803838
  0
LINE
  8
型材断面
  6
CONTINUOUS
 10
49.144923
 20
-71.1198
 11
83.889922
 21
-71.1198
  0
LINE
  8
型材断面
  6
CONTINUOUS
 10
48.439922
 20
-71.7948
 11
83.889922
 21
-71.7948
  0
LINE
  8
型材断面
  6
CONTINUOUS
 62
    47
 10
48.439922
 20
-74.5448
 11
83.889922
 21
-74.5448
  0
LINE
  8
型材断面
  6
CONTINUOUS
 10
49.144923
 20
-75.153838
 11
83.889922
 21
-75.153838
  0
LINE
  8
型材断面
  6
CONTINUOUS
 10
47.969923
 20
-75.303838
 11
83.889922
 21
-75.303838
  0
LINE
  8
型材断面
  6
CONTINUOUS
 62
    47
 10
47.969923
 20
-75.803838
 11
83.889922
 21
-75.803838
  0
LINE
  8
型材断面
  6
CONTINUOUS
 62
    47
 10
49.289922
 20
-80.4948
 11
83.889922
 21
-80.4948
  0
LINE
  8
型材断面
  6
CONTINUOUS
 62
    47
 10
48.439922
 20
-79.7448
 11
83.889922
 21
-79.7448
  0
LINE
  8
型材断面
  6
CONTINUOUS
 62
    47
 10
118.484923
 20
-74.5448
 11
117.314922
 21
-74.5448
  0
LINE
  8
型材断面
  6
CONTINUOUS
 10
118.634922
 20
-71.7948
 11
118.634922
 21
-71.1198
  0
LINE
  8
型材断面
  6
CONTINUOUS
 62
    47
 10
119.809923
 20
-75.803838
 11
119.809923
 21
-75.303838
  0
LINE
  8
型材断面
  6
CONTINUOUS
 62
    47
 10
119.809923
 20
-75.303838
 11
118.634922
 21
-75.153838
  0
LINE
  8
型材断面
  6
CONTINUOUS
 62
    47
 10
118.634922
 20
-74.5448
 11
118.634922
 21
-75.153838
  0
LINE
  8
型材断面
  6
CONTINUOUS
 62
    47
 10
119.339922
 20
-74.5448
 11
119.339922
 21
-71.7948
  0
LINE
  8
型材断面
  6
CONTINUOUS
 62
    47
 10
118.489922
 20
-80.4948
 11
118.489922
 21
-79.7448
  0
LINE
  8
型材断面
  6
CONTINUOUS
 62
    47
 10
119.339922
 20
-79.7448
 11
119.339922
 21
-75.803838
  0
LINE
  8
型材断面
  6
CONTINUOUS
 10
118.634922
 20
-71.1198
 11
83.889922
 21
-71.1198
  0
LINE
  8
型材断面
  6
CONTINUOUS
 10
119.339922
 20
-71.7948
 11
83.889922
 21
-71.7948
  0
LINE
  8
型材断面
  6
CONTINUOUS
 62
    47
 10
119.339922
 20
-74.5448
 11
83.889922
 21
-74.5448
  0
LINE
  8
型材断面
  6
CONTINUOUS
 10
118.634922
 20
-75.153838
 11
83.889922
 21
-75.153838
  0
LINE
  8
型材断面
  6
CONTINUOUS
 10
119.809923
 20
-75.303838
 11
83.889922
 21
-75.303838
  0
LINE
  8
型材断面
  6
CONTINUOUS
 62
    47
 10
119.809923
 20
-75.803838
 11
83.889922
 21
-75.803838
  0
LINE
  8
型材断面
  6
CONTINUOUS
 62
    47
 10
118.489922
 20
-80.4948
 11
83.889922
 21
-80.4948
  0
LINE
  8
型材断面
  6
CONTINUOUS
 62
    47
 10
119.339922
 20
-79.7448
 11
83.889922
 21
-79.7448
  0
INSERT
  2
*GRP_0042
  8
型材断面
  6
CONTINUOUS
 10
0.0
 20
0.0
  0
INSERT
  2
*GRP_0043
  8
型材断面
  6
CONTINUOUS
 10
0.0
 20
0.0
  0
POLYLINE
  8
型材断面
  6
CONTINUOUS
 66
     1
 70
     1
  0
VERTEX
  8
型材断面
 10
-54.147393
 20
-19.422732
  0
VERTEX
  8
型材断面
 10
-72.702605
 20
-19.422732
  0
VERTEX
  8
型材断面
 10
-72.702605
 20
-24.214768
  0
VERTEX
  8
型材断面
 10
-54.147393
 20
-24.214768
  0
SEQEND
  0
POLYLINE
  8
型材断面
  6
CONTINUOUS
 66
     1
 70
     1
  0
VERTEX
  8
型材断面
 10
-54.147393
 20
76.836643
  0
VERTEX
  8
型材断面
 10
-72.702605
 20
76.836643
  0
VERTEX
  8
型材断面
 10
-72.702605
 20
72.044607
  0
VERTEX
  8
型材断面
 10
-54.147393
 20
72.044607
  0
SEQEND
  0
LINE
  8
型材断面
  6
CONTINUOUS
 10
-4.103457
 20
-41.58895
 11
48.553223
 21
-41.58895
  0
LINE
  8
ガラス
  6
CONTINUOUS
 10
103.304785
 20
10.557477
 11
167.304785
 21
10.557477
  0
LINE
  8
ガラス
  6
CONTINUOUS
 10
167.304785
 20
74.557477
 11
167.304785
 21
10.557477
  0
LINE
  8
ガラス
  6
CONTINUOUS
 10
103.304785
 20
10.557477
 11
103.304785
 21
74.557477
  0
LINE
  8
ガラス
  6
CONTINUOUS
 10
167.304785
 20
74.557477
 11
103.304785
 21
74.557477
  0
INSERT
  2
*GRP_0065
  8
ガラス
  6
DOT
 10
0.0
 20
0.0
  0
CIRCLE
  8
ボルト／ビス
  6
CONTINUOUS
 10
-55.755937
 20
60.370383
 40
0.288675
  0
CIRCLE
  8
ボルト／ビス
  6
CONTINUOUS
 10
-55.755937
 20
60.370383
 40
0.455885
  0
CIRCLE
  8
ボルト／ビス
  6
CONTINUOUS
 10
-40.755937
 20
60.370383
 40
0.288675
  0
CIRCLE
  8
ボルト／ビス
  6
CONTINUOUS
 10
-40.755937
 20
60.370383
 40
0.455885
  0
CIRCLE
  8
ボルト／ビス
  6
CONTINUOUS
 10
-70.755937
 20
60.370383
 40
0.288675
  0
CIRCLE
  8
ボルト／ビス
  6
CONTINUOUS
 10
-70.755937
 20
60.370383
 40
0.455885
  0
CIRCLE
  8
ボルト／ビス
  6
CONTINUOUS
 10
-85.755937
 20
60.370383
 40
0.288675
  0
CIRCLE
  8
ボルト／ビス
  6
CONTINUOUS
 10
-85.755937
 20
60.370383
 40
0.455885
  0
CIRCLE
  8
ボルト／ビス
  6
CONTINUOUS
 10
-96.755935
 20
34.370385
 40
0.288675
  0
CIRCLE
  8
ボルト／ビス
  6
CONTINUOUS
 10
-96.755935
 20
34.370385
 40
0.455885
  0
CIRCLE
  8
ボルト／ビス
  6
CONTINUOUS
 10
-96.755935
 20
49.370385
 40
0.288675
  0
CIRCLE
  8
ボルト／ビス
  6
CONTINUOUS
 10
-96.755935
 20
49.370385
 40
0.455885
  0
CIRCLE
  8
ボルト／ビス
  6
CONTINUOUS
 10
-96.755935
 20
19.37038
 40
0.288675
  0
CIRCLE
  8
ボルト／ビス
  6
CONTINUOUS
 10
-96.755935
 20
19.37038
 40
0.455885
  0
CIRCLE
  8
ボルト／ビス
  6
CONTINUOUS
 10
-96.755935
 20
4.37038
 40
0.288675
  0
CIRCLE
  8
ボルト／ビス
  6
CONTINUOUS
 10
-96.755935
 20
4.37038
 40
0.455885
  0
CIRCLE
  8
ボルト／ビス
  6
CONTINUOUS
 10
-70.75594
 20
-6.629615
 40
0.288675
  0
CIRCLE
  8
ボルト／ビス
  6
CONTINUOUS
 10
-70.75594
 20
-6.629615
 40
0.455885
  0
CIRCLE
  8
ボルト／ビス
  6
CONTINUOUS
 10
-85.75594
 20
-6.629615
 40
0.288675
  0
CIRCLE
  8
ボルト／ビス
  6
CONTINUOUS
 10
-85.75594
 20
-6.629615
 40
0.455885
  0
CIRCLE
  8
ボルト／ビス
  6
CONTINUOUS
 10
-55.755935
 20
-6.629615
 40
0.288675
  0
CIRCLE
  8
ボルト／ビス
  6
CONTINUOUS
 10
-55.755935
 20
-6.629615
 40
0.455885
  0
CIRCLE
  8
ボルト／ビス
  6
CONTINUOUS
 10
-40.755935
 20
-6.629615
 40
0.288675
  0
CIRCLE
  8
ボルト／ビス
  6
CONTINUOUS
 10
-40.755935
 20
-6.629615
 40
0.455885
  0
CIRCLE
  8
ボルト／ビス
  6
CONTINUOUS
 10
-29.755937
 20
19.370383
 40
0.288675
  0
CIRCLE
  8
ボルト／ビス
  6
CONTINUOUS
 10
-29.755937
 20
19.370383
 40
0.455885
  0
CIRCLE
  8
ボルト／ビス
  6
CONTINUOUS
 10
-29.755937
 20
4.370383
 40
0.288675
  0
CIRCLE
  8
ボルト／ビス
  6
CONTINUOUS
 10
-29.755937
 20
4.370383
 40
0.455885
  0
CIRCLE
  8
ボルト／ビス
  6
CONTINUOUS
 10
-29.755937
 20
34.370383
 40
0.288675
  0
CIRCLE
  8
ボルト／ビス
  6
CONTINUOUS
 10
-29.755937
 20
34.370383
 40
0.455885
  0
CIRCLE
  8
ボルト／ビス
  6
CONTINUOUS
 10
-29.755937
 20
49.370383
 40
0.288675
  0
CIRCLE
  8
ボルト／ビス
  6
CONTINUOUS
 10
-29.755937
 20
49.370383
 40
0.455885
  0
TEXT
  7
TextStyle03
  8
文字
  6
CONTINUOUS
 10
-22.075
 20
13.075
  1
ﾊﾞﾗﾝｽｽﾃｰ
 40
3.0
 72
     5
 11
-8.7625
 21
13.075
  0
TEXT
  7
TextStyle03
  8
文字
  6
CONTINUOUS
 10
9.175
 20
-14.975
  1
は排水穴位置を示す
 40
3.0
 72
     5
 11
39.175
 21
-14.975
  0
TEXT
  7
TextStyle03
  8
文字
  6
CONTINUOUS
 10
9.175
 20
-22.825
  1
はケーシング位置を示す
 40
3.0
 72
     5
 11
45.925
 21
-22.825
  0
TEXT
  7
TextStyle03
  8
文字
  6
CONTINUOUS
 10
9.175
 20
-26.2
  1
４ヶ所中1ヶ所に設定
 40
3.0
 72
     5
 11
40.8625
 21
-26.2
  0
INSERT
  2
*GRP_0007
  8
文字
  6
CONTINUOUS
 10
0.0
 20
0.0
  0
INSERT
  2
*GRP_0009
  8
文字
  6
CONTINUOUS
 10
0.0
 20
0.0
  0
INSERT
  2
*GRP_0011
  8
文字
  6
CONTINUOUS
 10
0.0
 20
0.0
  0
INSERT
  2
*GRP_0012
  8
文字
  6
CONTINUOUS
 10
0.0
 20
0.0
  0
INSERT
  2
*GRP_0015
  8
文字
  6
CONTINUOUS
 10
0.0
 20
0.0
  0
INSERT
  2
*GRP_0016
  8
文字
  6
CONTINUOUS
 10
0.0
 20
0.0
  0
INSERT
  2
*GRP_0019
  8
文字
  6
CONTINUOUS
 10
0.0
 20
0.0
  0
INSERT
  2
*GRP_0020
  8
文字
  6
CONTINUOUS
 10
0.0
 20
0.0
  0
INSERT
  2
*GRP_0023
  8
文字
  6
CONTINUOUS
 10
0.0
 20
0.0
  0
INSERT
  2
*GRP_0024
  8
文字
  6
CONTINUOUS
 10
0.0
 20
0.0
  0
INSERT
  2
*GRP_0027
  8
文字
  6
CONTINUOUS
 10
0.0
 20
0.0
  0
INSERT
  2
*GRP_0028
  8
文字
  6
CONTINUOUS
 10
0.0
 20
0.0
  0
INSERT
  2
*GRP_0031
  8
文字
  6
CONTINUOUS
 10
0.0
 20
0.0
  0
INSERT
  2
*GRP_0032
  8
文字
  6
CONTINUOUS
 10
0.0
 20
0.0
  0
INSERT
  2
*GRP_0035
  8
文字
  6
CONTINUOUS
 10
0.0
 20
0.0
  0
INSERT
  2
*GRP_0036
  8
文字
  6
CONTINUOUS
 10
0.0
 20
0.0
  0
TEXT
  7
TextStyle03
  8
文字
  6
CONTINUOUS
 10
-71.75
 20
-23.225
  1
可動装置側
 40
3.0
 72
     5
 11
-55.25
 21
-23.225
  0
TEXT
  7
TextStyle03
  8
文字
  6
CONTINUOUS
 10
-71.75
 20
73.025
  1
可動装置側
 40
3.0
 72
     5
 11
-55.25
 21
73.025
  0
TEXT
  7
TextStyle03
  8
文字
  6
CONTINUOUS
 10
69.8
 20
102.7
  1
ＮＳコード：ＮＳＤＳ
 40
5.0
 72
     5
 11
125.425
 21
102.7
  0
TEXT
  7
TextStyle03
  8
文字
  6
CONTINUOUS
 10
-110.25
 20
86.3
  1
アンカーピッチ
 40
3.0
 72
     5
 11
-87.0
 21
86.3
  0
TEXT
  7
TextStyle03
  8
文字
  6
CONTINUOUS
 10
-127.25
 20
-16.5
  1
アンカーピッチ
 40
3.0
 50
90.0
 72
     5
 11
-127.25
 21
6.75
  0
TEXT
  7
TextStyle03
  8
文字
  6
CONTINUOUS
 10
146.1
 20
18.8
  1
網入り6.8t
 40
3.0
 72
     5
 11
162.7875
 21
18.8
  0
TEXT
  7
TextStyle03
  8
文字
  6
CONTINUOUS
 10
152.725
 20
13.55
  1
×１枚
 40
3.0
 72
     5
 11
162.475
 21
13.55
  0
TEXT
  7
TextStyle03
  8
文字
  6
CONTINUOUS
 10
3.55
 20
-40.175
  1
アームユニット数　２ヶ所
 40
3.0
 72
     5
 11
43.675
 21
-40.175
  0
TEXT
  7
TextStyle03
  8
文字
  6
CONTINUOUS
 10
3.575
 20
-33.35
  1
アンカー数量　８ヶ所
 40
3.0
 72
     5
 11
36.95
 21
-33.35
  0
TEXT
  7
TextStyle03
  8
文字
  6
CONTINUOUS
 10
70.1
 20
124.05
  1
シリーズ：ＳＴＤ
 40
5.0
 72
     5
 11
114.475
 21
124.05
  0
TEXT
  7
TextStyle03
  8
文字
  6
CONTINUOUS
 10
70.1
 20
118.425
  1
　　　　　（上下可動）1300×1300タイプ
 40
5.0
 72
     5
 11
176.35
 21
118.425
  0
TEXT
  7
TextStyle03
  8
文字
  6
CONTINUOUS
 10
70.1
 20
112.8
  1
図面名　：外観姿図
 40
5.0
 72
     5
 11
120.1
 21
112.8
  0
TEXT
  7
TextStyle03
  8
文字
  6
CONTINUOUS
 10
70.1
 20
107.175
  1
　　　　　　
 40
5.0
 72
     5
 11
103.225
 21
107.175
  0
INSERT
  2
*DIM_0002
  8
寸法
  6
CONTINUOUS
 10
0.0
 20
0.0
  0
INSERT
  2
*DIM_0003
  8
寸法
  6
CONTINUOUS
 10
0.0
 20
0.0
  0
INSERT
  2
*DIM_0004
  8
寸法
  6
CONTINUOUS
 10
0.0
 20
0.0
  0
INSERT
  2
*DIM_0005
  8
寸法
  6
CONTINUOUS
 10
0.0
 20
0.0
  0
INSERT
  2
*GRP_0006
  8
寸法
  6
CONTINUOUS
 10
0.0
 20
0.0
  0
INSERT
  2
*DIM_0039
  8
寸法
  6
CONTINUOUS
 10
0.0
 20
0.0
  0
INSERT
  2
*DIM_0040
  8
寸法
  6
CONTINUOUS
 10
0.0
 20
0.0
  0
INSERT
  2
*DIM_0041
  8
寸法
  6
CONTINUOUS
 10
0.0
 20
0.0
  0
INSERT
  2
*DIM_0056
  8
寸法
  6
CONTINUOUS
 10
0.0
 20
0.0
  0
INSERT
  2
*DIM_0057
  8
寸法
  6
CONTINUOUS
 10
0.0
 20
0.0
  0
INSERT
  2
*DIM_0058
  8
寸法
  6
CONTINUOUS
 10
0.0
 20
0.0
  0
INSERT
  2
*DIM_0059
  8
寸法
  6
CONTINUOUS
 10
0.0
 20
0.0
  0
INSERT
  2
*DIM_0068
  8
寸法
  6
CONTINUOUS
 10
0.0
 20
0.0
  0
LINE
  8
別途部材
  6
CONTINUOUS
 10
-98.255937
 20
26.870383
 11
-98.255937
 21
-8.129618
  0
LINE
  8
別途部材
  6
CONTINUOUS
 10
-63.255935
 20
-8.129618
 11
-98.255937
 21
-8.129618
  0
LINE
  8
別途部材
  6
CONTINUOUS
 10
-98.855937
 20
26.870383
 11
-98.855937
 21
-8.729618
  0
LINE
  8
別途部材
  6
CONTINUOUS
 10
-63.255935
 20
-8.729618
 11
-98.855937
 21
-8.729618
  0
LINE
  8
別途部材
  6
CONTINUOUS
 10
-98.855937
 20
-8.729618
 11
-98.255937
 21
-8.129618
  0
LINE
  8
別途部材
  6
CONTINUOUS
 10
-95.755937
 20
-5.629618
 11
-83.667053
 21
6.459267
  0
LINE
  8
別途部材
  6
CONTINUOUS
 10
-98.255937
 20
26.870383
 11
-98.255937
 21
61.870385
  0
LINE
  8
別途部材
  6
CONTINUOUS
 10
-63.255935
 20
61.870385
 11
-98.255937
 21
61.870385
  0
LINE
  8
別途部材
  6
CONTINUOUS
 10
-98.855937
 20
26.870383
 11
-98.855937
 21
62.470385
  0
LINE
  8
別途部材
  6
CONTINUOUS
 10
-63.255935
 20
62.470385
 11
-98.855937
 21
62.470385
  0
LINE
  8
別途部材
  6
CONTINUOUS
 10
-98.855937
 20
62.470385
 11
-98.255937
 21
61.870385
  0
LINE
  8
別途部材
  6
CONTINUOUS
 10
-95.755937
 20
59.370385
 11
-83.667053
 21
47.2815
  0
LINE
  8
別途部材
  6
CONTINUOUS
 10
-28.255935
 20
26.870383
 11
-28.255935
 21
61.870385
  0
LINE
  8
別途部材
  6
CONTINUOUS
 10
-63.255935
 20
61.870385
 11
-28.255935
 21
61.870385
  0
LINE
  8
別途部材
  6
CONTINUOUS
 10
-27.655935
 20
26.870383
 11
-27.655935
 21
62.470385
  0
LINE
  8
別途部材
  6
CONTINUOUS
 10
-63.255935
 20
62.470385
 11
-27.655935
 21
62.470385
  0
LINE
  8
別途部材
  6
CONTINUOUS
 10
-27.655935
 20
62.470385
 11
-28.255935
 21
61.870385
  0
LINE
  8
別途部材
  6
CONTINUOUS
 10
-30.755935
 20
59.370385
 11
-42.84482
 21
47.2815
  0
LINE
  8
別途部材
  6
CONTINUOUS
 10
-28.255935
 20
26.870383
 11
-28.255935
 21
-8.129618
  0
LINE
  8
別途部材
  6
CONTINUOUS
 10
-63.255935
 20
-8.129618
 11
-28.255935
 21
-8.129618
  0
LINE
  8
別途部材
  6
CONTINUOUS
 10
-27.655935
 20
26.870383
 11
-27.655935
 21
-8.729618
  0
LINE
  8
別途部材
  6
CONTINUOUS
 10
-63.255935
 20
-8.729618
 11
-27.655935
 21
-8.729618
  0
LINE
  8
別途部材
  6
CONTINUOUS
 10
-27.655935
 20
-8.729618
 11
-28.255935
 21
-8.129618
  0
LINE
  8
別途部材
  6
CONTINUOUS
 10
-30.755935
 20
-5.629618
 11
-42.84482
 21
6.459267
  0
LINE
  8
別途部材
  6
CONTINUOUS
 62
    96
 10
-98.255937
 20
-69.569873
 11
-98.855937
 21
-71.069873
  0
LINE
  8
別途部材
  6
CONTINUOUS
 62
    96
 10
-98.255937
 20
-69.569873
 11
-63.255935
 21
-69.569873
  0
LINE
  8
別途部材
  6
CONTINUOUS
 10
-98.855937
 20
-71.069873
 11
-63.255935
 21
-71.069873
  0
LINE
  8
別途部材
  6
CONTINUOUS
 62
    96
 10
-28.255935
 20
-69.569873
 11
-27.655935
 21
-71.069873
  0
LINE
  8
別途部材
  6
CONTINUOUS
 62
    96
 10
-28.255935
 20
-69.569873
 11
-63.255935
 21
-69.569873
  0
LINE
  8
別途部材
  6
CONTINUOUS
 10
-27.655935
 20
-71.069873
 11
-63.255935
 21
-71.069873
  0
ARC
  8
別途部材
  6
CONTINUOUS
 10
-63.255936
 20
-90.998446
 40
38.928572
 50
33.39849
 51
146.60151
  0
LINE
  8
別途部材
  6
CONTINUOUS
 62
    96
 10
48.889922
 20
-69.569873
 11
48.289922
 21
-71.069873
  0
LINE
  8
別途部材
  6
CONTINUOUS
 62
    96
 10
48.889922
 20
-69.569873
 11
83.889925
 21
-69.569873
  0
LINE
  8
別途部材
  6
CONTINUOUS
 10
48.289922
 20
-71.069873
 11
83.889925
 21
-71.069873
  0
LINE
  8
別途部材
  6
CONTINUOUS
 62
    96
 10
118.889925
 20
-69.569873
 11
119.489925
 21
-71.069873
  0
LINE
  8
別途部材
  6
CONTINUOUS
 62
    96
 10
118.889925
 20
-69.569873
 11
83.889925
 21
-69.569873
  0
LINE
  8
別途部材
  6
CONTINUOUS
 10
119.489925
 20
-71.069873
 11
83.889925
 21
-71.069873
  0
ARC
  8
別途部材
  6
CONTINUOUS
 10
83.889923
 20
-90.998446
 40
38.928572
 50
33.39849
 51
146.60151
  0
INSERT
  2
*GRP_0061
  8
別途部材
  6
DOT
 10
0.0
 20
0.0
  0
INSERT
  2
*GRP_0062
  8
別途部材
  6
DOT
 10
0.0
 20
0.0
  0
INSERT
  2
*GRP_0063
  8
別途部材
  6
DOT
 10
0.0
 20
0.0
  0
INSERT
  2
*GRP_0064
  8
別途部材
  6
DOT
 10
0.0
 20
0.0
  0
ENDSEC
  0
EOF
