  0
SECTION
  2
HEADER
  9
$EXTMIN
 10
-210.0
 20
-148.5
  9
$EXTMAX
 10
210.0
 20
148.5
  9
$PDMODE
 70
    32
  9
$PDSIZE
 40
1.5
  9
$LTSCALE
 40
10.0
  0
ENDSEC
  0
SECTION
  2
TABLES
  0
TABLE
  2
LTYPE
 70
    15
  0
LTYPE
  2
CONTINUOUS
 70
    64
  3
実線
 72
    65
 73
     0
 40
0.0
  0
LTYPE
  2
DASHED
 70
    64
  3
破線A
 72
    65
 73
     2
 40
0.6
 49
0.4
 49
-0.2
  0
LTYPE
  2
DASHEDX2
 70
    64
  3
破線B
 72
    65
 73
     2
 40
1.3
 49
0.9
 49
-0.4
  0
LTYPE
  2
DASHDOT
 70
    64
  3
１点鎖線A
 72
    65
 73
     4
 40
0.5375
 49
0.375
 49
-0.05
 49
0.0625
 49
-0.05
  0
LTYPE
  2
DASHDOTX2
 70
    64
  3
１点鎖線B
 72
    65
 73
     4
 40
1.075
 49
0.75
 49
-0.1
 49
0.125
 49
-0.1
  0
LTYPE
  2
DIVIDE2
 70
    64
  3
２点鎖線A
 72
    65
 73
     6
 40
0.5125
 49
0.3
 49
-0.0375
 49
0.05
 49
-0.0375
 49
0.05
 49
-0.0375
  0
LTYPE
  2
DIVIDE
 70
    64
  3
２点鎖線B
 72
    65
 73
     6
 40
1.05
 49
0.55
 49
-0.1
 49
0.1
 49
-0.1
 49
0.1
 49
-0.1
  0
LTYPE
  2
DOT
 70
    64
  3
点線A
 72
    65
 73
     2
 40
0.1125
 49
0.0625
 49
-0.05
  0
LTYPE
  2
DOTX2
 70
    64
  3
点線B
 72
    65
 73
     2
 40
0.275
 49
0.15
 49
-0.125
  0
LTYPE
  2
CONTINUOUS
 70
    64
  3
実線
 72
    65
 73
     0
 40
0.0
  0
LTYPE
  2
CONTINUOUS
 70
    64
  3
実線
 72
    65
 73
     0
 40
0.0
  0
LTYPE
  2
CONTINUOUS
 70
    64
  3
実線
 72
    65
 73
     0
 40
0.0
  0
LTYPE
  2
CONTINUOUS
 70
    64
  3
実線
 72
    65
 73
     0
 40
0.0
  0
LTYPE
  2
CONTINUOUS
 70
    64
  3
実線
 72
    65
 73
     0
 40
0.0
  0
LTYPE
  2
CONTINUOUS
 70
    64
  3
実線
 72
    65
 73
     0
 40
0.0
  0
ENDTAB
  0
TABLE
  2
LAYER
 70
    34
  0
LAYER
  2
通り芯
 70
     0
 62
    15
  6
CONTINUOUS
  0
LAYER
  2
補助線
 70
     0
 62
    16
  6
DOT
  0
LAYER
  2
躯体
 70
     0
 62
    31
  6
CONTINUOUS
  0
LAYER
  2
型材
 70
     0
 62
    32
  6
CONTINUOUS
  0
LAYER
  2
型材断面
 70
     0
 62
    47
  6
CONTINUOUS
  0
LAYER
  2
ガラス
 70
     0
 62
    48
  6
CONTINUOUS
  0
LAYER
  2
ゴム等
 70
     0
 62
    63
  6
CONTINUOUS
  0
LAYER
  2
ボルト／ビス
 70
     0
 62
    64
  6
CONTINUOUS
  0
LAYER
  2
文字
 70
     0
 62
    79
  6
CONTINUOUS
  0
LAYER
  2
寸法
 70
     0
 62
    80
  6
CONTINUOUS
  0
LAYER
  2
ﾊｯﾁﾝｸﾞ
 70
     0
 62
    95
  6
CONTINUOUS
  0
LAYER
  2
別途部材
 70
     0
 62
    96
  6
CONTINUOUS
  0
LAYER
  2
曲げ物
 70
     0
 62
   111
  6
CONTINUOUS
  0
LAYER
  2
鉄骨等
 70
     0
 62
   112
  6
CONTINUOUS
  0
LAYER
  2
St
 70
     0
 62
   127
  6
CONTINUOUS
  0
LAYER
  2
その他部品等
 70
     0
 62
   128
  6
CONTINUOUS
  0
LAYER
  2
ｶﾞｽｹｯﾄ
 70
     0
 62
   143
  6
CONTINUOUS
  0
LAYER
  2
ｽｹｯﾁ
 70
     0
 62
    14
  6
CONTINUOUS
  0
LAYER
  2
0
 70
     0
 62
    17
  6
CONTINUOUS
  0
LAYER
  2
1
 70
     0
 62
    30
  6
CONTINUOUS
  0
LAYER
  2
4
 70
     0
 62
    33
  6
CONTINUOUS
  0
LAYER
  2
ﾚｲﾔ3
 70
     0
 62
    46
  6
CONTINUOUS
  0
LAYER
  2
外形線
 70
     0
 62
    49
  6
CONTINUOUS
  0
LAYER
  2
部品
 70
     0
 62
    14
  6
CONTINUOUS
  0
LAYER
  2
サッシ芯
 70
     0
 62
    17
  6
DASHDOTX2
  0
LAYER
  2
寸法線
 70
     0
 62
    62
  6
CONTINUOUS
  0
LAYER
  2
姿図外形線
 70
     0
 62
    65
  6
CONTINUOUS
  0
LAYER
  2
姿補助線
 70
     0
 62
    30
  6
CONTINUOUS
  0
LAYER
  2
透視線
 70
     0
 62
    78
  6
DOT
  0
LAYER
  2
用紙
 70
     0
 62
    81
  6
CONTINUOUS
  0
LAYER
  2
実線図枠
 70
     0
 62
    94
  6
CONTINUOUS
  0
LAYER
  2
補助図枠
 70
     0
 62
    97
  6
CONTINUOUS
  0
LAYER
  2
建具記号
 70
     0
 62
   110
  6
CONTINUOUS
  0
LAYER
  2
補助文字
 70
     0
 62
   113
  6
CONTINUOUS
  0
ENDTAB
  0
TABLE
  2
STYLE
 70
    10
  0
STYLE
  2
STANDARD
 70
     0
 40
1.0
 41
1.0
 42
1.0
 50
0.0
 71
     0
  3
TXT
  4
BIGFONT
  0
STYLE
  2
TATE
 70
     4
 40
1.0
 41
1.0
 42
1.0
 50
0.0
 71
     0
  3
TXT
  4
BIGFONT
  0
STYLE
  2
TextStyle03
 70
     0
 40
1.0
 41
1.0
 42
1.0
 50
0.0
 71
     0
  3
MONOTXT
  4
BIGFONT
  0
STYLE
  2
TextStyle04
 70
     0
 40
1.0
 41
1.0
 42
1.0
 50
0.0
 71
     0
  3
MONOTXT
  4
BIGFONT
  0
STYLE
  2
TextStyle05
 70
     0
 40
1.0
 41
1.0
 42
1.0
 50
0.0
 71
     0
  3
MONOTXT
  4
BIGFONT
  0
STYLE
  2
TextStyle06
 70
     0
 40
1.0
 41
1.0
 42
1.0
 50
0.0
 71
     0
  3
MONOTXT
  4
BIGFONT
  0
STYLE
  2
TextStyle07
 70
     0
 40
1.0
 41
1.0
 42
1.0
 50
0.0
 71
     0
  3
MONOTXT
  4
BIGFONT
  0
STYLE
  2
TextStyle08
 70
     0
 40
1.0
 41
1.0
 42
1.0
 50
0.0
 71
     0
  3
MONOTXT
  4
BIGFONT
  0
STYLE
  2
TextStyle09
 70
     0
 40
1.0
 41
1.0
 42
1.0
 50
0.0
 71
     0
  3
MONOTXT
  4
BIGFONT
  0
STYLE
  2
TextStyle10
 70
     0
 40
1.0
 41
1.0
 42
1.0
 50
0.0
 71
     0
  3
MONOTXT
  4
BIGFONT
  0
ENDTAB
  0
ENDSEC
  0
SECTION
  2
BLOCKS
  0
BLOCK
  2
*GRP_0001
 70
    65
 10
0.0
 20
0.0
  0
LINE
  8
型材断面
  6
CONTINUOUS
 10
195.0
 20
133.5
 11
195.0
 21
-133.5
  0
LINE
  8
型材断面
  6
CONTINUOUS
 10
195.0
 20
-133.5
 11
-185.0
 21
-133.5
  0
LINE
  8
型材断面
  6
CONTINUOUS
 10
-185.0
 20
-133.5
 11
-185.0
 21
133.5
  0
LINE
  8
型材断面
  6
CONTINUOUS
 10
195.0
 20
133.5
 11
-185.0
 21
133.5
  0
LINE
  8
型材断面
  6
CONTINUOUS
 10
145.0
 20
-133.5
 11
145.0
 21
-118.5
  0
LINE
  8
型材断面
  6
CONTINUOUS
 10
195.0
 20
-118.5
 11
145.0
 21
-118.5
  0
ENDBLK
  0
BLOCK
  2
*GRP_0002
 70
    65
 10
0.0
 20
0.0
  0
INSERT
  2
*GRP_0025
  8
補助線
  6
CONTINUOUS
 10
0.0
 20
0.0
  0
LINE
  8
ボルト／ビス
  6
CONTINUOUS
 10
-55.755937
 20
-8.107235
 11
-55.505937
 21
-7.962897
  0
LINE
  8
ボルト／ビス
  6
CONTINUOUS
 10
-55.755937
 20
-8.107235
 11
-56.005937
 21
-7.962897
  0
LINE
  8
ボルト／ビス
  6
CONTINUOUS
 10
-55.505937
 20
-7.674222
 11
-55.755937
 21
-7.529885
  0
LINE
  8
ボルト／ビス
  6
CONTINUOUS
 10
-56.005937
 20
-7.674222
 11
-55.755937
 21
-7.529885
  0
CIRCLE
  8
ボルト／ビス
  6
CONTINUOUS
 10
-55.755937
 20
-7.81856
 40
0.25
  0
LINE
  8
ボルト／ビス
  6
CONTINUOUS
 10
-56.005937
 20
-7.962897
 11
-56.005937
 21
-7.674222
  0
LINE
  8
ボルト／ビス
  6
CONTINUOUS
 10
-55.505937
 20
-7.674222
 11
-55.505937
 21
-7.962897
  0
ENDBLK
  0
BLOCK
  2
*GRP_0003
 70
    65
 10
0.0
 20
0.0
  0
INSERT
  2
*GRP_0026
  8
補助線
  6
CONTINUOUS
 10
0.0
 20
0.0
  0
LINE
  8
ボルト／ビス
  6
CONTINUOUS
 10
-70.755937
 20
-8.107235
 11
-70.505937
 21
-7.962897
  0
LINE
  8
ボルト／ビス
  6
CONTINUOUS
 10
-70.755937
 20
-8.107235
 11
-71.005937
 21
-7.962897
  0
LINE
  8
ボルト／ビス
  6
CONTINUOUS
 10
-70.505937
 20
-7.674222
 11
-70.755937
 21
-7.529885
  0
LINE
  8
ボルト／ビス
  6
CONTINUOUS
 10
-71.005937
 20
-7.674222
 11
-70.755937
 21
-7.529885
  0
CIRCLE
  8
ボルト／ビス
  6
CONTINUOUS
 10
-70.755937
 20
-7.81856
 40
0.25
  0
LINE
  8
ボルト／ビス
  6
CONTINUOUS
 10
-71.005937
 20
-7.962897
 11
-71.005937
 21
-7.674222
  0
LINE
  8
ボルト／ビス
  6
CONTINUOUS
 10
-70.505937
 20
-7.674222
 11
-70.505937
 21
-7.962897
  0
ENDBLK
  0
BLOCK
  2
*GRP_0004
 70
    65
 10
0.0
 20
0.0
  0
INSERT
  2
*GRP_0027
  8
補助線
  6
CONTINUOUS
 10
0.0
 20
0.0
  0
LINE
  8
ボルト／ビス
  6
CONTINUOUS
 10
-85.755937
 20
-8.107235
 11
-85.505937
 21
-7.962897
  0
LINE
  8
ボルト／ビス
  6
CONTINUOUS
 10
-85.755937
 20
-8.107235
 11
-86.005937
 21
-7.962897
  0
LINE
  8
ボルト／ビス
  6
CONTINUOUS
 10
-85.505937
 20
-7.674222
 11
-85.755937
 21
-7.529885
  0
LINE
  8
ボルト／ビス
  6
CONTINUOUS
 10
-86.005937
 20
-7.674222
 11
-85.755937
 21
-7.529885
  0
CIRCLE
  8
ボルト／ビス
  6
CONTINUOUS
 10
-85.755937
 20
-7.81856
 40
0.25
  0
LINE
  8
ボルト／ビス
  6
CONTINUOUS
 10
-86.005937
 20
-7.962897
 11
-86.005937
 21
-7.674222
  0
LINE
  8
ボルト／ビス
  6
CONTINUOUS
 10
-85.505937
 20
-7.674222
 11
-85.505937
 21
-7.962897
  0
ENDBLK
  0
BLOCK
  2
*GRP_0005
 70
    65
 10
0.0
 20
0.0
  0
INSERT
  2
*GRP_0028
  8
補助線
  6
CONTINUOUS
 10
0.0
 20
0.0
  0
LINE
  8
ボルト／ビス
  6
CONTINUOUS
 10
-97.044613
 20
33.18144
 11
-96.900275
 21
33.43144
  0
LINE
  8
ボルト／ビス
  6
CONTINUOUS
 10
-97.044613
 20
33.18144
 11
-96.900275
 21
32.93144
  0
LINE
  8
ボルト／ビス
  6
CONTINUOUS
 10
-96.6116
 20
33.43144
 11
-96.467263
 21
33.18144
  0
LINE
  8
ボルト／ビス
  6
CONTINUOUS
 10
-96.6116
 20
32.93144
 11
-96.467263
 21
33.18144
  0
CIRCLE
  8
ボルト／ビス
  6
CONTINUOUS
 10
-96.755937
 20
33.18144
 40
0.25
  0
LINE
  8
ボルト／ビス
  6
CONTINUOUS
 10
-96.900275
 20
32.93144
 11
-96.6116
 21
32.93144
  0
LINE
  8
ボルト／ビス
  6
CONTINUOUS
 10
-96.6116
 20
33.43144
 11
-96.900275
 21
33.43144
  0
ENDBLK
  0
BLOCK
  2
*GRP_0006
 70
    65
 10
0.0
 20
0.0
  0
INSERT
  2
*GRP_0029
  8
補助線
  6
CONTINUOUS
 10
0.0
 20
0.0
  0
LINE
  8
ボルト／ビス
  6
CONTINUOUS
 10
-97.044613
 20
18.18144
 11
-96.900275
 21
18.43144
  0
LINE
  8
ボルト／ビス
  6
CONTINUOUS
 10
-97.044613
 20
18.18144
 11
-96.900275
 21
17.93144
  0
LINE
  8
ボルト／ビス
  6
CONTINUOUS
 10
-96.6116
 20
18.43144
 11
-96.467263
 21
18.18144
  0
LINE
  8
ボルト／ビス
  6
CONTINUOUS
 10
-96.6116
 20
17.93144
 11
-96.467263
 21
18.18144
  0
CIRCLE
  8
ボルト／ビス
  6
CONTINUOUS
 10
-96.755937
 20
18.18144
 40
0.25
  0
LINE
  8
ボルト／ビス
  6
CONTINUOUS
 10
-96.900275
 20
17.93144
 11
-96.6116
 21
17.93144
  0
LINE
  8
ボルト／ビス
  6
CONTINUOUS
 10
-96.6116
 20
18.43144
 11
-96.900275
 21
18.43144
  0
ENDBLK
  0
BLOCK
  2
*GRP_0007
 70
    65
 10
0.0
 20
0.0
  0
INSERT
  2
*GRP_0030
  8
補助線
  6
CONTINUOUS
 10
0.0
 20
0.0
  0
LINE
  8
ボルト／ビス
  6
CONTINUOUS
 10
-97.044613
 20
3.18144
 11
-96.900275
 21
3.43144
  0
LINE
  8
ボルト／ビス
  6
CONTINUOUS
 10
-97.044613
 20
3.18144
 11
-96.900275
 21
2.93144
  0
LINE
  8
ボルト／ビス
  6
CONTINUOUS
 10
-96.6116
 20
3.43144
 11
-96.467263
 21
3.18144
  0
LINE
  8
ボルト／ビス
  6
CONTINUOUS
 10
-96.6116
 20
2.93144
 11
-96.467263
 21
3.18144
  0
CIRCLE
  8
ボルト／ビス
  6
CONTINUOUS
 10
-96.755937
 20
3.18144
 40
0.25
  0
LINE
  8
ボルト／ビス
  6
CONTINUOUS
 10
-96.900275
 20
2.93144
 11
-96.6116
 21
2.93144
  0
LINE
  8
ボルト／ビス
  6
CONTINUOUS
 10
-96.6116
 20
3.43144
 11
-96.900275
 21
3.43144
  0
ENDBLK
  0
BLOCK
  2
*GRP_0008
 70
    65
 10
0.0
 20
0.0
  0
INSERT
  2
*GRP_0031
  8
補助線
  6
CONTINUOUS
 10
0.0
 20
0.0
  0
LINE
  8
ボルト／ビス
  6
CONTINUOUS
 10
-70.755937
 20
74.470115
 11
-70.505937
 21
74.325778
  0
LINE
  8
ボルト／ビス
  6
CONTINUOUS
 10
-70.755937
 20
74.470115
 11
-71.005937
 21
74.325778
  0
LINE
  8
ボルト／ビス
  6
CONTINUOUS
 10
-70.505937
 20
74.037103
 11
-70.755937
 21
73.892765
  0
LINE
  8
ボルト／ビス
  6
CONTINUOUS
 10
-71.005937
 20
74.037103
 11
-70.755937
 21
73.892765
  0
CIRCLE
  8
ボルト／ビス
  6
CONTINUOUS
 10
-70.755937
 20
74.18144
 40
0.25
  0
LINE
  8
ボルト／ビス
  6
CONTINUOUS
 10
-71.005937
 20
74.325778
 11
-71.005937
 21
74.037103
  0
LINE
  8
ボルト／ビス
  6
CONTINUOUS
 10
-70.505937
 20
74.037103
 11
-70.505937
 21
74.325778
  0
ENDBLK
  0
BLOCK
  2
*GRP_0009
 70
    65
 10
0.0
 20
0.0
  0
INSERT
  2
*GRP_0032
  8
補助線
  6
CONTINUOUS
 10
0.0
 20
0.0
  0
LINE
  8
ボルト／ビス
  6
CONTINUOUS
 10
-85.755937
 20
74.470115
 11
-85.505937
 21
74.325778
  0
LINE
  8
ボルト／ビス
  6
CONTINUOUS
 10
-85.755937
 20
74.470115
 11
-86.005937
 21
74.325778
  0
LINE
  8
ボルト／ビス
  6
CONTINUOUS
 10
-85.505937
 20
74.037103
 11
-85.755937
 21
73.892765
  0
LINE
  8
ボルト／ビス
  6
CONTINUOUS
 10
-86.005937
 20
74.037103
 11
-85.755937
 21
73.892765
  0
CIRCLE
  8
ボルト／ビス
  6
CONTINUOUS
 10
-85.755937
 20
74.18144
 40
0.25
  0
LINE
  8
ボルト／ビス
  6
CONTINUOUS
 10
-86.005937
 20
74.325778
 11
-86.005937
 21
74.037103
  0
LINE
  8
ボルト／ビス
  6
CONTINUOUS
 10
-85.505937
 20
74.037103
 11
-85.505937
 21
74.325778
  0
ENDBLK
  0
BLOCK
  2
*GRP_0010
 70
    65
 10
0.0
 20
0.0
  0
INSERT
  2
*GRP_0033
  8
補助線
  6
CONTINUOUS
 10
0.0
 20
0.0
  0
LINE
  8
ボルト／ビス
  6
CONTINUOUS
 10
-97.044613
 20
48.18144
 11
-96.900275
 21
47.93144
  0
LINE
  8
ボルト／ビス
  6
CONTINUOUS
 10
-97.044613
 20
48.18144
 11
-96.900275
 21
48.43144
  0
LINE
  8
ボルト／ビス
  6
CONTINUOUS
 10
-96.6116
 20
47.93144
 11
-96.467263
 21
48.18144
  0
LINE
  8
ボルト／ビス
  6
CONTINUOUS
 10
-96.6116
 20
48.43144
 11
-96.467263
 21
48.18144
  0
CIRCLE
  8
ボルト／ビス
  6
CONTINUOUS
 10
-96.755937
 20
48.18144
 40
0.25
  0
LINE
  8
ボルト／ビス
  6
CONTINUOUS
 10
-96.900275
 20
48.43144
 11
-96.6116
 21
48.43144
  0
LINE
  8
ボルト／ビス
  6
CONTINUOUS
 10
-96.6116
 20
47.93144
 11
-96.900275
 21
47.93144
  0
ENDBLK
  0
BLOCK
  2
*GRP_0011
 70
    65
 10
0.0
 20
0.0
  0
INSERT
  2
*GRP_0034
  8
補助線
  6
CONTINUOUS
 10
0.0
 20
0.0
  0
LINE
  8
ボルト／ビス
  6
CONTINUOUS
 10
-97.044613
 20
63.18144
 11
-96.900275
 21
62.93144
  0
LINE
  8
ボルト／ビス
  6
CONTINUOUS
 10
-97.044613
 20
63.18144
 11
-96.900275
 21
63.43144
  0
LINE
  8
ボルト／ビス
  6
CONTINUOUS
 10
-96.6116
 20
62.93144
 11
-96.467263
 21
63.18144
  0
LINE
  8
ボルト／ビス
  6
CONTINUOUS
 10
-96.6116
 20
63.43144
 11
-96.467263
 21
63.18144
  0
CIRCLE
  8
ボルト／ビス
  6
CONTINUOUS
 10
-96.755937
 20
63.18144
 40
0.25
  0
LINE
  8
ボルト／ビス
  6
CONTINUOUS
 10
-96.900275
 20
63.43144
 11
-96.6116
 21
63.43144
  0
LINE
  8
ボルト／ビス
  6
CONTINUOUS
 10
-96.6116
 20
62.93144
 11
-96.900275
 21
62.93144
  0
ENDBLK
  0
BLOCK
  2
*GRP_0012
 70
    65
 10
0.0
 20
0.0
  0
INSERT
  2
*GRP_0035
  8
補助線
  6
CONTINUOUS
 10
0.0
 20
0.0
  0
LINE
  8
ボルト／ビス
  6
CONTINUOUS
 10
-40.755937
 20
-8.107235
 11
-41.005937
 21
-7.962897
  0
LINE
  8
ボルト／ビス
  6
CONTINUOUS
 10
-40.755937
 20
-8.107235
 11
-40.505937
 21
-7.962897
  0
LINE
  8
ボルト／ビス
  6
CONTINUOUS
 10
-41.005937
 20
-7.674222
 11
-40.755937
 21
-7.529885
  0
LINE
  8
ボルト／ビス
  6
CONTINUOUS
 10
-40.505937
 20
-7.674222
 11
-40.755937
 21
-7.529885
  0
CIRCLE
  8
ボルト／ビス
  6
CONTINUOUS
 10
-40.755937
 20
-7.81856
 40
0.25
  0
LINE
  8
ボルト／ビス
  6
CONTINUOUS
 10
-40.505937
 20
-7.962897
 11
-40.505937
 21
-7.674222
  0
LINE
  8
ボルト／ビス
  6
CONTINUOUS
 10
-41.005937
 20
-7.674222
 11
-41.005937
 21
-7.962897
  0
ENDBLK
  0
BLOCK
  2
*GRP_0013
 70
    65
 10
0.0
 20
0.0
  0
INSERT
  2
*GRP_0036
  8
補助線
  6
CONTINUOUS
 10
0.0
 20
0.0
  0
LINE
  8
ボルト／ビス
  6
CONTINUOUS
 10
-25.755937
 20
-8.107235
 11
-26.005937
 21
-7.962897
  0
LINE
  8
ボルト／ビス
  6
CONTINUOUS
 10
-25.755937
 20
-8.107235
 11
-25.505937
 21
-7.962897
  0
LINE
  8
ボルト／ビス
  6
CONTINUOUS
 10
-26.005937
 20
-7.674222
 11
-25.755937
 21
-7.529885
  0
LINE
  8
ボルト／ビス
  6
CONTINUOUS
 10
-25.505937
 20
-7.674222
 11
-25.755937
 21
-7.529885
  0
CIRCLE
  8
ボルト／ビス
  6
CONTINUOUS
 10
-25.755937
 20
-7.81856
 40
0.25
  0
LINE
  8
ボルト／ビス
  6
CONTINUOUS
 10
-25.505937
 20
-7.962897
 11
-25.505937
 21
-7.674222
  0
LINE
  8
ボルト／ビス
  6
CONTINUOUS
 10
-26.005937
 20
-7.674222
 11
-26.005937
 21
-7.962897
  0
ENDBLK
  0
BLOCK
  2
*GRP_0014
 70
    65
 10
0.0
 20
0.0
  0
INSERT
  2
*GRP_0037
  8
補助線
  6
CONTINUOUS
 10
0.0
 20
0.0
  0
LINE
  8
ボルト／ビス
  6
CONTINUOUS
 10
-14.467263
 20
18.18144
 11
-14.6116
 21
18.43144
  0
LINE
  8
ボルト／ビス
  6
CONTINUOUS
 10
-14.467263
 20
18.18144
 11
-14.6116
 21
17.93144
  0
LINE
  8
ボルト／ビス
  6
CONTINUOUS
 10
-14.900275
 20
18.43144
 11
-15.044613
 21
18.18144
  0
LINE
  8
ボルト／ビス
  6
CONTINUOUS
 10
-14.900275
 20
17.93144
 11
-15.044613
 21
18.18144
  0
CIRCLE
  8
ボルト／ビス
  6
CONTINUOUS
 10
-14.755937
 20
18.18144
 40
0.25
  0
LINE
  8
ボルト／ビス
  6
CONTINUOUS
 10
-14.6116
 20
17.93144
 11
-14.900275
 21
17.93144
  0
LINE
  8
ボルト／ビス
  6
CONTINUOUS
 10
-14.900275
 20
18.43144
 11
-14.6116
 21
18.43144
  0
ENDBLK
  0
BLOCK
  2
*GRP_0015
 70
    65
 10
0.0
 20
0.0
  0
INSERT
  2
*GRP_0038
  8
補助線
  6
CONTINUOUS
 10
0.0
 20
0.0
  0
LINE
  8
ボルト／ビス
  6
CONTINUOUS
 10
-14.467263
 20
3.18144
 11
-14.6116
 21
3.43144
  0
LINE
  8
ボルト／ビス
  6
CONTINUOUS
 10
-14.467263
 20
3.18144
 11
-14.6116
 21
2.93144
  0
LINE
  8
ボルト／ビス
  6
CONTINUOUS
 10
-14.900275
 20
3.43144
 11
-15.044613
 21
3.18144
  0
LINE
  8
ボルト／ビス
  6
CONTINUOUS
 10
-14.900275
 20
2.93144
 11
-15.044613
 21
3.18144
  0
CIRCLE
  8
ボルト／ビス
  6
CONTINUOUS
 10
-14.755937
 20
3.18144
 40
0.25
  0
LINE
  8
ボルト／ビス
  6
CONTINUOUS
 10
-14.6116
 20
2.93144
 11
-14.900275
 21
2.93144
  0
LINE
  8
ボルト／ビス
  6
CONTINUOUS
 10
-14.900275
 20
3.43144
 11
-14.6116
 21
3.43144
  0
ENDBLK
  0
BLOCK
  2
*GRP_0016
 70
    65
 10
0.0
 20
0.0
  0
INSERT
  2
*GRP_0039
  8
補助線
  6
CONTINUOUS
 10
0.0
 20
0.0
  0
LINE
  8
ボルト／ビス
  6
CONTINUOUS
 10
-40.755937
 20
74.470115
 11
-41.005937
 21
74.325778
  0
LINE
  8
ボルト／ビス
  6
CONTINUOUS
 10
-40.755937
 20
74.470115
 11
-40.505937
 21
74.325778
  0
LINE
  8
ボルト／ビス
  6
CONTINUOUS
 10
-41.005937
 20
74.037103
 11
-40.755937
 21
73.892765
  0
LINE
  8
ボルト／ビス
  6
CONTINUOUS
 10
-40.505937
 20
74.037103
 11
-40.755937
 21
73.892765
  0
CIRCLE
  8
ボルト／ビス
  6
CONTINUOUS
 10
-40.755937
 20
74.18144
 40
0.25
  0
LINE
  8
ボルト／ビス
  6
CONTINUOUS
 10
-40.505937
 20
74.325778
 11
-40.505937
 21
74.037103
  0
LINE
  8
ボルト／ビス
  6
CONTINUOUS
 10
-41.005937
 20
74.037103
 11
-41.005937
 21
74.325778
  0
ENDBLK
  0
BLOCK
  2
*GRP_0017
 70
    65
 10
0.0
 20
0.0
  0
INSERT
  2
*GRP_0040
  8
補助線
  6
CONTINUOUS
 10
0.0
 20
0.0
  0
LINE
  8
ボルト／ビス
  6
CONTINUOUS
 10
-25.755937
 20
74.470115
 11
-26.005937
 21
74.325778
  0
LINE
  8
ボルト／ビス
  6
CONTINUOUS
 10
-25.755937
 20
74.470115
 11
-25.505937
 21
74.325778
  0
LINE
  8
ボルト／ビス
  6
CONTINUOUS
 10
-26.005937
 20
74.037103
 11
-25.755937
 21
73.892765
  0
LINE
  8
ボルト／ビス
  6
CONTINUOUS
 10
-25.505937
 20
74.037103
 11
-25.755937
 21
73.892765
  0
CIRCLE
  8
ボルト／ビス
  6
CONTINUOUS
 10
-25.755937
 20
74.18144
 40
0.25
  0
LINE
  8
ボルト／ビス
  6
CONTINUOUS
 10
-25.505937
 20
74.325778
 11
-25.505937
 21
74.037103
  0
LINE
  8
ボルト／ビス
  6
CONTINUOUS
 10
-26.005937
 20
74.037103
 11
-26.005937
 21
74.325778
  0
ENDBLK
  0
BLOCK
  2
*GRP_0018
 70
    65
 10
0.0
 20
0.0
  0
INSERT
  2
*GRP_0041
  8
補助線
  6
CONTINUOUS
 10
0.0
 20
0.0
  0
LINE
  8
ボルト／ビス
  6
CONTINUOUS
 10
-14.467263
 20
48.18144
 11
-14.6116
 21
47.93144
  0
LINE
  8
ボルト／ビス
  6
CONTINUOUS
 10
-14.467263
 20
48.18144
 11
-14.6116
 21
48.43144
  0
LINE
  8
ボルト／ビス
  6
CONTINUOUS
 10
-14.900275
 20
47.93144
 11
-15.044613
 21
48.18144
  0
LINE
  8
ボルト／ビス
  6
CONTINUOUS
 10
-14.900275
 20
48.43144
 11
-15.044613
 21
48.18144
  0
CIRCLE
  8
ボルト／ビス
  6
CONTINUOUS
 10
-14.755937
 20
48.18144
 40
0.25
  0
LINE
  8
ボルト／ビス
  6
CONTINUOUS
 10
-14.6116
 20
48.43144
 11
-14.900275
 21
48.43144
  0
LINE
  8
ボルト／ビス
  6
CONTINUOUS
 10
-14.900275
 20
47.93144
 11
-14.6116
 21
47.93144
  0
ENDBLK
  0
BLOCK
  2
*GRP_0019
 70
    65
 10
0.0
 20
0.0
  0
INSERT
  2
*GRP_0042
  8
補助線
  6
CONTINUOUS
 10
0.0
 20
0.0
  0
LINE
  8
ボルト／ビス
  6
CONTINUOUS
 10
-14.467263
 20
63.18144
 11
-14.6116
 21
62.93144
  0
LINE
  8
ボルト／ビス
  6
CONTINUOUS
 10
-14.467263
 20
63.18144
 11
-14.6116
 21
63.43144
  0
LINE
  8
ボルト／ビス
  6
CONTINUOUS
 10
-14.900275
 20
62.93144
 11
-15.044613
 21
63.18144
  0
LINE
  8
ボルト／ビス
  6
CONTINUOUS
 10
-14.900275
 20
63.43144
 11
-15.044613
 21
63.18144
  0
CIRCLE
  8
ボルト／ビス
  6
CONTINUOUS
 10
-14.755937
 20
63.18144
 40
0.25
  0
LINE
  8
ボルト／ビス
  6
CONTINUOUS
 10
-14.6116
 20
63.43144
 11
-14.900275
 21
63.43144
  0
LINE
  8
ボルト／ビス
  6
CONTINUOUS
 10
-14.900275
 20
62.93144
 11
-14.6116
 21
62.93144
  0
ENDBLK
  0
BLOCK
  2
*GRP_0020
 70
    65
 10
0.0
 20
0.0
  0
INSERT
  2
*GRP_0043
  8
補助線
  6
CONTINUOUS
 10
0.0
 20
0.0
  0
LINE
  8
ボルト／ビス
  6
CONTINUOUS
 10
-14.467263
 20
33.18144
 11
-14.6116
 21
33.43144
  0
LINE
  8
ボルト／ビス
  6
CONTINUOUS
 10
-14.467263
 20
33.18144
 11
-14.6116
 21
32.93144
  0
LINE
  8
ボルト／ビス
  6
CONTINUOUS
 10
-14.900275
 20
33.43144
 11
-15.044613
 21
33.18144
  0
LINE
  8
ボルト／ビス
  6
CONTINUOUS
 10
-14.900275
 20
32.93144
 11
-15.044613
 21
33.18144
  0
CIRCLE
  8
ボルト／ビス
  6
CONTINUOUS
 10
-14.755937
 20
33.18144
 40
0.25
  0
LINE
  8
ボルト／ビス
  6
CONTINUOUS
 10
-14.6116
 20
32.93144
 11
-14.900275
 21
32.93144
  0
LINE
  8
ボルト／ビス
  6
CONTINUOUS
 10
-14.900275
 20
33.43144
 11
-14.6116
 21
33.43144
  0
ENDBLK
  0
BLOCK
  2
*GRP_0021
 70
    65
 10
0.0
 20
0.0
  0
INSERT
  2
*GRP_0044
  8
補助線
  6
CONTINUOUS
 10
0.0
 20
0.0
  0
LINE
  8
ボルト／ビス
  6
CONTINUOUS
 10
-55.755937
 20
74.470115
 11
-55.505937
 21
74.325778
  0
LINE
  8
ボルト／ビス
  6
CONTINUOUS
 10
-55.755937
 20
74.470115
 11
-56.005937
 21
74.325778
  0
LINE
  8
ボルト／ビス
  6
CONTINUOUS
 10
-55.505937
 20
74.037103
 11
-55.755937
 21
73.892765
  0
LINE
  8
ボルト／ビス
  6
CONTINUOUS
 10
-56.005937
 20
74.037103
 11
-55.755937
 21
73.892765
  0
CIRCLE
  8
ボルト／ビス
  6
CONTINUOUS
 10
-55.755937
 20
74.18144
 40
0.25
  0
LINE
  8
ボルト／ビス
  6
CONTINUOUS
 10
-56.005937
 20
74.325778
 11
-56.005937
 21
74.037103
  0
LINE
  8
ボルト／ビス
  6
CONTINUOUS
 10
-55.505937
 20
74.037103
 11
-55.505937
 21
74.325778
  0
ENDBLK
  0
BLOCK
  2
*DIM_0022
 70
    65
 10
0.0
 20
0.0
  0
LINE
  8
寸法
  6
BYBLOCK
 62
     0
 10
-95.755937
 20
-34.605008
 11
-15.755937
 21
-34.605008
  0
POINT
  8
寸法
 62
     0
 10
-95.755937
 20
-34.605008
  0
POINT
  8
寸法
 62
     0
 10
-15.755937
 20
-34.605008
  0
TEXT
  7
TextStyle03
  8
寸法
  6
CONTINUOUS
 62
     0
 10
-67.49375
 20
-34.25
  1
呼称寸法　1600
 40
3.0
 72
     5
 11
-44.05625
 21
-34.25
  0
ENDBLK
  0
BLOCK
  2
*DIM_0023
 70
    65
 10
0.0
 20
0.0
  0
LINE
  8
寸法
  6
BYBLOCK
 62
     0
 10
-54.755937
 20
-48.258815
 11
6.907452
 21
-48.258815
  0
LINE
  8
寸法
  6
BYBLOCK
 62
     0
 10
6.907452
 20
-70.758815
 11
6.907452
 21
-48.258815
  0
POINT
  8
寸法
 62
     0
 10
6.907452
 20
-70.758815
  0
POINT
  8
寸法
 62
     0
 10
6.907452
 20
-48.258815
  0
TEXT
  7
TextStyle03
  8
寸法
  6
CONTINUOUS
 62
     0
 10
6.525
 20
-61.9625
  1
450
 40
3.0
 50
90.0
 72
     5
 11
6.525
 21
-57.0875
  0
ENDBLK
  0
BLOCK
  2
*GRP_0024
 70
    65
 10
0.0
 20
0.0
  0
POLYLINE
  8
寸法
  6
BYBLOCK
 62
     0
 66
     1
  0
VERTEX
  8
寸法
 10
-18.995277
 20
19.46541
  0
VERTEX
  8
寸法
 10
-12.578775
 20
13.048907
  0
VERTEX
  8
寸法
 10
-6.671648
 20
13.048907
  0
SEQEND
  0
ENDBLK
  0
BLOCK
  2
*GRP_0025
 70
    65
 10
0.0
 20
0.0
  0
LINE
  8
補助線
  6
BYBLOCK
 62
     0
 10
-55.880937
 20
-7.81856
 11
-55.630937
 21
-7.81856
  0
LINE
  8
補助線
  6
BYBLOCK
 62
     0
 10
-55.755937
 20
-7.94356
 11
-55.755937
 21
-7.69356
  0
ENDBLK
  0
BLOCK
  2
*GRP_0026
 70
    65
 10
0.0
 20
0.0
  0
LINE
  8
補助線
  6
BYBLOCK
 62
     0
 10
-70.880937
 20
-7.81856
 11
-70.630937
 21
-7.81856
  0
LINE
  8
補助線
  6
BYBLOCK
 62
     0
 10
-70.755937
 20
-7.94356
 11
-70.755937
 21
-7.69356
  0
ENDBLK
  0
BLOCK
  2
*GRP_0027
 70
    65
 10
0.0
 20
0.0
  0
LINE
  8
補助線
  6
BYBLOCK
 62
     0
 10
-85.880937
 20
-7.81856
 11
-85.630937
 21
-7.81856
  0
LINE
  8
補助線
  6
BYBLOCK
 62
     0
 10
-85.755937
 20
-7.94356
 11
-85.755937
 21
-7.69356
  0
ENDBLK
  0
BLOCK
  2
*GRP_0028
 70
    65
 10
0.0
 20
0.0
  0
LINE
  8
補助線
  6
BYBLOCK
 62
     0
 10
-96.755937
 20
33.05644
 11
-96.755937
 21
33.30644
  0
LINE
  8
補助線
  6
BYBLOCK
 62
     0
 10
-96.880937
 20
33.18144
 11
-96.630937
 21
33.18144
  0
ENDBLK
  0
BLOCK
  2
*GRP_0029
 70
    65
 10
0.0
 20
0.0
  0
LINE
  8
補助線
  6
BYBLOCK
 62
     0
 10
-96.755937
 20
18.05644
 11
-96.755937
 21
18.30644
  0
LINE
  8
補助線
  6
BYBLOCK
 62
     0
 10
-96.880937
 20
18.18144
 11
-96.630937
 21
18.18144
  0
ENDBLK
  0
BLOCK
  2
*GRP_0030
 70
    65
 10
0.0
 20
0.0
  0
LINE
  8
補助線
  6
BYBLOCK
 62
     0
 10
-96.755937
 20
3.05644
 11
-96.755937
 21
3.30644
  0
LINE
  8
補助線
  6
BYBLOCK
 62
     0
 10
-96.880937
 20
3.18144
 11
-96.630937
 21
3.18144
  0
ENDBLK
  0
BLOCK
  2
*GRP_0031
 70
    65
 10
0.0
 20
0.0
  0
LINE
  8
補助線
  6
BYBLOCK
 62
     0
 10
-70.880937
 20
74.18144
 11
-70.630937
 21
74.18144
  0
LINE
  8
補助線
  6
BYBLOCK
 62
     0
 10
-70.755937
 20
74.30644
 11
-70.755937
 21
74.05644
  0
ENDBLK
  0
BLOCK
  2
*GRP_0032
 70
    65
 10
0.0
 20
0.0
  0
LINE
  8
補助線
  6
BYBLOCK
 62
     0
 10
-85.880937
 20
74.18144
 11
-85.630937
 21
74.18144
  0
LINE
  8
補助線
  6
BYBLOCK
 62
     0
 10
-85.755937
 20
74.30644
 11
-85.755937
 21
74.05644
  0
ENDBLK
  0
BLOCK
  2
*GRP_0033
 70
    65
 10
0.0
 20
0.0
  0
LINE
  8
補助線
  6
BYBLOCK
 62
     0
 10
-96.755937
 20
48.30644
 11
-96.755937
 21
48.05644
  0
LINE
  8
補助線
  6
BYBLOCK
 62
     0
 10
-96.880937
 20
48.18144
 11
-96.630937
 21
48.18144
  0
ENDBLK
  0
BLOCK
  2
*GRP_0034
 70
    65
 10
0.0
 20
0.0
  0
LINE
  8
補助線
  6
BYBLOCK
 62
     0
 10
-96.755937
 20
63.30644
 11
-96.755937
 21
63.05644
  0
LINE
  8
補助線
  6
BYBLOCK
 62
     0
 10
-96.880937
 20
63.18144
 11
-96.630937
 21
63.18144
  0
ENDBLK
  0
BLOCK
  2
*GRP_0035
 70
    65
 10
0.0
 20
0.0
  0
LINE
  8
補助線
  6
BYBLOCK
 62
     0
 10
-40.630937
 20
-7.81856
 11
-40.880937
 21
-7.81856
  0
LINE
  8
補助線
  6
BYBLOCK
 62
     0
 10
-40.755937
 20
-7.94356
 11
-40.755937
 21
-7.69356
  0
ENDBLK
  0
BLOCK
  2
*GRP_0036
 70
    65
 10
0.0
 20
0.0
  0
LINE
  8
補助線
  6
BYBLOCK
 62
     0
 10
-25.630937
 20
-7.81856
 11
-25.880937
 21
-7.81856
  0
LINE
  8
補助線
  6
BYBLOCK
 62
     0
 10
-25.755937
 20
-7.94356
 11
-25.755937
 21
-7.69356
  0
ENDBLK
  0
BLOCK
  2
*GRP_0037
 70
    65
 10
0.0
 20
0.0
  0
LINE
  8
補助線
  6
BYBLOCK
 62
     0
 10
-14.755937
 20
18.05644
 11
-14.755937
 21
18.30644
  0
LINE
  8
補助線
  6
BYBLOCK
 62
     0
 10
-14.630937
 20
18.18144
 11
-14.880937
 21
18.18144
  0
ENDBLK
  0
BLOCK
  2
*GRP_0038
 70
    65
 10
0.0
 20
0.0
  0
LINE
  8
補助線
  6
BYBLOCK
 62
     0
 10
-14.755937
 20
3.05644
 11
-14.755937
 21
3.30644
  0
LINE
  8
補助線
  6
BYBLOCK
 62
     0
 10
-14.630937
 20
3.18144
 11
-14.880937
 21
3.18144
  0
ENDBLK
  0
BLOCK
  2
*GRP_0039
 70
    65
 10
0.0
 20
0.0
  0
LINE
  8
補助線
  6
BYBLOCK
 62
     0
 10
-40.630937
 20
74.18144
 11
-40.880937
 21
74.18144
  0
LINE
  8
補助線
  6
BYBLOCK
 62
     0
 10
-40.755937
 20
74.30644
 11
-40.755937
 21
74.05644
  0
ENDBLK
  0
BLOCK
  2
*GRP_0040
 70
    65
 10
0.0
 20
0.0
  0
LINE
  8
補助線
  6
BYBLOCK
 62
     0
 10
-25.630937
 20
74.18144
 11
-25.880937
 21
74.18144
  0
LINE
  8
補助線
  6
BYBLOCK
 62
     0
 10
-25.755937
 20
74.30644
 11
-25.755937
 21
74.05644
  0
ENDBLK
  0
BLOCK
  2
*GRP_0041
 70
    65
 10
0.0
 20
0.0
  0
LINE
  8
補助線
  6
BYBLOCK
 62
     0
 10
-14.755937
 20
48.30644
 11
-14.755937
 21
48.05644
  0
LINE
  8
補助線
  6
BYBLOCK
 62
     0
 10
-14.630937
 20
48.18144
 11
-14.880937
 21
48.18144
  0
ENDBLK
  0
BLOCK
  2
*GRP_0042
 70
    65
 10
0.0
 20
0.0
  0
LINE
  8
補助線
  6
BYBLOCK
 62
     0
 10
-14.755937
 20
63.30644
 11
-14.755937
 21
63.05644
  0
LINE
  8
補助線
  6
BYBLOCK
 62
     0
 10
-14.630937
 20
63.18144
 11
-14.880937
 21
63.18144
  0
ENDBLK
  0
BLOCK
  2
*GRP_0043
 70
    65
 10
0.0
 20
0.0
  0
LINE
  8
補助線
  6
BYBLOCK
 62
     0
 10
-14.755937
 20
33.05644
 11
-14.755937
 21
33.30644
  0
LINE
  8
補助線
  6
BYBLOCK
 62
     0
 10
-14.630937
 20
33.18144
 11
-14.880937
 21
33.18144
  0
ENDBLK
  0
BLOCK
  2
*GRP_0044
 70
    65
 10
0.0
 20
0.0
  0
LINE
  8
補助線
  6
BYBLOCK
 62
     0
 10
-55.880937
 20
74.18144
 11
-55.630937
 21
74.18144
  0
LINE
  8
補助線
  6
BYBLOCK
 62
     0
 10
-55.755937
 20
74.30644
 11
-55.755937
 21
74.05644
  0
ENDBLK
  0
BLOCK
  2
*DIM_0045
 70
    65
 10
0.0
 20
0.0
  0
LINE
  8
寸法
  6
BYBLOCK
 62
     0
 10
-12.255937
 20
-70.758815
 11
6.907452
 21
-70.758815
  0
LINE
  8
寸法
  6
BYBLOCK
 62
     0
 10
-11.805937
 20
-80.933742
 11
6.907452
 21
-80.933742
  0
LINE
  8
寸法
  6
BYBLOCK
 62
     0
 10
6.907452
 20
-70.758815
 11
6.907452
 21
-80.933742
  0
POINT
  8
寸法
 62
     0
 10
6.907452
 20
-70.758815
  0
POINT
  8
寸法
 62
     0
 10
6.907452
 20
-80.933742
  0
TEXT
  7
TextStyle03
  8
寸法
  6
CONTINUOUS
 62
     0
 10
6.525
 20
-79.975
  1
203.5
 40
3.0
 50
90.0
 72
     5
 11
6.525
 21
-71.725
  0
ENDBLK
  0
BLOCK
  2
*DIM_0046
 70
    65
 10
0.0
 20
0.0
  0
LINE
  8
寸法
  6
BYBLOCK
 62
     0
 10
-12.335938
 20
-75.49278
 11
-12.335938
 21
-34.605008
  0
LINE
  8
寸法
  6
BYBLOCK
 62
     0
 10
-15.755937
 20
-34.605008
 11
-12.335938
 21
-34.605008
  0
POINT
  8
寸法
 62
     0
 10
-15.755937
 20
-34.605008
  0
POINT
  8
寸法
 62
     0
 10
-12.335938
 20
-34.605008
  0
TEXT
  7
TextStyle03
  8
寸法
  6
CONTINUOUS
 62
     0
 10
-10.58125
 20
-34.25
  1
68.4
 40
3.0
 72
     5
 11
-4.01875
 21
-34.25
  0
ENDBLK
  0
BLOCK
  2
*DIM_0047
 70
    65
 10
0.0
 20
0.0
  0
LINE
  8
寸法
  6
BYBLOCK
 62
     0
 10
-99.175937
 20
-75.49278
 11
-99.175937
 21
-34.605008
  0
LINE
  8
寸法
  6
BYBLOCK
 62
     0
 10
-95.755937
 20
-34.605008
 11
-99.175937
 21
-34.605008
  0
POINT
  8
寸法
 62
     0
 10
-95.755937
 20
-34.605008
  0
POINT
  8
寸法
 62
     0
 10
-99.175937
 20
-34.605008
  0
TEXT
  7
TextStyle03
  8
寸法
  6
CONTINUOUS
 62
     0
 10
-107.50625
 20
-34.25
  1
68.4
 40
3.0
 72
     5
 11
-100.94375
 21
-34.25
  0
ENDBLK
  0
BLOCK
  2
*DIM_0048
 70
    65
 10
0.0
 20
0.0
  0
LINE
  8
寸法
  6
BYBLOCK
 62
     0
 10
35.89925
 20
73.68144
 11
35.89925
 21
94.10932
  0
LINE
  8
寸法
  6
BYBLOCK
 62
     0
 10
114.89925
 20
73.68144
 11
114.89925
 21
94.10932
  0
LINE
  8
寸法
  6
BYBLOCK
 62
     0
 10
35.89925
 20
94.10932
 11
114.89925
 21
94.10932
  0
POINT
  8
寸法
 62
     0
 10
35.89925
 20
94.10932
  0
POINT
  8
寸法
 62
     0
 10
114.89925
 20
94.10932
  0
TEXT
  7
TextStyle03
  8
寸法
  6
CONTINUOUS
 62
     0
 10
72.09375
 20
94.475
  1
1580
 40
3.0
 72
     5
 11
78.65625
 21
94.475
  0
ENDBLK
  0
BLOCK
  2
*DIM_0049
 70
    65
 10
0.0
 20
0.0
  0
LINE
  8
寸法
  6
BYBLOCK
 62
     0
 10
-14.755935
 20
73.18144
 11
1.333565
 21
73.18144
  0
LINE
  8
寸法
  6
BYBLOCK
 62
     0
 10
-6.732057
 20
67.33144
 11
1.333565
 21
67.33144
  0
LINE
  8
寸法
  6
BYBLOCK
 62
     0
 10
1.333565
 20
73.18144
 11
1.333565
 21
67.33144
  0
POINT
  8
寸法
 62
     0
 10
1.333565
 20
73.18144
  0
POINT
  8
寸法
 62
     0
 10
1.333565
 20
67.33144
  0
TEXT
  7
TextStyle03
  8
寸法
  6
CONTINUOUS
 62
     0
 10
0.95
 20
67.7875
  1
117
 40
3.0
 50
90.0
 72
     5
 11
0.95
 21
72.6625
  0
ENDBLK
  0
BLOCK
  2
*DIM_0050
 70
    65
 10
0.0
 20
0.0
  0
LINE
  8
寸法
  6
BYBLOCK
 62
     0
 10
-14.755935
 20
-6.81856
 11
1.333565
 21
-6.81856
  0
LINE
  8
寸法
  6
BYBLOCK
 62
     0
 10
-6.732057
 20
-0.96856
 11
1.333565
 21
-0.96856
  0
LINE
  8
寸法
  6
BYBLOCK
 62
     0
 10
1.333565
 20
-6.81856
 11
1.333565
 21
-0.96856
  0
POINT
  8
寸法
 62
     0
 10
1.333565
 20
-6.81856
  0
POINT
  8
寸法
 62
     0
 10
1.333565
 20
-0.96856
  0
TEXT
  7
TextStyle03
  8
寸法
  6
CONTINUOUS
 62
     0
 10
0.95
 20
-6.3375
  1
117
 40
3.0
 50
90.0
 72
     5
 11
0.95
 21
-1.4625
  0
ENDBLK
  0
BLOCK
  2
*GRP_0051
 70
    65
 10
0.0
 20
0.0
  0
LINE
  8
補助線
  6
BYBLOCK
 62
    64
 10
143.608187
 20
-78.41884
 11
143.781877
 21
-78.598645
  0
LINE
  8
補助線
  6
BYBLOCK
 62
    64
 10
143.784935
 20
-78.421897
 11
143.60513
 21
-78.595587
  0
LINE
  8
補助線
  6
BYBLOCK
 62
    64
 10
132.213693
 20
-66.623695
 11
132.039995
 21
-66.443887
  0
LINE
  8
補助線
  6
BYBLOCK
 62
    64
 10
132.216742
 20
-66.446943
 11
132.03694
 21
-66.62064
  0
LINE
  8
補助線
  6
BYBLOCK
 62
    64
 10
120.64544
 20
-54.648798
 11
120.471743
 21
-54.468998
  0
LINE
  8
補助線
  6
BYBLOCK
 62
    64
 10
120.648493
 20
-54.47205
 11
120.46869
 21
-54.645748
  0
LINE
  8
型材断面
  6
CONTINUOUS
 10
144.941447
 20
-77.999867
 11
144.923122
 21
-79.060368
  0
LINE
  8
型材断面
  6
CONTINUOUS
 10
144.923122
 20
-79.060368
 11
144.203908
 21
-79.755158
  0
LINE
  8
型材断面
  6
CONTINUOUS
 10
144.203908
 20
-79.755158
 11
143.143407
 21
-79.736833
  0
LINE
  8
型材断面
  6
CONTINUOUS
 10
121.110212
 20
-53.330803
 11
120.049712
 21
-53.312488
  0
LINE
  8
型材断面
  6
CONTINUOUS
 10
120.049712
 20
-53.312488
 11
119.330495
 21
-54.007277
  0
LINE
  8
型材断面
  6
CONTINUOUS
 10
119.330495
 20
-54.007277
 11
119.31218
 21
-55.067778
  0
LINE
  8
型材断面
  6
CONTINUOUS
 10
144.941447
 20
-77.999867
 11
121.110333
 21
-53.330805
  0
LINE
  8
型材断面
  6
CONTINUOUS
 10
143.143407
 20
-79.736833
 11
119.312183
 21
-55.067667
  0
LINE
  8
ボルト／ビス
  6
CONTINUOUS
 62
    64
 10
144.027223
 20
-78.187832
 11
144.139042
 21
-78.635975
  0
LINE
  8
ボルト／ビス
  6
CONTINUOUS
 62
    64
 10
144.027223
 20
-78.187832
 11
143.583215
 21
-78.060605
  0
LINE
  8
ボルト／ビス
  6
CONTINUOUS
 62
    64
 10
143.362843
 20
-78.829652
 11
143.80685
 21
-78.95688
  0
LINE
  8
ボルト／ビス
  6
CONTINUOUS
 62
    64
 10
143.362843
 20
-78.829652
 11
143.251023
 21
-78.38151
  0
CIRCLE
  8
ボルト／ビス
  6
CONTINUOUS
 62
    64
 10
143.695032
 20
-78.508742
 40
0.4
  0
LINE
  8
ボルト／ビス
  6
CONTINUOUS
 62
    64
 10
143.583215
 20
-78.060605
 11
143.251023
 21
-78.38151
  0
LINE
  8
ボルト／ビス
  6
CONTINUOUS
 62
    64
 10
144.139042
 20
-78.635975
 11
143.80685
 21
-78.95688
  0
LINE
  8
ボルト／ビス
  6
CONTINUOUS
 62
    64
 10
132.459035
 20
-66.212885
 11
132.015022
 21
-66.08565
  0
LINE
  8
ボルト／ビス
  6
CONTINUOUS
 62
    64
 10
132.459035
 20
-66.212885
 11
132.570855
 21
-66.661023
  0
LINE
  8
ボルト／ビス
  6
CONTINUOUS
 62
    64
 10
131.79465
 20
-66.854698
 11
131.682833
 21
-66.406557
  0
LINE
  8
ボルト／ビス
  6
CONTINUOUS
 62
    64
 10
131.79465
 20
-66.854698
 11
132.23866
 21
-66.98193
  0
CIRCLE
  8
ボルト／ビス
  6
CONTINUOUS
 62
    64
 10
132.12684
 20
-66.53379
 40
0.4
  0
LINE
  8
ボルト／ビス
  6
CONTINUOUS
 62
    64
 10
132.570855
 20
-66.661023
 11
132.23866
 21
-66.98193
  0
LINE
  8
ボルト／ビス
  6
CONTINUOUS
 62
    64
 10
132.015022
 20
-66.08565
 11
131.682833
 21
-66.406557
  0
LINE
  8
ボルト／ビス
  6
CONTINUOUS
 62
    64
 10
120.890783
 20
-54.237987
 11
120.44677
 21
-54.110757
  0
LINE
  8
ボルト／ビス
  6
CONTINUOUS
 62
    64
 10
120.890783
 20
-54.237987
 11
121.0026
 21
-54.686128
  0
LINE
  8
ボルト／ビス
  6
CONTINUOUS
 62
    64
 10
120.2264
 20
-54.879807
 11
120.114582
 21
-54.431665
  0
LINE
  8
ボルト／ビス
  6
CONTINUOUS
 62
    64
 10
120.2264
 20
-54.879807
 11
120.670415
 21
-55.007038
  0
CIRCLE
  8
ボルト／ビス
  6
CONTINUOUS
 62
    64
 10
120.558592
 20
-54.558897
 40
0.4
  0
LINE
  8
ボルト／ビス
  6
CONTINUOUS
 62
    64
 10
121.0026
 20
-54.686128
 11
120.670415
 21
-55.007038
  0
LINE
  8
ボルト／ビス
  6
CONTINUOUS
 62
    64
 10
120.44677
 20
-54.110757
 11
120.114582
 21
-54.431665
  0
ENDBLK
  0
BLOCK
  2
*GRP_0052
 70
    65
 10
0.0
 20
0.0
  0
LINE
  8
補助線
  6
BYBLOCK
 62
    64
 10
120.645498
 20
-78.41884
 11
120.471808
 21
-78.598645
  0
LINE
  8
補助線
  6
BYBLOCK
 62
    64
 10
120.46875
 20
-78.421897
 11
120.648555
 21
-78.595587
  0
LINE
  8
補助線
  6
BYBLOCK
 62
    64
 10
132.039992
 20
-66.623695
 11
132.21369
 21
-66.443887
  0
LINE
  8
補助線
  6
BYBLOCK
 62
    64
 10
132.036943
 20
-66.446943
 11
132.216745
 21
-66.62064
  0
LINE
  8
補助線
  6
BYBLOCK
 62
    64
 10
143.608245
 20
-54.648798
 11
143.781942
 21
-54.468998
  0
LINE
  8
補助線
  6
BYBLOCK
 62
    64
 10
143.605192
 20
-54.47205
 11
143.784995
 21
-54.645748
  0
LINE
  8
型材断面
  6
CONTINUOUS
 10
119.312238
 20
-77.999867
 11
119.330563
 21
-79.060368
  0
LINE
  8
型材断面
  6
CONTINUOUS
 10
119.330563
 20
-79.060368
 11
120.049777
 21
-79.755158
  0
LINE
  8
型材断面
  6
CONTINUOUS
 10
120.049777
 20
-79.755158
 11
121.110277
 21
-79.736833
  0
LINE
  8
型材断面
  6
CONTINUOUS
 10
143.143472
 20
-53.330803
 11
144.203973
 21
-53.312488
  0
LINE
  8
型材断面
  6
CONTINUOUS
 10
144.203973
 20
-53.312488
 11
144.92319
 21
-54.007277
  0
LINE
  8
型材断面
  6
CONTINUOUS
 10
144.92319
 20
-54.007277
 11
144.941505
 21
-55.067778
  0
LINE
  8
型材断面
  6
CONTINUOUS
 10
119.312238
 20
-77.999867
 11
143.143353
 21
-53.330805
  0
LINE
  8
型材断面
  6
CONTINUOUS
 10
121.110277
 20
-79.736833
 11
144.941503
 21
-55.067667
  0
LINE
  8
ボルト／ビス
  6
CONTINUOUS
 62
    64
 10
120.226462
 20
-78.187832
 11
120.114643
 21
-78.635975
  0
LINE
  8
ボルト／ビス
  6
CONTINUOUS
 62
    64
 10
120.226462
 20
-78.187832
 11
120.67047
 21
-78.060605
  0
LINE
  8
ボルト／ビス
  6
CONTINUOUS
 62
    64
 10
120.890842
 20
-78.829652
 11
120.446835
 21
-78.95688
  0
LINE
  8
ボルト／ビス
  6
CONTINUOUS
 62
    64
 10
120.890842
 20
-78.829652
 11
121.002663
 21
-78.38151
  0
CIRCLE
  8
ボルト／ビス
  6
CONTINUOUS
 62
    64
 10
120.558653
 20
-78.508742
 40
0.4
  0
LINE
  8
ボルト／ビス
  6
CONTINUOUS
 62
    64
 10
120.67047
 20
-78.060605
 11
121.002663
 21
-78.38151
  0
LINE
  8
ボルト／ビス
  6
CONTINUOUS
 62
    64
 10
120.114643
 20
-78.635975
 11
120.446835
 21
-78.95688
  0
LINE
  8
ボルト／ビス
  6
CONTINUOUS
 62
    64
 10
131.79465
 20
-66.212885
 11
132.238662
 21
-66.08565
  0
LINE
  8
ボルト／ビス
  6
CONTINUOUS
 62
    64
 10
131.79465
 20
-66.212885
 11
131.68283
 21
-66.661023
  0
LINE
  8
ボルト／ビス
  6
CONTINUOUS
 62
    64
 10
132.459035
 20
-66.854698
 11
132.570853
 21
-66.406557
  0
LINE
  8
ボルト／ビス
  6
CONTINUOUS
 62
    64
 10
132.459035
 20
-66.854698
 11
132.015025
 21
-66.98193
  0
CIRCLE
  8
ボルト／ビス
  6
CONTINUOUS
 62
    64
 10
132.126845
 20
-66.53379
 40
0.4
  0
LINE
  8
ボルト／ビス
  6
CONTINUOUS
 62
    64
 10
131.68283
 20
-66.661023
 11
132.015025
 21
-66.98193
  0
LINE
  8
ボルト／ビス
  6
CONTINUOUS
 62
    64
 10
132.238662
 20
-66.08565
 11
132.570853
 21
-66.406557
  0
LINE
  8
ボルト／ビス
  6
CONTINUOUS
 62
    64
 10
143.362903
 20
-54.237987
 11
143.806915
 21
-54.110757
  0
LINE
  8
ボルト／ビス
  6
CONTINUOUS
 62
    64
 10
143.362903
 20
-54.237987
 11
143.251085
 21
-54.686128
  0
LINE
  8
ボルト／ビス
  6
CONTINUOUS
 62
    64
 10
144.027285
 20
-54.879807
 11
144.139103
 21
-54.431665
  0
LINE
  8
ボルト／ビス
  6
CONTINUOUS
 62
    64
 10
144.027285
 20
-54.879807
 11
143.58327
 21
-55.007038
  0
CIRCLE
  8
ボルト／ビス
  6
CONTINUOUS
 62
    64
 10
143.695092
 20
-54.558897
 40
0.4
  0
LINE
  8
ボルト／ビス
  6
CONTINUOUS
 62
    64
 10
143.251085
 20
-54.686128
 11
143.58327
 21
-55.007038
  0
LINE
  8
ボルト／ビス
  6
CONTINUOUS
 62
    64
 10
143.806915
 20
-54.110757
 11
144.139103
 21
-54.431665
  0
ENDBLK
  0
BLOCK
  2
*GRP_0053
 70
    65
 10
0.0
 20
0.0
  0
LINE
  8
補助線
  6
BYBLOCK
 62
    64
 10
67.781877
 20
-78.41884
 11
67.608187
 21
-78.598645
  0
LINE
  8
補助線
  6
BYBLOCK
 62
    64
 10
67.60513
 20
-78.421897
 11
67.784935
 21
-78.595587
  0
LINE
  8
補助線
  6
BYBLOCK
 62
    64
 10
79.176373
 20
-66.623695
 11
79.35007
 21
-66.443887
  0
LINE
  8
補助線
  6
BYBLOCK
 62
    64
 10
79.173322
 20
-66.446943
 11
79.353125
 21
-66.62064
  0
LINE
  8
補助線
  6
BYBLOCK
 62
    64
 10
90.744625
 20
-54.648798
 11
90.918323
 21
-54.468998
  0
LINE
  8
補助線
  6
BYBLOCK
 62
    64
 10
90.741573
 20
-54.47205
 11
90.921375
 21
-54.645748
  0
LINE
  8
型材断面
  6
CONTINUOUS
 10
66.448617
 20
-77.999867
 11
66.466943
 21
-79.060368
  0
LINE
  8
型材断面
  6
CONTINUOUS
 10
66.466943
 20
-79.060368
 11
67.186158
 21
-79.755158
  0
LINE
  8
型材断面
  6
CONTINUOUS
 10
67.186158
 20
-79.755158
 11
68.246658
 21
-79.736833
  0
LINE
  8
型材断面
  6
CONTINUOUS
 10
90.279853
 20
-53.330803
 11
91.340352
 21
-53.312488
  0
LINE
  8
型材断面
  6
CONTINUOUS
 10
91.340352
 20
-53.312488
 11
92.05957
 21
-54.007277
  0
LINE
  8
型材断面
  6
CONTINUOUS
 10
92.05957
 20
-54.007277
 11
92.077885
 21
-55.067778
  0
LINE
  8
型材断面
  6
CONTINUOUS
 10
66.448617
 20
-77.999867
 11
90.279732
 21
-53.330805
  0
LINE
  8
型材断面
  6
CONTINUOUS
 10
68.246658
 20
-79.736833
 11
92.077882
 21
-55.067667
  0
LINE
  8
ボルト／ビス
  6
CONTINUOUS
 62
    64
 10
67.362843
 20
-78.187832
 11
67.251023
 21
-78.635975
  0
LINE
  8
ボルト／ビス
  6
CONTINUOUS
 62
    64
 10
67.362843
 20
-78.187832
 11
67.80685
 21
-78.060605
  0
LINE
  8
ボルト／ビス
  6
CONTINUOUS
 62
    64
 10
68.027223
 20
-78.829652
 11
67.583215
 21
-78.95688
  0
LINE
  8
ボルト／ビス
  6
CONTINUOUS
 62
    64
 10
68.027223
 20
-78.829652
 11
68.139042
 21
-78.38151
  0
CIRCLE
  8
ボルト／ビス
  6
CONTINUOUS
 62
    64
 10
67.695032
 20
-78.508742
 40
0.4
  0
LINE
  8
ボルト／ビス
  6
CONTINUOUS
 62
    64
 10
67.80685
 20
-78.060605
 11
68.139042
 21
-78.38151
  0
LINE
  8
ボルト／ビス
  6
CONTINUOUS
 62
    64
 10
67.251023
 20
-78.635975
 11
67.583215
 21
-78.95688
  0
LINE
  8
ボルト／ビス
  6
CONTINUOUS
 62
    64
 10
78.93103
 20
-66.212885
 11
79.375043
 21
-66.08565
  0
LINE
  8
ボルト／ビス
  6
CONTINUOUS
 62
    64
 10
78.93103
 20
-66.212885
 11
78.81921
 21
-66.661023
  0
LINE
  8
ボルト／ビス
  6
CONTINUOUS
 62
    64
 10
79.595415
 20
-66.854698
 11
79.707232
 21
-66.406557
  0
LINE
  8
ボルト／ビス
  6
CONTINUOUS
 62
    64
 10
79.595415
 20
-66.854698
 11
79.151405
 21
-66.98193
  0
CIRCLE
  8
ボルト／ビス
  6
CONTINUOUS
 62
    64
 10
79.263225
 20
-66.53379
 40
0.4
  0
LINE
  8
ボルト／ビス
  6
CONTINUOUS
 62
    64
 10
78.81921
 20
-66.661023
 11
79.151405
 21
-66.98193
  0
LINE
  8
ボルト／ビス
  6
CONTINUOUS
 62
    64
 10
79.375043
 20
-66.08565
 11
79.707232
 21
-66.406557
  0
LINE
  8
ボルト／ビス
  6
CONTINUOUS
 62
    64
 10
90.499282
 20
-54.237987
 11
90.943295
 21
-54.110757
  0
LINE
  8
ボルト／ビス
  6
CONTINUOUS
 62
    64
 10
90.499282
 20
-54.237987
 11
90.387465
 21
-54.686128
  0
LINE
  8
ボルト／ビス
  6
CONTINUOUS
 62
    64
 10
91.163665
 20
-54.879807
 11
91.275482
 21
-54.431665
  0
LINE
  8
ボルト／ビス
  6
CONTINUOUS
 62
    64
 10
91.163665
 20
-54.879807
 11
90.71965
 21
-55.007038
  0
CIRCLE
  8
ボルト／ビス
  6
CONTINUOUS
 62
    64
 10
90.831473
 20
-54.558897
 40
0.4
  0
LINE
  8
ボルト／ビス
  6
CONTINUOUS
 62
    64
 10
90.387465
 20
-54.686128
 11
90.71965
 21
-55.007038
  0
LINE
  8
ボルト／ビス
  6
CONTINUOUS
 62
    64
 10
90.943295
 20
-54.110757
 11
91.275482
 21
-54.431665
  0
ENDBLK
  0
BLOCK
  2
*GRP_0054
 70
    65
 10
0.0
 20
0.0
  0
LINE
  8
補助線
  6
BYBLOCK
 62
    64
 10
90.744568
 20
-78.41884
 11
90.918258
 21
-78.598645
  0
LINE
  8
補助線
  6
BYBLOCK
 62
    64
 10
90.921315
 20
-78.421897
 11
90.74151
 21
-78.595587
  0
LINE
  8
補助線
  6
BYBLOCK
 62
    64
 10
79.350072
 20
-66.623695
 11
79.176375
 21
-66.443887
  0
LINE
  8
補助線
  6
BYBLOCK
 62
    64
 10
79.353123
 20
-66.446943
 11
79.17332
 21
-66.62064
  0
LINE
  8
補助線
  6
BYBLOCK
 62
    64
 10
67.78182
 20
-54.648798
 11
67.608122
 21
-54.468998
  0
LINE
  8
補助線
  6
BYBLOCK
 62
    64
 10
67.784872
 20
-54.47205
 11
67.60507
 21
-54.645748
  0
LINE
  8
型材断面
  6
CONTINUOUS
 10
92.077828
 20
-77.999867
 11
92.059503
 21
-79.060368
  0
LINE
  8
型材断面
  6
CONTINUOUS
 10
92.059503
 20
-79.060368
 11
91.340287
 21
-79.755158
  0
LINE
  8
型材断面
  6
CONTINUOUS
 10
91.340287
 20
-79.755158
 11
90.279788
 21
-79.736833
  0
LINE
  8
型材断面
  6
CONTINUOUS
 10
68.246593
 20
-53.330803
 11
67.186093
 21
-53.312488
  0
LINE
  8
型材断面
  6
CONTINUOUS
 10
67.186093
 20
-53.312488
 11
66.466875
 21
-54.007277
  0
LINE
  8
型材断面
  6
CONTINUOUS
 10
66.466875
 20
-54.007277
 11
66.44856
 21
-55.067778
  0
LINE
  8
型材断面
  6
CONTINUOUS
 10
92.077828
 20
-77.999867
 11
68.246712
 21
-53.330805
  0
LINE
  8
型材断面
  6
CONTINUOUS
 10
90.279788
 20
-79.736833
 11
66.448562
 21
-55.067667
  0
LINE
  8
ボルト／ビス
  6
CONTINUOUS
 62
    64
 10
91.163602
 20
-78.187832
 11
91.275423
 21
-78.635975
  0
LINE
  8
ボルト／ビス
  6
CONTINUOUS
 62
    64
 10
91.163602
 20
-78.187832
 11
90.719595
 21
-78.060605
  0
LINE
  8
ボルト／ビス
  6
CONTINUOUS
 62
    64
 10
90.499223
 20
-78.829652
 11
90.94323
 21
-78.95688
  0
LINE
  8
ボルト／ビス
  6
CONTINUOUS
 62
    64
 10
90.499223
 20
-78.829652
 11
90.387402
 21
-78.38151
  0
CIRCLE
  8
ボルト／ビス
  6
CONTINUOUS
 62
    64
 10
90.831413
 20
-78.508742
 40
0.4
  0
LINE
  8
ボルト／ビス
  6
CONTINUOUS
 62
    64
 10
90.719595
 20
-78.060605
 11
90.387402
 21
-78.38151
  0
LINE
  8
ボルト／ビス
  6
CONTINUOUS
 62
    64
 10
91.275423
 20
-78.635975
 11
90.94323
 21
-78.95688
  0
LINE
  8
ボルト／ビス
  6
CONTINUOUS
 62
    64
 10
79.595415
 20
-66.212885
 11
79.151403
 21
-66.08565
  0
LINE
  8
ボルト／ビス
  6
CONTINUOUS
 62
    64
 10
79.595415
 20
-66.212885
 11
79.707235
 21
-66.661023
  0
LINE
  8
ボルト／ビス
  6
CONTINUOUS
 62
    64
 10
78.93103
 20
-66.854698
 11
78.819212
 21
-66.406557
  0
LINE
  8
ボルト／ビス
  6
CONTINUOUS
 62
    64
 10
78.93103
 20
-66.854698
 11
79.37504
 21
-66.98193
  0
CIRCLE
  8
ボルト／ビス
  6
CONTINUOUS
 62
    64
 10
79.26322
 20
-66.53379
 40
0.4
  0
LINE
  8
ボルト／ビス
  6
CONTINUOUS
 62
    64
 10
79.707235
 20
-66.661023
 11
79.37504
 21
-66.98193
  0
LINE
  8
ボルト／ビス
  6
CONTINUOUS
 62
    64
 10
79.151403
 20
-66.08565
 11
78.819212
 21
-66.406557
  0
LINE
  8
ボルト／ビス
  6
CONTINUOUS
 62
    64
 10
68.027162
 20
-54.237987
 11
67.58315
 21
-54.110757
  0
LINE
  8
ボルト／ビス
  6
CONTINUOUS
 62
    64
 10
68.027162
 20
-54.237987
 11
68.13898
 21
-54.686128
  0
LINE
  8
ボルト／ビス
  6
CONTINUOUS
 62
    64
 10
67.36278
 20
-54.879807
 11
67.250963
 21
-54.431665
  0
LINE
  8
ボルト／ビス
  6
CONTINUOUS
 62
    64
 10
67.36278
 20
-54.879807
 11
67.806795
 21
-55.007038
  0
CIRCLE
  8
ボルト／ビス
  6
CONTINUOUS
 62
    64
 10
67.694973
 20
-54.558897
 40
0.4
  0
LINE
  8
ボルト／ビス
  6
CONTINUOUS
 62
    64
 10
68.13898
 20
-54.686128
 11
67.806795
 21
-55.007038
  0
LINE
  8
ボルト／ビス
  6
CONTINUOUS
 62
    64
 10
67.58315
 20
-54.110757
 11
67.250963
 21
-54.431665
  0
ENDBLK
  0
BLOCK
  2
*GRP_0055
 70
    65
 10
0.0
 20
0.0
  0
POLYLINE
  8
寸法
  6
BYBLOCK
 62
     0
 66
     1
  0
VERTEX
  8
寸法
 10
-92.516597
 20
55.80747
  0
VERTEX
  8
寸法
 10
-98.9331
 20
62.223972
  0
VERTEX
  8
寸法
 10
-104.840228
 20
62.223972
  0
SEQEND
  0
ENDBLK
  0
BLOCK
  2
*DIM_0056
 70
    65
 10
0.0
 20
0.0
  0
LINE
  8
寸法
  6
BYBLOCK
 62
     0
 10
-120.350937
 20
50.68144
 11
-131.174237
 21
50.68144
  0
LINE
  8
寸法
  6
BYBLOCK
 62
     0
 10
-120.350937
 20
15.68144
 11
-131.174237
 21
15.68144
  0
LINE
  8
寸法
  6
BYBLOCK
 62
     0
 10
-131.174237
 20
50.68144
 11
-131.174237
 21
15.68144
  0
POINT
  8
寸法
 62
     0
 10
-131.174237
 20
50.68144
  0
POINT
  8
寸法
 62
     0
 10
-131.174237
 20
15.68144
  0
TEXT
  7
TextStyle03
  8
寸法
  6
CONTINUOUS
 62
     0
 10
-131.5
 20
30.7375
  1
700
 40
3.0
 50
90.0
 72
     5
 11
-131.5
 21
35.6125
  0
ENDBLK
  0
BLOCK
  2
*DIM_0057
 70
    65
 10
0.0
 20
0.0
  0
LINE
  8
寸法
  6
BYBLOCK
 62
     0
 10
-85.755937
 20
102.283265
 11
-85.755937
 21
110.058775
  0
LINE
  8
寸法
  6
BYBLOCK
 62
     0
 10
-55.755937
 20
102.283265
 11
-55.755937
 21
110.058775
  0
LINE
  8
寸法
  6
BYBLOCK
 62
     0
 10
-85.755937
 20
110.058775
 11
-55.755937
 21
110.058775
  0
POINT
  8
寸法
 62
     0
 10
-85.755937
 20
110.058775
  0
POINT
  8
寸法
 62
     0
 10
-55.755937
 20
110.058775
  0
TEXT
  7
TextStyle03
  8
寸法
  6
CONTINUOUS
 62
     0
 10
-73.2125
 20
110.425
  1
600
 40
3.0
 72
     5
 11
-68.3375
 21
110.425
  0
ENDBLK
  0
BLOCK
  2
*DIM_0058
 70
    65
 10
0.0
 20
0.0
  0
LINE
  8
寸法
  6
BYBLOCK
 62
     0
 10
-25.755937
 20
102.283265
 11
-25.755937
 21
110.058775
  0
LINE
  8
寸法
  6
BYBLOCK
 62
     0
 10
-55.755937
 20
110.058775
 11
-25.755937
 21
110.058775
  0
POINT
  8
寸法
 62
     0
 10
-25.755937
 20
110.058775
  0
TEXT
  7
TextStyle03
  8
寸法
  6
CONTINUOUS
 62
     0
 10
-43.2125
 20
110.425
  1
600
 40
3.0
 72
     5
 11
-38.3375
 21
110.425
  0
ENDBLK
  0
BLOCK
  2
*DIM_0059
 70
    65
 10
0.0
 20
0.0
  0
LINE
  8
寸法
  6
CONTINUOUS
 10
117.42547
 20
34.18144
 11
133.305855
 21
34.18144
  0
LINE
  8
寸法
  6
CONTINUOUS
 10
117.42547
 20
72.68144
 11
133.305855
 21
72.68144
  0
LINE
  8
寸法
  6
CONTINUOUS
 10
133.305855
 20
34.18144
 11
133.305855
 21
72.68144
  0
POINT
  8
寸法
 10
133.305855
 20
34.18144
  0
POINT
  8
寸法
 10
133.305855
 20
72.68144
  0
TEXT
  7
TextStyle03
  8
寸法
  6
CONTINUOUS
 10
132.925
 20
50.9875
  1
770
 40
3.0
 50
90.0
 72
     5
 11
132.925
 21
55.8625
  0
ENDBLK
  0
BLOCK
  2
*GRP_0061
 70
    65
 10
0.0
 20
0.0
  0
LINE
  8
ボルト／ビス
  6
CONTINUOUS
 10
-96.755937
 20
-70.758817
 11
-96.755937
 21
-70.058817
  0
LINE
  8
ボルト／ビス
  6
CONTINUOUS
 10
-97.305937
 20
-70.758817
 11
-97.305937
 21
-70.658817
  0
LINE
  8
ボルト／ビス
  6
CONTINUOUS
 10
-97.305937
 20
-70.658817
 11
-96.205937
 21
-70.658817
  0
LINE
  8
ボルト／ビス
  6
CONTINUOUS
 10
-96.205937
 20
-70.658817
 11
-96.205937
 21
-70.758817
  0
LINE
  8
ボルト／ビス
  6
CONTINUOUS
 10
-97.305937
 20
-70.758817
 11
-96.205937
 21
-70.758817
  0
LINE
  8
ボルト／ビス
  6
CONTINUOUS
 10
-97.205937
 20
-70.608817
 11
-97.205937
 21
-70.658817
  0
LINE
  8
ボルト／ビス
  6
CONTINUOUS
 10
-97.205937
 20
-70.608817
 11
-96.305937
 21
-70.608817
  0
LINE
  8
ボルト／ビス
  6
CONTINUOUS
 10
-96.305937
 20
-70.608817
 11
-96.305937
 21
-70.658817
  0
LINE
  8
ボルト／ビス
  6
CONTINUOUS
 62
    64
 10
-96.9965
 20
-70.308817
 11
-97.044613
 21
-70.32633
  0
ARC
  8
ボルト／ビス
  6
CONTINUOUS
 62
    64
 10
-96.972443
 20
-70.466286
 40
0.157468
 50
62.721967
 51
90.0
  0
ARC
  8
ボルト／ビス
  6
CONTINUOUS
 62
    64
 10
-96.755937
 20
-70.912422
 40
0.603603
 50
76.165002
 51
103.834985
  0
LINE
  8
ボルト／ビス
  6
CONTINUOUS
 62
    64
 10
-96.515375
 20
-70.308817
 11
-96.467263
 21
-70.32633
  0
ARC
  8
ボルト／ビス
  6
CONTINUOUS
 62
    64
 10
-96.539431
 20
-70.466286
 40
0.157468
 50
90.0
 51
117.278033
  0
LINE
  8
ボルト／ビス
  6
CONTINUOUS
 62
    64
 10
-96.9965
 20
-70.308817
 11
-96.515375
 21
-70.308817
  0
LINE
  8
ボルト／ビス
  6
CONTINUOUS
 62
    64
 10
-96.467263
 20
-70.32633
 11
-96.467263
 21
-70.508817
  0
LINE
  8
ボルト／ビス
  6
CONTINUOUS
 62
    64
 10
-96.6116
 20
-70.32633
 11
-96.6116
 21
-70.508817
  0
LINE
  8
ボルト／ビス
  6
CONTINUOUS
 62
    64
 10
-97.044613
 20
-70.32633
 11
-97.044613
 21
-70.508817
  0
LINE
  8
ボルト／ビス
  6
CONTINUOUS
 62
    64
 10
-96.900275
 20
-70.32633
 11
-96.900275
 21
-70.508817
  0
LINE
  8
ボルト／ビス
  6
CONTINUOUS
 10
-97.044613
 20
-70.508817
 11
-96.467263
 21
-70.508817
  0
LINE
  8
ボルト／ビス
  6
CONTINUOUS
 10
-97.055937
 20
-70.508817
 11
-97.055937
 21
-70.608817
  0
LINE
  8
ボルト／ビス
  6
CONTINUOUS
 10
-97.055937
 20
-70.508817
 11
-96.455937
 21
-70.508817
  0
LINE
  8
ボルト／ビス
  6
CONTINUOUS
 10
-96.455937
 20
-70.508817
 11
-96.455937
 21
-70.608817
  0
ENDBLK
  0
BLOCK
  2
*GRP_0062
 70
    65
 10
0.0
 20
0.0
  0
LINE
  8
ボルト／ビス
  6
CONTINUOUS
 10
-14.755937
 20
-70.758817
 11
-14.755937
 21
-70.058817
  0
LINE
  8
ボルト／ビス
  6
CONTINUOUS
 10
-15.305937
 20
-70.758817
 11
-15.305937
 21
-70.658817
  0
LINE
  8
ボルト／ビス
  6
CONTINUOUS
 10
-15.305937
 20
-70.658817
 11
-14.205937
 21
-70.658817
  0
LINE
  8
ボルト／ビス
  6
CONTINUOUS
 10
-14.205937
 20
-70.658817
 11
-14.205937
 21
-70.758817
  0
LINE
  8
ボルト／ビス
  6
CONTINUOUS
 10
-15.305937
 20
-70.758817
 11
-14.205937
 21
-70.758817
  0
LINE
  8
ボルト／ビス
  6
CONTINUOUS
 10
-15.205937
 20
-70.608817
 11
-15.205937
 21
-70.658817
  0
LINE
  8
ボルト／ビス
  6
CONTINUOUS
 10
-15.205937
 20
-70.608817
 11
-14.305937
 21
-70.608817
  0
LINE
  8
ボルト／ビス
  6
CONTINUOUS
 10
-14.305937
 20
-70.608817
 11
-14.305937
 21
-70.658817
  0
LINE
  8
ボルト／ビス
  6
CONTINUOUS
 62
    64
 10
-14.9965
 20
-70.308817
 11
-15.044613
 21
-70.32633
  0
ARC
  8
ボルト／ビス
  6
CONTINUOUS
 62
    64
 10
-14.972444
 20
-70.466286
 40
0.157468
 50
62.721967
 51
90.0
  0
ARC
  8
ボルト／ビス
  6
CONTINUOUS
 62
    64
 10
-14.755938
 20
-70.912422
 40
0.603603
 50
76.165002
 51
103.834985
  0
LINE
  8
ボルト／ビス
  6
CONTINUOUS
 62
    64
 10
-14.515375
 20
-70.308817
 11
-14.467263
 21
-70.32633
  0
ARC
  8
ボルト／ビス
  6
CONTINUOUS
 62
    64
 10
-14.539431
 20
-70.466286
 40
0.157468
 50
90.0
 51
117.278033
  0
LINE
  8
ボルト／ビス
  6
CONTINUOUS
 62
    64
 10
-14.9965
 20
-70.308817
 11
-14.515375
 21
-70.308817
  0
LINE
  8
ボルト／ビス
  6
CONTINUOUS
 62
    64
 10
-14.467263
 20
-70.32633
 11
-14.467263
 21
-70.508817
  0
LINE
  8
ボルト／ビス
  6
CONTINUOUS
 62
    64
 10
-14.6116
 20
-70.32633
 11
-14.6116
 21
-70.508817
  0
LINE
  8
ボルト／ビス
  6
CONTINUOUS
 62
    64
 10
-15.044613
 20
-70.32633
 11
-15.044613
 21
-70.508817
  0
LINE
  8
ボルト／ビス
  6
CONTINUOUS
 62
    64
 10
-14.900275
 20
-70.32633
 11
-14.900275
 21
-70.508817
  0
LINE
  8
ボルト／ビス
  6
CONTINUOUS
 10
-15.044613
 20
-70.508817
 11
-14.467263
 21
-70.508817
  0
LINE
  8
ボルト／ビス
  6
CONTINUOUS
 10
-15.055937
 20
-70.508817
 11
-15.055937
 21
-70.608817
  0
LINE
  8
ボルト／ビス
  6
CONTINUOUS
 10
-15.055937
 20
-70.508817
 11
-14.455937
 21
-70.508817
  0
LINE
  8
ボルト／ビス
  6
CONTINUOUS
 10
-14.455937
 20
-70.508817
 11
-14.455937
 21
-70.608817
  0
ENDBLK
  0
BLOCK
  2
*GRP_0063
 70
    65
 10
0.0
 20
0.0
  0
LINE
  8
ボルト／ビス
  6
CONTINUOUS
 10
64.69503
 20
-70.758817
 11
64.69503
 21
-70.058817
  0
LINE
  8
ボルト／ビス
  6
CONTINUOUS
 10
64.14503
 20
-70.758817
 11
64.14503
 21
-70.658817
  0
LINE
  8
ボルト／ビス
  6
CONTINUOUS
 10
64.14503
 20
-70.658817
 11
65.24503
 21
-70.658817
  0
LINE
  8
ボルト／ビス
  6
CONTINUOUS
 10
65.24503
 20
-70.658817
 11
65.24503
 21
-70.758817
  0
LINE
  8
ボルト／ビス
  6
CONTINUOUS
 10
64.14503
 20
-70.758817
 11
65.24503
 21
-70.758817
  0
LINE
  8
ボルト／ビス
  6
CONTINUOUS
 10
64.24503
 20
-70.608817
 11
64.24503
 21
-70.658817
  0
LINE
  8
ボルト／ビス
  6
CONTINUOUS
 10
64.24503
 20
-70.608817
 11
65.14503
 21
-70.608817
  0
LINE
  8
ボルト／ビス
  6
CONTINUOUS
 10
65.14503
 20
-70.608817
 11
65.14503
 21
-70.658817
  0
LINE
  8
ボルト／ビス
  6
CONTINUOUS
 62
    64
 10
64.454467
 20
-70.308817
 11
64.406355
 21
-70.32633
  0
ARC
  8
ボルト／ビス
  6
CONTINUOUS
 62
    64
 10
64.478523
 20
-70.466287
 40
0.157468
 50
62.721967
 51
90.0
  0
ARC
  8
ボルト／ビス
  6
CONTINUOUS
 62
    64
 10
64.695029
 20
-70.912422
 40
0.603603
 50
76.165002
 51
103.834985
  0
LINE
  8
ボルト／ビス
  6
CONTINUOUS
 62
    64
 10
64.935592
 20
-70.308817
 11
64.983705
 21
-70.32633
  0
ARC
  8
ボルト／ビス
  6
CONTINUOUS
 62
    64
 10
64.911536
 20
-70.466287
 40
0.157468
 50
90.0
 51
117.278033
  0
LINE
  8
ボルト／ビス
  6
CONTINUOUS
 62
    64
 10
64.454467
 20
-70.308817
 11
64.935592
 21
-70.308817
  0
LINE
  8
ボルト／ビス
  6
CONTINUOUS
 62
    64
 10
64.983705
 20
-70.32633
 11
64.983705
 21
-70.508817
  0
LINE
  8
ボルト／ビス
  6
CONTINUOUS
 62
    64
 10
64.839367
 20
-70.32633
 11
64.839367
 21
-70.508817
  0
LINE
  8
ボルト／ビス
  6
CONTINUOUS
 62
    64
 10
64.406355
 20
-70.32633
 11
64.406355
 21
-70.508817
  0
LINE
  8
ボルト／ビス
  6
CONTINUOUS
 62
    64
 10
64.550692
 20
-70.32633
 11
64.550692
 21
-70.508817
  0
LINE
  8
ボルト／ビス
  6
CONTINUOUS
 10
64.406355
 20
-70.508817
 11
64.983705
 21
-70.508817
  0
LINE
  8
ボルト／ビス
  6
CONTINUOUS
 10
64.39503
 20
-70.508817
 11
64.39503
 21
-70.608817
  0
LINE
  8
ボルト／ビス
  6
CONTINUOUS
 10
64.39503
 20
-70.508817
 11
64.99503
 21
-70.508817
  0
LINE
  8
ボルト／ビス
  6
CONTINUOUS
 10
64.99503
 20
-70.508817
 11
64.99503
 21
-70.608817
  0
ENDBLK
  0
BLOCK
  2
*GRP_0064
 70
    65
 10
0.0
 20
0.0
  0
LINE
  8
ボルト／ビス
  6
CONTINUOUS
 10
146.69503
 20
-70.758817
 11
146.69503
 21
-70.058817
  0
LINE
  8
ボルト／ビス
  6
CONTINUOUS
 10
146.14503
 20
-70.758817
 11
146.14503
 21
-70.658817
  0
LINE
  8
ボルト／ビス
  6
CONTINUOUS
 10
146.14503
 20
-70.658817
 11
147.24503
 21
-70.658817
  0
LINE
  8
ボルト／ビス
  6
CONTINUOUS
 10
147.24503
 20
-70.658817
 11
147.24503
 21
-70.758817
  0
LINE
  8
ボルト／ビス
  6
CONTINUOUS
 10
146.14503
 20
-70.758817
 11
147.24503
 21
-70.758817
  0
LINE
  8
ボルト／ビス
  6
CONTINUOUS
 10
146.24503
 20
-70.608817
 11
146.24503
 21
-70.658817
  0
LINE
  8
ボルト／ビス
  6
CONTINUOUS
 10
146.24503
 20
-70.608817
 11
147.14503
 21
-70.608817
  0
LINE
  8
ボルト／ビス
  6
CONTINUOUS
 10
147.14503
 20
-70.608817
 11
147.14503
 21
-70.658817
  0
LINE
  8
ボルト／ビス
  6
CONTINUOUS
 62
    64
 10
146.454467
 20
-70.308817
 11
146.406355
 21
-70.32633
  0
ARC
  8
ボルト／ビス
  6
CONTINUOUS
 62
    64
 10
146.478524
 20
-70.466286
 40
0.157468
 50
62.721967
 51
90.0
  0
ARC
  8
ボルト／ビス
  6
CONTINUOUS
 62
    64
 10
146.69503
 20
-70.912421
 40
0.603603
 50
76.165002
 51
103.834985
  0
LINE
  8
ボルト／ビス
  6
CONTINUOUS
 62
    64
 10
146.935592
 20
-70.308817
 11
146.983705
 21
-70.32633
  0
ARC
  8
ボルト／ビス
  6
CONTINUOUS
 62
    64
 10
146.911536
 20
-70.466286
 40
0.157468
 50
90.0
 51
117.278033
  0
LINE
  8
ボルト／ビス
  6
CONTINUOUS
 62
    64
 10
146.454467
 20
-70.308817
 11
146.935592
 21
-70.308817
  0
LINE
  8
ボルト／ビス
  6
CONTINUOUS
 62
    64
 10
146.983705
 20
-70.32633
 11
146.983705
 21
-70.508817
  0
LINE
  8
ボルト／ビス
  6
CONTINUOUS
 62
    64
 10
146.839367
 20
-70.32633
 11
146.839367
 21
-70.508817
  0
LINE
  8
ボルト／ビス
  6
CONTINUOUS
 62
    64
 10
146.406355
 20
-70.32633
 11
146.406355
 21
-70.508817
  0
LINE
  8
ボルト／ビス
  6
CONTINUOUS
 62
    64
 10
146.550692
 20
-70.32633
 11
146.550692
 21
-70.508817
  0
LINE
  8
ボルト／ビス
  6
CONTINUOUS
 10
146.406355
 20
-70.508817
 11
146.983705
 21
-70.508817
  0
LINE
  8
ボルト／ビス
  6
CONTINUOUS
 10
146.39503
 20
-70.508817
 11
146.39503
 21
-70.608817
  0
LINE
  8
ボルト／ビス
  6
CONTINUOUS
 10
146.39503
 20
-70.508817
 11
146.99503
 21
-70.508817
  0
LINE
  8
ボルト／ビス
  6
CONTINUOUS
 10
146.99503
 20
-70.508817
 11
146.99503
 21
-70.608817
  0
ENDBLK
  0
BLOCK
  2
*GRP_0065
 70
    65
 10
0.0
 20
0.0
  0
LINE
  8
型材断面
  6
DOT
 62
    47
 10
63.60003
 20
-55.733742
 11
64.77003
 21
-55.733742
  0
LINE
  8
型材断面
  6
DOT
 10
63.45003
 20
-52.983742
 11
63.45003
 21
-52.308742
  0
LINE
  8
型材断面
  6
DOT
 62
    47
 10
62.27503
 20
-56.99278
 11
62.27503
 21
-56.49278
  0
LINE
  8
型材断面
  6
DOT
 62
    47
 10
62.27503
 20
-56.49278
 11
63.45003
 21
-56.34278
  0
LINE
  8
型材断面
  6
DOT
 62
    47
 10
63.45003
 20
-55.733742
 11
63.45003
 21
-56.34278
  0
LINE
  8
型材断面
  6
DOT
 62
    47
 10
62.74503
 20
-55.733742
 11
62.74503
 21
-52.983742
  0
LINE
  8
型材断面
  6
DOT
 62
    47
 10
62.27503
 20
-56.99278
 11
105.69503
 21
-56.99278
  0
LINE
  8
型材断面
  6
DOT
 10
63.45003
 20
-56.34278
 11
105.69503
 21
-56.34278
  0
LINE
  8
型材断面
  6
DOT
 62
    47
 10
62.74503
 20
-55.733742
 11
105.69503
 21
-55.733742
  0
LINE
  8
型材断面
  6
DOT
 10
62.27503
 20
-56.49278
 11
105.69503
 21
-56.49278
  0
LINE
  8
型材断面
  6
DOT
 10
62.74503
 20
-52.983742
 11
105.69503
 21
-52.983742
  0
LINE
  8
型材断面
  6
DOT
 10
63.45003
 20
-52.308742
 11
105.69503
 21
-52.308742
  0
LINE
  8
型材断面
  6
DOT
 62
    47
 10
147.79003
 20
-55.733742
 11
146.62003
 21
-55.733742
  0
LINE
  8
型材断面
  6
DOT
 10
147.94003
 20
-52.983742
 11
147.94003
 21
-52.308742
  0
LINE
  8
型材断面
  6
DOT
 62
    47
 10
149.11503
 20
-56.99278
 11
149.11503
 21
-56.49278
  0
LINE
  8
型材断面
  6
DOT
 62
    47
 10
149.11503
 20
-56.49278
 11
147.94003
 21
-56.34278
  0
LINE
  8
型材断面
  6
DOT
 62
    47
 10
147.94003
 20
-55.733742
 11
147.94003
 21
-56.34278
  0
LINE
  8
型材断面
  6
DOT
 62
    47
 10
148.64503
 20
-55.733742
 11
148.64503
 21
-52.983742
  0
LINE
  8
型材断面
  6
DOT
 62
    47
 10
149.11503
 20
-56.99278
 11
105.69503
 21
-56.99278
  0
LINE
  8
型材断面
  6
DOT
 10
147.94003
 20
-56.34278
 11
105.69503
 21
-56.34278
  0
LINE
  8
型材断面
  6
DOT
 62
    47
 10
148.64503
 20
-55.733742
 11
105.69503
 21
-55.733742
  0
LINE
  8
型材断面
  6
DOT
 10
149.11503
 20
-56.49278
 11
105.69503
 21
-56.49278
  0
LINE
  8
型材断面
  6
DOT
 10
148.64503
 20
-52.983742
 11
105.69503
 21
-52.983742
  0
LINE
  8
型材断面
  6
DOT
 10
147.94003
 20
-52.308742
 11
105.69503
 21
-52.308742
  0
LINE
  8
別途部材
  6
DOT
 62
    96
 10
63.19503
 20
-50.758815
 11
62.59503
 21
-52.258815
  0
LINE
  8
別途部材
  6
DOT
 62
    96
 10
63.19503
 20
-50.758815
 11
105.69503
 21
-50.758815
  0
LINE
  8
別途部材
  6
DOT
 10
62.59503
 20
-52.258815
 11
105.69503
 21
-52.258815
  0
LINE
  8
別途部材
  6
DOT
 62
    96
 10
148.19503
 20
-50.758815
 11
148.79503
 21
-52.258815
  0
LINE
  8
別途部材
  6
DOT
 62
    96
 10
148.19503
 20
-50.758815
 11
105.69503
 21
-50.758815
  0
LINE
  8
別途部材
  6
DOT
 10
148.79503
 20
-52.258815
 11
105.69503
 21
-52.258815
  0
ARC
  8
別途部材
  6
DOT
 10
105.695029
 20
-75.064371
 40
46.805555
 50
31.284493
 51
148.715507
  0
INSERT
  2
*GRP_0066
  8
別途部材
  6
DOT
 10
0.0
 20
0.0
  0
INSERT
  2
*GRP_0067
  8
別途部材
  6
DOT
 10
0.0
 20
0.0
  0
ENDBLK
  0
BLOCK
  2
*GRP_0066
 70
    65
 10
0.0
 20
0.0
  0
LINE
  8
ボルト／ビス
  6
DOT
 10
64.69503
 20
-50.758817
 11
64.69503
 21
-50.058817
  0
LINE
  8
ボルト／ビス
  6
DOT
 10
64.14503
 20
-50.758817
 11
64.14503
 21
-50.658817
  0
LINE
  8
ボルト／ビス
  6
DOT
 10
64.14503
 20
-50.658817
 11
65.24503
 21
-50.658817
  0
LINE
  8
ボルト／ビス
  6
DOT
 10
65.24503
 20
-50.658817
 11
65.24503
 21
-50.758817
  0
LINE
  8
ボルト／ビス
  6
DOT
 10
64.14503
 20
-50.758817
 11
65.24503
 21
-50.758817
  0
LINE
  8
ボルト／ビス
  6
DOT
 10
64.24503
 20
-50.608817
 11
64.24503
 21
-50.658817
  0
LINE
  8
ボルト／ビス
  6
DOT
 10
64.24503
 20
-50.608817
 11
65.14503
 21
-50.608817
  0
LINE
  8
ボルト／ビス
  6
DOT
 10
65.14503
 20
-50.608817
 11
65.14503
 21
-50.658817
  0
LINE
  8
ボルト／ビス
  6
DOT
 62
    64
 10
64.454467
 20
-50.308817
 11
64.406355
 21
-50.32633
  0
ARC
  8
ボルト／ビス
  6
DOT
 62
    64
 10
64.478523
 20
-50.466286
 40
0.157468
 50
62.721967
 51
90.0
  0
ARC
  8
ボルト／ビス
  6
DOT
 62
    64
 10
64.695029
 20
-50.912422
 40
0.603603
 50
76.165002
 51
103.834985
  0
LINE
  8
ボルト／ビス
  6
DOT
 62
    64
 10
64.935592
 20
-50.308817
 11
64.983705
 21
-50.32633
  0
ARC
  8
ボルト／ビス
  6
DOT
 62
    64
 10
64.911536
 20
-50.466286
 40
0.157468
 50
90.0
 51
117.278033
  0
LINE
  8
ボルト／ビス
  6
DOT
 62
    64
 10
64.454467
 20
-50.308817
 11
64.935592
 21
-50.308817
  0
LINE
  8
ボルト／ビス
  6
DOT
 62
    64
 10
64.983705
 20
-50.32633
 11
64.983705
 21
-50.508817
  0
LINE
  8
ボルト／ビス
  6
DOT
 62
    64
 10
64.839367
 20
-50.32633
 11
64.839367
 21
-50.508817
  0
LINE
  8
ボルト／ビス
  6
DOT
 62
    64
 10
64.406355
 20
-50.32633
 11
64.406355
 21
-50.508817
  0
LINE
  8
ボルト／ビス
  6
DOT
 62
    64
 10
64.550692
 20
-50.32633
 11
64.550692
 21
-50.508817
  0
LINE
  8
ボルト／ビス
  6
DOT
 10
64.406355
 20
-50.508817
 11
64.983705
 21
-50.508817
  0
LINE
  8
ボルト／ビス
  6
DOT
 10
64.39503
 20
-50.508817
 11
64.39503
 21
-50.608817
  0
LINE
  8
ボルト／ビス
  6
DOT
 10
64.39503
 20
-50.508817
 11
64.99503
 21
-50.508817
  0
LINE
  8
ボルト／ビス
  6
DOT
 10
64.99503
 20
-50.508817
 11
64.99503
 21
-50.608817
  0
ENDBLK
  0
BLOCK
  2
*GRP_0067
 70
    65
 10
0.0
 20
0.0
  0
LINE
  8
ボルト／ビス
  6
DOT
 10
146.69503
 20
-50.758817
 11
146.69503
 21
-50.058817
  0
LINE
  8
ボルト／ビス
  6
DOT
 10
146.14503
 20
-50.758817
 11
146.14503
 21
-50.658817
  0
LINE
  8
ボルト／ビス
  6
DOT
 10
146.14503
 20
-50.658817
 11
147.24503
 21
-50.658817
  0
LINE
  8
ボルト／ビス
  6
DOT
 10
147.24503
 20
-50.658817
 11
147.24503
 21
-50.758817
  0
LINE
  8
ボルト／ビス
  6
DOT
 10
146.14503
 20
-50.758817
 11
147.24503
 21
-50.758817
  0
LINE
  8
ボルト／ビス
  6
DOT
 10
146.24503
 20
-50.608817
 11
146.24503
 21
-50.658817
  0
LINE
  8
ボルト／ビス
  6
DOT
 10
146.24503
 20
-50.608817
 11
147.14503
 21
-50.608817
  0
LINE
  8
ボルト／ビス
  6
DOT
 10
147.14503
 20
-50.608817
 11
147.14503
 21
-50.658817
  0
LINE
  8
ボルト／ビス
  6
DOT
 62
    64
 10
146.454467
 20
-50.308817
 11
146.406355
 21
-50.32633
  0
ARC
  8
ボルト／ビス
  6
DOT
 62
    64
 10
146.478524
 20
-50.466285
 40
0.157468
 50
62.721967
 51
90.0
  0
ARC
  8
ボルト／ビス
  6
DOT
 62
    64
 10
146.69503
 20
-50.912421
 40
0.603603
 50
76.165002
 51
103.834985
  0
LINE
  8
ボルト／ビス
  6
DOT
 62
    64
 10
146.935592
 20
-50.308817
 11
146.983705
 21
-50.32633
  0
ARC
  8
ボルト／ビス
  6
DOT
 62
    64
 10
146.911536
 20
-50.466285
 40
0.157468
 50
90.0
 51
117.278033
  0
LINE
  8
ボルト／ビス
  6
DOT
 62
    64
 10
146.454467
 20
-50.308817
 11
146.935592
 21
-50.308817
  0
LINE
  8
ボルト／ビス
  6
DOT
 62
    64
 10
146.983705
 20
-50.32633
 11
146.983705
 21
-50.508817
  0
LINE
  8
ボルト／ビス
  6
DOT
 62
    64
 10
146.839367
 20
-50.32633
 11
146.839367
 21
-50.508817
  0
LINE
  8
ボルト／ビス
  6
DOT
 62
    64
 10
146.406355
 20
-50.32633
 11
146.406355
 21
-50.508817
  0
LINE
  8
ボルト／ビス
  6
DOT
 62
    64
 10
146.550692
 20
-50.32633
 11
146.550692
 21
-50.508817
  0
LINE
  8
ボルト／ビス
  6
DOT
 10
146.406355
 20
-50.508817
 11
146.983705
 21
-50.508817
  0
LINE
  8
ボルト／ビス
  6
DOT
 10
146.39503
 20
-50.508817
 11
146.39503
 21
-50.608817
  0
LINE
  8
ボルト／ビス
  6
DOT
 10
146.39503
 20
-50.508817
 11
146.99503
 21
-50.508817
  0
LINE
  8
ボルト／ビス
  6
DOT
 10
146.99503
 20
-50.508817
 11
146.99503
 21
-50.608817
  0
ENDBLK
  0
BLOCK
  2
*DIM_0068
 70
    65
 10
0.0
 20
0.0
  0
LINE
  8
寸法
  6
BYBLOCK
 62
     0
 10
150.11503
 20
-56.99278
 11
161.100215
 21
-56.99278
  0
LINE
  8
寸法
  6
BYBLOCK
 62
     0
 10
150.11503
 20
-76.99278
 11
161.100215
 21
-76.99278
  0
LINE
  8
寸法
  6
BYBLOCK
 62
     0
 10
161.100215
 20
-56.99278
 11
161.100215
 21
-76.99278
  0
POINT
  8
寸法
 62
     0
 10
161.100215
 20
-56.99278
  0
POINT
  8
寸法
 62
     0
 10
161.100215
 20
-76.99278
  0
TEXT
  7
TextStyle03
  8
寸法
  6
CONTINUOUS
 62
     0
 10
160.725
 20
-76.1875
  1
上昇高さ400
 40
3.0
 50
90.0
 72
     5
 11
160.725
 21
-57.8125
  0
ENDBLK
  0
ENDSEC
  0
SECTION
  2
ENTITIES
  0
POLYLINE
  8
通り芯
  6
CONTINUOUS
 66
     1
 70
     1
  0
VERTEX
  8
通り芯
 10
-210.0
 20
-148.5
  0
VERTEX
  8
通り芯
 10
210.0
 20
-148.5
  0
VERTEX
  8
通り芯
 10
210.0
 20
148.5
  0
VERTEX
  8
通り芯
 10
-210.0
 20
148.5
  0
SEQEND
  0
INSERT
  2
*GRP_0001
  8
型材断面
  6
CONTINUOUS
 10
0.0
 20
0.0
  0
LINE
  8
型材断面
  6
DASHDOT
 10
-95.755937
 20
-6.81856
 11
-15.755937
 21
-6.81856
  0
LINE
  8
型材断面
  6
DASHDOT
 10
-95.755937
 20
-86.27283
 11
-95.755937
 21
73.18144
  0
LINE
  8
型材断面
  6
DASHDOT
 10
-55.755937
 20
-86.27283
 11
-55.755937
 21
73.18144
  0
LINE
  8
型材断面
  6
DASHDOT
 10
-15.755937
 20
-86.27283
 11
-15.755937
 21
73.18144
  0
LINE
  8
型材断面
  6
DASHDOT
 10
-95.755937
 20
33.18144
 11
-15.755937
 21
33.18144
  0
LINE
  8
型材断面
  6
DASHDOT
 10
-95.755937
 20
73.18144
 11
-15.755937
 21
73.18144
  0
LINE
  8
型材断面
  6
CONTINUOUS
 10
-55.755937
 20
-14.842437
 11
-57.999382
 21
-18.728197
  0
LINE
  8
型材断面
  6
CONTINUOUS
 10
-55.755937
 20
-14.842437
 11
-53.512493
 21
-18.728197
  0
LINE
  8
型材断面
  6
CONTINUOUS
 10
-53.512493
 20
-18.728197
 11
-57.999382
 21
-18.728197
  0
LINE
  8
型材断面
  6
CONTINUOUS
 10
-55.755937
 20
81.205317
 11
-57.999382
 21
85.091078
  0
LINE
  8
型材断面
  6
CONTINUOUS
 10
-55.755937
 20
81.205317
 11
-53.512493
 21
85.091078
  0
LINE
  8
型材断面
  6
CONTINUOUS
 10
-53.512493
 20
85.091078
 11
-57.999382
 21
85.091078
  0
LINE
  8
型材断面
  6
CONTINUOUS
 10
-7.73206
 20
33.181443
 11
-3.8463
 21
30.937997
  0
LINE
  8
型材断面
  6
CONTINUOUS
 10
-7.73206
 20
33.181443
 11
-3.8463
 21
35.424887
  0
LINE
  8
型材断面
  6
CONTINUOUS
 10
-3.8463
 20
35.424887
 11
-3.8463
 21
30.937997
  0
LINE
  8
型材断面
  6
CONTINUOUS
 10
-103.779815
 20
33.181443
 11
-107.665575
 21
30.937997
  0
LINE
  8
型材断面
  6
CONTINUOUS
 10
-103.779815
 20
33.181443
 11
-107.665575
 21
35.424887
  0
LINE
  8
型材断面
  6
CONTINUOUS
 10
-107.665575
 20
35.424887
 11
-107.665575
 21
30.937997
  0
LINE
  8
型材断面
  6
DOT
 10
-20.995277
 20
73.181443
 11
-20.995277
 21
-6.818563
  0
LINE
  8
型材断面
  6
DOT
 10
-18.995277
 20
73.181443
 11
-18.995277
 21
-6.818563
  0
LINE
  8
型材断面
  6
CONTINUOUS
 10
19.08162
 20
-5.097217
 11
16.838175
 21
-8.982978
  0
LINE
  8
型材断面
  6
CONTINUOUS
 10
19.08162
 20
-5.097217
 11
21.325065
 21
-8.982978
  0
LINE
  8
型材断面
  6
CONTINUOUS
 10
21.325065
 20
-8.982978
 11
16.838175
 21
-8.982978
  0
LINE
  8
型材断面
  6
CONTINUOUS
 10
19.08162
 20
-12.786765
 11
19.975705
 21
-16.672525
  0
LINE
  8
型材断面
  6
CONTINUOUS
 10
19.08162
 20
-12.786765
 11
18.187535
 21
-16.672525
  0
LINE
  8
型材断面
  6
CONTINUOUS
 10
18.187535
 20
-16.672525
 11
19.975705
 21
-16.672525
  0
LINE
  8
型材断面
  6
CONTINUOUS
 10
10.04774
 20
-10.39087
 11
62.70442
 21
-10.39087
  0
LINE
  8
型材断面
  6
CONTINUOUS
 10
10.04774
 20
-21.590863
 11
62.70442
 21
-21.590863
  0
LINE
  8
型材断面
  6
CONTINUOUS
 10
10.04774
 20
-28.430807
 11
62.70442
 21
-28.430807
  0
LINE
  8
型材断面
  6
DOT
 10
-90.516597
 20
73.181443
 11
-90.516597
 21
-6.818563
  0
LINE
  8
型材断面
  6
DOT
 10
-92.516597
 20
73.181443
 11
-92.516597
 21
-6.818563
  0
LINE
  8
型材断面
  6
DASHDOT
 10
-95.755937
 20
-72.308742
 11
-95.755937
 21
-81.33884
  0
LINE
  8
型材断面
  6
CONTINUOUS
 62
    47
 10
-97.850937
 20
-75.733742
 11
-96.680937
 21
-75.733742
  0
LINE
  8
型材断面
  6
CONTINUOUS
 10
-98.000937
 20
-72.983742
 11
-98.000937
 21
-72.308742
  0
LINE
  8
型材断面
  6
CONTINUOUS
 62
    47
 10
-99.175937
 20
-76.99278
 11
-99.175937
 21
-76.49278
  0
LINE
  8
型材断面
  6
CONTINUOUS
 62
    47
 10
-99.175937
 20
-76.49278
 11
-98.000937
 21
-76.34278
  0
LINE
  8
型材断面
  6
CONTINUOUS
 62
    47
 10
-98.000937
 20
-75.733742
 11
-98.000937
 21
-76.34278
  0
LINE
  8
型材断面
  6
CONTINUOUS
 62
    47
 10
-98.705937
 20
-75.733742
 11
-98.705937
 21
-72.983742
  0
LINE
  8
型材断面
  6
CONTINUOUS
 62
    47
 10
-97.855937
 20
-81.683742
 11
-97.855937
 21
-80.933742
  0
LINE
  8
型材断面
  6
CONTINUOUS
 62
    47
 10
-98.705937
 20
-80.933742
 11
-98.705937
 21
-76.99278
  0
LINE
  8
型材断面
  6
CONTINUOUS
 62
    47
 10
-97.855937
 20
-81.683742
 11
-55.755937
 21
-81.683742
  0
LINE
  8
型材断面
  6
CONTINUOUS
 62
    47
 10
-98.705937
 20
-80.933742
 11
-55.755937
 21
-80.933742
  0
LINE
  8
型材断面
  6
CONTINUOUS
 62
    47
 10
-99.175937
 20
-76.99278
 11
-55.755937
 21
-76.99278
  0
LINE
  8
型材断面
  6
CONTINUOUS
 10
-98.000937
 20
-76.34278
 11
-55.755937
 21
-76.34278
  0
LINE
  8
型材断面
  6
CONTINUOUS
 62
    47
 10
-98.705937
 20
-75.733742
 11
-55.755937
 21
-75.733742
  0
LINE
  8
型材断面
  6
CONTINUOUS
 10
-99.175937
 20
-76.49278
 11
-55.755937
 21
-76.49278
  0
LINE
  8
型材断面
  6
CONTINUOUS
 10
-98.705937
 20
-72.983742
 11
-55.755937
 21
-72.983742
  0
LINE
  8
型材断面
  6
CONTINUOUS
 10
-98.000937
 20
-72.308742
 11
-55.755937
 21
-72.308742
  0
LINE
  8
型材断面
  6
DASHDOT
 10
-15.755937
 20
-72.308742
 11
-15.755937
 21
-81.33884
  0
LINE
  8
型材断面
  6
CONTINUOUS
 62
    47
 10
-13.660937
 20
-75.733742
 11
-14.830937
 21
-75.733742
  0
LINE
  8
型材断面
  6
CONTINUOUS
 10
-13.510938
 20
-72.983742
 11
-13.510938
 21
-72.308742
  0
LINE
  8
型材断面
  6
CONTINUOUS
 62
    47
 10
-12.335938
 20
-76.99278
 11
-12.335938
 21
-76.49278
  0
LINE
  8
型材断面
  6
CONTINUOUS
 62
    47
 10
-12.335938
 20
-76.49278
 11
-13.510938
 21
-76.34278
  0
LINE
  8
型材断面
  6
CONTINUOUS
 62
    47
 10
-13.510938
 20
-75.733742
 11
-13.510938
 21
-76.34278
  0
LINE
  8
型材断面
  6
CONTINUOUS
 62
    47
 10
-12.805937
 20
-75.733742
 11
-12.805937
 21
-72.983742
  0
LINE
  8
型材断面
  6
CONTINUOUS
 62
    47
 10
-13.655937
 20
-81.683742
 11
-13.655937
 21
-80.933742
  0
LINE
  8
型材断面
  6
CONTINUOUS
 62
    47
 10
-12.805937
 20
-80.933742
 11
-12.805937
 21
-76.99278
  0
LINE
  8
型材断面
  6
CONTINUOUS
 62
    47
 10
-13.655937
 20
-81.683742
 11
-55.755937
 21
-81.683742
  0
LINE
  8
型材断面
  6
CONTINUOUS
 62
    47
 10
-12.805937
 20
-80.933742
 11
-55.755937
 21
-80.933742
  0
LINE
  8
型材断面
  6
CONTINUOUS
 62
    47
 10
-12.335938
 20
-76.99278
 11
-55.755937
 21
-76.99278
  0
LINE
  8
型材断面
  6
CONTINUOUS
 10
-13.510938
 20
-76.34278
 11
-55.755937
 21
-76.34278
  0
LINE
  8
型材断面
  6
CONTINUOUS
 62
    47
 10
-12.805937
 20
-75.733742
 11
-55.755937
 21
-75.733742
  0
LINE
  8
型材断面
  6
CONTINUOUS
 10
-12.335938
 20
-76.49278
 11
-55.755937
 21
-76.49278
  0
LINE
  8
型材断面
  6
CONTINUOUS
 10
-12.805937
 20
-72.983742
 11
-55.755937
 21
-72.983742
  0
LINE
  8
型材断面
  6
CONTINUOUS
 10
-13.510938
 20
-72.308742
 11
-55.755937
 21
-72.308742
  0
LINE
  8
型材断面
  6
CONTINUOUS
 10
-12.655937
 20
-9.91856
 11
-12.335938
 21
-10.23856
  0
LINE
  8
型材断面
  6
CONTINUOUS
 10
-12.335938
 20
-10.23856
 11
-12.335938
 21
33.18144
  0
LINE
  8
型材断面
  6
CONTINUOUS
 10
-12.335938
 20
-10.23856
 11
-55.755937
 21
-10.23856
  0
LINE
  8
型材断面
  6
CONTINUOUS
 10
-98.855937
 20
-9.91856
 11
-99.175937
 21
-10.23856
  0
LINE
  8
型材断面
  6
CONTINUOUS
 10
-99.175937
 20
-10.23856
 11
-99.175937
 21
33.18144
  0
LINE
  8
型材断面
  6
CONTINUOUS
 10
-99.175937
 20
-10.23856
 11
-55.755937
 21
-10.23856
  0
LINE
  8
型材断面
  6
CONTINUOUS
 10
-98.855937
 20
76.28144
 11
-99.175937
 21
76.60144
  0
LINE
  8
型材断面
  6
CONTINUOUS
 10
-99.175937
 20
76.60144
 11
-99.175937
 21
33.18144
  0
LINE
  8
型材断面
  6
CONTINUOUS
 10
-99.175937
 20
76.60144
 11
-55.755937
 21
76.60144
  0
LINE
  8
型材断面
  6
CONTINUOUS
 10
-12.655937
 20
76.28144
 11
-12.335938
 21
76.60144
  0
LINE
  8
型材断面
  6
CONTINUOUS
 10
-12.335938
 20
76.60144
 11
-12.335938
 21
33.18144
  0
LINE
  8
型材断面
  6
CONTINUOUS
 10
-12.335938
 20
76.60144
 11
-55.755937
 21
76.60144
  0
LINE
  8
型材断面
  6
DASHDOT
 10
65.69503
 20
-72.308742
 11
65.69503
 21
-81.33884
  0
LINE
  8
型材断面
  6
CONTINUOUS
 62
    47
 10
63.60003
 20
-75.733742
 11
64.77003
 21
-75.733742
  0
LINE
  8
型材断面
  6
CONTINUOUS
 10
63.45003
 20
-72.983742
 11
63.45003
 21
-72.308742
  0
LINE
  8
型材断面
  6
CONTINUOUS
 62
    47
 10
62.27503
 20
-76.99278
 11
62.27503
 21
-76.49278
  0
LINE
  8
型材断面
  6
CONTINUOUS
 62
    47
 10
62.27503
 20
-76.49278
 11
63.45003
 21
-76.34278
  0
LINE
  8
型材断面
  6
CONTINUOUS
 62
    47
 10
63.45003
 20
-75.733742
 11
63.45003
 21
-76.34278
  0
LINE
  8
型材断面
  6
CONTINUOUS
 62
    47
 10
62.74503
 20
-75.733742
 11
62.74503
 21
-72.983742
  0
LINE
  8
型材断面
  6
CONTINUOUS
 62
    47
 10
63.59503
 20
-81.683742
 11
63.59503
 21
-80.933742
  0
LINE
  8
型材断面
  6
CONTINUOUS
 62
    47
 10
62.74503
 20
-80.933742
 11
62.74503
 21
-76.99278
  0
LINE
  8
型材断面
  6
CONTINUOUS
 62
    47
 10
63.59503
 20
-81.683742
 11
105.69503
 21
-81.683742
  0
LINE
  8
型材断面
  6
CONTINUOUS
 62
    47
 10
62.74503
 20
-80.933742
 11
105.69503
 21
-80.933742
  0
LINE
  8
型材断面
  6
CONTINUOUS
 62
    47
 10
62.27503
 20
-76.99278
 11
105.69503
 21
-76.99278
  0
LINE
  8
型材断面
  6
CONTINUOUS
 10
63.45003
 20
-76.34278
 11
105.69503
 21
-76.34278
  0
LINE
  8
型材断面
  6
CONTINUOUS
 62
    47
 10
62.74503
 20
-75.733742
 11
105.69503
 21
-75.733742
  0
LINE
  8
型材断面
  6
CONTINUOUS
 10
62.27503
 20
-76.49278
 11
105.69503
 21
-76.49278
  0
LINE
  8
型材断面
  6
CONTINUOUS
 10
62.74503
 20
-72.983742
 11
105.69503
 21
-72.983742
  0
LINE
  8
型材断面
  6
CONTINUOUS
 10
63.45003
 20
-72.308742
 11
105.69503
 21
-72.308742
  0
LINE
  8
型材断面
  6
DASHDOT
 10
145.69503
 20
-72.308742
 11
145.69503
 21
-81.33884
  0
LINE
  8
型材断面
  6
CONTINUOUS
 62
    47
 10
147.79003
 20
-75.733742
 11
146.62003
 21
-75.733742
  0
LINE
  8
型材断面
  6
CONTINUOUS
 10
147.94003
 20
-72.983742
 11
147.94003
 21
-72.308742
  0
LINE
  8
型材断面
  6
CONTINUOUS
 62
    47
 10
149.11503
 20
-76.99278
 11
149.11503
 21
-76.49278
  0
LINE
  8
型材断面
  6
CONTINUOUS
 62
    47
 10
149.11503
 20
-76.49278
 11
147.94003
 21
-76.34278
  0
LINE
  8
型材断面
  6
CONTINUOUS
 62
    47
 10
147.94003
 20
-75.733742
 11
147.94003
 21
-76.34278
  0
LINE
  8
型材断面
  6
CONTINUOUS
 62
    47
 10
148.64503
 20
-75.733742
 11
148.64503
 21
-72.983742
  0
LINE
  8
型材断面
  6
CONTINUOUS
 62
    47
 10
147.79503
 20
-81.683742
 11
147.79503
 21
-80.933742
  0
LINE
  8
型材断面
  6
CONTINUOUS
 62
    47
 10
148.64503
 20
-80.933742
 11
148.64503
 21
-76.99278
  0
LINE
  8
型材断面
  6
CONTINUOUS
 62
    47
 10
147.79503
 20
-81.683742
 11
105.69503
 21
-81.683742
  0
LINE
  8
型材断面
  6
CONTINUOUS
 62
    47
 10
148.64503
 20
-80.933742
 11
105.69503
 21
-80.933742
  0
LINE
  8
型材断面
  6
CONTINUOUS
 62
    47
 10
149.11503
 20
-76.99278
 11
105.69503
 21
-76.99278
  0
LINE
  8
型材断面
  6
CONTINUOUS
 10
147.94003
 20
-76.34278
 11
105.69503
 21
-76.34278
  0
LINE
  8
型材断面
  6
CONTINUOUS
 62
    47
 10
148.64503
 20
-75.733742
 11
105.69503
 21
-75.733742
  0
LINE
  8
型材断面
  6
CONTINUOUS
 10
149.11503
 20
-76.49278
 11
105.69503
 21
-76.49278
  0
LINE
  8
型材断面
  6
CONTINUOUS
 10
148.64503
 20
-72.983742
 11
105.69503
 21
-72.983742
  0
LINE
  8
型材断面
  6
CONTINUOUS
 10
147.94003
 20
-72.308742
 11
105.69503
 21
-72.308742
  0
LINE
  8
型材断面
  6
CONTINUOUS
 10
-7.732057
 20
67.33144
 11
-3.846298
 21
66.437355
  0
LINE
  8
型材断面
  6
CONTINUOUS
 10
-7.732057
 20
67.33144
 11
-3.846298
 21
68.225525
  0
LINE
  8
型材断面
  6
CONTINUOUS
 10
-3.846298
 20
68.225525
 11
-3.846298
 21
66.437355
  0
LINE
  8
型材断面
  6
CONTINUOUS
 10
-7.732057
 20
-0.96856
 11
-3.846298
 21
-0.074475
  0
LINE
  8
型材断面
  6
CONTINUOUS
 10
-7.732057
 20
-0.96856
 11
-3.846298
 21
-1.862645
  0
LINE
  8
型材断面
  6
CONTINUOUS
 10
-3.846298
 20
-1.862645
 11
-3.846298
 21
-0.074475
  0
LINE
  8
型材断面
  6
CONTINUOUS
 10
-103.779817
 20
67.33144
 11
-107.665578
 21
66.437355
  0
LINE
  8
型材断面
  6
CONTINUOUS
 10
-103.779817
 20
67.33144
 11
-107.665578
 21
68.225525
  0
LINE
  8
型材断面
  6
CONTINUOUS
 10
-107.665578
 20
68.225525
 11
-107.665578
 21
66.437355
  0
LINE
  8
型材断面
  6
CONTINUOUS
 10
-103.779817
 20
-0.96856
 11
-107.665578
 21
-0.074475
  0
LINE
  8
型材断面
  6
CONTINUOUS
 10
-103.779817
 20
-0.96856
 11
-107.665578
 21
-1.862645
  0
LINE
  8
型材断面
  6
CONTINUOUS
 10
-107.665578
 20
-1.862645
 11
-107.665578
 21
-0.074475
  0
INSERT
  2
*GRP_0051
  8
型材断面
  6
CONTINUOUS
 10
0.0
 20
0.0
  0
INSERT
  2
*GRP_0052
  8
型材断面
  6
CONTINUOUS
 10
0.0
 20
0.0
  0
INSERT
  2
*GRP_0053
  8
型材断面
  6
CONTINUOUS
 10
0.0
 20
0.0
  0
INSERT
  2
*GRP_0054
  8
型材断面
  6
CONTINUOUS
 10
0.0
 20
0.0
  0
POLYLINE
  8
型材断面
  6
CONTINUOUS
 66
     1
 70
     1
  0
VERTEX
  8
型材断面
 10
-46.531722
 20
-19.603113
  0
VERTEX
  8
型材断面
 10
-65.086935
 20
-19.603113
  0
VERTEX
  8
型材断面
 10
-65.086935
 20
-24.395147
  0
VERTEX
  8
型材断面
 10
-46.531722
 20
-24.395147
  0
SEQEND
  0
POLYLINE
  8
型材断面
  6
CONTINUOUS
 66
     1
 70
     1
  0
VERTEX
  8
型材断面
 10
-46.531722
 20
90.67026
  0
VERTEX
  8
型材断面
 10
-65.086935
 20
90.67026
  0
VERTEX
  8
型材断面
 10
-65.086935
 20
85.878225
  0
VERTEX
  8
型材断面
 10
-46.531722
 20
85.878225
  0
SEQEND
  0
LINE
  8
型材断面
  6
CONTINUOUS
 10
10.04774
 20
-35.270752
 11
62.70442
 21
-35.270752
  0
LINE
  8
型材断面
  6
DOT
 10
-53.880937
 20
73.18144
 11
-53.880937
 21
-6.81856
  0
LINE
  8
型材断面
  6
DOT
 10
-57.630937
 20
73.18144
 11
-57.630937
 21
-6.81856
  0
LINE
  8
ガラス
  6
CONTINUOUS
 10
114.89925
 20
72.68144
 11
35.89925
 21
72.68144
  0
LINE
  8
ガラス
  6
CONTINUOUS
 10
114.89925
 20
34.18144
 11
35.89925
 21
34.18144
  0
LINE
  8
ガラス
  6
CONTINUOUS
 10
114.89925
 20
72.68144
 11
114.89925
 21
34.18144
  0
LINE
  8
ガラス
  6
CONTINUOUS
 10
35.89925
 20
72.68144
 11
35.89925
 21
34.18144
  0
INSERT
  2
*GRP_0065
  8
ガラス
  6
DOT
 10
0.0
 20
0.0
  0
CIRCLE
  8
ボルト／ビス
  6
CONTINUOUS
 10
-55.755937
 20
-7.81856
 40
0.288675
  0
CIRCLE
  8
ボルト／ビス
  6
CONTINUOUS
 10
-55.755937
 20
-7.81856
 40
0.455885
  0
CIRCLE
  8
ボルト／ビス
  6
CONTINUOUS
 10
-70.755937
 20
-7.81856
 40
0.288675
  0
CIRCLE
  8
ボルト／ビス
  6
CONTINUOUS
 10
-70.755937
 20
-7.81856
 40
0.455885
  0
CIRCLE
  8
ボルト／ビス
  6
CONTINUOUS
 10
-85.755937
 20
-7.81856
 40
0.288675
  0
CIRCLE
  8
ボルト／ビス
  6
CONTINUOUS
 10
-85.755937
 20
-7.81856
 40
0.455885
  0
CIRCLE
  8
ボルト／ビス
  6
CONTINUOUS
 10
-96.755937
 20
33.18144
 40
0.288675
  0
CIRCLE
  8
ボルト／ビス
  6
CONTINUOUS
 10
-96.755937
 20
33.18144
 40
0.455885
  0
CIRCLE
  8
ボルト／ビス
  6
CONTINUOUS
 10
-96.755937
 20
18.18144
 40
0.288675
  0
CIRCLE
  8
ボルト／ビス
  6
CONTINUOUS
 10
-96.755937
 20
18.18144
 40
0.455885
  0
CIRCLE
  8
ボルト／ビス
  6
CONTINUOUS
 10
-96.755937
 20
3.18144
 40
0.288675
  0
CIRCLE
  8
ボルト／ビス
  6
CONTINUOUS
 10
-96.755937
 20
3.18144
 40
0.455885
  0
CIRCLE
  8
ボルト／ビス
  6
CONTINUOUS
 10
-70.755937
 20
74.18144
 40
0.288675
  0
CIRCLE
  8
ボルト／ビス
  6
CONTINUOUS
 10
-70.755937
 20
74.18144
 40
0.455885
  0
CIRCLE
  8
ボルト／ビス
  6
CONTINUOUS
 10
-85.755937
 20
74.18144
 40
0.288675
  0
CIRCLE
  8
ボルト／ビス
  6
CONTINUOUS
 10
-85.755937
 20
74.18144
 40
0.455885
  0
CIRCLE
  8
ボルト／ビス
  6
CONTINUOUS
 10
-96.755937
 20
48.18144
 40
0.288675
  0
CIRCLE
  8
ボルト／ビス
  6
CONTINUOUS
 10
-96.755937
 20
48.18144
 40
0.455885
  0
CIRCLE
  8
ボルト／ビス
  6
CONTINUOUS
 10
-96.755937
 20
63.18144
 40
0.288675
  0
CIRCLE
  8
ボルト／ビス
  6
CONTINUOUS
 10
-96.755937
 20
63.18144
 40
0.455885
  0
CIRCLE
  8
ボルト／ビス
  6
CONTINUOUS
 10
-40.755937
 20
-7.81856
 40
0.288675
  0
CIRCLE
  8
ボルト／ビス
  6
CONTINUOUS
 10
-40.755937
 20
-7.81856
 40
0.455885
  0
CIRCLE
  8
ボルト／ビス
  6
CONTINUOUS
 10
-25.755937
 20
-7.81856
 40
0.288675
  0
CIRCLE
  8
ボルト／ビス
  6
CONTINUOUS
 10
-25.755937
 20
-7.81856
 40
0.455885
  0
CIRCLE
  8
ボルト／ビス
  6
CONTINUOUS
 10
-14.755937
 20
18.18144
 40
0.288675
  0
CIRCLE
  8
ボルト／ビス
  6
CONTINUOUS
 10
-14.755937
 20
18.18144
 40
0.455885
  0
CIRCLE
  8
ボルト／ビス
  6
CONTINUOUS
 10
-14.755937
 20
3.18144
 40
0.288675
  0
CIRCLE
  8
ボルト／ビス
  6
CONTINUOUS
 10
-14.755937
 20
3.18144
 40
0.455885
  0
CIRCLE
  8
ボルト／ビス
  6
CONTINUOUS
 10
-40.755937
 20
74.18144
 40
0.288675
  0
CIRCLE
  8
ボルト／ビス
  6
CONTINUOUS
 10
-40.755937
 20
74.18144
 40
0.455885
  0
CIRCLE
  8
ボルト／ビス
  6
CONTINUOUS
 10
-25.755937
 20
74.18144
 40
0.288675
  0
CIRCLE
  8
ボルト／ビス
  6
CONTINUOUS
 10
-25.755937
 20
74.18144
 40
0.455885
  0
CIRCLE
  8
ボルト／ビス
  6
CONTINUOUS
 10
-14.755937
 20
48.18144
 40
0.288675
  0
CIRCLE
  8
ボルト／ビス
  6
CONTINUOUS
 10
-14.755937
 20
48.18144
 40
0.455885
  0
CIRCLE
  8
ボルト／ビス
  6
CONTINUOUS
 10
-14.755937
 20
63.18144
 40
0.288675
  0
CIRCLE
  8
ボルト／ビス
  6
CONTINUOUS
 10
-14.755937
 20
63.18144
 40
0.455885
  0
CIRCLE
  8
ボルト／ビス
  6
CONTINUOUS
 10
-14.755937
 20
33.18144
 40
0.288675
  0
CIRCLE
  8
ボルト／ビス
  6
CONTINUOUS
 10
-14.755937
 20
33.18144
 40
0.455885
  0
CIRCLE
  8
ボルト／ビス
  6
CONTINUOUS
 10
-55.755937
 20
74.18144
 40
0.288675
  0
CIRCLE
  8
ボルト／ビス
  6
CONTINUOUS
 10
-55.755937
 20
74.18144
 40
0.455885
  0
INSERT
  2
*GRP_0002
  8
文字
  6
CONTINUOUS
 10
0.0
 20
0.0
  0
INSERT
  2
*GRP_0003
  8
文字
  6
CONTINUOUS
 10
0.0
 20
0.0
  0
INSERT
  2
*GRP_0004
  8
文字
  6
CONTINUOUS
 10
0.0
 20
0.0
  0
INSERT
  2
*GRP_0005
  8
文字
  6
CONTINUOUS
 10
0.0
 20
0.0
  0
INSERT
  2
*GRP_0006
  8
文字
  6
CONTINUOUS
 10
0.0
 20
0.0
  0
INSERT
  2
*GRP_0007
  8
文字
  6
CONTINUOUS
 10
0.0
 20
0.0
  0
INSERT
  2
*GRP_0008
  8
文字
  6
CONTINUOUS
 10
0.0
 20
0.0
  0
INSERT
  2
*GRP_0009
  8
文字
  6
CONTINUOUS
 10
0.0
 20
0.0
  0
INSERT
  2
*GRP_0010
  8
文字
  6
CONTINUOUS
 10
0.0
 20
0.0
  0
INSERT
  2
*GRP_0011
  8
文字
  6
CONTINUOUS
 10
0.0
 20
0.0
  0
INSERT
  2
*GRP_0012
  8
文字
  6
CONTINUOUS
 10
0.0
 20
0.0
  0
INSERT
  2
*GRP_0013
  8
文字
  6
CONTINUOUS
 10
0.0
 20
0.0
  0
INSERT
  2
*GRP_0014
  8
文字
  6
CONTINUOUS
 10
0.0
 20
0.0
  0
INSERT
  2
*GRP_0015
  8
文字
  6
CONTINUOUS
 10
0.0
 20
0.0
  0
INSERT
  2
*GRP_0016
  8
文字
  6
CONTINUOUS
 10
0.0
 20
0.0
  0
INSERT
  2
*GRP_0017
  8
文字
  6
CONTINUOUS
 10
0.0
 20
0.0
  0
INSERT
  2
*GRP_0018
  8
文字
  6
CONTINUOUS
 10
0.0
 20
0.0
  0
INSERT
  2
*GRP_0019
  8
文字
  6
CONTINUOUS
 10
0.0
 20
0.0
  0
INSERT
  2
*GRP_0020
  8
文字
  6
CONTINUOUS
 10
0.0
 20
0.0
  0
INSERT
  2
*GRP_0021
  8
文字
  6
CONTINUOUS
 10
0.0
 20
0.0
  0
TEXT
  7
TextStyle03
  8
文字
  6
CONTINUOUS
 10
-6.125
 20
11.9
  1
ﾊﾞﾗﾝｽｽﾃｰ
 40
3.0
 72
     5
 11
7.1875
 21
11.9
  0
TEXT
  7
TextStyle03
  8
文字
  6
CONTINUOUS
 10
23.35
 20
-8.65
  1
は排水穴位置を示す
 40
3.0
 72
     5
 11
53.35
 21
-8.65
  0
TEXT
  7
TextStyle03
  8
文字
  6
CONTINUOUS
 10
23.35
 20
-16.5
  1
はケーシング位置を示す
 40
3.0
 72
     5
 11
60.1
 21
-16.5
  0
TEXT
  7
TextStyle03
  8
文字
  6
CONTINUOUS
 10
23.35
 20
-19.875
  1
４ヶ所中1ヶ所に設定
 40
3.0
 72
     5
 11
55.0375
 21
-19.875
  0
TEXT
  7
TextStyle03
  8
文字
  6
CONTINUOUS
 10
-75.45
 20
35.525
  1
中桟
 40
3.0
 72
     5
 11
-69.075
 21
35.525
  0
TEXT
  7
TextStyle03
  8
文字
  6
CONTINUOUS
 10
95.65
 20
40.65
  1
×２枚
 40
3.0
 72
     5
 11
105.4
 21
40.65
  0
TEXT
  7
TextStyle03
  8
文字
  6
CONTINUOUS
 10
88.5
 20
44.675
  1
網入り6.8t
 40
3.0
 72
     5
 11
105.1875
 21
44.675
  0
TEXT
  7
TextStyle03
  8
文字
  6
CONTINUOUS
 10
-64.125
 20
-23.375
  1
可動装置側
 40
3.0
 72
     5
 11
-47.625
 21
-23.375
  0
TEXT
  7
TextStyle03
  8
文字
  6
CONTINUOUS
 10
-64.125
 20
86.875
  1
可動装置側
 40
3.0
 72
     5
 11
-47.625
 21
86.875
  0
TEXT
  7
TextStyle03
  8
文字
  6
CONTINUOUS
 10
-118.6875
 20
60.375
  1
ﾊﾞﾗﾝｽｽﾃｰ
 40
3.0
 72
     5
 11
-105.375
 21
60.375
  0
TEXT
  7
TextStyle03
  8
文字
  6
CONTINUOUS
 10
71.2
 20
104.525
  1
ＮＳコード：ＮＳＤＳ
 40
5.0
 72
     5
 11
126.825
 21
104.525
  0
TEXT
  7
TextStyle03
  8
文字
  6
CONTINUOUS
 10
-116.0
 20
106.125
  1
アンカーピッチ
 40
3.0
 72
     5
 11
-92.75
 21
106.125
  0
TEXT
  7
TextStyle03
  8
文字
  6
CONTINUOUS
 10
-128.0
 20
-9.9
  1
アンカーピッチ
 40
3.0
 50
90.0
 72
     5
 11
-128.0
 21
13.35
  0
TEXT
  7
TextStyle03
  8
文字
  6
CONTINUOUS
 10
17.675
 20
-33.875
  1
アームユニット数　４ヶ所
 40
3.0
 72
     5
 11
57.8
 21
-33.875
  0
TEXT
  7
TextStyle03
  8
文字
  6
CONTINUOUS
 10
17.75
 20
-27.025
  1
アンカー数量　１０ヶ所
 40
3.0
 72
     5
 11
54.5
 21
-27.025
  0
TEXT
  7
TextStyle03
  8
文字
  6
CONTINUOUS
 10
71.1
 20
124.75
  1
シリーズ：ＳＴＤ
 40
5.0
 72
     5
 11
115.475
 21
124.75
  0
TEXT
  7
TextStyle03
  8
文字
  6
CONTINUOUS
 10
71.1
 20
119.125
  1
　　　　　（上下可動）1600×1600タイプ
 40
5.0
 72
     5
 11
177.35
 21
119.125
  0
TEXT
  7
TextStyle03
  8
文字
  6
CONTINUOUS
 10
71.1
 20
113.5
  1
図面名　：外観姿図
 40
5.0
 72
     5
 11
121.1
 21
113.5
  0
TEXT
  7
TextStyle03
  8
文字
  6
CONTINUOUS
 10
71.1
 20
107.875
  1
　　　　　　
 40
5.0
 72
     5
 11
104.225
 21
107.875
  0
INSERT
  2
*DIM_0022
  8
寸法
  6
CONTINUOUS
 10
0.0
 20
0.0
  0
INSERT
  2
*DIM_0023
  8
寸法
  6
CONTINUOUS
 10
0.0
 20
0.0
  0
INSERT
  2
*GRP_0024
  8
寸法
  6
CONTINUOUS
 10
0.0
 20
0.0
  0
INSERT
  2
*DIM_0045
  8
寸法
  6
CONTINUOUS
 10
0.0
 20
0.0
  0
INSERT
  2
*DIM_0046
  8
寸法
  6
CONTINUOUS
 10
0.0
 20
0.0
  0
INSERT
  2
*DIM_0047
  8
寸法
  6
CONTINUOUS
 10
0.0
 20
0.0
  0
INSERT
  2
*DIM_0048
  8
寸法
  6
CONTINUOUS
 10
0.0
 20
0.0
  0
INSERT
  2
*DIM_0049
  8
寸法
  6
CONTINUOUS
 10
0.0
 20
0.0
  0
INSERT
  2
*DIM_0050
  8
寸法
  6
CONTINUOUS
 10
0.0
 20
0.0
  0
INSERT
  2
*GRP_0055
  8
寸法
  6
CONTINUOUS
 10
0.0
 20
0.0
  0
INSERT
  2
*DIM_0056
  8
寸法
  6
CONTINUOUS
 10
0.0
 20
0.0
  0
INSERT
  2
*DIM_0057
  8
寸法
  6
CONTINUOUS
 10
0.0
 20
0.0
  0
INSERT
  2
*DIM_0058
  8
寸法
  6
CONTINUOUS
 10
0.0
 20
0.0
  0
INSERT
  2
*DIM_0059
  8
寸法
  6
CONTINUOUS
 10
0.0
 20
0.0
  0
INSERT
  2
*DIM_0068
  8
寸法
  6
CONTINUOUS
 10
0.0
 20
0.0
  0
LINE
  8
別途部材
  6
CONTINUOUS
 10
-98.855937
 20
-9.91856
 11
-98.255937
 21
-9.31856
  0
LINE
  8
別途部材
  6
CONTINUOUS
 10
-95.755937
 20
-6.81856
 11
-83.667053
 21
5.270325
  0
LINE
  8
別途部材
  6
CONTINUOUS
 62
    96
 10
-98.255937
 20
-70.758815
 11
-98.855937
 21
-72.258815
  0
LINE
  8
別途部材
  6
CONTINUOUS
 62
    96
 10
-98.255937
 20
-70.758815
 11
-55.755937
 21
-70.758815
  0
LINE
  8
別途部材
  6
CONTINUOUS
 10
-98.855937
 20
-72.258815
 11
-55.755937
 21
-72.258815
  0
LINE
  8
別途部材
  6
CONTINUOUS
 62
    96
 10
-13.255937
 20
-70.758815
 11
-12.655937
 21
-72.258815
  0
LINE
  8
別途部材
  6
CONTINUOUS
 62
    96
 10
-13.255937
 20
-70.758815
 11
-55.755937
 21
-70.758815
  0
LINE
  8
別途部材
  6
CONTINUOUS
 10
-12.655937
 20
-72.258815
 11
-55.755937
 21
-72.258815
  0
ARC
  8
別途部材
  6
CONTINUOUS
 10
-55.755937
 20
-95.064371
 40
46.805555
 50
31.284493
 51
148.715507
  0
LINE
  8
別途部材
  6
CONTINUOUS
 10
-98.255937
 20
-9.31856
 11
-55.755937
 21
-9.31856
  0
LINE
  8
別途部材
  6
CONTINUOUS
 10
-98.855937
 20
-9.91856
 11
-55.755937
 21
-9.91856
  0
LINE
  8
別途部材
  6
CONTINUOUS
 10
-98.855937
 20
-9.91856
 11
-98.855937
 21
33.18144
  0
LINE
  8
別途部材
  6
CONTINUOUS
 10
-98.255937
 20
-9.31856
 11
-98.255937
 21
33.18144
  0
LINE
  8
別途部材
  6
CONTINUOUS
 10
-98.855937
 20
76.28144
 11
-98.255937
 21
75.68144
  0
LINE
  8
別途部材
  6
CONTINUOUS
 10
-95.755937
 20
73.18144
 11
-83.667053
 21
61.092555
  0
LINE
  8
別途部材
  6
CONTINUOUS
 10
-98.255937
 20
75.68144
 11
-55.755937
 21
75.68144
  0
LINE
  8
別途部材
  6
CONTINUOUS
 10
-98.855937
 20
76.28144
 11
-55.755937
 21
76.28144
  0
LINE
  8
別途部材
  6
CONTINUOUS
 10
-98.855937
 20
76.28144
 11
-98.855937
 21
33.18144
  0
LINE
  8
別途部材
  6
CONTINUOUS
 10
-98.255937
 20
75.68144
 11
-98.255937
 21
33.18144
  0
LINE
  8
別途部材
  6
CONTINUOUS
 10
-12.655937
 20
-9.91856
 11
-13.255937
 21
-9.31856
  0
LINE
  8
別途部材
  6
CONTINUOUS
 10
-15.755937
 20
-6.81856
 11
-27.844823
 21
5.270325
  0
LINE
  8
別途部材
  6
CONTINUOUS
 10
-13.255937
 20
-9.31856
 11
-55.755937
 21
-9.31856
  0
LINE
  8
別途部材
  6
CONTINUOUS
 10
-12.655937
 20
-9.91856
 11
-55.755937
 21
-9.91856
  0
LINE
  8
別途部材
  6
CONTINUOUS
 10
-12.655937
 20
-9.91856
 11
-12.655937
 21
33.18144
  0
LINE
  8
別途部材
  6
CONTINUOUS
 10
-13.255937
 20
-9.31856
 11
-13.255937
 21
33.18144
  0
LINE
  8
別途部材
  6
CONTINUOUS
 10
-12.655937
 20
76.28144
 11
-13.255937
 21
75.68144
  0
LINE
  8
別途部材
  6
CONTINUOUS
 10
-15.755937
 20
73.18144
 11
-27.844823
 21
61.092555
  0
LINE
  8
別途部材
  6
CONTINUOUS
 10
-13.255937
 20
75.68144
 11
-55.755937
 21
75.68144
  0
LINE
  8
別途部材
  6
CONTINUOUS
 10
-12.655937
 20
76.28144
 11
-55.755937
 21
76.28144
  0
LINE
  8
別途部材
  6
CONTINUOUS
 10
-12.655937
 20
76.28144
 11
-12.655937
 21
33.18144
  0
LINE
  8
別途部材
  6
CONTINUOUS
 10
-13.255937
 20
75.68144
 11
-13.255937
 21
33.18144
  0
LINE
  8
別途部材
  6
CONTINUOUS
 62
    96
 10
63.19503
 20
-70.758815
 11
62.59503
 21
-72.258815
  0
LINE
  8
別途部材
  6
CONTINUOUS
 62
    96
 10
63.19503
 20
-70.758815
 11
105.69503
 21
-70.758815
  0
LINE
  8
別途部材
  6
CONTINUOUS
 10
62.59503
 20
-72.258815
 11
105.69503
 21
-72.258815
  0
LINE
  8
別途部材
  6
CONTINUOUS
 62
    96
 10
148.19503
 20
-70.758815
 11
148.79503
 21
-72.258815
  0
LINE
  8
別途部材
  6
CONTINUOUS
 62
    96
 10
148.19503
 20
-70.758815
 11
105.69503
 21
-70.758815
  0
LINE
  8
別途部材
  6
CONTINUOUS
 10
148.79503
 20
-72.258815
 11
105.69503
 21
-72.258815
  0
ARC
  8
別途部材
  6
CONTINUOUS
 10
105.695029
 20
-95.064371
 40
46.805555
 50
31.284493
 51
148.715507
  0
INSERT
  2
*GRP_0061
  8
別途部材
  6
DOT
 10
0.0
 20
0.0
  0
INSERT
  2
*GRP_0062
  8
別途部材
  6
DOT
 10
0.0
 20
0.0
  0
INSERT
  2
*GRP_0063
  8
別途部材
  6
DOT
 10
0.0
 20
0.0
  0
INSERT
  2
*GRP_0064
  8
別途部材
  6
DOT
 10
0.0
 20
0.0
  0
ENDSEC
  0
EOF
