  0
SECTION
  2
HEADER
  9
$EXTMIN
 10
-210.0
 20
-148.5
  9
$EXTMAX
 10
210.0
 20
148.5
  9
$PDMODE
 70
    32
  9
$PDSIZE
 40
1.5
  9
$LTSCALE
 40
10.0
  0
ENDSEC
  0
SECTION
  2
TABLES
  0
TABLE
  2
LTYPE
 70
    15
  0
LTYPE
  2
CONTINUOUS
 70
    64
  3
実線
 72
    65
 73
     0
 40
0.0
  0
LTYPE
  2
DASHED
 70
    64
  3
破線A
 72
    65
 73
     2
 40
0.6
 49
0.4
 49
-0.2
  0
LTYPE
  2
DASHEDX2
 70
    64
  3
破線B
 72
    65
 73
     2
 40
1.3
 49
0.9
 49
-0.4
  0
LTYPE
  2
DASHDOT
 70
    64
  3
１点鎖線A
 72
    65
 73
     4
 40
0.5375
 49
0.375
 49
-0.05
 49
0.0625
 49
-0.05
  0
LTYPE
  2
DASHDOTX2
 70
    64
  3
１点鎖線B
 72
    65
 73
     4
 40
1.075
 49
0.75
 49
-0.1
 49
0.125
 49
-0.1
  0
LTYPE
  2
DIVIDE2
 70
    64
  3
２点鎖線A
 72
    65
 73
     6
 40
0.5125
 49
0.3
 49
-0.0375
 49
0.05
 49
-0.0375
 49
0.05
 49
-0.0375
  0
LTYPE
  2
DIVIDE
 70
    64
  3
２点鎖線B
 72
    65
 73
     6
 40
1.05
 49
0.55
 49
-0.1
 49
0.1
 49
-0.1
 49
0.1
 49
-0.1
  0
LTYPE
  2
DOT
 70
    64
  3
点線A
 72
    65
 73
     2
 40
0.1125
 49
0.0625
 49
-0.05
  0
LTYPE
  2
DOTX2
 70
    64
  3
点線B
 72
    65
 73
     2
 40
0.275
 49
0.15
 49
-0.125
  0
LTYPE
  2
CONTINUOUS
 70
    64
  3
実線
 72
    65
 73
     0
 40
0.0
  0
LTYPE
  2
CONTINUOUS
 70
    64
  3
実線
 72
    65
 73
     0
 40
0.0
  0
LTYPE
  2
CONTINUOUS
 70
    64
  3
実線
 72
    65
 73
     0
 40
0.0
  0
LTYPE
  2
CONTINUOUS
 70
    64
  3
実線
 72
    65
 73
     0
 40
0.0
  0
LTYPE
  2
CONTINUOUS
 70
    64
  3
実線
 72
    65
 73
     0
 40
0.0
  0
LTYPE
  2
CONTINUOUS
 70
    64
  3
実線
 72
    65
 73
     0
 40
0.0
  0
ENDTAB
  0
TABLE
  2
LAYER
 70
    34
  0
LAYER
  2
通り芯
 70
     0
 62
    15
  6
CONTINUOUS
  0
LAYER
  2
補助線
 70
     0
 62
    16
  6
DOT
  0
LAYER
  2
躯体
 70
     0
 62
    31
  6
CONTINUOUS
  0
LAYER
  2
型材
 70
     0
 62
    32
  6
CONTINUOUS
  0
LAYER
  2
型材断面
 70
     0
 62
    47
  6
CONTINUOUS
  0
LAYER
  2
ガラス
 70
     0
 62
    48
  6
CONTINUOUS
  0
LAYER
  2
ゴム等
 70
     0
 62
    63
  6
CONTINUOUS
  0
LAYER
  2
ボルト／ビス
 70
     0
 62
    64
  6
CONTINUOUS
  0
LAYER
  2
文字
 70
     0
 62
    79
  6
CONTINUOUS
  0
LAYER
  2
寸法
 70
     0
 62
    80
  6
CONTINUOUS
  0
LAYER
  2
ﾊｯﾁﾝｸﾞ
 70
     0
 62
    95
  6
CONTINUOUS
  0
LAYER
  2
別途部材
 70
     0
 62
    96
  6
CONTINUOUS
  0
LAYER
  2
曲げ物
 70
     0
 62
   111
  6
CONTINUOUS
  0
LAYER
  2
鉄骨等
 70
     0
 62
   112
  6
CONTINUOUS
  0
LAYER
  2
St
 70
     0
 62
   127
  6
CONTINUOUS
  0
LAYER
  2
その他部品等
 70
     0
 62
   128
  6
CONTINUOUS
  0
LAYER
  2
ｶﾞｽｹｯﾄ
 70
     0
 62
   143
  6
CONTINUOUS
  0
LAYER
  2
ｽｹｯﾁ
 70
     0
 62
    14
  6
CONTINUOUS
  0
LAYER
  2
0
 70
     0
 62
    17
  6
CONTINUOUS
  0
LAYER
  2
1
 70
     0
 62
    30
  6
CONTINUOUS
  0
LAYER
  2
4
 70
     0
 62
    33
  6
CONTINUOUS
  0
LAYER
  2
ﾚｲﾔ3
 70
     0
 62
    46
  6
CONTINUOUS
  0
LAYER
  2
外形線
 70
     0
 62
    49
  6
CONTINUOUS
  0
LAYER
  2
部品
 70
     0
 62
    14
  6
CONTINUOUS
  0
LAYER
  2
サッシ芯
 70
     0
 62
    17
  6
DASHDOTX2
  0
LAYER
  2
寸法線
 70
     0
 62
    62
  6
CONTINUOUS
  0
LAYER
  2
姿図外形線
 70
     0
 62
    65
  6
CONTINUOUS
  0
LAYER
  2
姿補助線
 70
     0
 62
    30
  6
CONTINUOUS
  0
LAYER
  2
透視線
 70
     0
 62
    78
  6
DOT
  0
LAYER
  2
用紙
 70
     0
 62
    81
  6
CONTINUOUS
  0
LAYER
  2
実線図枠
 70
     0
 62
    94
  6
CONTINUOUS
  0
LAYER
  2
補助図枠
 70
     0
 62
    97
  6
CONTINUOUS
  0
LAYER
  2
建具記号
 70
     0
 62
   110
  6
CONTINUOUS
  0
LAYER
  2
補助文字
 70
     0
 62
   113
  6
CONTINUOUS
  0
ENDTAB
  0
TABLE
  2
STYLE
 70
    10
  0
STYLE
  2
STANDARD
 70
     0
 40
1.0
 41
1.0
 42
1.0
 50
0.0
 71
     0
  3
TXT
  4
BIGFONT
  0
STYLE
  2
TATE
 70
     4
 40
1.0
 41
1.0
 42
1.0
 50
0.0
 71
     0
  3
TXT
  4
BIGFONT
  0
STYLE
  2
TextStyle03
 70
     0
 40
1.0
 41
1.0
 42
1.0
 50
0.0
 71
     0
  3
MONOTXT
  4
BIGFONT
  0
STYLE
  2
TextStyle04
 70
     0
 40
1.0
 41
1.0
 42
1.0
 50
0.0
 71
     0
  3
MONOTXT
  4
BIGFONT
  0
STYLE
  2
TextStyle05
 70
     0
 40
1.0
 41
1.0
 42
1.0
 50
0.0
 71
     0
  3
MONOTXT
  4
BIGFONT
  0
STYLE
  2
TextStyle06
 70
     0
 40
1.0
 41
1.0
 42
1.0
 50
0.0
 71
     0
  3
MONOTXT
  4
BIGFONT
  0
STYLE
  2
TextStyle07
 70
     0
 40
1.0
 41
1.0
 42
1.0
 50
0.0
 71
     0
  3
MONOTXT
  4
BIGFONT
  0
STYLE
  2
TextStyle08
 70
     0
 40
1.0
 41
1.0
 42
1.0
 50
0.0
 71
     0
  3
MONOTXT
  4
BIGFONT
  0
STYLE
  2
TextStyle09
 70
     0
 40
1.0
 41
1.0
 42
1.0
 50
0.0
 71
     0
  3
MONOTXT
  4
BIGFONT
  0
STYLE
  2
TextStyle10
 70
     0
 40
1.0
 41
1.0
 42
1.0
 50
0.0
 71
     0
  3
MONOTXT
  4
BIGFONT
  0
ENDTAB
  0
ENDSEC
  0
SECTION
  2
BLOCKS
  0
BLOCK
  2
*GRP_0001
 70
    65
 10
0.0
 20
0.0
  0
LINE
  8
型材断面
  6
CONTINUOUS
 10
195.0
 20
133.5
 11
195.0
 21
-133.5
  0
LINE
  8
型材断面
  6
CONTINUOUS
 10
195.0
 20
-133.5
 11
-185.0
 21
-133.5
  0
LINE
  8
型材断面
  6
CONTINUOUS
 10
-185.0
 20
-133.5
 11
-185.0
 21
133.5
  0
LINE
  8
型材断面
  6
CONTINUOUS
 10
195.0
 20
133.5
 11
-185.0
 21
133.5
  0
LINE
  8
型材断面
  6
CONTINUOUS
 10
145.0
 20
-133.5
 11
145.0
 21
-118.5
  0
LINE
  8
型材断面
  6
CONTINUOUS
 10
195.0
 20
-118.5
 11
145.0
 21
-118.5
  0
ENDBLK
  0
BLOCK
  2
*DIM_0002
 70
    65
 10
0.0
 20
0.0
  0
LINE
  8
寸法
  6
BYBLOCK
 62
     0
 10
-30.658375
 20
-92.406337
 11
-14.991043
 21
-92.406337
  0
LINE
  8
寸法
  6
BYBLOCK
 62
     0
 10
-32.103695
 20
-80.96609
 11
-14.991043
 21
-80.96609
  0
LINE
  8
寸法
  6
BYBLOCK
 62
     0
 10
-14.991043
 20
-92.406337
 11
-14.991043
 21
-80.96609
  0
POINT
  8
寸法
 62
     0
 10
-14.991043
 20
-92.406337
  0
POINT
  8
寸法
 62
     0
 10
-14.991043
 20
-80.96609
  0
TEXT
  7
TextStyle03
  8
寸法
  6
CONTINUOUS
 62
     0
 10
-15.375
 20
-90.8
  1
228.8
 40
3.0
 50
90.0
 72
     5
 11
-15.375
 21
-82.55
  0
ENDBLK
  0
BLOCK
  2
*DIM_0003
 70
    65
 10
0.0
 20
0.0
  0
LINE
  8
寸法
  6
BYBLOCK
 62
     0
 10
-139.38576
 20
-44.812283
 11
-39.38576
 21
-44.812283
  0
POINT
  8
寸法
 62
     0
 10
-139.38576
 20
-44.812283
  0
POINT
  8
寸法
 62
     0
 10
-39.38576
 20
-44.812283
  0
TEXT
  7
TextStyle03
  8
寸法
  6
CONTINUOUS
 62
     0
 10
-101.11875
 20
-44.45
  1
呼称寸法　2000
 40
3.0
 72
     5
 11
-77.68125
 21
-44.45
  0
ENDBLK
  0
BLOCK
  2
*GRP_0004
 70
    65
 10
0.0
 20
0.0
  0
POLYLINE
  8
寸法
  6
BYBLOCK
 62
     0
 66
     1
  0
VERTEX
  8
寸法
 10
-42.6251
 20
9.258137
  0
VERTEX
  8
寸法
 10
-36.208597
 20
2.841635
  0
VERTEX
  8
寸法
 10
-30.30147
 20
2.841635
  0
SEQEND
  0
ENDBLK
  0
BLOCK
  2
*DIM_0005
 70
    65
 10
0.0
 20
0.0
  0
LINE
  8
寸法
  6
BYBLOCK
 62
     0
 10
-38.385757
 20
82.974165
 11
-22.296257
 21
82.974165
  0
LINE
  8
寸法
  6
BYBLOCK
 62
     0
 10
-30.36188
 20
77.124165
 11
-22.296257
 21
77.124165
  0
LINE
  8
寸法
  6
BYBLOCK
 62
     0
 10
-22.296257
 20
82.974165
 11
-22.296257
 21
77.124165
  0
POINT
  8
寸法
 62
     0
 10
-22.296257
 20
82.974165
  0
POINT
  8
寸法
 62
     0
 10
-22.296257
 20
77.124165
  0
TEXT
  7
TextStyle03
  8
寸法
  6
CONTINUOUS
 62
     0
 10
-22.675
 20
77.5625
  1
117
 40
3.0
 50
90.0
 72
     5
 11
-22.675
 21
82.4375
  0
ENDBLK
  0
BLOCK
  2
*DIM_0006
 70
    65
 10
0.0
 20
0.0
  0
LINE
  8
寸法
  6
BYBLOCK
 62
     0
 10
-38.385757
 20
-17.025835
 11
-22.296257
 21
-17.025835
  0
LINE
  8
寸法
  6
BYBLOCK
 62
     0
 10
-30.36188
 20
-11.175835
 11
-22.296257
 21
-11.175835
  0
LINE
  8
寸法
  6
BYBLOCK
 62
     0
 10
-22.296257
 20
-17.025835
 11
-22.296257
 21
-11.175835
  0
POINT
  8
寸法
 62
     0
 10
-22.296257
 20
-17.025835
  0
POINT
  8
寸法
 62
     0
 10
-22.296257
 20
-11.175835
  0
TEXT
  7
TextStyle03
  8
寸法
  6
CONTINUOUS
 62
     0
 10
-22.675
 20
-16.5625
  1
117
 40
3.0
 50
90.0
 72
     5
 11
-22.675
 21
-11.6875
  0
ENDBLK
  0
BLOCK
  2
*DIM_0007
 70
    65
 10
0.0
 20
0.0
  0
LINE
  8
寸法
  6
BYBLOCK
 62
     0
 10
-35.96576
 20
-85.700055
 11
-35.96576
 21
-44.812283
  0
LINE
  8
寸法
  6
BYBLOCK
 62
     0
 10
-39.38576
 20
-44.812283
 11
-35.96576
 21
-44.812283
  0
POINT
  8
寸法
 62
     0
 10
-39.38576
 20
-44.812283
  0
POINT
  8
寸法
 62
     0
 10
-35.96576
 20
-44.812283
  0
TEXT
  7
TextStyle03
  8
寸法
  6
CONTINUOUS
 62
     0
 10
-34.23125
 20
-44.45
  1
68.4
 40
3.0
 72
     5
 11
-27.66875
 21
-44.45
  0
ENDBLK
  0
BLOCK
  2
*DIM_0008
 70
    65
 10
0.0
 20
0.0
  0
LINE
  8
寸法
  6
BYBLOCK
 62
     0
 10
-142.80576
 20
-85.700055
 11
-142.80576
 21
-44.812283
  0
LINE
  8
寸法
  6
BYBLOCK
 62
     0
 10
-139.38576
 20
-44.812283
 11
-142.80576
 21
-44.812283
  0
POINT
  8
寸法
 62
     0
 10
-139.38576
 20
-44.812283
  0
POINT
  8
寸法
 62
     0
 10
-142.80576
 20
-44.812283
  0
TEXT
  7
TextStyle03
  8
寸法
  6
CONTINUOUS
 62
     0
 10
-151.13125
 20
-44.45
  1
68.4
 40
3.0
 72
     5
 11
-144.56875
 21
-44.45
  0
ENDBLK
  0
BLOCK
  2
*GRP_0009
 70
    65
 10
0.0
 20
0.0
  0
POLYLINE
  8
寸法
  6
BYBLOCK
 62
     0
 66
     1
  0
VERTEX
  8
寸法
 10
-136.14641
 20
64.28018
  0
VERTEX
  8
寸法
 10
-142.562907
 20
70.696685
  0
VERTEX
  8
寸法
 10
-148.470035
 20
70.696688
  0
SEQEND
  0
ENDBLK
  0
BLOCK
  2
*DIM_0010
 70
    65
 10
0.0
 20
0.0
  0
LINE
  8
寸法
  6
BYBLOCK
 62
     0
 10
-124.38576
 20
108.229165
 11
-124.38576
 21
119.15992
  0
LINE
  8
寸法
  6
BYBLOCK
 62
     0
 10
-89.38576
 20
108.229165
 11
-89.38576
 21
119.15992
  0
LINE
  8
寸法
  6
BYBLOCK
 62
     0
 10
-124.38576
 20
119.15992
 11
-89.38576
 21
119.15992
  0
POINT
  8
寸法
 62
     0
 10
-124.38576
 20
119.15992
  0
POINT
  8
寸法
 62
     0
 10
-89.38576
 20
119.15992
  0
TEXT
  7
TextStyle03
  8
寸法
  6
CONTINUOUS
 62
     0
 10
-109.3375
 20
119.55
  1
700
 40
3.0
 72
     5
 11
-104.4625
 21
119.55
  0
ENDBLK
  0
BLOCK
  2
*DIM_0011
 70
    65
 10
0.0
 20
0.0
  0
LINE
  8
寸法
  6
BYBLOCK
 62
     0
 10
-54.38576
 20
108.229165
 11
-54.38576
 21
119.15992
  0
LINE
  8
寸法
  6
BYBLOCK
 62
     0
 10
-89.38576
 20
119.15992
 11
-54.38576
 21
119.15992
  0
POINT
  8
寸法
 62
     0
 10
-54.38576
 20
119.15992
  0
TEXT
  7
TextStyle03
  8
寸法
  6
CONTINUOUS
 62
     0
 10
-74.3375
 20
119.55
  1
700
 40
3.0
 72
     5
 11
-69.4625
 21
119.55
  0
ENDBLK
  0
BLOCK
  2
*DIM_0012
 70
    65
 10
0.0
 20
0.0
  0
LINE
  8
寸法
  6
BYBLOCK
 62
     0
 10
-164.64076
 20
67.974165
 11
-175.571515
 21
67.974167
  0
LINE
  8
寸法
  6
BYBLOCK
 62
     0
 10
-164.640762
 20
32.974165
 11
-175.571518
 21
32.974167
  0
LINE
  8
寸法
  6
BYBLOCK
 62
     0
 10
-175.571515
 20
67.974167
 11
-175.571518
 21
32.974167
  0
POINT
  8
寸法
 62
     0
 10
-175.571515
 20
67.974167
  0
POINT
  8
寸法
 62
     0
 10
-175.571518
 20
32.974167
  0
TEXT
  7
TextStyle03
  8
寸法
  6
CONTINUOUS
 62
     0
 10
-175.95
 20
48.0375
  1
700
 40
3.0
 50
90.0
 72
     5
 11
-175.95
 21
52.9125
  0
ENDBLK
  0
BLOCK
  2
*DIM_0013
 70
    65
 10
0.0
 20
0.0
  0
LINE
  8
寸法
  6
BYBLOCK
 62
     0
 10
-164.640762
 20
32.974165
 11
-175.571518
 21
32.97417
  0
LINE
  8
寸法
  6
BYBLOCK
 62
     0
 10
-164.640765
 20
-2.025835
 11
-175.57152
 21
-2.02583
  0
LINE
  8
寸法
  6
BYBLOCK
 62
     0
 10
-175.571518
 20
32.97417
 11
-175.57152
 21
-2.02583
  0
POINT
  8
寸法
 62
     0
 10
-175.57152
 20
-2.02583
  0
TEXT
  7
TextStyle03
  8
寸法
  6
CONTINUOUS
 62
     0
 10
-175.95
 20
13.0375
  1
700
 40
3.0
 50
90.0
 72
     5
 11
-175.95
 21
17.9125
  0
ENDBLK
  0
BLOCK
  2
*DIM_0014
 70
    65
 10
0.0
 20
0.0
  0
LINE
  8
寸法
  6
CONTINUOUS
 10
142.954112
 20
24.692915
 11
160.010855
 21
24.692915
  0
LINE
  8
寸法
  6
CONTINUOUS
 10
142.954112
 20
73.192915
 11
160.010855
 21
73.192915
  0
LINE
  8
寸法
  6
CONTINUOUS
 10
160.010855
 20
24.692915
 11
160.010855
 21
73.192915
  0
POINT
  8
寸法
 10
160.010855
 20
24.692915
  0
POINT
  8
寸法
 10
160.010855
 20
73.192915
  0
TEXT
  7
TextStyle03
  8
寸法
  6
CONTINUOUS
 10
159.625
 20
46.4875
  1
970
 40
3.0
 50
90.0
 72
     5
 11
159.625
 21
51.3625
  0
ENDBLK
  0
BLOCK
  2
*DIM_0015
 70
    65
 10
0.0
 20
0.0
  0
LINE
  8
寸法
  6
CONTINUOUS
 10
138.0134
 20
75.71468
 11
138.0134
 21
93.653693
  0
LINE
  8
寸法
  6
CONTINUOUS
 10
39.0134
 20
75.71468
 11
39.0134
 21
93.653693
  0
LINE
  8
寸法
  6
CONTINUOUS
 10
138.0134
 20
93.653693
 11
39.0134
 21
93.653693
  0
POINT
  8
寸法
 10
138.0134
 20
93.653693
  0
POINT
  8
寸法
 10
39.0134
 20
93.653693
  0
TEXT
  7
TextStyle03
  8
寸法
  6
CONTINUOUS
 10
85.21875
 20
94.0
  1
1980
 40
3.0
 72
     5
 11
91.78125
 21
94.0
  0
ENDBLK
  0
BLOCK
  2
*GRP_0016
 70
    65
 10
0.0
 20
0.0
  0
INSERT
  2
*GRP_0022
  8
補助線
  6
CONTINUOUS
 10
0.0
 20
0.0
  0
LINE
  8
ボルト／ビス
  6
CONTINUOUS
 10
-38.097085
 20
-4.525835
 11
-38.241423
 21
-4.275835
  0
LINE
  8
ボルト／ビス
  6
CONTINUOUS
 10
-38.097085
 20
-4.525835
 11
-38.241423
 21
-4.775835
  0
LINE
  8
ボルト／ビス
  6
CONTINUOUS
 10
-38.530098
 20
-4.275835
 11
-38.674435
 21
-4.525835
  0
LINE
  8
ボルト／ビス
  6
CONTINUOUS
 10
-38.530098
 20
-4.775835
 11
-38.674435
 21
-4.525835
  0
CIRCLE
  8
ボルト／ビス
  6
CONTINUOUS
 10
-38.38576
 20
-4.525835
 40
0.25
  0
LINE
  8
ボルト／ビス
  6
CONTINUOUS
 10
-38.241423
 20
-4.775835
 11
-38.530098
 21
-4.775835
  0
LINE
  8
ボルト／ビス
  6
CONTINUOUS
 10
-38.530098
 20
-4.275835
 11
-38.241423
 21
-4.275835
  0
ENDBLK
  0
BLOCK
  2
*GRP_0017
 70
    65
 10
0.0
 20
0.0
  0
INSERT
  2
*GRP_0023
  8
補助線
  6
CONTINUOUS
 10
0.0
 20
0.0
  0
LINE
  8
ボルト／ビス
  6
CONTINUOUS
 10
-38.097085
 20
10.474165
 11
-38.241423
 21
10.724165
  0
LINE
  8
ボルト／ビス
  6
CONTINUOUS
 10
-38.097085
 20
10.474165
 11
-38.241423
 21
10.224165
  0
LINE
  8
ボルト／ビス
  6
CONTINUOUS
 10
-38.530098
 20
10.724165
 11
-38.674435
 21
10.474165
  0
LINE
  8
ボルト／ビス
  6
CONTINUOUS
 10
-38.530098
 20
10.224165
 11
-38.674435
 21
10.474165
  0
CIRCLE
  8
ボルト／ビス
  6
CONTINUOUS
 10
-38.38576
 20
10.474165
 40
0.25
  0
LINE
  8
ボルト／ビス
  6
CONTINUOUS
 10
-38.241423
 20
10.224165
 11
-38.530098
 21
10.224165
  0
LINE
  8
ボルト／ビス
  6
CONTINUOUS
 10
-38.530098
 20
10.724165
 11
-38.241423
 21
10.724165
  0
ENDBLK
  0
BLOCK
  2
*GRP_0018
 70
    65
 10
0.0
 20
0.0
  0
INSERT
  2
*GRP_0024
  8
補助線
  6
CONTINUOUS
 10
0.0
 20
0.0
  0
LINE
  8
ボルト／ビス
  6
CONTINUOUS
 10
-38.097085
 20
25.474165
 11
-38.241423
 21
25.724165
  0
LINE
  8
ボルト／ビス
  6
CONTINUOUS
 10
-38.097085
 20
25.474165
 11
-38.241423
 21
25.224165
  0
LINE
  8
ボルト／ビス
  6
CONTINUOUS
 10
-38.530098
 20
25.724165
 11
-38.674435
 21
25.474165
  0
LINE
  8
ボルト／ビス
  6
CONTINUOUS
 10
-38.530098
 20
25.224165
 11
-38.674435
 21
25.474165
  0
CIRCLE
  8
ボルト／ビス
  6
CONTINUOUS
 10
-38.38576
 20
25.474165
 40
0.25
  0
LINE
  8
ボルト／ビス
  6
CONTINUOUS
 10
-38.241423
 20
25.224165
 11
-38.530098
 21
25.224165
  0
LINE
  8
ボルト／ビス
  6
CONTINUOUS
 10
-38.530098
 20
25.724165
 11
-38.241423
 21
25.724165
  0
ENDBLK
  0
BLOCK
  2
*GRP_0019
 70
    65
 10
0.0
 20
0.0
  0
INSERT
  2
*GRP_0025
  8
補助線
  6
CONTINUOUS
 10
0.0
 20
0.0
  0
LINE
  8
ボルト／ビス
  6
CONTINUOUS
 10
-38.097085
 20
40.474165
 11
-38.241423
 21
40.724165
  0
LINE
  8
ボルト／ビス
  6
CONTINUOUS
 10
-38.097085
 20
40.474165
 11
-38.241423
 21
40.224165
  0
LINE
  8
ボルト／ビス
  6
CONTINUOUS
 10
-38.530098
 20
40.724165
 11
-38.674435
 21
40.474165
  0
LINE
  8
ボルト／ビス
  6
CONTINUOUS
 10
-38.530098
 20
40.224165
 11
-38.674435
 21
40.474165
  0
CIRCLE
  8
ボルト／ビス
  6
CONTINUOUS
 10
-38.38576
 20
40.474165
 40
0.25
  0
LINE
  8
ボルト／ビス
  6
CONTINUOUS
 10
-38.241423
 20
40.224165
 11
-38.530098
 21
40.224165
  0
LINE
  8
ボルト／ビス
  6
CONTINUOUS
 10
-38.530098
 20
40.724165
 11
-38.241423
 21
40.724165
  0
ENDBLK
  0
BLOCK
  2
*GRP_0020
 70
    65
 10
0.0
 20
0.0
  0
INSERT
  2
*GRP_0026
  8
補助線
  6
CONTINUOUS
 10
0.0
 20
0.0
  0
LINE
  8
ボルト／ビス
  6
CONTINUOUS
 10
-38.097085
 20
70.474165
 11
-38.241423
 21
70.224165
  0
LINE
  8
ボルト／ビス
  6
CONTINUOUS
 10
-38.097085
 20
70.474165
 11
-38.241423
 21
70.724165
  0
LINE
  8
ボルト／ビス
  6
CONTINUOUS
 10
-38.530098
 20
70.224165
 11
-38.674435
 21
70.474165
  0
LINE
  8
ボルト／ビス
  6
CONTINUOUS
 10
-38.530098
 20
70.724165
 11
-38.674435
 21
70.474165
  0
CIRCLE
  8
ボルト／ビス
  6
CONTINUOUS
 10
-38.38576
 20
70.474165
 40
0.25
  0
LINE
  8
ボルト／ビス
  6
CONTINUOUS
 10
-38.241423
 20
70.724165
 11
-38.530098
 21
70.724165
  0
LINE
  8
ボルト／ビス
  6
CONTINUOUS
 10
-38.530098
 20
70.224165
 11
-38.241423
 21
70.224165
  0
ENDBLK
  0
BLOCK
  2
*GRP_0021
 70
    65
 10
0.0
 20
0.0
  0
INSERT
  2
*GRP_0027
  8
補助線
  6
CONTINUOUS
 10
0.0
 20
0.0
  0
LINE
  8
ボルト／ビス
  6
CONTINUOUS
 10
-38.097085
 20
55.474165
 11
-38.241423
 21
55.224165
  0
LINE
  8
ボルト／ビス
  6
CONTINUOUS
 10
-38.097085
 20
55.474165
 11
-38.241423
 21
55.724165
  0
LINE
  8
ボルト／ビス
  6
CONTINUOUS
 10
-38.530098
 20
55.224165
 11
-38.674435
 21
55.474165
  0
LINE
  8
ボルト／ビス
  6
CONTINUOUS
 10
-38.530098
 20
55.724165
 11
-38.674435
 21
55.474165
  0
CIRCLE
  8
ボルト／ビス
  6
CONTINUOUS
 10
-38.38576
 20
55.474165
 40
0.25
  0
LINE
  8
ボルト／ビス
  6
CONTINUOUS
 10
-38.241423
 20
55.724165
 11
-38.530098
 21
55.724165
  0
LINE
  8
ボルト／ビス
  6
CONTINUOUS
 10
-38.530098
 20
55.224165
 11
-38.241423
 21
55.224165
  0
ENDBLK
  0
BLOCK
  2
*GRP_0022
 70
    65
 10
0.0
 20
0.0
  0
LINE
  8
補助線
  6
BYBLOCK
 62
     0
 10
-38.38576
 20
-4.650835
 11
-38.38576
 21
-4.400835
  0
LINE
  8
補助線
  6
BYBLOCK
 62
     0
 10
-38.26076
 20
-4.525835
 11
-38.51076
 21
-4.525835
  0
ENDBLK
  0
BLOCK
  2
*GRP_0023
 70
    65
 10
0.0
 20
0.0
  0
LINE
  8
補助線
  6
BYBLOCK
 62
     0
 10
-38.38576
 20
10.349165
 11
-38.38576
 21
10.599165
  0
LINE
  8
補助線
  6
BYBLOCK
 62
     0
 10
-38.26076
 20
10.474165
 11
-38.51076
 21
10.474165
  0
ENDBLK
  0
BLOCK
  2
*GRP_0024
 70
    65
 10
0.0
 20
0.0
  0
LINE
  8
補助線
  6
BYBLOCK
 62
     0
 10
-38.38576
 20
25.349165
 11
-38.38576
 21
25.599165
  0
LINE
  8
補助線
  6
BYBLOCK
 62
     0
 10
-38.26076
 20
25.474165
 11
-38.51076
 21
25.474165
  0
ENDBLK
  0
BLOCK
  2
*GRP_0025
 70
    65
 10
0.0
 20
0.0
  0
LINE
  8
補助線
  6
BYBLOCK
 62
     0
 10
-38.38576
 20
40.349165
 11
-38.38576
 21
40.599165
  0
LINE
  8
補助線
  6
BYBLOCK
 62
     0
 10
-38.26076
 20
40.474165
 11
-38.51076
 21
40.474165
  0
ENDBLK
  0
BLOCK
  2
*GRP_0026
 70
    65
 10
0.0
 20
0.0
  0
LINE
  8
補助線
  6
BYBLOCK
 62
     0
 10
-38.38576
 20
70.599165
 11
-38.38576
 21
70.349165
  0
LINE
  8
補助線
  6
BYBLOCK
 62
     0
 10
-38.26076
 20
70.474165
 11
-38.51076
 21
70.474165
  0
ENDBLK
  0
BLOCK
  2
*GRP_0027
 70
    65
 10
0.0
 20
0.0
  0
LINE
  8
補助線
  6
BYBLOCK
 62
     0
 10
-38.38576
 20
55.599165
 11
-38.38576
 21
55.349165
  0
LINE
  8
補助線
  6
BYBLOCK
 62
     0
 10
-38.26076
 20
55.474165
 11
-38.51076
 21
55.474165
  0
ENDBLK
  0
BLOCK
  2
*GRP_0028
 70
    65
 10
0.0
 20
0.0
  0
INSERT
  2
*GRP_0034
  8
補助線
  6
CONTINUOUS
 10
0.0
 20
0.0
  0
LINE
  8
ボルト／ビス
  6
CONTINUOUS
 10
-126.88576
 20
84.26284
 11
-126.63576
 21
84.118503
  0
LINE
  8
ボルト／ビス
  6
CONTINUOUS
 10
-126.88576
 20
84.26284
 11
-127.13576
 21
84.118503
  0
LINE
  8
ボルト／ビス
  6
CONTINUOUS
 10
-126.63576
 20
83.829827
 11
-126.88576
 21
83.68549
  0
LINE
  8
ボルト／ビス
  6
CONTINUOUS
 10
-127.13576
 20
83.829827
 11
-126.88576
 21
83.68549
  0
CIRCLE
  8
ボルト／ビス
  6
CONTINUOUS
 10
-126.88576
 20
83.974165
 40
0.25
  0
LINE
  8
ボルト／ビス
  6
CONTINUOUS
 10
-127.13576
 20
84.118503
 11
-127.13576
 21
83.829827
  0
LINE
  8
ボルト／ビス
  6
CONTINUOUS
 10
-126.63576
 20
83.829827
 11
-126.63576
 21
84.118503
  0
ENDBLK
  0
BLOCK
  2
*GRP_0029
 70
    65
 10
0.0
 20
0.0
  0
INSERT
  2
*GRP_0035
  8
補助線
  6
CONTINUOUS
 10
0.0
 20
0.0
  0
LINE
  8
ボルト／ビス
  6
CONTINUOUS
 10
-111.88576
 20
84.26284
 11
-111.63576
 21
84.118503
  0
LINE
  8
ボルト／ビス
  6
CONTINUOUS
 10
-111.88576
 20
84.26284
 11
-112.13576
 21
84.118503
  0
LINE
  8
ボルト／ビス
  6
CONTINUOUS
 10
-111.63576
 20
83.829827
 11
-111.88576
 21
83.68549
  0
LINE
  8
ボルト／ビス
  6
CONTINUOUS
 10
-112.13576
 20
83.829827
 11
-111.88576
 21
83.68549
  0
CIRCLE
  8
ボルト／ビス
  6
CONTINUOUS
 10
-111.88576
 20
83.974165
 40
0.25
  0
LINE
  8
ボルト／ビス
  6
CONTINUOUS
 10
-112.13576
 20
84.118503
 11
-112.13576
 21
83.829827
  0
LINE
  8
ボルト／ビス
  6
CONTINUOUS
 10
-111.63576
 20
83.829827
 11
-111.63576
 21
84.118503
  0
ENDBLK
  0
BLOCK
  2
*GRP_0030
 70
    65
 10
0.0
 20
0.0
  0
INSERT
  2
*GRP_0036
  8
補助線
  6
CONTINUOUS
 10
0.0
 20
0.0
  0
LINE
  8
ボルト／ビス
  6
CONTINUOUS
 10
-96.88576
 20
84.26284
 11
-96.63576
 21
84.118503
  0
LINE
  8
ボルト／ビス
  6
CONTINUOUS
 10
-96.88576
 20
84.26284
 11
-97.13576
 21
84.118503
  0
LINE
  8
ボルト／ビス
  6
CONTINUOUS
 10
-96.63576
 20
83.829827
 11
-96.88576
 21
83.68549
  0
LINE
  8
ボルト／ビス
  6
CONTINUOUS
 10
-97.13576
 20
83.829827
 11
-96.88576
 21
83.68549
  0
CIRCLE
  8
ボルト／ビス
  6
CONTINUOUS
 10
-96.88576
 20
83.974165
 40
0.25
  0
LINE
  8
ボルト／ビス
  6
CONTINUOUS
 10
-97.13576
 20
84.118503
 11
-97.13576
 21
83.829827
  0
LINE
  8
ボルト／ビス
  6
CONTINUOUS
 10
-96.63576
 20
83.829827
 11
-96.63576
 21
84.118503
  0
ENDBLK
  0
BLOCK
  2
*GRP_0031
 70
    65
 10
0.0
 20
0.0
  0
INSERT
  2
*GRP_0037
  8
補助線
  6
CONTINUOUS
 10
0.0
 20
0.0
  0
LINE
  8
ボルト／ビス
  6
CONTINUOUS
 10
-81.88576
 20
84.26284
 11
-81.63576
 21
84.118503
  0
LINE
  8
ボルト／ビス
  6
CONTINUOUS
 10
-81.88576
 20
84.26284
 11
-82.13576
 21
84.118503
  0
LINE
  8
ボルト／ビス
  6
CONTINUOUS
 10
-81.63576
 20
83.829827
 11
-81.88576
 21
83.68549
  0
LINE
  8
ボルト／ビス
  6
CONTINUOUS
 10
-82.13576
 20
83.829827
 11
-81.88576
 21
83.68549
  0
CIRCLE
  8
ボルト／ビス
  6
CONTINUOUS
 10
-81.88576
 20
83.974165
 40
0.25
  0
LINE
  8
ボルト／ビス
  6
CONTINUOUS
 10
-82.13576
 20
84.118503
 11
-82.13576
 21
83.829827
  0
LINE
  8
ボルト／ビス
  6
CONTINUOUS
 10
-81.63576
 20
83.829827
 11
-81.63576
 21
84.118503
  0
ENDBLK
  0
BLOCK
  2
*GRP_0032
 70
    65
 10
0.0
 20
0.0
  0
INSERT
  2
*GRP_0038
  8
補助線
  6
CONTINUOUS
 10
0.0
 20
0.0
  0
LINE
  8
ボルト／ビス
  6
CONTINUOUS
 10
-51.88576
 20
84.26284
 11
-52.13576
 21
84.118503
  0
LINE
  8
ボルト／ビス
  6
CONTINUOUS
 10
-51.88576
 20
84.26284
 11
-51.63576
 21
84.118503
  0
LINE
  8
ボルト／ビス
  6
CONTINUOUS
 10
-52.13576
 20
83.829827
 11
-51.88576
 21
83.68549
  0
LINE
  8
ボルト／ビス
  6
CONTINUOUS
 10
-51.63576
 20
83.829827
 11
-51.88576
 21
83.68549
  0
CIRCLE
  8
ボルト／ビス
  6
CONTINUOUS
 10
-51.88576
 20
83.974165
 40
0.25
  0
LINE
  8
ボルト／ビス
  6
CONTINUOUS
 10
-51.63576
 20
84.118503
 11
-51.63576
 21
83.829827
  0
LINE
  8
ボルト／ビス
  6
CONTINUOUS
 10
-52.13576
 20
83.829827
 11
-52.13576
 21
84.118503
  0
ENDBLK
  0
BLOCK
  2
*GRP_0033
 70
    65
 10
0.0
 20
0.0
  0
INSERT
  2
*GRP_0039
  8
補助線
  6
CONTINUOUS
 10
0.0
 20
0.0
  0
LINE
  8
ボルト／ビス
  6
CONTINUOUS
 10
-66.88576
 20
84.26284
 11
-67.13576
 21
84.118503
  0
LINE
  8
ボルト／ビス
  6
CONTINUOUS
 10
-66.88576
 20
84.26284
 11
-66.63576
 21
84.118503
  0
LINE
  8
ボルト／ビス
  6
CONTINUOUS
 10
-67.13576
 20
83.829827
 11
-66.88576
 21
83.68549
  0
LINE
  8
ボルト／ビス
  6
CONTINUOUS
 10
-66.63576
 20
83.829827
 11
-66.88576
 21
83.68549
  0
CIRCLE
  8
ボルト／ビス
  6
CONTINUOUS
 10
-66.88576
 20
83.974165
 40
0.25
  0
LINE
  8
ボルト／ビス
  6
CONTINUOUS
 10
-66.63576
 20
84.118503
 11
-66.63576
 21
83.829827
  0
LINE
  8
ボルト／ビス
  6
CONTINUOUS
 10
-67.13576
 20
83.829827
 11
-67.13576
 21
84.118503
  0
ENDBLK
  0
BLOCK
  2
*GRP_0034
 70
    65
 10
0.0
 20
0.0
  0
LINE
  8
補助線
  6
BYBLOCK
 62
     0
 10
-127.01076
 20
83.974165
 11
-126.76076
 21
83.974165
  0
LINE
  8
補助線
  6
BYBLOCK
 62
     0
 10
-126.88576
 20
84.099165
 11
-126.88576
 21
83.849165
  0
ENDBLK
  0
BLOCK
  2
*GRP_0035
 70
    65
 10
0.0
 20
0.0
  0
LINE
  8
補助線
  6
BYBLOCK
 62
     0
 10
-112.01076
 20
83.974165
 11
-111.76076
 21
83.974165
  0
LINE
  8
補助線
  6
BYBLOCK
 62
     0
 10
-111.88576
 20
84.099165
 11
-111.88576
 21
83.849165
  0
ENDBLK
  0
BLOCK
  2
*GRP_0036
 70
    65
 10
0.0
 20
0.0
  0
LINE
  8
補助線
  6
BYBLOCK
 62
     0
 10
-97.01076
 20
83.974165
 11
-96.76076
 21
83.974165
  0
LINE
  8
補助線
  6
BYBLOCK
 62
     0
 10
-96.88576
 20
84.099165
 11
-96.88576
 21
83.849165
  0
ENDBLK
  0
BLOCK
  2
*GRP_0037
 70
    65
 10
0.0
 20
0.0
  0
LINE
  8
補助線
  6
BYBLOCK
 62
     0
 10
-82.01076
 20
83.974165
 11
-81.76076
 21
83.974165
  0
LINE
  8
補助線
  6
BYBLOCK
 62
     0
 10
-81.88576
 20
84.099165
 11
-81.88576
 21
83.849165
  0
ENDBLK
  0
BLOCK
  2
*GRP_0038
 70
    65
 10
0.0
 20
0.0
  0
LINE
  8
補助線
  6
BYBLOCK
 62
     0
 10
-51.76076
 20
83.974165
 11
-52.01076
 21
83.974165
  0
LINE
  8
補助線
  6
BYBLOCK
 62
     0
 10
-51.88576
 20
84.099165
 11
-51.88576
 21
83.849165
  0
ENDBLK
  0
BLOCK
  2
*GRP_0039
 70
    65
 10
0.0
 20
0.0
  0
LINE
  8
補助線
  6
BYBLOCK
 62
     0
 10
-66.76076
 20
83.974165
 11
-67.01076
 21
83.974165
  0
LINE
  8
補助線
  6
BYBLOCK
 62
     0
 10
-66.88576
 20
84.099165
 11
-66.88576
 21
83.849165
  0
ENDBLK
  0
BLOCK
  2
*GRP_0040
 70
    65
 10
0.0
 20
0.0
  0
INSERT
  2
*GRP_0046
  8
補助線
  6
CONTINUOUS
 10
0.0
 20
0.0
  0
LINE
  8
ボルト／ビス
  6
CONTINUOUS
 10
-140.674435
 20
70.474165
 11
-140.530098
 21
70.224165
  0
LINE
  8
ボルト／ビス
  6
CONTINUOUS
 10
-140.674435
 20
70.474165
 11
-140.530098
 21
70.724165
  0
LINE
  8
ボルト／ビス
  6
CONTINUOUS
 10
-140.241423
 20
70.224165
 11
-140.097085
 21
70.474165
  0
LINE
  8
ボルト／ビス
  6
CONTINUOUS
 10
-140.241423
 20
70.724165
 11
-140.097085
 21
70.474165
  0
CIRCLE
  8
ボルト／ビス
  6
CONTINUOUS
 10
-140.38576
 20
70.474165
 40
0.25
  0
LINE
  8
ボルト／ビス
  6
CONTINUOUS
 10
-140.530098
 20
70.724165
 11
-140.241423
 21
70.724165
  0
LINE
  8
ボルト／ビス
  6
CONTINUOUS
 10
-140.241423
 20
70.224165
 11
-140.530098
 21
70.224165
  0
ENDBLK
  0
BLOCK
  2
*GRP_0041
 70
    65
 10
0.0
 20
0.0
  0
INSERT
  2
*GRP_0047
  8
補助線
  6
CONTINUOUS
 10
0.0
 20
0.0
  0
LINE
  8
ボルト／ビス
  6
CONTINUOUS
 10
-140.674435
 20
55.474165
 11
-140.530098
 21
55.224165
  0
LINE
  8
ボルト／ビス
  6
CONTINUOUS
 10
-140.674435
 20
55.474165
 11
-140.530098
 21
55.724165
  0
LINE
  8
ボルト／ビス
  6
CONTINUOUS
 10
-140.241423
 20
55.224165
 11
-140.097085
 21
55.474165
  0
LINE
  8
ボルト／ビス
  6
CONTINUOUS
 10
-140.241423
 20
55.724165
 11
-140.097085
 21
55.474165
  0
CIRCLE
  8
ボルト／ビス
  6
CONTINUOUS
 10
-140.38576
 20
55.474165
 40
0.25
  0
LINE
  8
ボルト／ビス
  6
CONTINUOUS
 10
-140.530098
 20
55.724165
 11
-140.241423
 21
55.724165
  0
LINE
  8
ボルト／ビス
  6
CONTINUOUS
 10
-140.241423
 20
55.224165
 11
-140.530098
 21
55.224165
  0
ENDBLK
  0
BLOCK
  2
*GRP_0042
 70
    65
 10
0.0
 20
0.0
  0
INSERT
  2
*GRP_0048
  8
補助線
  6
CONTINUOUS
 10
0.0
 20
0.0
  0
LINE
  8
ボルト／ビス
  6
CONTINUOUS
 10
-140.674435
 20
40.474165
 11
-140.530098
 21
40.224165
  0
LINE
  8
ボルト／ビス
  6
CONTINUOUS
 10
-140.674435
 20
40.474165
 11
-140.530098
 21
40.724165
  0
LINE
  8
ボルト／ビス
  6
CONTINUOUS
 10
-140.241423
 20
40.224165
 11
-140.097085
 21
40.474165
  0
LINE
  8
ボルト／ビス
  6
CONTINUOUS
 10
-140.241423
 20
40.724165
 11
-140.097085
 21
40.474165
  0
CIRCLE
  8
ボルト／ビス
  6
CONTINUOUS
 10
-140.38576
 20
40.474165
 40
0.25
  0
LINE
  8
ボルト／ビス
  6
CONTINUOUS
 10
-140.530098
 20
40.724165
 11
-140.241423
 21
40.724165
  0
LINE
  8
ボルト／ビス
  6
CONTINUOUS
 10
-140.241423
 20
40.224165
 11
-140.530098
 21
40.224165
  0
ENDBLK
  0
BLOCK
  2
*GRP_0043
 70
    65
 10
0.0
 20
0.0
  0
INSERT
  2
*GRP_0049
  8
補助線
  6
CONTINUOUS
 10
0.0
 20
0.0
  0
LINE
  8
ボルト／ビス
  6
CONTINUOUS
 10
-140.674435
 20
25.474165
 11
-140.530098
 21
25.224165
  0
LINE
  8
ボルト／ビス
  6
CONTINUOUS
 10
-140.674435
 20
25.474165
 11
-140.530098
 21
25.724165
  0
LINE
  8
ボルト／ビス
  6
CONTINUOUS
 10
-140.241423
 20
25.224165
 11
-140.097085
 21
25.474165
  0
LINE
  8
ボルト／ビス
  6
CONTINUOUS
 10
-140.241423
 20
25.724165
 11
-140.097085
 21
25.474165
  0
CIRCLE
  8
ボルト／ビス
  6
CONTINUOUS
 10
-140.38576
 20
25.474165
 40
0.25
  0
LINE
  8
ボルト／ビス
  6
CONTINUOUS
 10
-140.530098
 20
25.724165
 11
-140.241423
 21
25.724165
  0
LINE
  8
ボルト／ビス
  6
CONTINUOUS
 10
-140.241423
 20
25.224165
 11
-140.530098
 21
25.224165
  0
ENDBLK
  0
BLOCK
  2
*GRP_0044
 70
    65
 10
0.0
 20
0.0
  0
INSERT
  2
*GRP_0050
  8
補助線
  6
CONTINUOUS
 10
0.0
 20
0.0
  0
LINE
  8
ボルト／ビス
  6
CONTINUOUS
 10
-140.674435
 20
-4.525835
 11
-140.530098
 21
-4.275835
  0
LINE
  8
ボルト／ビス
  6
CONTINUOUS
 10
-140.674435
 20
-4.525835
 11
-140.530098
 21
-4.775835
  0
LINE
  8
ボルト／ビス
  6
CONTINUOUS
 10
-140.241423
 20
-4.275835
 11
-140.097085
 21
-4.525835
  0
LINE
  8
ボルト／ビス
  6
CONTINUOUS
 10
-140.241423
 20
-4.775835
 11
-140.097085
 21
-4.525835
  0
CIRCLE
  8
ボルト／ビス
  6
CONTINUOUS
 10
-140.38576
 20
-4.525835
 40
0.25
  0
LINE
  8
ボルト／ビス
  6
CONTINUOUS
 10
-140.530098
 20
-4.775835
 11
-140.241423
 21
-4.775835
  0
LINE
  8
ボルト／ビス
  6
CONTINUOUS
 10
-140.241423
 20
-4.275835
 11
-140.530098
 21
-4.275835
  0
ENDBLK
  0
BLOCK
  2
*GRP_0045
 70
    65
 10
0.0
 20
0.0
  0
INSERT
  2
*GRP_0051
  8
補助線
  6
CONTINUOUS
 10
0.0
 20
0.0
  0
LINE
  8
ボルト／ビス
  6
CONTINUOUS
 10
-140.674435
 20
10.474165
 11
-140.530098
 21
10.724165
  0
LINE
  8
ボルト／ビス
  6
CONTINUOUS
 10
-140.674435
 20
10.474165
 11
-140.530098
 21
10.224165
  0
LINE
  8
ボルト／ビス
  6
CONTINUOUS
 10
-140.241423
 20
10.724165
 11
-140.097085
 21
10.474165
  0
LINE
  8
ボルト／ビス
  6
CONTINUOUS
 10
-140.241423
 20
10.224165
 11
-140.097085
 21
10.474165
  0
CIRCLE
  8
ボルト／ビス
  6
CONTINUOUS
 10
-140.38576
 20
10.474165
 40
0.25
  0
LINE
  8
ボルト／ビス
  6
CONTINUOUS
 10
-140.530098
 20
10.224165
 11
-140.241423
 21
10.224165
  0
LINE
  8
ボルト／ビス
  6
CONTINUOUS
 10
-140.241423
 20
10.724165
 11
-140.530098
 21
10.724165
  0
ENDBLK
  0
BLOCK
  2
*GRP_0046
 70
    65
 10
0.0
 20
0.0
  0
LINE
  8
補助線
  6
BYBLOCK
 62
     0
 10
-140.38576
 20
70.599165
 11
-140.38576
 21
70.349165
  0
LINE
  8
補助線
  6
BYBLOCK
 62
     0
 10
-140.51076
 20
70.474165
 11
-140.26076
 21
70.474165
  0
ENDBLK
  0
BLOCK
  2
*GRP_0047
 70
    65
 10
0.0
 20
0.0
  0
LINE
  8
補助線
  6
BYBLOCK
 62
     0
 10
-140.38576
 20
55.599165
 11
-140.38576
 21
55.349165
  0
LINE
  8
補助線
  6
BYBLOCK
 62
     0
 10
-140.51076
 20
55.474165
 11
-140.26076
 21
55.474165
  0
ENDBLK
  0
BLOCK
  2
*GRP_0048
 70
    65
 10
0.0
 20
0.0
  0
LINE
  8
補助線
  6
BYBLOCK
 62
     0
 10
-140.38576
 20
40.599165
 11
-140.38576
 21
40.349165
  0
LINE
  8
補助線
  6
BYBLOCK
 62
     0
 10
-140.51076
 20
40.474165
 11
-140.26076
 21
40.474165
  0
ENDBLK
  0
BLOCK
  2
*GRP_0049
 70
    65
 10
0.0
 20
0.0
  0
LINE
  8
補助線
  6
BYBLOCK
 62
     0
 10
-140.38576
 20
25.599165
 11
-140.38576
 21
25.349165
  0
LINE
  8
補助線
  6
BYBLOCK
 62
     0
 10
-140.51076
 20
25.474165
 11
-140.26076
 21
25.474165
  0
ENDBLK
  0
BLOCK
  2
*GRP_0050
 70
    65
 10
0.0
 20
0.0
  0
LINE
  8
補助線
  6
BYBLOCK
 62
     0
 10
-140.38576
 20
-4.650835
 11
-140.38576
 21
-4.400835
  0
LINE
  8
補助線
  6
BYBLOCK
 62
     0
 10
-140.51076
 20
-4.525835
 11
-140.26076
 21
-4.525835
  0
ENDBLK
  0
BLOCK
  2
*GRP_0051
 70
    65
 10
0.0
 20
0.0
  0
LINE
  8
補助線
  6
BYBLOCK
 62
     0
 10
-140.38576
 20
10.349165
 11
-140.38576
 21
10.599165
  0
LINE
  8
補助線
  6
BYBLOCK
 62
     0
 10
-140.51076
 20
10.474165
 11
-140.26076
 21
10.474165
  0
ENDBLK
  0
BLOCK
  2
*GRP_0052
 70
    65
 10
0.0
 20
0.0
  0
INSERT
  2
*GRP_0058
  8
補助線
  6
CONTINUOUS
 10
0.0
 20
0.0
  0
LINE
  8
ボルト／ビス
  6
CONTINUOUS
 10
-51.88576
 20
-18.31451
 11
-52.13576
 21
-18.170172
  0
LINE
  8
ボルト／ビス
  6
CONTINUOUS
 10
-51.88576
 20
-18.31451
 11
-51.63576
 21
-18.170172
  0
LINE
  8
ボルト／ビス
  6
CONTINUOUS
 10
-52.13576
 20
-17.881498
 11
-51.88576
 21
-17.73716
  0
LINE
  8
ボルト／ビス
  6
CONTINUOUS
 10
-51.63576
 20
-17.881498
 11
-51.88576
 21
-17.73716
  0
CIRCLE
  8
ボルト／ビス
  6
CONTINUOUS
 10
-51.88576
 20
-18.025835
 40
0.25
  0
LINE
  8
ボルト／ビス
  6
CONTINUOUS
 10
-51.63576
 20
-18.170172
 11
-51.63576
 21
-17.881498
  0
LINE
  8
ボルト／ビス
  6
CONTINUOUS
 10
-52.13576
 20
-17.881498
 11
-52.13576
 21
-18.170172
  0
ENDBLK
  0
BLOCK
  2
*GRP_0053
 70
    65
 10
0.0
 20
0.0
  0
INSERT
  2
*GRP_0059
  8
補助線
  6
CONTINUOUS
 10
0.0
 20
0.0
  0
LINE
  8
ボルト／ビス
  6
CONTINUOUS
 10
-66.88576
 20
-18.31451
 11
-67.13576
 21
-18.170172
  0
LINE
  8
ボルト／ビス
  6
CONTINUOUS
 10
-66.88576
 20
-18.31451
 11
-66.63576
 21
-18.170172
  0
LINE
  8
ボルト／ビス
  6
CONTINUOUS
 10
-67.13576
 20
-17.881498
 11
-66.88576
 21
-17.73716
  0
LINE
  8
ボルト／ビス
  6
CONTINUOUS
 10
-66.63576
 20
-17.881498
 11
-66.88576
 21
-17.73716
  0
CIRCLE
  8
ボルト／ビス
  6
CONTINUOUS
 10
-66.88576
 20
-18.025835
 40
0.25
  0
LINE
  8
ボルト／ビス
  6
CONTINUOUS
 10
-66.63576
 20
-18.170172
 11
-66.63576
 21
-17.881498
  0
LINE
  8
ボルト／ビス
  6
CONTINUOUS
 10
-67.13576
 20
-17.881498
 11
-67.13576
 21
-18.170172
  0
ENDBLK
  0
BLOCK
  2
*GRP_0054
 70
    65
 10
0.0
 20
0.0
  0
INSERT
  2
*GRP_0060
  8
補助線
  6
CONTINUOUS
 10
0.0
 20
0.0
  0
LINE
  8
ボルト／ビス
  6
CONTINUOUS
 10
-81.88576
 20
-18.31451
 11
-82.13576
 21
-18.170172
  0
LINE
  8
ボルト／ビス
  6
CONTINUOUS
 10
-81.88576
 20
-18.31451
 11
-81.63576
 21
-18.170172
  0
LINE
  8
ボルト／ビス
  6
CONTINUOUS
 10
-82.13576
 20
-17.881498
 11
-81.88576
 21
-17.73716
  0
LINE
  8
ボルト／ビス
  6
CONTINUOUS
 10
-81.63576
 20
-17.881498
 11
-81.88576
 21
-17.73716
  0
CIRCLE
  8
ボルト／ビス
  6
CONTINUOUS
 10
-81.88576
 20
-18.025835
 40
0.25
  0
LINE
  8
ボルト／ビス
  6
CONTINUOUS
 10
-81.63576
 20
-18.170172
 11
-81.63576
 21
-17.881498
  0
LINE
  8
ボルト／ビス
  6
CONTINUOUS
 10
-82.13576
 20
-17.881498
 11
-82.13576
 21
-18.170172
  0
ENDBLK
  0
BLOCK
  2
*GRP_0055
 70
    65
 10
0.0
 20
0.0
  0
INSERT
  2
*GRP_0061
  8
補助線
  6
CONTINUOUS
 10
0.0
 20
0.0
  0
LINE
  8
ボルト／ビス
  6
CONTINUOUS
 10
-96.88576
 20
-18.31451
 11
-97.13576
 21
-18.170172
  0
LINE
  8
ボルト／ビス
  6
CONTINUOUS
 10
-96.88576
 20
-18.31451
 11
-96.63576
 21
-18.170172
  0
LINE
  8
ボルト／ビス
  6
CONTINUOUS
 10
-97.13576
 20
-17.881498
 11
-96.88576
 21
-17.73716
  0
LINE
  8
ボルト／ビス
  6
CONTINUOUS
 10
-96.63576
 20
-17.881498
 11
-96.88576
 21
-17.73716
  0
CIRCLE
  8
ボルト／ビス
  6
CONTINUOUS
 10
-96.88576
 20
-18.025835
 40
0.25
  0
LINE
  8
ボルト／ビス
  6
CONTINUOUS
 10
-96.63576
 20
-18.170172
 11
-96.63576
 21
-17.881498
  0
LINE
  8
ボルト／ビス
  6
CONTINUOUS
 10
-97.13576
 20
-17.881498
 11
-97.13576
 21
-18.170172
  0
ENDBLK
  0
BLOCK
  2
*GRP_0056
 70
    65
 10
0.0
 20
0.0
  0
INSERT
  2
*GRP_0062
  8
補助線
  6
CONTINUOUS
 10
0.0
 20
0.0
  0
LINE
  8
ボルト／ビス
  6
CONTINUOUS
 10
-126.88576
 20
-18.31451
 11
-126.63576
 21
-18.170172
  0
LINE
  8
ボルト／ビス
  6
CONTINUOUS
 10
-126.88576
 20
-18.31451
 11
-127.13576
 21
-18.170172
  0
LINE
  8
ボルト／ビス
  6
CONTINUOUS
 10
-126.63576
 20
-17.881498
 11
-126.88576
 21
-17.73716
  0
LINE
  8
ボルト／ビス
  6
CONTINUOUS
 10
-127.13576
 20
-17.881498
 11
-126.88576
 21
-17.73716
  0
CIRCLE
  8
ボルト／ビス
  6
CONTINUOUS
 10
-126.88576
 20
-18.025835
 40
0.25
  0
LINE
  8
ボルト／ビス
  6
CONTINUOUS
 10
-127.13576
 20
-18.170172
 11
-127.13576
 21
-17.881498
  0
LINE
  8
ボルト／ビス
  6
CONTINUOUS
 10
-126.63576
 20
-17.881498
 11
-126.63576
 21
-18.170172
  0
ENDBLK
  0
BLOCK
  2
*GRP_0057
 70
    65
 10
0.0
 20
0.0
  0
INSERT
  2
*GRP_0063
  8
補助線
  6
CONTINUOUS
 10
0.0
 20
0.0
  0
LINE
  8
ボルト／ビス
  6
CONTINUOUS
 10
-111.88576
 20
-18.31451
 11
-111.63576
 21
-18.170172
  0
LINE
  8
ボルト／ビス
  6
CONTINUOUS
 10
-111.88576
 20
-18.31451
 11
-112.13576
 21
-18.170172
  0
LINE
  8
ボルト／ビス
  6
CONTINUOUS
 10
-111.63576
 20
-17.881498
 11
-111.88576
 21
-17.73716
  0
LINE
  8
ボルト／ビス
  6
CONTINUOUS
 10
-112.13576
 20
-17.881498
 11
-111.88576
 21
-17.73716
  0
CIRCLE
  8
ボルト／ビス
  6
CONTINUOUS
 10
-111.88576
 20
-18.025835
 40
0.25
  0
LINE
  8
ボルト／ビス
  6
CONTINUOUS
 10
-112.13576
 20
-18.170172
 11
-112.13576
 21
-17.881498
  0
LINE
  8
ボルト／ビス
  6
CONTINUOUS
 10
-111.63576
 20
-17.881498
 11
-111.63576
 21
-18.170172
  0
ENDBLK
  0
BLOCK
  2
*GRP_0058
 70
    65
 10
0.0
 20
0.0
  0
LINE
  8
補助線
  6
BYBLOCK
 62
     0
 10
-51.76076
 20
-18.025835
 11
-52.01076
 21
-18.025835
  0
LINE
  8
補助線
  6
BYBLOCK
 62
     0
 10
-51.88576
 20
-18.150835
 11
-51.88576
 21
-17.900835
  0
ENDBLK
  0
BLOCK
  2
*GRP_0059
 70
    65
 10
0.0
 20
0.0
  0
LINE
  8
補助線
  6
BYBLOCK
 62
     0
 10
-66.76076
 20
-18.025835
 11
-67.01076
 21
-18.025835
  0
LINE
  8
補助線
  6
BYBLOCK
 62
     0
 10
-66.88576
 20
-18.150835
 11
-66.88576
 21
-17.900835
  0
ENDBLK
  0
BLOCK
  2
*GRP_0060
 70
    65
 10
0.0
 20
0.0
  0
LINE
  8
補助線
  6
BYBLOCK
 62
     0
 10
-81.76076
 20
-18.025835
 11
-82.01076
 21
-18.025835
  0
LINE
  8
補助線
  6
BYBLOCK
 62
     0
 10
-81.88576
 20
-18.150835
 11
-81.88576
 21
-17.900835
  0
ENDBLK
  0
BLOCK
  2
*GRP_0061
 70
    65
 10
0.0
 20
0.0
  0
LINE
  8
補助線
  6
BYBLOCK
 62
     0
 10
-96.76076
 20
-18.025835
 11
-97.01076
 21
-18.025835
  0
LINE
  8
補助線
  6
BYBLOCK
 62
     0
 10
-96.88576
 20
-18.150835
 11
-96.88576
 21
-17.900835
  0
ENDBLK
  0
BLOCK
  2
*GRP_0062
 70
    65
 10
0.0
 20
0.0
  0
LINE
  8
補助線
  6
BYBLOCK
 62
     0
 10
-127.01076
 20
-18.025835
 11
-126.76076
 21
-18.025835
  0
LINE
  8
補助線
  6
BYBLOCK
 62
     0
 10
-126.88576
 20
-18.150835
 11
-126.88576
 21
-17.900835
  0
ENDBLK
  0
BLOCK
  2
*GRP_0063
 70
    65
 10
0.0
 20
0.0
  0
LINE
  8
補助線
  6
BYBLOCK
 62
     0
 10
-112.01076
 20
-18.025835
 11
-111.76076
 21
-18.025835
  0
LINE
  8
補助線
  6
BYBLOCK
 62
     0
 10
-111.88576
 20
-18.150835
 11
-111.88576
 21
-17.900835
  0
ENDBLK
  0
BLOCK
  2
*DIM_0064
 70
    65
 10
0.0
 20
0.0
  0
LINE
  8
寸法
  6
CONTINUOUS
 10
-31.88576
 20
-80.96609
 11
-14.991043
 21
-80.96609
  0
LINE
  8
寸法
  6
CONTINUOUS
 10
-84.38576
 20
-58.46609
 11
-14.991043
 21
-58.46609
  0
LINE
  8
寸法
  6
CONTINUOUS
 10
-14.991043
 20
-80.96609
 11
-14.991043
 21
-58.46609
  0
POINT
  8
寸法
 10
-14.991043
 20
-80.96609
  0
POINT
  8
寸法
 10
-14.991043
 20
-58.46609
  0
TEXT
  7
TextStyle03
  8
寸法
  6
CONTINUOUS
 10
-15.375
 20
-72.1625
  1
450
 40
3.0
 50
90.0
 72
     5
 11
-15.375
 21
-67.2875
  0
ENDBLK
  0
BLOCK
  2
*GRP_0065
 70
    65
 10
0.0
 20
0.0
  0
LINE
  8
補助線
  6
BYBLOCK
 62
    64
 10
149.835785
 20
-88.632365
 11
150.021545
 21
-88.79967
  0
LINE
  8
補助線
  6
BYBLOCK
 62
    64
 10
150.012318
 20
-88.623138
 11
149.845012
 21
-88.808897
  0
LINE
  8
補助線
  6
BYBLOCK
 62
    64
 10
133.948895
 20
-74.324635
 11
133.763127
 21
-74.15733
  0
LINE
  8
補助線
  6
BYBLOCK
 62
    64
 10
133.93966
 20
-74.148098
 11
133.772358
 21
-74.333867
  0
LINE
  8
補助線
  6
BYBLOCK
 62
    64
 10
117.876037
 20
-59.849817
 11
117.690267
 21
-59.682522
  0
LINE
  8
補助線
  6
BYBLOCK
 62
    64
 10
117.8668
 20
-59.673285
 11
117.699508
 21
-59.859055
  0
LINE
  8
型材断面
  6
CONTINUOUS
 10
151.136717
 20
-88.121782
 11
151.19211
 21
-89.180992
  0
LINE
  8
型材断面
  6
CONTINUOUS
 10
151.19211
 20
-89.180992
 11
150.5229
 21
-89.92407
  0
LINE
  8
型材断面
  6
CONTINUOUS
 10
150.5229
 20
-89.92407
 11
149.46369
 21
-89.979463
  0
LINE
  8
型材断面
  6
CONTINUOUS
 10
118.248113
 20
-58.502715
 11
117.188903
 21
-58.55813
  0
LINE
  8
型材断面
  6
CONTINUOUS
 10
117.188903
 20
-58.55813
 11
116.5197
 21
-59.30121
  0
LINE
  8
型材断面
  6
CONTINUOUS
 10
116.5197
 20
-59.30121
 11
116.575113
 21
-60.36042
  0
LINE
  8
型材断面
  6
CONTINUOUS
 10
151.136717
 20
-88.121782
 11
118.248553
 21
-58.502693
  0
LINE
  8
型材断面
  6
CONTINUOUS
 10
149.46369
 20
-89.979463
 11
116.57509
 21
-60.359995
  0
LINE
  8
ボルト／ビス
  6
CONTINUOUS
 62
    64
 10
150.237758
 20
-88.372805
 11
150.38044
 21
-88.812097
  0
LINE
  8
ボルト／ビス
  6
CONTINUOUS
 62
    64
 10
150.237758
 20
-88.372805
 11
149.785985
 21
-88.27673
  0
LINE
  8
ボルト／ビス
  6
CONTINUOUS
 62
    64
 10
149.619572
 20
-89.05923
 11
150.071345
 21
-89.155305
  0
LINE
  8
ボルト／ビス
  6
CONTINUOUS
 62
    64
 10
149.619572
 20
-89.05923
 11
149.47689
 21
-88.619938
  0
CIRCLE
  8
ボルト／ビス
  6
CONTINUOUS
 62
    64
 10
149.928665
 20
-88.716017
 40
0.4
  0
LINE
  8
ボルト／ビス
  6
CONTINUOUS
 62
    64
 10
149.785985
 20
-88.27673
 11
149.47689
 21
-88.619938
  0
LINE
  8
ボルト／ビス
  6
CONTINUOUS
 62
    64
 10
150.38044
 20
-88.812097
 11
150.071345
 21
-89.155305
  0
LINE
  8
ボルト／ビス
  6
CONTINUOUS
 62
    64
 10
134.165107
 20
-73.897775
 11
133.713328
 21
-73.801692
  0
LINE
  8
ボルト／ビス
  6
CONTINUOUS
 62
    64
 10
134.165107
 20
-73.897775
 11
134.30779
 21
-74.33706
  0
LINE
  8
ボルト／ビス
  6
CONTINUOUS
 62
    64
 10
133.546915
 20
-74.584192
 11
133.404235
 21
-74.144902
  0
LINE
  8
ボルト／ビス
  6
CONTINUOUS
 62
    64
 10
133.546915
 20
-74.584192
 11
133.99869
 21
-74.68027
  0
CIRCLE
  8
ボルト／ビス
  6
CONTINUOUS
 62
    64
 10
133.856007
 20
-74.240982
 40
0.4
  0
LINE
  8
ボルト／ビス
  6
CONTINUOUS
 62
    64
 10
134.30779
 20
-74.33706
 11
133.99869
 21
-74.68027
  0
LINE
  8
ボルト／ビス
  6
CONTINUOUS
 62
    64
 10
133.713328
 20
-73.801692
 11
133.404235
 21
-74.144902
  0
LINE
  8
ボルト／ビス
  6
CONTINUOUS
 62
    64
 10
118.092245
 20
-59.422958
 11
117.640465
 21
-59.326883
  0
LINE
  8
ボルト／ビス
  6
CONTINUOUS
 62
    64
 10
118.092245
 20
-59.422958
 11
118.234925
 21
-59.862242
  0
LINE
  8
ボルト／ビス
  6
CONTINUOUS
 62
    64
 10
117.47406
 20
-60.109385
 11
117.331378
 21
-59.670097
  0
LINE
  8
ボルト／ビス
  6
CONTINUOUS
 62
    64
 10
117.47406
 20
-60.109385
 11
117.92584
 21
-60.205458
  0
CIRCLE
  8
ボルト／ビス
  6
CONTINUOUS
 62
    64
 10
117.783152
 20
-59.76617
 40
0.4
  0
LINE
  8
ボルト／ビス
  6
CONTINUOUS
 62
    64
 10
118.234925
 20
-59.862242
 11
117.92584
 21
-60.205458
  0
LINE
  8
ボルト／ビス
  6
CONTINUOUS
 62
    64
 10
117.640465
 20
-59.326883
 11
117.331378
 21
-59.670097
  0
ENDBLK
  0
BLOCK
  2
*GRP_0066
 70
    65
 10
0.0
 20
0.0
  0
LINE
  8
補助線
  6
BYBLOCK
 62
    64
 10
117.876235
 20
-88.632365
 11
117.690475
 21
-88.79967
  0
LINE
  8
補助線
  6
BYBLOCK
 62
    64
 10
117.699703
 20
-88.623138
 11
117.867008
 21
-88.808897
  0
LINE
  8
補助線
  6
BYBLOCK
 62
    64
 10
133.763125
 20
-74.324635
 11
133.948892
 21
-74.15733
  0
LINE
  8
補助線
  6
BYBLOCK
 62
    64
 10
133.77236
 20
-74.148098
 11
133.939662
 21
-74.333867
  0
LINE
  8
補助線
  6
BYBLOCK
 62
    64
 10
149.835982
 20
-59.849817
 11
150.021752
 21
-59.682522
  0
LINE
  8
補助線
  6
BYBLOCK
 62
    64
 10
149.84522
 20
-59.673285
 11
150.012513
 21
-59.859055
  0
LINE
  8
型材断面
  6
CONTINUOUS
 10
116.575302
 20
-88.121782
 11
116.51991
 21
-89.180992
  0
LINE
  8
型材断面
  6
CONTINUOUS
 10
116.51991
 20
-89.180992
 11
117.18912
 21
-89.92407
  0
LINE
  8
型材断面
  6
CONTINUOUS
 10
117.18912
 20
-89.92407
 11
118.24833
 21
-89.979463
  0
LINE
  8
型材断面
  6
CONTINUOUS
 10
149.463907
 20
-58.502715
 11
150.523118
 21
-58.55813
  0
LINE
  8
型材断面
  6
CONTINUOUS
 10
150.523118
 20
-58.55813
 11
151.19232
 21
-59.30121
  0
LINE
  8
型材断面
  6
CONTINUOUS
 10
151.19232
 20
-59.30121
 11
151.136908
 21
-60.36042
  0
LINE
  8
型材断面
  6
CONTINUOUS
 10
116.575302
 20
-88.121782
 11
149.463467
 21
-58.502693
  0
LINE
  8
型材断面
  6
CONTINUOUS
 10
118.24833
 20
-89.979463
 11
151.13693
 21
-60.359995
  0
LINE
  8
ボルト／ビス
  6
CONTINUOUS
 62
    64
 10
117.474263
 20
-88.372805
 11
117.33158
 21
-88.812097
  0
LINE
  8
ボルト／ビス
  6
CONTINUOUS
 62
    64
 10
117.474263
 20
-88.372805
 11
117.926035
 21
-88.27673
  0
LINE
  8
ボルト／ビス
  6
CONTINUOUS
 62
    64
 10
118.092447
 20
-89.05923
 11
117.640675
 21
-89.155305
  0
LINE
  8
ボルト／ビス
  6
CONTINUOUS
 62
    64
 10
118.092447
 20
-89.05923
 11
118.23513
 21
-88.619938
  0
CIRCLE
  8
ボルト／ビス
  6
CONTINUOUS
 62
    64
 10
117.783355
 20
-88.716017
 40
0.4
  0
LINE
  8
ボルト／ビス
  6
CONTINUOUS
 62
    64
 10
117.926035
 20
-88.27673
 11
118.23513
 21
-88.619938
  0
LINE
  8
ボルト／ビス
  6
CONTINUOUS
 62
    64
 10
117.33158
 20
-88.812097
 11
117.640675
 21
-89.155305
  0
LINE
  8
ボルト／ビス
  6
CONTINUOUS
 62
    64
 10
133.546912
 20
-73.897775
 11
133.998692
 21
-73.801692
  0
LINE
  8
ボルト／ビス
  6
CONTINUOUS
 62
    64
 10
133.546912
 20
-73.897775
 11
133.40423
 21
-74.33706
  0
LINE
  8
ボルト／ビス
  6
CONTINUOUS
 62
    64
 10
134.165105
 20
-74.584192
 11
134.307785
 21
-74.144902
  0
LINE
  8
ボルト／ビス
  6
CONTINUOUS
 62
    64
 10
134.165105
 20
-74.584192
 11
133.71333
 21
-74.68027
  0
CIRCLE
  8
ボルト／ビス
  6
CONTINUOUS
 62
    64
 10
133.856012
 20
-74.240982
 40
0.4
  0
LINE
  8
ボルト／ビス
  6
CONTINUOUS
 62
    64
 10
133.40423
 20
-74.33706
 11
133.71333
 21
-74.68027
  0
LINE
  8
ボルト／ビス
  6
CONTINUOUS
 62
    64
 10
133.998692
 20
-73.801692
 11
134.307785
 21
-74.144902
  0
LINE
  8
ボルト／ビス
  6
CONTINUOUS
 62
    64
 10
149.619775
 20
-59.422958
 11
150.071555
 21
-59.326883
  0
LINE
  8
ボルト／ビス
  6
CONTINUOUS
 62
    64
 10
149.619775
 20
-59.422958
 11
149.477095
 21
-59.862242
  0
LINE
  8
ボルト／ビス
  6
CONTINUOUS
 62
    64
 10
150.23796
 20
-60.109385
 11
150.380643
 21
-59.670097
  0
LINE
  8
ボルト／ビス
  6
CONTINUOUS
 62
    64
 10
150.23796
 20
-60.109385
 11
149.78618
 21
-60.205458
  0
CIRCLE
  8
ボルト／ビス
  6
CONTINUOUS
 62
    64
 10
149.928867
 20
-59.76617
 40
0.4
  0
LINE
  8
ボルト／ビス
  6
CONTINUOUS
 62
    64
 10
149.477095
 20
-59.862242
 11
149.78618
 21
-60.205458
  0
LINE
  8
ボルト／ビス
  6
CONTINUOUS
 62
    64
 10
150.071555
 20
-59.326883
 11
150.380643
 21
-59.670097
  0
ENDBLK
  0
BLOCK
  2
*GRP_0067
 70
    65
 10
0.0
 20
0.0
  0
LINE
  8
補助線
  6
BYBLOCK
 62
    64
 10
54.02154
 20
-88.632365
 11
53.83578
 21
-88.79967
  0
LINE
  8
補助線
  6
BYBLOCK
 62
    64
 10
53.845008
 20
-88.623138
 11
54.012313
 21
-88.808897
  0
LINE
  8
補助線
  6
BYBLOCK
 62
    64
 10
69.90843
 20
-74.324635
 11
70.094197
 21
-74.15733
  0
LINE
  8
補助線
  6
BYBLOCK
 62
    64
 10
69.917665
 20
-74.148098
 11
70.084967
 21
-74.333867
  0
LINE
  8
補助線
  6
BYBLOCK
 62
    64
 10
85.981287
 20
-59.849817
 11
86.167058
 21
-59.682522
  0
LINE
  8
補助線
  6
BYBLOCK
 62
    64
 10
85.990525
 20
-59.673285
 11
86.157818
 21
-59.859055
  0
LINE
  8
型材断面
  6
CONTINUOUS
 10
52.720608
 20
-88.121782
 11
52.665215
 21
-89.180992
  0
LINE
  8
型材断面
  6
CONTINUOUS
 10
52.665215
 20
-89.180992
 11
53.334425
 21
-89.92407
  0
LINE
  8
型材断面
  6
CONTINUOUS
 10
53.334425
 20
-89.92407
 11
54.393635
 21
-89.979463
  0
LINE
  8
型材断面
  6
CONTINUOUS
 10
85.609212
 20
-58.502715
 11
86.668423
 21
-58.55813
  0
LINE
  8
型材断面
  6
CONTINUOUS
 10
86.668423
 20
-58.55813
 11
87.337625
 21
-59.30121
  0
LINE
  8
型材断面
  6
CONTINUOUS
 10
87.337625
 20
-59.30121
 11
87.282213
 21
-60.36042
  0
LINE
  8
型材断面
  6
CONTINUOUS
 10
52.720608
 20
-88.121782
 11
85.608772
 21
-58.502693
  0
LINE
  8
型材断面
  6
CONTINUOUS
 10
54.393635
 20
-89.979463
 11
87.282235
 21
-60.359995
  0
LINE
  8
ボルト／ビス
  6
CONTINUOUS
 62
    64
 10
53.619568
 20
-88.372805
 11
53.476885
 21
-88.812097
  0
LINE
  8
ボルト／ビス
  6
CONTINUOUS
 62
    64
 10
53.619568
 20
-88.372805
 11
54.07134
 21
-88.27673
  0
LINE
  8
ボルト／ビス
  6
CONTINUOUS
 62
    64
 10
54.237752
 20
-89.05923
 11
53.78598
 21
-89.155305
  0
LINE
  8
ボルト／ビス
  6
CONTINUOUS
 62
    64
 10
54.237752
 20
-89.05923
 11
54.380435
 21
-88.619938
  0
CIRCLE
  8
ボルト／ビス
  6
CONTINUOUS
 62
    64
 10
53.92866
 20
-88.716017
 40
0.4
  0
LINE
  8
ボルト／ビス
  6
CONTINUOUS
 62
    64
 10
54.07134
 20
-88.27673
 11
54.380435
 21
-88.619938
  0
LINE
  8
ボルト／ビス
  6
CONTINUOUS
 62
    64
 10
53.476885
 20
-88.812097
 11
53.78598
 21
-89.155305
  0
LINE
  8
ボルト／ビス
  6
CONTINUOUS
 62
    64
 10
69.692217
 20
-73.897775
 11
70.143997
 21
-73.801692
  0
LINE
  8
ボルト／ビス
  6
CONTINUOUS
 62
    64
 10
69.692217
 20
-73.897775
 11
69.549535
 21
-74.33706
  0
LINE
  8
ボルト／ビス
  6
CONTINUOUS
 62
    64
 10
70.31041
 20
-74.584192
 11
70.45309
 21
-74.144902
  0
LINE
  8
ボルト／ビス
  6
CONTINUOUS
 62
    64
 10
70.31041
 20
-74.584192
 11
69.858635
 21
-74.68027
  0
CIRCLE
  8
ボルト／ビス
  6
CONTINUOUS
 62
    64
 10
70.001317
 20
-74.240982
 40
0.4
  0
LINE
  8
ボルト／ビス
  6
CONTINUOUS
 62
    64
 10
69.549535
 20
-74.33706
 11
69.858635
 21
-74.68027
  0
LINE
  8
ボルト／ビス
  6
CONTINUOUS
 62
    64
 10
70.143997
 20
-73.801692
 11
70.45309
 21
-74.144902
  0
LINE
  8
ボルト／ビス
  6
CONTINUOUS
 62
    64
 10
85.76508
 20
-59.422958
 11
86.21686
 21
-59.326883
  0
LINE
  8
ボルト／ビス
  6
CONTINUOUS
 62
    64
 10
85.76508
 20
-59.422958
 11
85.6224
 21
-59.862242
  0
LINE
  8
ボルト／ビス
  6
CONTINUOUS
 62
    64
 10
86.383265
 20
-60.109385
 11
86.525948
 21
-59.670097
  0
LINE
  8
ボルト／ビス
  6
CONTINUOUS
 62
    64
 10
86.383265
 20
-60.109385
 11
85.931485
 21
-60.205458
  0
CIRCLE
  8
ボルト／ビス
  6
CONTINUOUS
 62
    64
 10
86.074172
 20
-59.76617
 40
0.4
  0
LINE
  8
ボルト／ビス
  6
CONTINUOUS
 62
    64
 10
85.6224
 20
-59.862242
 11
85.931485
 21
-60.205458
  0
LINE
  8
ボルト／ビス
  6
CONTINUOUS
 62
    64
 10
86.21686
 20
-59.326883
 11
86.525948
 21
-59.670097
  0
ENDBLK
  0
BLOCK
  2
*GRP_0068
 70
    65
 10
0.0
 20
0.0
  0
LINE
  8
補助線
  6
BYBLOCK
 62
    64
 10
85.98109
 20
-88.632365
 11
86.16685
 21
-88.79967
  0
LINE
  8
補助線
  6
BYBLOCK
 62
    64
 10
86.157623
 20
-88.623138
 11
85.990317
 21
-88.808897
  0
LINE
  8
補助線
  6
BYBLOCK
 62
    64
 10
70.0942
 20
-74.324635
 11
69.908432
 21
-74.15733
  0
LINE
  8
補助線
  6
BYBLOCK
 62
    64
 10
70.084965
 20
-74.148098
 11
69.917663
 21
-74.333867
  0
LINE
  8
補助線
  6
BYBLOCK
 62
    64
 10
54.021342
 20
-59.849817
 11
53.835572
 21
-59.682522
  0
LINE
  8
補助線
  6
BYBLOCK
 62
    64
 10
54.012105
 20
-59.673285
 11
53.844813
 21
-59.859055
  0
LINE
  8
型材断面
  6
CONTINUOUS
 10
87.282022
 20
-88.121782
 11
87.337415
 21
-89.180992
  0
LINE
  8
型材断面
  6
CONTINUOUS
 10
87.337415
 20
-89.180992
 11
86.668205
 21
-89.92407
  0
LINE
  8
型材断面
  6
CONTINUOUS
 10
86.668205
 20
-89.92407
 11
85.608995
 21
-89.979463
  0
LINE
  8
型材断面
  6
CONTINUOUS
 10
54.393418
 20
-58.502715
 11
53.334208
 21
-58.55813
  0
LINE
  8
型材断面
  6
CONTINUOUS
 10
53.334208
 20
-58.55813
 11
52.665005
 21
-59.30121
  0
LINE
  8
型材断面
  6
CONTINUOUS
 10
52.665005
 20
-59.30121
 11
52.720418
 21
-60.36042
  0
LINE
  8
型材断面
  6
CONTINUOUS
 10
87.282022
 20
-88.121782
 11
54.393858
 21
-58.502693
  0
LINE
  8
型材断面
  6
CONTINUOUS
 10
85.608995
 20
-89.979463
 11
52.720395
 21
-60.359995
  0
LINE
  8
ボルト／ビス
  6
CONTINUOUS
 62
    64
 10
86.383063
 20
-88.372805
 11
86.525745
 21
-88.812097
  0
LINE
  8
ボルト／ビス
  6
CONTINUOUS
 62
    64
 10
86.383063
 20
-88.372805
 11
85.93129
 21
-88.27673
  0
LINE
  8
ボルト／ビス
  6
CONTINUOUS
 62
    64
 10
85.764877
 20
-89.05923
 11
86.21665
 21
-89.155305
  0
LINE
  8
ボルト／ビス
  6
CONTINUOUS
 62
    64
 10
85.764877
 20
-89.05923
 11
85.622195
 21
-88.619938
  0
CIRCLE
  8
ボルト／ビス
  6
CONTINUOUS
 62
    64
 10
86.07397
 20
-88.716017
 40
0.4
  0
LINE
  8
ボルト／ビス
  6
CONTINUOUS
 62
    64
 10
85.93129
 20
-88.27673
 11
85.622195
 21
-88.619938
  0
LINE
  8
ボルト／ビス
  6
CONTINUOUS
 62
    64
 10
86.525745
 20
-88.812097
 11
86.21665
 21
-89.155305
  0
LINE
  8
ボルト／ビス
  6
CONTINUOUS
 62
    64
 10
70.310412
 20
-73.897775
 11
69.858633
 21
-73.801692
  0
LINE
  8
ボルト／ビス
  6
CONTINUOUS
 62
    64
 10
70.310412
 20
-73.897775
 11
70.453095
 21
-74.33706
  0
LINE
  8
ボルト／ビス
  6
CONTINUOUS
 62
    64
 10
69.69222
 20
-74.584192
 11
69.54954
 21
-74.144902
  0
LINE
  8
ボルト／ビス
  6
CONTINUOUS
 62
    64
 10
69.69222
 20
-74.584192
 11
70.143995
 21
-74.68027
  0
CIRCLE
  8
ボルト／ビス
  6
CONTINUOUS
 62
    64
 10
70.001312
 20
-74.240982
 40
0.4
  0
LINE
  8
ボルト／ビス
  6
CONTINUOUS
 62
    64
 10
70.453095
 20
-74.33706
 11
70.143995
 21
-74.68027
  0
LINE
  8
ボルト／ビス
  6
CONTINUOUS
 62
    64
 10
69.858633
 20
-73.801692
 11
69.54954
 21
-74.144902
  0
LINE
  8
ボルト／ビス
  6
CONTINUOUS
 62
    64
 10
54.23755
 20
-59.422958
 11
53.78577
 21
-59.326883
  0
LINE
  8
ボルト／ビス
  6
CONTINUOUS
 62
    64
 10
54.23755
 20
-59.422958
 11
54.38023
 21
-59.862242
  0
LINE
  8
ボルト／ビス
  6
CONTINUOUS
 62
    64
 10
53.619365
 20
-60.109385
 11
53.476683
 21
-59.670097
  0
LINE
  8
ボルト／ビス
  6
CONTINUOUS
 62
    64
 10
53.619365
 20
-60.109385
 11
54.071145
 21
-60.205458
  0
CIRCLE
  8
ボルト／ビス
  6
CONTINUOUS
 62
    64
 10
53.928457
 20
-59.76617
 40
0.4
  0
LINE
  8
ボルト／ビス
  6
CONTINUOUS
 62
    64
 10
54.38023
 20
-59.862242
 11
54.071145
 21
-60.205458
  0
LINE
  8
ボルト／ビス
  6
CONTINUOUS
 62
    64
 10
53.78577
 20
-59.326883
 11
53.476683
 21
-59.670097
  0
ENDBLK
  0
BLOCK
  2
*GRP_0070
 70
    65
 10
0.0
 20
0.0
  0
LINE
  8
ボルト／ビス
  6
CONTINUOUS
 10
-140.38576
 20
-80.966093
 11
-140.38576
 21
-80.266093
  0
LINE
  8
ボルト／ビス
  6
CONTINUOUS
 10
-140.93576
 20
-80.966093
 11
-140.93576
 21
-80.866093
  0
LINE
  8
ボルト／ビス
  6
CONTINUOUS
 10
-140.93576
 20
-80.866093
 11
-139.83576
 21
-80.866093
  0
LINE
  8
ボルト／ビス
  6
CONTINUOUS
 10
-139.83576
 20
-80.866093
 11
-139.83576
 21
-80.966093
  0
LINE
  8
ボルト／ビス
  6
CONTINUOUS
 10
-140.93576
 20
-80.966093
 11
-139.83576
 21
-80.966093
  0
LINE
  8
ボルト／ビス
  6
CONTINUOUS
 10
-140.83576
 20
-80.816093
 11
-140.83576
 21
-80.866093
  0
LINE
  8
ボルト／ビス
  6
CONTINUOUS
 10
-140.83576
 20
-80.816093
 11
-139.93576
 21
-80.816093
  0
LINE
  8
ボルト／ビス
  6
CONTINUOUS
 10
-139.93576
 20
-80.816093
 11
-139.93576
 21
-80.866093
  0
LINE
  8
ボルト／ビス
  6
CONTINUOUS
 62
    64
 10
-140.626322
 20
-80.516093
 11
-140.674435
 21
-80.533605
  0
ARC
  8
ボルト／ビス
  6
CONTINUOUS
 62
    64
 10
-140.602265
 20
-80.67356
 40
0.157468
 50
62.721967
 51
90.0
  0
ARC
  8
ボルト／ビス
  6
CONTINUOUS
 62
    64
 10
-140.385759
 20
-81.119696
 40
0.603603
 50
76.165002
 51
103.834985
  0
LINE
  8
ボルト／ビス
  6
CONTINUOUS
 62
    64
 10
-140.145197
 20
-80.516093
 11
-140.097085
 21
-80.533605
  0
ARC
  8
ボルト／ビス
  6
CONTINUOUS
 62
    64
 10
-140.169252
 20
-80.67356
 40
0.157468
 50
90.0
 51
117.278033
  0
LINE
  8
ボルト／ビス
  6
CONTINUOUS
 62
    64
 10
-140.626322
 20
-80.516093
 11
-140.145197
 21
-80.516093
  0
LINE
  8
ボルト／ビス
  6
CONTINUOUS
 62
    64
 10
-140.097085
 20
-80.533605
 11
-140.097085
 21
-80.716093
  0
LINE
  8
ボルト／ビス
  6
CONTINUOUS
 62
    64
 10
-140.241423
 20
-80.533605
 11
-140.241423
 21
-80.716093
  0
LINE
  8
ボルト／ビス
  6
CONTINUOUS
 62
    64
 10
-140.674435
 20
-80.533605
 11
-140.674435
 21
-80.716093
  0
LINE
  8
ボルト／ビス
  6
CONTINUOUS
 62
    64
 10
-140.530098
 20
-80.533605
 11
-140.530098
 21
-80.716093
  0
LINE
  8
ボルト／ビス
  6
CONTINUOUS
 10
-140.674435
 20
-80.716093
 11
-140.097085
 21
-80.716093
  0
LINE
  8
ボルト／ビス
  6
CONTINUOUS
 10
-140.68576
 20
-80.716093
 11
-140.68576
 21
-80.816093
  0
LINE
  8
ボルト／ビス
  6
CONTINUOUS
 10
-140.68576
 20
-80.716093
 11
-140.08576
 21
-80.716093
  0
LINE
  8
ボルト／ビス
  6
CONTINUOUS
 10
-140.08576
 20
-80.716093
 11
-140.08576
 21
-80.816093
  0
ENDBLK
  0
BLOCK
  2
*GRP_0071
 70
    65
 10
0.0
 20
0.0
  0
LINE
  8
ボルト／ビス
  6
CONTINUOUS
 10
-38.38576
 20
-80.966093
 11
-38.38576
 21
-80.266093
  0
LINE
  8
ボルト／ビス
  6
CONTINUOUS
 10
-38.93576
 20
-80.966093
 11
-38.93576
 21
-80.866093
  0
LINE
  8
ボルト／ビス
  6
CONTINUOUS
 10
-38.93576
 20
-80.866093
 11
-37.83576
 21
-80.866093
  0
LINE
  8
ボルト／ビス
  6
CONTINUOUS
 10
-37.83576
 20
-80.866093
 11
-37.83576
 21
-80.966093
  0
LINE
  8
ボルト／ビス
  6
CONTINUOUS
 10
-38.93576
 20
-80.966093
 11
-37.83576
 21
-80.966093
  0
LINE
  8
ボルト／ビス
  6
CONTINUOUS
 10
-38.83576
 20
-80.816093
 11
-38.83576
 21
-80.866093
  0
LINE
  8
ボルト／ビス
  6
CONTINUOUS
 10
-38.83576
 20
-80.816093
 11
-37.93576
 21
-80.816093
  0
LINE
  8
ボルト／ビス
  6
CONTINUOUS
 10
-37.93576
 20
-80.816093
 11
-37.93576
 21
-80.866093
  0
LINE
  8
ボルト／ビス
  6
CONTINUOUS
 62
    64
 10
-38.626322
 20
-80.516093
 11
-38.674435
 21
-80.533605
  0
ARC
  8
ボルト／ビス
  6
CONTINUOUS
 62
    64
 10
-38.602266
 20
-80.673559
 40
0.157468
 50
62.721967
 51
90.0
  0
ARC
  8
ボルト／ビス
  6
CONTINUOUS
 62
    64
 10
-38.385759
 20
-81.119695
 40
0.603603
 50
76.165002
 51
103.834985
  0
LINE
  8
ボルト／ビス
  6
CONTINUOUS
 62
    64
 10
-38.145197
 20
-80.516093
 11
-38.097085
 21
-80.533605
  0
ARC
  8
ボルト／ビス
  6
CONTINUOUS
 62
    64
 10
-38.169253
 20
-80.673559
 40
0.157468
 50
90.0
 51
117.278033
  0
LINE
  8
ボルト／ビス
  6
CONTINUOUS
 62
    64
 10
-38.626322
 20
-80.516093
 11
-38.145197
 21
-80.516093
  0
LINE
  8
ボルト／ビス
  6
CONTINUOUS
 62
    64
 10
-38.097085
 20
-80.533605
 11
-38.097085
 21
-80.716093
  0
LINE
  8
ボルト／ビス
  6
CONTINUOUS
 62
    64
 10
-38.241423
 20
-80.533605
 11
-38.241423
 21
-80.716093
  0
LINE
  8
ボルト／ビス
  6
CONTINUOUS
 62
    64
 10
-38.674435
 20
-80.533605
 11
-38.674435
 21
-80.716093
  0
LINE
  8
ボルト／ビス
  6
CONTINUOUS
 62
    64
 10
-38.530098
 20
-80.533605
 11
-38.530098
 21
-80.716093
  0
LINE
  8
ボルト／ビス
  6
CONTINUOUS
 10
-38.674435
 20
-80.716093
 11
-38.097085
 21
-80.716093
  0
LINE
  8
ボルト／ビス
  6
CONTINUOUS
 10
-38.68576
 20
-80.716093
 11
-38.68576
 21
-80.816093
  0
LINE
  8
ボルト／ビス
  6
CONTINUOUS
 10
-38.68576
 20
-80.716093
 11
-38.08576
 21
-80.716093
  0
LINE
  8
ボルト／ビス
  6
CONTINUOUS
 10
-38.08576
 20
-80.716093
 11
-38.08576
 21
-80.816093
  0
ENDBLK
  0
BLOCK
  2
*GRP_0072
 70
    65
 10
0.0
 20
0.0
  0
LINE
  8
ボルト／ビス
  6
CONTINUOUS
 10
50.928663
 20
-80.966093
 11
50.928663
 21
-80.266093
  0
LINE
  8
ボルト／ビス
  6
CONTINUOUS
 10
50.378663
 20
-80.966093
 11
50.378663
 21
-80.866093
  0
LINE
  8
ボルト／ビス
  6
CONTINUOUS
 10
50.378663
 20
-80.866093
 11
51.478663
 21
-80.866093
  0
LINE
  8
ボルト／ビス
  6
CONTINUOUS
 10
51.478663
 20
-80.866093
 11
51.478663
 21
-80.966093
  0
LINE
  8
ボルト／ビス
  6
CONTINUOUS
 10
50.378663
 20
-80.966093
 11
51.478663
 21
-80.966093
  0
LINE
  8
ボルト／ビス
  6
CONTINUOUS
 10
50.478663
 20
-80.816093
 11
50.478663
 21
-80.866093
  0
LINE
  8
ボルト／ビス
  6
CONTINUOUS
 10
50.478663
 20
-80.816093
 11
51.378663
 21
-80.816093
  0
LINE
  8
ボルト／ビス
  6
CONTINUOUS
 10
51.378663
 20
-80.816093
 11
51.378663
 21
-80.866093
  0
LINE
  8
ボルト／ビス
  6
CONTINUOUS
 62
    64
 10
50.6881
 20
-80.516093
 11
50.639987
 21
-80.533605
  0
ARC
  8
ボルト／ビス
  6
CONTINUOUS
 62
    64
 10
50.712158
 20
-80.673559
 40
0.157468
 50
62.721967
 51
90.0
  0
ARC
  8
ボルト／ビス
  6
CONTINUOUS
 62
    64
 10
50.928664
 20
-81.119694
 40
0.603603
 50
76.165002
 51
103.834985
  0
LINE
  8
ボルト／ビス
  6
CONTINUOUS
 62
    64
 10
51.169225
 20
-80.516093
 11
51.217338
 21
-80.533605
  0
ARC
  8
ボルト／ビス
  6
CONTINUOUS
 62
    64
 10
51.14517
 20
-80.673559
 40
0.157468
 50
90.0
 51
117.278033
  0
LINE
  8
ボルト／ビス
  6
CONTINUOUS
 62
    64
 10
50.6881
 20
-80.516093
 11
51.169225
 21
-80.516093
  0
LINE
  8
ボルト／ビス
  6
CONTINUOUS
 62
    64
 10
51.217338
 20
-80.533605
 11
51.217338
 21
-80.716093
  0
LINE
  8
ボルト／ビス
  6
CONTINUOUS
 62
    64
 10
51.073
 20
-80.533605
 11
51.073
 21
-80.716093
  0
LINE
  8
ボルト／ビス
  6
CONTINUOUS
 62
    64
 10
50.639987
 20
-80.533605
 11
50.639987
 21
-80.716093
  0
LINE
  8
ボルト／ビス
  6
CONTINUOUS
 62
    64
 10
50.784325
 20
-80.533605
 11
50.784325
 21
-80.716093
  0
LINE
  8
ボルト／ビス
  6
CONTINUOUS
 10
50.639987
 20
-80.716093
 11
51.217338
 21
-80.716093
  0
LINE
  8
ボルト／ビス
  6
CONTINUOUS
 10
50.628663
 20
-80.716093
 11
50.628663
 21
-80.816093
  0
LINE
  8
ボルト／ビス
  6
CONTINUOUS
 10
50.628663
 20
-80.716093
 11
51.228663
 21
-80.716093
  0
LINE
  8
ボルト／ビス
  6
CONTINUOUS
 10
51.228663
 20
-80.716093
 11
51.228663
 21
-80.816093
  0
ENDBLK
  0
BLOCK
  2
*GRP_0073
 70
    65
 10
0.0
 20
0.0
  0
LINE
  8
ボルト／ビス
  6
CONTINUOUS
 10
152.928663
 20
-80.966093
 11
152.928663
 21
-80.266093
  0
LINE
  8
ボルト／ビス
  6
CONTINUOUS
 10
152.378663
 20
-80.966093
 11
152.378663
 21
-80.866093
  0
LINE
  8
ボルト／ビス
  6
CONTINUOUS
 10
152.378663
 20
-80.866093
 11
153.478663
 21
-80.866093
  0
LINE
  8
ボルト／ビス
  6
CONTINUOUS
 10
153.478663
 20
-80.866093
 11
153.478663
 21
-80.966093
  0
LINE
  8
ボルト／ビス
  6
CONTINUOUS
 10
152.378663
 20
-80.966093
 11
153.478663
 21
-80.966093
  0
LINE
  8
ボルト／ビス
  6
CONTINUOUS
 10
152.478663
 20
-80.816093
 11
152.478663
 21
-80.866093
  0
LINE
  8
ボルト／ビス
  6
CONTINUOUS
 10
152.478663
 20
-80.816093
 11
153.378663
 21
-80.816093
  0
LINE
  8
ボルト／ビス
  6
CONTINUOUS
 10
153.378663
 20
-80.816093
 11
153.378663
 21
-80.866093
  0
LINE
  8
ボルト／ビス
  6
CONTINUOUS
 62
    64
 10
152.6881
 20
-80.516093
 11
152.639987
 21
-80.533605
  0
ARC
  8
ボルト／ビス
  6
CONTINUOUS
 62
    64
 10
152.712157
 20
-80.673558
 40
0.157468
 50
62.721967
 51
90.0
  0
ARC
  8
ボルト／ビス
  6
CONTINUOUS
 62
    64
 10
152.928663
 20
-81.119694
 40
0.603603
 50
76.165002
 51
103.834985
  0
LINE
  8
ボルト／ビス
  6
CONTINUOUS
 62
    64
 10
153.169225
 20
-80.516093
 11
153.217338
 21
-80.533605
  0
ARC
  8
ボルト／ビス
  6
CONTINUOUS
 62
    64
 10
153.14517
 20
-80.673558
 40
0.157468
 50
90.0
 51
117.278033
  0
LINE
  8
ボルト／ビス
  6
CONTINUOUS
 62
    64
 10
152.6881
 20
-80.516093
 11
153.169225
 21
-80.516093
  0
LINE
  8
ボルト／ビス
  6
CONTINUOUS
 62
    64
 10
153.217338
 20
-80.533605
 11
153.217338
 21
-80.716093
  0
LINE
  8
ボルト／ビス
  6
CONTINUOUS
 62
    64
 10
153.073
 20
-80.533605
 11
153.073
 21
-80.716093
  0
LINE
  8
ボルト／ビス
  6
CONTINUOUS
 62
    64
 10
152.639987
 20
-80.533605
 11
152.639987
 21
-80.716093
  0
LINE
  8
ボルト／ビス
  6
CONTINUOUS
 62
    64
 10
152.784325
 20
-80.533605
 11
152.784325
 21
-80.716093
  0
LINE
  8
ボルト／ビス
  6
CONTINUOUS
 10
152.639987
 20
-80.716093
 11
153.217338
 21
-80.716093
  0
LINE
  8
ボルト／ビス
  6
CONTINUOUS
 10
152.628663
 20
-80.716093
 11
152.628663
 21
-80.816093
  0
LINE
  8
ボルト／ビス
  6
CONTINUOUS
 10
152.628663
 20
-80.716093
 11
153.228663
 21
-80.716093
  0
LINE
  8
ボルト／ビス
  6
CONTINUOUS
 10
153.228663
 20
-80.716093
 11
153.228663
 21
-80.816093
  0
ENDBLK
  0
BLOCK
  2
*GRP_0074
 70
    65
 10
0.0
 20
0.0
  0
LINE
  8
型材断面
  6
DOT
 62
    47
 10
49.833662
 20
-60.941018
 11
51.003663
 21
-60.941018
  0
LINE
  8
型材断面
  6
DOT
 10
49.683662
 20
-58.191018
 11
49.683662
 21
-57.516017
  0
LINE
  8
型材断面
  6
DOT
 62
    47
 10
48.508662
 20
-62.200055
 11
48.508662
 21
-61.700055
  0
LINE
  8
型材断面
  6
DOT
 62
    47
 10
48.508662
 20
-61.700055
 11
49.683662
 21
-61.550055
  0
LINE
  8
型材断面
  6
DOT
 62
    47
 10
49.683662
 20
-60.941018
 11
49.683662
 21
-61.550055
  0
LINE
  8
型材断面
  6
DOT
 62
    47
 10
48.978663
 20
-60.941018
 11
48.978663
 21
-58.191018
  0
LINE
  8
型材断面
  6
DOT
 62
    47
 10
48.508662
 20
-62.200055
 11
101.928663
 21
-62.200055
  0
LINE
  8
型材断面
  6
DOT
 10
48.508662
 20
-61.700055
 11
101.928663
 21
-61.700055
  0
LINE
  8
型材断面
  6
DOT
 62
    47
 10
48.978663
 20
-60.941018
 11
101.928663
 21
-60.941018
  0
LINE
  8
型材断面
  6
DOT
 10
49.683662
 20
-61.550055
 11
101.928663
 21
-61.550055
  0
LINE
  8
型材断面
  6
DOT
 10
48.978663
 20
-58.191018
 11
101.928663
 21
-58.191018
  0
LINE
  8
型材断面
  6
DOT
 10
49.683662
 20
-57.516017
 11
101.928663
 21
-57.516017
  0
LINE
  8
型材断面
  6
DOT
 62
    47
 10
154.023662
 20
-60.941018
 11
152.853663
 21
-60.941018
  0
LINE
  8
型材断面
  6
DOT
 10
154.173662
 20
-58.191018
 11
154.173662
 21
-57.516017
  0
LINE
  8
型材断面
  6
DOT
 62
    47
 10
155.348662
 20
-62.200055
 11
155.348662
 21
-61.700055
  0
LINE
  8
型材断面
  6
DOT
 62
    47
 10
155.348662
 20
-61.700055
 11
154.173662
 21
-61.550055
  0
LINE
  8
型材断面
  6
DOT
 62
    47
 10
154.173662
 20
-60.941018
 11
154.173662
 21
-61.550055
  0
LINE
  8
型材断面
  6
DOT
 62
    47
 10
154.878663
 20
-60.941018
 11
154.878663
 21
-58.191018
  0
LINE
  8
型材断面
  6
DOT
 62
    47
 10
155.348662
 20
-62.200055
 11
101.928663
 21
-62.200055
  0
LINE
  8
型材断面
  6
DOT
 10
155.348662
 20
-61.700055
 11
101.928663
 21
-61.700055
  0
LINE
  8
型材断面
  6
DOT
 62
    47
 10
154.878663
 20
-60.941018
 11
101.928663
 21
-60.941018
  0
LINE
  8
型材断面
  6
DOT
 10
154.173662
 20
-61.550055
 11
101.928663
 21
-61.550055
  0
LINE
  8
型材断面
  6
DOT
 10
154.878663
 20
-58.191018
 11
101.928663
 21
-58.191018
  0
LINE
  8
型材断面
  6
DOT
 10
154.173662
 20
-57.516017
 11
101.928663
 21
-57.516017
  0
LINE
  8
別途部材
  6
DOT
 62
    96
 10
49.428663
 20
-55.96609
 11
48.828663
 21
-57.46609
  0
LINE
  8
別途部材
  6
DOT
 62
    96
 10
49.428663
 20
-55.96609
 11
101.928663
 21
-55.96609
  0
LINE
  8
別途部材
  6
DOT
 10
48.828663
 20
-57.46609
 11
101.928663
 21
-57.46609
  0
LINE
  8
別途部材
  6
DOT
 62
    96
 10
154.428663
 20
-55.96609
 11
155.028663
 21
-57.46609
  0
LINE
  8
別途部材
  6
DOT
 62
    96
 10
154.428663
 20
-55.96609
 11
101.928663
 21
-55.96609
  0
LINE
  8
別途部材
  6
DOT
 10
155.028663
 20
-57.46609
 11
101.928663
 21
-57.46609
  0
ARC
  8
別途部材
  6
DOT
 10
101.928661
 20
-100.271644
 40
66.805556
 50
41.544509
 51
138.455491
  0
INSERT
  2
*GRP_0075
  8
別途部材
  6
DOT
 10
0.0
 20
0.0
  0
INSERT
  2
*GRP_0076
  8
別途部材
  6
DOT
 10
0.0
 20
0.0
  0
ENDBLK
  0
BLOCK
  2
*GRP_0075
 70
    65
 10
0.0
 20
0.0
  0
LINE
  8
ボルト／ビス
  6
DOT
 10
50.928663
 20
-55.966093
 11
50.928663
 21
-55.266093
  0
LINE
  8
ボルト／ビス
  6
DOT
 10
50.378663
 20
-55.966093
 11
50.378663
 21
-55.866093
  0
LINE
  8
ボルト／ビス
  6
DOT
 10
50.378663
 20
-55.866093
 11
51.478663
 21
-55.866093
  0
LINE
  8
ボルト／ビス
  6
DOT
 10
51.478663
 20
-55.866093
 11
51.478663
 21
-55.966093
  0
LINE
  8
ボルト／ビス
  6
DOT
 10
50.378663
 20
-55.966093
 11
51.478663
 21
-55.966093
  0
LINE
  8
ボルト／ビス
  6
DOT
 10
50.478663
 20
-55.816093
 11
50.478663
 21
-55.866093
  0
LINE
  8
ボルト／ビス
  6
DOT
 10
50.478663
 20
-55.816093
 11
51.378663
 21
-55.816093
  0
LINE
  8
ボルト／ビス
  6
DOT
 10
51.378663
 20
-55.816093
 11
51.378663
 21
-55.866093
  0
LINE
  8
ボルト／ビス
  6
DOT
 62
    64
 10
50.6881
 20
-55.516093
 11
50.639987
 21
-55.533605
  0
ARC
  8
ボルト／ビス
  6
DOT
 62
    64
 10
50.712158
 20
-55.673558
 40
0.157468
 50
62.721967
 51
90.0
  0
ARC
  8
ボルト／ビス
  6
DOT
 62
    64
 10
50.928664
 20
-56.119693
 40
0.603603
 50
76.165002
 51
103.834985
  0
LINE
  8
ボルト／ビス
  6
DOT
 62
    64
 10
51.169225
 20
-55.516093
 11
51.217338
 21
-55.533605
  0
ARC
  8
ボルト／ビス
  6
DOT
 62
    64
 10
51.14517
 20
-55.673558
 40
0.157468
 50
90.0
 51
117.278033
  0
LINE
  8
ボルト／ビス
  6
DOT
 62
    64
 10
50.6881
 20
-55.516093
 11
51.169225
 21
-55.516093
  0
LINE
  8
ボルト／ビス
  6
DOT
 62
    64
 10
51.217338
 20
-55.533605
 11
51.217338
 21
-55.716093
  0
LINE
  8
ボルト／ビス
  6
DOT
 62
    64
 10
51.073
 20
-55.533605
 11
51.073
 21
-55.716093
  0
LINE
  8
ボルト／ビス
  6
DOT
 62
    64
 10
50.639987
 20
-55.533605
 11
50.639987
 21
-55.716093
  0
LINE
  8
ボルト／ビス
  6
DOT
 62
    64
 10
50.784325
 20
-55.533605
 11
50.784325
 21
-55.716093
  0
LINE
  8
ボルト／ビス
  6
DOT
 10
50.639987
 20
-55.716093
 11
51.217338
 21
-55.716093
  0
LINE
  8
ボルト／ビス
  6
DOT
 10
50.628663
 20
-55.716093
 11
50.628663
 21
-55.816093
  0
LINE
  8
ボルト／ビス
  6
DOT
 10
50.628663
 20
-55.716093
 11
51.228663
 21
-55.716093
  0
LINE
  8
ボルト／ビス
  6
DOT
 10
51.228663
 20
-55.716093
 11
51.228663
 21
-55.816093
  0
ENDBLK
  0
BLOCK
  2
*GRP_0076
 70
    65
 10
0.0
 20
0.0
  0
LINE
  8
ボルト／ビス
  6
DOT
 10
152.928663
 20
-55.966093
 11
152.928663
 21
-55.266093
  0
LINE
  8
ボルト／ビス
  6
DOT
 10
152.378663
 20
-55.966093
 11
152.378663
 21
-55.866093
  0
LINE
  8
ボルト／ビス
  6
DOT
 10
152.378663
 20
-55.866093
 11
153.478663
 21
-55.866093
  0
LINE
  8
ボルト／ビス
  6
DOT
 10
153.478663
 20
-55.866093
 11
153.478663
 21
-55.966093
  0
LINE
  8
ボルト／ビス
  6
DOT
 10
152.378663
 20
-55.966093
 11
153.478663
 21
-55.966093
  0
LINE
  8
ボルト／ビス
  6
DOT
 10
152.478663
 20
-55.816093
 11
152.478663
 21
-55.866093
  0
LINE
  8
ボルト／ビス
  6
DOT
 10
152.478663
 20
-55.816093
 11
153.378663
 21
-55.816093
  0
LINE
  8
ボルト／ビス
  6
DOT
 10
153.378663
 20
-55.816093
 11
153.378663
 21
-55.866093
  0
LINE
  8
ボルト／ビス
  6
DOT
 62
    64
 10
152.6881
 20
-55.516093
 11
152.639987
 21
-55.533605
  0
ARC
  8
ボルト／ビス
  6
DOT
 62
    64
 10
152.712157
 20
-55.673557
 40
0.157468
 50
62.721967
 51
90.0
  0
ARC
  8
ボルト／ビス
  6
DOT
 62
    64
 10
152.928663
 20
-56.119693
 40
0.603603
 50
76.165002
 51
103.834985
  0
LINE
  8
ボルト／ビス
  6
DOT
 62
    64
 10
153.169225
 20
-55.516093
 11
153.217338
 21
-55.533605
  0
ARC
  8
ボルト／ビス
  6
DOT
 62
    64
 10
153.14517
 20
-55.673557
 40
0.157468
 50
90.0
 51
117.278033
  0
LINE
  8
ボルト／ビス
  6
DOT
 62
    64
 10
152.6881
 20
-55.516093
 11
153.169225
 21
-55.516093
  0
LINE
  8
ボルト／ビス
  6
DOT
 62
    64
 10
153.217338
 20
-55.533605
 11
153.217338
 21
-55.716093
  0
LINE
  8
ボルト／ビス
  6
DOT
 62
    64
 10
153.073
 20
-55.533605
 11
153.073
 21
-55.716093
  0
LINE
  8
ボルト／ビス
  6
DOT
 62
    64
 10
152.639987
 20
-55.533605
 11
152.639987
 21
-55.716093
  0
LINE
  8
ボルト／ビス
  6
DOT
 62
    64
 10
152.784325
 20
-55.533605
 11
152.784325
 21
-55.716093
  0
LINE
  8
ボルト／ビス
  6
DOT
 10
152.639987
 20
-55.716093
 11
153.217338
 21
-55.716093
  0
LINE
  8
ボルト／ビス
  6
DOT
 10
152.628663
 20
-55.716093
 11
152.628663
 21
-55.816093
  0
LINE
  8
ボルト／ビス
  6
DOT
 10
152.628663
 20
-55.716093
 11
153.228663
 21
-55.716093
  0
LINE
  8
ボルト／ビス
  6
DOT
 10
153.228663
 20
-55.716093
 11
153.228663
 21
-55.816093
  0
ENDBLK
  0
BLOCK
  2
*DIM_0077
 70
    65
 10
0.0
 20
0.0
  0
LINE
  8
寸法
  6
BYBLOCK
 62
     0
 10
160.348662
 20
-87.200055
 11
181.22864
 21
-87.200055
  0
LINE
  8
寸法
  6
BYBLOCK
 62
     0
 10
160.348662
 20
-62.200055
 11
181.22864
 21
-62.200055
  0
LINE
  8
寸法
  6
BYBLOCK
 62
     0
 10
181.22864
 20
-87.200055
 11
181.22864
 21
-62.200055
  0
POINT
  8
寸法
 62
     0
 10
181.22864
 20
-87.200055
  0
POINT
  8
寸法
 62
     0
 10
181.22864
 20
-62.200055
  0
TEXT
  7
TextStyle03
  8
寸法
  6
CONTINUOUS
 62
     0
 10
180.85
 20
-83.9125
  1
上昇高さ500
 40
3.0
 50
90.0
 72
     5
 11
180.85
 21
-65.5375
  0
ENDBLK
  0
ENDSEC
  0
SECTION
  2
ENTITIES
  0
POLYLINE
  8
通り芯
  6
CONTINUOUS
 66
     1
 70
     1
  0
VERTEX
  8
通り芯
 10
-210.0
 20
-148.5
  0
VERTEX
  8
通り芯
 10
210.0
 20
-148.5
  0
VERTEX
  8
通り芯
 10
210.0
 20
148.5
  0
VERTEX
  8
通り芯
 10
-210.0
 20
148.5
  0
SEQEND
  0
INSERT
  2
*GRP_0001
  8
型材断面
  6
CONTINUOUS
 10
0.0
 20
0.0
  0
LINE
  8
型材断面
  6
DASHDOT
 10
-139.38576
 20
-17.025835
 11
-39.38576
 21
-17.025835
  0
LINE
  8
型材断面
  6
DASHDOT
 10
-139.38576
 20
-96.480105
 11
-139.38576
 21
82.974165
  0
LINE
  8
型材断面
  6
DASHDOT
 10
-89.38576
 20
-96.480105
 11
-89.38576
 21
82.974165
  0
LINE
  8
型材断面
  6
DASHDOT
 10
-39.38576
 20
-96.480105
 11
-39.38576
 21
82.974165
  0
LINE
  8
型材断面
  6
DASHDOT
 10
-139.38576
 20
32.974165
 11
-39.38576
 21
32.974165
  0
LINE
  8
型材断面
  6
DASHDOT
 10
-139.38576
 20
82.974165
 11
-39.38576
 21
82.974165
  0
LINE
  8
型材断面
  6
CONTINUOUS
 10
-89.38576
 20
-25.04971
 11
-91.629205
 21
-28.93547
  0
LINE
  8
型材断面
  6
CONTINUOUS
 10
-89.38576
 20
-25.04971
 11
-87.142315
 21
-28.93547
  0
LINE
  8
型材断面
  6
CONTINUOUS
 10
-87.142315
 20
-28.93547
 11
-91.629205
 21
-28.93547
  0
LINE
  8
型材断面
  6
CONTINUOUS
 10
-147.409638
 20
32.974165
 11
-151.295398
 21
30.73072
  0
LINE
  8
型材断面
  6
CONTINUOUS
 10
-147.409638
 20
32.974165
 11
-151.295398
 21
35.21761
  0
LINE
  8
型材断面
  6
CONTINUOUS
 10
-151.295398
 20
35.21761
 11
-151.295398
 21
30.73072
  0
LINE
  8
型材断面
  6
CONTINUOUS
 10
-89.38576
 20
90.99804
 11
-91.629205
 21
94.8838
  0
LINE
  8
型材断面
  6
CONTINUOUS
 10
-89.38576
 20
90.99804
 11
-87.142315
 21
94.8838
  0
LINE
  8
型材断面
  6
CONTINUOUS
 10
-87.142315
 20
94.8838
 11
-91.629205
 21
94.8838
  0
LINE
  8
型材断面
  6
CONTINUOUS
 10
-31.361882
 20
32.974165
 11
-27.476123
 21
30.73072
  0
LINE
  8
型材断面
  6
CONTINUOUS
 10
-31.361882
 20
32.974165
 11
-27.476123
 21
35.21761
  0
LINE
  8
型材断面
  6
CONTINUOUS
 10
-27.476123
 20
35.21761
 11
-27.476123
 21
30.73072
  0
LINE
  8
型材断面
  6
DOT
 10
-44.401998
 20
82.974165
 11
-44.401998
 21
-17.025835
  0
LINE
  8
型材断面
  6
DOT
 10
-42.401998
 20
82.974165
 11
-42.401998
 21
-17.025835
  0
LINE
  8
型材断面
  6
DOT
 10
-134.369523
 20
82.974165
 11
-134.369523
 21
-17.025835
  0
LINE
  8
型材断面
  6
DOT
 10
-136.369523
 20
82.974165
 11
-136.369523
 21
-17.025835
  0
LINE
  8
型材断面
  6
CONTINUOUS
 10
-1.119228
 20
-11.256877
 11
-3.362673
 21
-15.142638
  0
LINE
  8
型材断面
  6
CONTINUOUS
 10
-1.119228
 20
-11.256877
 11
1.124217
 21
-15.142638
  0
LINE
  8
型材断面
  6
CONTINUOUS
 10
1.124217
 20
-15.142638
 11
-3.362673
 21
-15.142638
  0
LINE
  8
型材断面
  6
CONTINUOUS
 10
-1.119228
 20
-18.946425
 11
-0.225143
 21
-22.832185
  0
LINE
  8
型材断面
  6
CONTINUOUS
 10
-1.119228
 20
-18.946425
 11
-2.013313
 21
-22.832185
  0
LINE
  8
型材断面
  6
CONTINUOUS
 10
-2.013313
 20
-22.832185
 11
-0.225143
 21
-22.832185
  0
LINE
  8
型材断面
  6
CONTINUOUS
 10
-10.153107
 20
-16.55053
 11
42.503572
 21
-16.55053
  0
LINE
  8
型材断面
  6
CONTINUOUS
 10
-10.153107
 20
-27.750522
 11
42.503572
 21
-27.750522
  0
LINE
  8
型材断面
  6
CONTINUOUS
 10
-10.153107
 20
-34.590467
 11
42.503572
 21
-34.590467
  0
LINE
  8
型材断面
  6
CONTINUOUS
 10
-36.28576
 20
-20.125835
 11
-35.96576
 21
-20.445835
  0
LINE
  8
型材断面
  6
CONTINUOUS
 10
-35.96576
 20
-20.445835
 11
-35.96576
 21
32.974165
  0
LINE
  8
型材断面
  6
CONTINUOUS
 10
-35.96576
 20
-20.445835
 11
-89.38576
 21
-20.445835
  0
LINE
  8
型材断面
  6
CONTINUOUS
 10
-142.48576
 20
-20.125835
 11
-142.80576
 21
-20.445835
  0
LINE
  8
型材断面
  6
CONTINUOUS
 10
-142.80576
 20
-20.445835
 11
-142.80576
 21
32.974165
  0
LINE
  8
型材断面
  6
CONTINUOUS
 10
-142.80576
 20
-20.445835
 11
-89.38576
 21
-20.445835
  0
LINE
  8
型材断面
  6
CONTINUOUS
 10
-142.48576
 20
86.074165
 11
-142.80576
 21
86.394165
  0
LINE
  8
型材断面
  6
CONTINUOUS
 10
-142.80576
 20
86.394165
 11
-142.80576
 21
32.974165
  0
LINE
  8
型材断面
  6
CONTINUOUS
 10
-142.80576
 20
86.394165
 11
-89.38576
 21
86.394165
  0
LINE
  8
型材断面
  6
CONTINUOUS
 10
-36.28576
 20
86.074165
 11
-35.96576
 21
86.394165
  0
LINE
  8
型材断面
  6
CONTINUOUS
 10
-35.96576
 20
86.394165
 11
-35.96576
 21
32.974165
  0
LINE
  8
型材断面
  6
CONTINUOUS
 10
-35.96576
 20
86.394165
 11
-89.38576
 21
86.394165
  0
LINE
  8
型材断面
  6
CONTINUOUS
 10
-31.36188
 20
77.124165
 11
-27.47612
 21
76.23008
  0
LINE
  8
型材断面
  6
CONTINUOUS
 10
-31.36188
 20
77.124165
 11
-27.47612
 21
78.01825
  0
LINE
  8
型材断面
  6
CONTINUOUS
 10
-27.47612
 20
78.01825
 11
-27.47612
 21
76.23008
  0
LINE
  8
型材断面
  6
CONTINUOUS
 10
-31.36188
 20
-11.175835
 11
-27.47612
 21
-10.28175
  0
LINE
  8
型材断面
  6
CONTINUOUS
 10
-31.36188
 20
-11.175835
 11
-27.47612
 21
-12.06992
  0
LINE
  8
型材断面
  6
CONTINUOUS
 10
-27.47612
 20
-12.06992
 11
-27.47612
 21
-10.28175
  0
LINE
  8
型材断面
  6
CONTINUOUS
 10
-147.40964
 20
77.124165
 11
-151.2954
 21
76.23008
  0
LINE
  8
型材断面
  6
CONTINUOUS
 10
-147.40964
 20
77.124165
 11
-151.2954
 21
78.01825
  0
LINE
  8
型材断面
  6
CONTINUOUS
 10
-151.2954
 20
78.01825
 11
-151.2954
 21
76.23008
  0
LINE
  8
型材断面
  6
CONTINUOUS
 10
-147.40964
 20
-11.175835
 11
-151.2954
 21
-10.28175
  0
LINE
  8
型材断面
  6
CONTINUOUS
 10
-147.40964
 20
-11.175835
 11
-151.2954
 21
-12.06992
  0
LINE
  8
型材断面
  6
CONTINUOUS
 10
-151.2954
 20
-12.06992
 11
-151.2954
 21
-10.28175
  0
LINE
  8
型材断面
  6
DASHDOT
 10
-139.38576
 20
-82.516018
 11
-139.38576
 21
-91.546115
  0
LINE
  8
型材断面
  6
CONTINUOUS
 62
    47
 10
-141.48076
 20
-85.941018
 11
-140.31076
 21
-85.941018
  0
LINE
  8
型材断面
  6
CONTINUOUS
 10
-141.63076
 20
-83.191018
 11
-141.63076
 21
-82.516018
  0
LINE
  8
型材断面
  6
CONTINUOUS
 62
    47
 10
-142.80576
 20
-87.200055
 11
-142.80576
 21
-86.700055
  0
LINE
  8
型材断面
  6
CONTINUOUS
 62
    47
 10
-142.80576
 20
-86.700055
 11
-141.63076
 21
-86.550055
  0
LINE
  8
型材断面
  6
CONTINUOUS
 62
    47
 10
-141.63076
 20
-85.941018
 11
-141.63076
 21
-86.550055
  0
LINE
  8
型材断面
  6
CONTINUOUS
 62
    47
 10
-142.33576
 20
-85.941018
 11
-142.33576
 21
-83.191018
  0
LINE
  8
型材断面
  6
CONTINUOUS
 62
    47
 10
-141.48576
 20
-91.891018
 11
-141.48576
 21
-91.141018
  0
LINE
  8
型材断面
  6
CONTINUOUS
 62
    47
 10
-142.33576
 20
-91.141018
 11
-142.33576
 21
-87.200055
  0
LINE
  8
型材断面
  6
CONTINUOUS
 62
    47
 10
-141.48576
 20
-91.891018
 11
-89.38576
 21
-91.891018
  0
LINE
  8
型材断面
  6
CONTINUOUS
 62
    47
 10
-142.33576
 20
-91.141018
 11
-89.38576
 21
-91.141018
  0
LINE
  8
型材断面
  6
CONTINUOUS
 62
    47
 10
-142.80576
 20
-87.200055
 11
-89.38576
 21
-87.200055
  0
LINE
  8
型材断面
  6
CONTINUOUS
 10
-142.80576
 20
-86.700055
 11
-89.38576
 21
-86.700055
  0
LINE
  8
型材断面
  6
CONTINUOUS
 62
    47
 10
-142.33576
 20
-85.941018
 11
-89.38576
 21
-85.941018
  0
LINE
  8
型材断面
  6
CONTINUOUS
 10
-141.63076
 20
-86.550055
 11
-89.38576
 21
-86.550055
  0
LINE
  8
型材断面
  6
CONTINUOUS
 10
-142.33576
 20
-83.191018
 11
-89.38576
 21
-83.191018
  0
LINE
  8
型材断面
  6
CONTINUOUS
 10
-141.63076
 20
-82.516018
 11
-89.38576
 21
-82.516018
  0
LINE
  8
型材断面
  6
CONTINUOUS
 62
    47
 10
-37.29076
 20
-85.941018
 11
-38.46076
 21
-85.941018
  0
LINE
  8
型材断面
  6
CONTINUOUS
 10
-37.14076
 20
-83.191018
 11
-37.14076
 21
-82.516018
  0
LINE
  8
型材断面
  6
CONTINUOUS
 62
    47
 10
-35.96576
 20
-87.200055
 11
-35.96576
 21
-86.700055
  0
LINE
  8
型材断面
  6
CONTINUOUS
 62
    47
 10
-35.96576
 20
-86.700055
 11
-37.14076
 21
-86.550055
  0
LINE
  8
型材断面
  6
CONTINUOUS
 62
    47
 10
-37.14076
 20
-85.941018
 11
-37.14076
 21
-86.550055
  0
LINE
  8
型材断面
  6
CONTINUOUS
 62
    47
 10
-36.43576
 20
-85.941018
 11
-36.43576
 21
-83.191018
  0
LINE
  8
型材断面
  6
CONTINUOUS
 62
    47
 10
-37.28576
 20
-91.891018
 11
-37.28576
 21
-91.141018
  0
LINE
  8
型材断面
  6
CONTINUOUS
 62
    47
 10
-36.43576
 20
-91.141018
 11
-36.43576
 21
-87.200055
  0
LINE
  8
型材断面
  6
CONTINUOUS
 62
    47
 10
-37.28576
 20
-91.891018
 11
-89.38576
 21
-91.891018
  0
LINE
  8
型材断面
  6
CONTINUOUS
 62
    47
 10
-36.43576
 20
-91.141018
 11
-89.38576
 21
-91.141018
  0
LINE
  8
型材断面
  6
CONTINUOUS
 62
    47
 10
-35.96576
 20
-87.200055
 11
-89.38576
 21
-87.200055
  0
LINE
  8
型材断面
  6
CONTINUOUS
 10
-35.96576
 20
-86.700055
 11
-89.38576
 21
-86.700055
  0
LINE
  8
型材断面
  6
CONTINUOUS
 62
    47
 10
-36.43576
 20
-85.941018
 11
-89.38576
 21
-85.941018
  0
LINE
  8
型材断面
  6
CONTINUOUS
 10
-37.14076
 20
-86.550055
 11
-89.38576
 21
-86.550055
  0
LINE
  8
型材断面
  6
CONTINUOUS
 10
-36.43576
 20
-83.191018
 11
-89.38576
 21
-83.191018
  0
LINE
  8
型材断面
  6
CONTINUOUS
 10
-37.14076
 20
-82.516018
 11
-89.38576
 21
-82.516018
  0
POLYLINE
  8
型材断面
  6
CONTINUOUS
 66
     1
 70
     1
  0
VERTEX
  8
型材断面
 10
-80.0561
 20
-30.02749
  0
VERTEX
  8
型材断面
 10
-98.611312
 20
-30.02749
  0
VERTEX
  8
型材断面
 10
-98.611312
 20
-34.819525
  0
VERTEX
  8
型材断面
 10
-80.0561
 20
-34.819525
  0
SEQEND
  0
POLYLINE
  8
型材断面
  6
CONTINUOUS
 66
     1
 70
     1
  0
VERTEX
  8
型材断面
 10
-80.0561
 20
100.580968
  0
VERTEX
  8
型材断面
 10
-98.611312
 20
100.580968
  0
VERTEX
  8
型材断面
 10
-98.611312
 20
95.788933
  0
VERTEX
  8
型材断面
 10
-80.0561
 20
95.788933
  0
SEQEND
  0
LINE
  8
型材断面
  6
CONTINUOUS
 10
-10.153107
 20
-41.430412
 11
42.503572
 21
-41.430412
  0
LINE
  8
型材断面
  6
CONTINUOUS
 62
    47
 10
49.833662
 20
-85.941018
 11
51.003663
 21
-85.941018
  0
LINE
  8
型材断面
  6
CONTINUOUS
 10
49.683662
 20
-83.191018
 11
49.683662
 21
-82.516018
  0
LINE
  8
型材断面
  6
CONTINUOUS
 62
    47
 10
48.508662
 20
-87.200055
 11
48.508662
 21
-86.700055
  0
LINE
  8
型材断面
  6
CONTINUOUS
 62
    47
 10
48.508662
 20
-86.700055
 11
49.683662
 21
-86.550055
  0
LINE
  8
型材断面
  6
CONTINUOUS
 62
    47
 10
49.683662
 20
-85.941018
 11
49.683662
 21
-86.550055
  0
LINE
  8
型材断面
  6
CONTINUOUS
 62
    47
 10
48.978663
 20
-85.941018
 11
48.978663
 21
-83.191018
  0
LINE
  8
型材断面
  6
CONTINUOUS
 62
    47
 10
49.828663
 20
-91.891018
 11
49.828663
 21
-91.141018
  0
LINE
  8
型材断面
  6
CONTINUOUS
 62
    47
 10
48.978663
 20
-91.141018
 11
48.978663
 21
-87.200055
  0
LINE
  8
型材断面
  6
CONTINUOUS
 62
    47
 10
49.828663
 20
-91.891018
 11
101.928663
 21
-91.891018
  0
LINE
  8
型材断面
  6
CONTINUOUS
 62
    47
 10
48.978663
 20
-91.141018
 11
101.928663
 21
-91.141018
  0
LINE
  8
型材断面
  6
CONTINUOUS
 62
    47
 10
48.508662
 20
-87.200055
 11
101.928663
 21
-87.200055
  0
LINE
  8
型材断面
  6
CONTINUOUS
 10
48.508662
 20
-86.700055
 11
101.928663
 21
-86.700055
  0
LINE
  8
型材断面
  6
CONTINUOUS
 62
    47
 10
48.978663
 20
-85.941018
 11
101.928663
 21
-85.941018
  0
LINE
  8
型材断面
  6
CONTINUOUS
 10
49.683662
 20
-86.550055
 11
101.928663
 21
-86.550055
  0
LINE
  8
型材断面
  6
CONTINUOUS
 10
48.978663
 20
-83.191018
 11
101.928663
 21
-83.191018
  0
LINE
  8
型材断面
  6
CONTINUOUS
 10
49.683662
 20
-82.516018
 11
101.928663
 21
-82.516018
  0
LINE
  8
型材断面
  6
CONTINUOUS
 62
    47
 10
154.023662
 20
-85.941018
 11
152.853663
 21
-85.941018
  0
LINE
  8
型材断面
  6
CONTINUOUS
 10
154.173662
 20
-83.191018
 11
154.173662
 21
-82.516018
  0
LINE
  8
型材断面
  6
CONTINUOUS
 62
    47
 10
155.348662
 20
-87.200055
 11
155.348662
 21
-86.700055
  0
LINE
  8
型材断面
  6
CONTINUOUS
 62
    47
 10
155.348662
 20
-86.700055
 11
154.173662
 21
-86.550055
  0
LINE
  8
型材断面
  6
CONTINUOUS
 62
    47
 10
154.173662
 20
-85.941018
 11
154.173662
 21
-86.550055
  0
LINE
  8
型材断面
  6
CONTINUOUS
 62
    47
 10
154.878663
 20
-85.941018
 11
154.878663
 21
-83.191018
  0
LINE
  8
型材断面
  6
CONTINUOUS
 62
    47
 10
154.028663
 20
-91.891018
 11
154.028663
 21
-91.141018
  0
LINE
  8
型材断面
  6
CONTINUOUS
 62
    47
 10
154.878663
 20
-91.141018
 11
154.878663
 21
-87.200055
  0
LINE
  8
型材断面
  6
CONTINUOUS
 62
    47
 10
154.028663
 20
-91.891018
 11
101.928663
 21
-91.891018
  0
LINE
  8
型材断面
  6
CONTINUOUS
 62
    47
 10
154.878663
 20
-91.141018
 11
101.928663
 21
-91.141018
  0
LINE
  8
型材断面
  6
CONTINUOUS
 62
    47
 10
155.348662
 20
-87.200055
 11
101.928663
 21
-87.200055
  0
LINE
  8
型材断面
  6
CONTINUOUS
 10
155.348662
 20
-86.700055
 11
101.928663
 21
-86.700055
  0
LINE
  8
型材断面
  6
CONTINUOUS
 62
    47
 10
154.878663
 20
-85.941018
 11
101.928663
 21
-85.941018
  0
LINE
  8
型材断面
  6
CONTINUOUS
 10
154.173662
 20
-86.550055
 11
101.928663
 21
-86.550055
  0
LINE
  8
型材断面
  6
CONTINUOUS
 10
154.878663
 20
-83.191018
 11
101.928663
 21
-83.191018
  0
LINE
  8
型材断面
  6
CONTINUOUS
 10
154.173662
 20
-82.516018
 11
101.928663
 21
-82.516018
  0
INSERT
  2
*GRP_0065
  8
型材断面
  6
CONTINUOUS
 10
0.0
 20
0.0
  0
INSERT
  2
*GRP_0066
  8
型材断面
  6
CONTINUOUS
 10
0.0
 20
0.0
  0
INSERT
  2
*GRP_0067
  8
型材断面
  6
CONTINUOUS
 10
0.0
 20
0.0
  0
INSERT
  2
*GRP_0068
  8
型材断面
  6
CONTINUOUS
 10
0.0
 20
0.0
  0
LINE
  8
型材断面
  6
DOT
 10
-87.51076
 20
-17.025835
 11
-87.51076
 21
32.974165
  0
LINE
  8
型材断面
  6
DOT
 10
-91.26076
 20
-17.025835
 11
-91.26076
 21
32.974165
  0
LINE
  8
型材断面
  6
DOT
 10
-91.26076
 20
82.974165
 11
-91.26076
 21
32.974165
  0
LINE
  8
型材断面
  6
DOT
 10
-87.51076
 20
82.974165
 11
-87.51076
 21
32.974165
  0
LINE
  8
型材断面
  6
DOT
 10
-139.38576
 20
34.849165
 11
-91.26076
 21
34.849165
  0
LINE
  8
型材断面
  6
DOT
 10
-139.38576
 20
31.099165
 11
-91.26076
 21
31.099165
  0
LINE
  8
型材断面
  6
DOT
 10
-87.51076
 20
31.099165
 11
-39.38576
 21
31.099165
  0
LINE
  8
型材断面
  6
DOT
 10
-39.38576
 20
34.849165
 11
-87.51076
 21
34.849165
  0
LINE
  8
ガラス
  6
CONTINUOUS
 10
138.0134
 20
73.192915
 11
39.0134
 21
73.192915
  0
LINE
  8
ガラス
  6
CONTINUOUS
 10
39.0134
 20
73.192915
 11
39.0134
 21
24.692915
  0
LINE
  8
ガラス
  6
CONTINUOUS
 10
39.0134
 20
24.692915
 11
138.0134
 21
24.692915
  0
LINE
  8
ガラス
  6
CONTINUOUS
 10
138.0134
 20
73.192915
 11
138.0134
 21
24.692915
  0
INSERT
  2
*GRP_0074
  8
ガラス
  6
DOT
 10
0.0
 20
0.0
  0
CIRCLE
  8
ボルト／ビス
  6
CONTINUOUS
 10
-38.38576
 20
-4.525835
 40
0.288675
  0
CIRCLE
  8
ボルト／ビス
  6
CONTINUOUS
 10
-38.38576
 20
-4.525835
 40
0.455885
  0
CIRCLE
  8
ボルト／ビス
  6
CONTINUOUS
 10
-38.38576
 20
10.474165
 40
0.288675
  0
CIRCLE
  8
ボルト／ビス
  6
CONTINUOUS
 10
-38.38576
 20
10.474165
 40
0.455885
  0
CIRCLE
  8
ボルト／ビス
  6
CONTINUOUS
 10
-38.38576
 20
25.474165
 40
0.288675
  0
CIRCLE
  8
ボルト／ビス
  6
CONTINUOUS
 10
-38.38576
 20
25.474165
 40
0.455885
  0
CIRCLE
  8
ボルト／ビス
  6
CONTINUOUS
 10
-38.38576
 20
40.474165
 40
0.288675
  0
CIRCLE
  8
ボルト／ビス
  6
CONTINUOUS
 10
-38.38576
 20
40.474165
 40
0.455885
  0
CIRCLE
  8
ボルト／ビス
  6
CONTINUOUS
 10
-38.38576
 20
70.474165
 40
0.288675
  0
CIRCLE
  8
ボルト／ビス
  6
CONTINUOUS
 10
-38.38576
 20
70.474165
 40
0.455885
  0
CIRCLE
  8
ボルト／ビス
  6
CONTINUOUS
 10
-38.38576
 20
55.474165
 40
0.288675
  0
CIRCLE
  8
ボルト／ビス
  6
CONTINUOUS
 10
-38.38576
 20
55.474165
 40
0.455885
  0
CIRCLE
  8
ボルト／ビス
  6
CONTINUOUS
 10
-126.88576
 20
83.974165
 40
0.288675
  0
CIRCLE
  8
ボルト／ビス
  6
CONTINUOUS
 10
-126.88576
 20
83.974165
 40
0.455885
  0
CIRCLE
  8
ボルト／ビス
  6
CONTINUOUS
 10
-111.88576
 20
83.974165
 40
0.288675
  0
CIRCLE
  8
ボルト／ビス
  6
CONTINUOUS
 10
-111.88576
 20
83.974165
 40
0.455885
  0
CIRCLE
  8
ボルト／ビス
  6
CONTINUOUS
 10
-96.88576
 20
83.974165
 40
0.288675
  0
CIRCLE
  8
ボルト／ビス
  6
CONTINUOUS
 10
-96.88576
 20
83.974165
 40
0.455885
  0
CIRCLE
  8
ボルト／ビス
  6
CONTINUOUS
 10
-81.88576
 20
83.974165
 40
0.288675
  0
CIRCLE
  8
ボルト／ビス
  6
CONTINUOUS
 10
-81.88576
 20
83.974165
 40
0.455885
  0
CIRCLE
  8
ボルト／ビス
  6
CONTINUOUS
 10
-51.88576
 20
83.974165
 40
0.288675
  0
CIRCLE
  8
ボルト／ビス
  6
CONTINUOUS
 10
-51.88576
 20
83.974165
 40
0.455885
  0
CIRCLE
  8
ボルト／ビス
  6
CONTINUOUS
 10
-66.88576
 20
83.974165
 40
0.288675
  0
CIRCLE
  8
ボルト／ビス
  6
CONTINUOUS
 10
-66.88576
 20
83.974165
 40
0.455885
  0
CIRCLE
  8
ボルト／ビス
  6
CONTINUOUS
 10
-140.38576
 20
70.474165
 40
0.288675
  0
CIRCLE
  8
ボルト／ビス
  6
CONTINUOUS
 10
-140.38576
 20
70.474165
 40
0.455885
  0
CIRCLE
  8
ボルト／ビス
  6
CONTINUOUS
 10
-140.38576
 20
55.474165
 40
0.288675
  0
CIRCLE
  8
ボルト／ビス
  6
CONTINUOUS
 10
-140.38576
 20
55.474165
 40
0.455885
  0
CIRCLE
  8
ボルト／ビス
  6
CONTINUOUS
 10
-140.38576
 20
40.474165
 40
0.288675
  0
CIRCLE
  8
ボルト／ビス
  6
CONTINUOUS
 10
-140.38576
 20
40.474165
 40
0.455885
  0
CIRCLE
  8
ボルト／ビス
  6
CONTINUOUS
 10
-140.38576
 20
25.474165
 40
0.288675
  0
CIRCLE
  8
ボルト／ビス
  6
CONTINUOUS
 10
-140.38576
 20
25.474165
 40
0.455885
  0
CIRCLE
  8
ボルト／ビス
  6
CONTINUOUS
 10
-140.38576
 20
-4.525835
 40
0.288675
  0
CIRCLE
  8
ボルト／ビス
  6
CONTINUOUS
 10
-140.38576
 20
-4.525835
 40
0.455885
  0
CIRCLE
  8
ボルト／ビス
  6
CONTINUOUS
 10
-140.38576
 20
10.474165
 40
0.288675
  0
CIRCLE
  8
ボルト／ビス
  6
CONTINUOUS
 10
-140.38576
 20
10.474165
 40
0.455885
  0
CIRCLE
  8
ボルト／ビス
  6
CONTINUOUS
 10
-51.88576
 20
-18.025835
 40
0.288675
  0
CIRCLE
  8
ボルト／ビス
  6
CONTINUOUS
 10
-51.88576
 20
-18.025835
 40
0.455885
  0
CIRCLE
  8
ボルト／ビス
  6
CONTINUOUS
 10
-66.88576
 20
-18.025835
 40
0.288675
  0
CIRCLE
  8
ボルト／ビス
  6
CONTINUOUS
 10
-66.88576
 20
-18.025835
 40
0.455885
  0
CIRCLE
  8
ボルト／ビス
  6
CONTINUOUS
 10
-81.88576
 20
-18.025835
 40
0.288675
  0
CIRCLE
  8
ボルト／ビス
  6
CONTINUOUS
 10
-81.88576
 20
-18.025835
 40
0.455885
  0
CIRCLE
  8
ボルト／ビス
  6
CONTINUOUS
 10
-96.88576
 20
-18.025835
 40
0.288675
  0
CIRCLE
  8
ボルト／ビス
  6
CONTINUOUS
 10
-96.88576
 20
-18.025835
 40
0.455885
  0
CIRCLE
  8
ボルト／ビス
  6
CONTINUOUS
 10
-126.88576
 20
-18.025835
 40
0.288675
  0
CIRCLE
  8
ボルト／ビス
  6
CONTINUOUS
 10
-126.88576
 20
-18.025835
 40
0.455885
  0
CIRCLE
  8
ボルト／ビス
  6
CONTINUOUS
 10
-111.88576
 20
-18.025835
 40
0.288675
  0
CIRCLE
  8
ボルト／ビス
  6
CONTINUOUS
 10
-111.88576
 20
-18.025835
 40
0.455885
  0
TEXT
  7
TextStyle03
  8
文字
  6
CONTINUOUS
 10
-29.8
 20
1.7
  1
ﾊﾞﾗﾝｽｽﾃｰ
 40
3.0
 72
     5
 11
-16.4875
 21
1.7
  0
TEXT
  7
TextStyle03
  8
文字
  6
CONTINUOUS
 10
3.175
 20
-14.8
  1
は排水穴位置を示す
 40
3.0
 72
     5
 11
33.175
 21
-14.8
  0
TEXT
  7
TextStyle03
  8
文字
  6
CONTINUOUS
 10
3.175
 20
-22.65
  1
はケーシング位置を示す
 40
3.0
 72
     5
 11
39.925
 21
-22.65
  0
TEXT
  7
TextStyle03
  8
文字
  6
CONTINUOUS
 10
3.175
 20
-26.025
  1
４ヶ所中1ヶ所に設定
 40
3.0
 72
     5
 11
34.8625
 21
-26.025
  0
TEXT
  7
TextStyle03
  8
文字
  6
CONTINUOUS
 10
-125.55
 20
35.55
  1
中桟
 40
3.0
 72
     5
 11
-119.175
 21
35.55
  0
TEXT
  7
TextStyle03
  8
文字
  6
CONTINUOUS
 10
-86.825
 20
70.7
  1
中桟
 40
3.0
 50
270.0
 72
     5
 11
-86.825
 21
64.325
  0
TEXT
  7
TextStyle03
  8
文字
  6
CONTINUOUS
 10
-97.625
 20
-33.8
  1
可動装置側
 40
3.0
 72
     5
 11
-81.125
 21
-33.8
  0
TEXT
  7
TextStyle03
  8
文字
  6
CONTINUOUS
 10
-97.625
 20
96.8
  1
可動装置側
 40
3.0
 72
     5
 11
-81.125
 21
96.8
  0
TEXT
  7
TextStyle03
  8
文字
  6
CONTINUOUS
 10
110.825
 20
35.4
  1
網入り6.8t
 40
3.0
 72
     5
 11
127.5125
 21
35.4
  0
TEXT
  7
TextStyle03
  8
文字
  6
CONTINUOUS
 10
-162.2875
 20
68.825
  1
ﾊﾞﾗﾝｽｽﾃｰ
 40
3.0
 50
360.0
 72
     5
 11
-148.975
 21
68.825
  0
TEXT
  7
TextStyle03
  8
文字
  6
CONTINUOUS
 10
75.325
 20
104.325
  1
ＮＳコード：ＮＳＤＳ
 40
5.0
 72
     5
 11
130.95
 21
104.325
  0
TEXT
  7
TextStyle03
  8
文字
  6
CONTINUOUS
 10
-151.625
 20
114.75
  1
アンカーピッチ
 40
3.0
 72
     5
 11
-128.375
 21
114.75
  0
TEXT
  7
TextStyle03
  8
文字
  6
CONTINUOUS
 10
-172.35
 20
-26.75
  1
アンカーピッチ
 40
3.0
 50
90.0
 72
     5
 11
-172.35
 21
-3.5
  0
TEXT
  7
TextStyle03
  8
文字
  6
CONTINUOUS
 10
-2.525
 20
-40.025
  1
アームユニット数　４ヶ所
 40
3.0
 72
     5
 11
37.6
 21
-40.025
  0
TEXT
  7
TextStyle03
  8
文字
  6
CONTINUOUS
 10
-2.425
 20
-33.175
  1
アンカー数量　１２ヶ所
 40
3.0
 72
     5
 11
34.325
 21
-33.175
  0
TEXT
  7
TextStyle03
  8
文字
  6
CONTINUOUS
 10
117.975
 20
31.375
  1
×２枚
 40
3.0
 72
     5
 11
127.725
 21
31.375
  0
TEXT
  7
TextStyle03
  8
文字
  6
CONTINUOUS
 10
75.75
 20
125.25
  1
シリーズ：ＳＴＤ
 40
5.0
 72
     5
 11
120.125
 21
125.25
  0
TEXT
  7
TextStyle03
  8
文字
  6
CONTINUOUS
 10
75.75
 20
119.625
  1
　　　　　（上下可動）2000×2000タイプ
 40
5.0
 72
     5
 11
182.0
 21
119.625
  0
TEXT
  7
TextStyle03
  8
文字
  6
CONTINUOUS
 10
75.75
 20
114.0
  1
図面名　：外観姿図
 40
5.0
 72
     5
 11
125.75
 21
114.0
  0
TEXT
  7
TextStyle03
  8
文字
  6
CONTINUOUS
 10
75.75
 20
108.375
  1
　　　　　　
 40
5.0
 72
     5
 11
108.875
 21
108.375
  0
INSERT
  2
*GRP_0016
  8
文字
  6
CONTINUOUS
 10
0.0
 20
0.0
  0
INSERT
  2
*GRP_0017
  8
文字
  6
CONTINUOUS
 10
0.0
 20
0.0
  0
INSERT
  2
*GRP_0018
  8
文字
  6
CONTINUOUS
 10
0.0
 20
0.0
  0
INSERT
  2
*GRP_0019
  8
文字
  6
CONTINUOUS
 10
0.0
 20
0.0
  0
INSERT
  2
*GRP_0020
  8
文字
  6
CONTINUOUS
 10
0.0
 20
0.0
  0
INSERT
  2
*GRP_0021
  8
文字
  6
CONTINUOUS
 10
0.0
 20
0.0
  0
INSERT
  2
*GRP_0028
  8
文字
  6
CONTINUOUS
 10
0.0
 20
0.0
  0
INSERT
  2
*GRP_0029
  8
文字
  6
CONTINUOUS
 10
0.0
 20
0.0
  0
INSERT
  2
*GRP_0030
  8
文字
  6
CONTINUOUS
 10
0.0
 20
0.0
  0
INSERT
  2
*GRP_0031
  8
文字
  6
CONTINUOUS
 10
0.0
 20
0.0
  0
INSERT
  2
*GRP_0032
  8
文字
  6
CONTINUOUS
 10
0.0
 20
0.0
  0
INSERT
  2
*GRP_0033
  8
文字
  6
CONTINUOUS
 10
0.0
 20
0.0
  0
INSERT
  2
*GRP_0040
  8
文字
  6
CONTINUOUS
 10
0.0
 20
0.0
  0
INSERT
  2
*GRP_0041
  8
文字
  6
CONTINUOUS
 10
0.0
 20
0.0
  0
INSERT
  2
*GRP_0042
  8
文字
  6
CONTINUOUS
 10
0.0
 20
0.0
  0
INSERT
  2
*GRP_0043
  8
文字
  6
CONTINUOUS
 10
0.0
 20
0.0
  0
INSERT
  2
*GRP_0044
  8
文字
  6
CONTINUOUS
 10
0.0
 20
0.0
  0
INSERT
  2
*GRP_0045
  8
文字
  6
CONTINUOUS
 10
0.0
 20
0.0
  0
INSERT
  2
*GRP_0052
  8
文字
  6
CONTINUOUS
 10
0.0
 20
0.0
  0
INSERT
  2
*GRP_0053
  8
文字
  6
CONTINUOUS
 10
0.0
 20
0.0
  0
INSERT
  2
*GRP_0054
  8
文字
  6
CONTINUOUS
 10
0.0
 20
0.0
  0
INSERT
  2
*GRP_0055
  8
文字
  6
CONTINUOUS
 10
0.0
 20
0.0
  0
INSERT
  2
*GRP_0056
  8
文字
  6
CONTINUOUS
 10
0.0
 20
0.0
  0
INSERT
  2
*GRP_0057
  8
文字
  6
CONTINUOUS
 10
0.0
 20
0.0
  0
INSERT
  2
*DIM_0002
  8
寸法
  6
CONTINUOUS
 10
0.0
 20
0.0
  0
INSERT
  2
*DIM_0003
  8
寸法
  6
CONTINUOUS
 10
0.0
 20
0.0
  0
INSERT
  2
*GRP_0004
  8
寸法
  6
CONTINUOUS
 10
0.0
 20
0.0
  0
INSERT
  2
*DIM_0005
  8
寸法
  6
CONTINUOUS
 10
0.0
 20
0.0
  0
INSERT
  2
*DIM_0006
  8
寸法
  6
CONTINUOUS
 10
0.0
 20
0.0
  0
INSERT
  2
*DIM_0007
  8
寸法
  6
CONTINUOUS
 10
0.0
 20
0.0
  0
INSERT
  2
*DIM_0008
  8
寸法
  6
CONTINUOUS
 10
0.0
 20
0.0
  0
INSERT
  2
*GRP_0009
  8
寸法
  6
CONTINUOUS
 10
0.0
 20
0.0
  0
INSERT
  2
*DIM_0010
  8
寸法
  6
CONTINUOUS
 10
0.0
 20
0.0
  0
INSERT
  2
*DIM_0011
  8
寸法
  6
CONTINUOUS
 10
0.0
 20
0.0
  0
INSERT
  2
*DIM_0012
  8
寸法
  6
CONTINUOUS
 10
0.0
 20
0.0
  0
INSERT
  2
*DIM_0013
  8
寸法
  6
CONTINUOUS
 10
0.0
 20
0.0
  0
INSERT
  2
*DIM_0014
  8
寸法
  6
CONTINUOUS
 10
0.0
 20
0.0
  0
INSERT
  2
*DIM_0015
  8
寸法
  6
CONTINUOUS
 10
0.0
 20
0.0
  0
INSERT
  2
*DIM_0064
  8
寸法
  6
CONTINUOUS
 10
0.0
 20
0.0
  0
INSERT
  2
*DIM_0077
  8
寸法
  6
CONTINUOUS
 10
0.0
 20
0.0
  0
LINE
  8
別途部材
  6
CONTINUOUS
 62
    96
 10
-141.88576
 20
-80.96609
 11
-142.48576
 21
-82.46609
  0
LINE
  8
別途部材
  6
CONTINUOUS
 62
    96
 10
-141.88576
 20
-80.96609
 11
-89.38576
 21
-80.96609
  0
LINE
  8
別途部材
  6
CONTINUOUS
 10
-142.48576
 20
-82.46609
 11
-89.38576
 21
-82.46609
  0
LINE
  8
別途部材
  6
CONTINUOUS
 62
    96
 10
-36.88576
 20
-80.96609
 11
-36.28576
 21
-82.46609
  0
LINE
  8
別途部材
  6
CONTINUOUS
 62
    96
 10
-36.88576
 20
-80.96609
 11
-89.38576
 21
-80.96609
  0
LINE
  8
別途部材
  6
CONTINUOUS
 10
-36.28576
 20
-82.46609
 11
-89.38576
 21
-82.46609
  0
LINE
  8
別途部材
  6
CONTINUOUS
 10
-36.28576
 20
-20.125835
 11
-36.88576
 21
-19.525835
  0
LINE
  8
別途部材
  6
CONTINUOUS
 10
-39.38576
 20
-17.025835
 11
-51.474645
 21
-4.93695
  0
LINE
  8
別途部材
  6
CONTINUOUS
 10
-36.28576
 20
-20.125835
 11
-36.28576
 21
32.974165
  0
LINE
  8
別途部材
  6
CONTINUOUS
 10
-36.88576
 20
-19.525835
 11
-36.88576
 21
32.974165
  0
LINE
  8
別途部材
  6
CONTINUOUS
 10
-36.88576
 20
-19.525835
 11
-89.38576
 21
-19.525835
  0
LINE
  8
別途部材
  6
CONTINUOUS
 10
-36.28576
 20
-20.125835
 11
-89.38576
 21
-20.125835
  0
LINE
  8
別途部材
  6
CONTINUOUS
 10
-36.28576
 20
86.074165
 11
-36.88576
 21
85.474165
  0
LINE
  8
別途部材
  6
CONTINUOUS
 10
-39.38576
 20
82.974165
 11
-51.474645
 21
70.88528
  0
LINE
  8
別途部材
  6
CONTINUOUS
 10
-36.28576
 20
86.074165
 11
-36.28576
 21
32.974165
  0
LINE
  8
別途部材
  6
CONTINUOUS
 10
-36.88576
 20
85.474165
 11
-36.88576
 21
32.974165
  0
LINE
  8
別途部材
  6
CONTINUOUS
 10
-36.88576
 20
85.474165
 11
-89.38576
 21
85.474165
  0
LINE
  8
別途部材
  6
CONTINUOUS
 10
-36.28576
 20
86.074165
 11
-89.38576
 21
86.074165
  0
LINE
  8
別途部材
  6
CONTINUOUS
 10
-142.48576
 20
-20.125835
 11
-141.88576
 21
-19.525835
  0
LINE
  8
別途部材
  6
CONTINUOUS
 10
-139.38576
 20
-17.025835
 11
-127.296875
 21
-4.93695
  0
LINE
  8
別途部材
  6
CONTINUOUS
 10
-142.48576
 20
-20.125835
 11
-142.48576
 21
32.974165
  0
LINE
  8
別途部材
  6
CONTINUOUS
 10
-141.88576
 20
-19.525835
 11
-141.88576
 21
32.974165
  0
LINE
  8
別途部材
  6
CONTINUOUS
 10
-141.88576
 20
-19.525835
 11
-89.38576
 21
-19.525835
  0
LINE
  8
別途部材
  6
CONTINUOUS
 10
-142.48576
 20
-20.125835
 11
-89.38576
 21
-20.125835
  0
LINE
  8
別途部材
  6
CONTINUOUS
 10
-142.48576
 20
86.074165
 11
-141.88576
 21
85.474165
  0
LINE
  8
別途部材
  6
CONTINUOUS
 10
-139.38576
 20
82.974165
 11
-127.296875
 21
70.88528
  0
LINE
  8
別途部材
  6
CONTINUOUS
 10
-142.48576
 20
86.074165
 11
-142.48576
 21
32.974165
  0
LINE
  8
別途部材
  6
CONTINUOUS
 10
-141.88576
 20
85.474165
 11
-141.88576
 21
32.974165
  0
LINE
  8
別途部材
  6
CONTINUOUS
 10
-141.88576
 20
85.474165
 11
-89.38576
 21
85.474165
  0
LINE
  8
別途部材
  6
CONTINUOUS
 10
-142.48576
 20
86.074165
 11
-89.38576
 21
86.074165
  0
ARC
  8
別途部材
  6
CONTINUOUS
 10
-89.38576
 20
-125.271646
 40
66.805556
 50
41.544509
 51
138.455491
  0
LINE
  8
別途部材
  6
CONTINUOUS
 62
    96
 10
49.428663
 20
-80.96609
 11
48.828663
 21
-82.46609
  0
LINE
  8
別途部材
  6
CONTINUOUS
 62
    96
 10
49.428663
 20
-80.96609
 11
101.928663
 21
-80.96609
  0
LINE
  8
別途部材
  6
CONTINUOUS
 10
48.828663
 20
-82.46609
 11
101.928663
 21
-82.46609
  0
LINE
  8
別途部材
  6
CONTINUOUS
 62
    96
 10
154.428663
 20
-80.96609
 11
155.028663
 21
-82.46609
  0
LINE
  8
別途部材
  6
CONTINUOUS
 62
    96
 10
154.428663
 20
-80.96609
 11
101.928663
 21
-80.96609
  0
LINE
  8
別途部材
  6
CONTINUOUS
 10
155.028663
 20
-82.46609
 11
101.928663
 21
-82.46609
  0
ARC
  8
別途部材
  6
CONTINUOUS
 10
101.928661
 20
-125.271646
 40
66.805556
 50
41.544509
 51
138.455491
  0
INSERT
  2
*GRP_0070
  8
別途部材
  6
DOT
 10
0.0
 20
0.0
  0
INSERT
  2
*GRP_0071
  8
別途部材
  6
DOT
 10
0.0
 20
0.0
  0
INSERT
  2
*GRP_0072
  8
別途部材
  6
DOT
 10
0.0
 20
0.0
  0
INSERT
  2
*GRP_0073
  8
別途部材
  6
DOT
 10
0.0
 20
0.0
  0
ENDSEC
  0
EOF
