  0
SECTION
  2
HEADER
  9
$EXTMIN
 10
-210.0
 20
-148.5
  9
$EXTMAX
 10
210.0
 20
148.5
  9
$PDMODE
 70
    32
  9
$PDSIZE
 40
1.5
  9
$LTSCALE
 40
10.0
  0
ENDSEC
  0
SECTION
  2
TABLES
  0
TABLE
  2
LTYPE
 70
    15
  0
LTYPE
  2
CONTINUOUS
 70
    64
  3
実線
 72
    65
 73
     0
 40
0.0
  0
LTYPE
  2
DASHED
 70
    64
  3
破線A
 72
    65
 73
     2
 40
0.6
 49
0.4
 49
-0.2
  0
LTYPE
  2
DASHEDX2
 70
    64
  3
破線B
 72
    65
 73
     2
 40
1.3
 49
0.9
 49
-0.4
  0
LTYPE
  2
DASHDOT
 70
    64
  3
１点鎖線A
 72
    65
 73
     4
 40
0.5375
 49
0.375
 49
-0.05
 49
0.0625
 49
-0.05
  0
LTYPE
  2
DASHDOTX2
 70
    64
  3
１点鎖線B
 72
    65
 73
     4
 40
1.075
 49
0.75
 49
-0.1
 49
0.125
 49
-0.1
  0
LTYPE
  2
DIVIDE2
 70
    64
  3
２点鎖線A
 72
    65
 73
     6
 40
0.5125
 49
0.3
 49
-0.0375
 49
0.05
 49
-0.0375
 49
0.05
 49
-0.0375
  0
LTYPE
  2
DIVIDE
 70
    64
  3
２点鎖線B
 72
    65
 73
     6
 40
1.05
 49
0.55
 49
-0.1
 49
0.1
 49
-0.1
 49
0.1
 49
-0.1
  0
LTYPE
  2
DOT
 70
    64
  3
点線A
 72
    65
 73
     2
 40
0.1125
 49
0.0625
 49
-0.05
  0
LTYPE
  2
DOTX2
 70
    64
  3
点線B
 72
    65
 73
     2
 40
0.275
 49
0.15
 49
-0.125
  0
LTYPE
  2
CONTINUOUS
 70
    64
  3
実線
 72
    65
 73
     0
 40
0.0
  0
LTYPE
  2
CONTINUOUS
 70
    64
  3
実線
 72
    65
 73
     0
 40
0.0
  0
LTYPE
  2
CONTINUOUS
 70
    64
  3
実線
 72
    65
 73
     0
 40
0.0
  0
LTYPE
  2
CONTINUOUS
 70
    64
  3
実線
 72
    65
 73
     0
 40
0.0
  0
LTYPE
  2
CONTINUOUS
 70
    64
  3
実線
 72
    65
 73
     0
 40
0.0
  0
LTYPE
  2
CONTINUOUS
 70
    64
  3
実線
 72
    65
 73
     0
 40
0.0
  0
ENDTAB
  0
TABLE
  2
LAYER
 70
    34
  0
LAYER
  2
通り芯
 70
     0
 62
    15
  6
CONTINUOUS
  0
LAYER
  2
補助線
 70
     0
 62
    16
  6
DOT
  0
LAYER
  2
躯体
 70
     0
 62
    31
  6
CONTINUOUS
  0
LAYER
  2
型材
 70
     0
 62
    32
  6
CONTINUOUS
  0
LAYER
  2
型材断面
 70
     0
 62
    47
  6
CONTINUOUS
  0
LAYER
  2
ガラス
 70
     0
 62
    48
  6
CONTINUOUS
  0
LAYER
  2
ゴム等
 70
     0
 62
    63
  6
CONTINUOUS
  0
LAYER
  2
ボルト／ビス
 70
     0
 62
    64
  6
CONTINUOUS
  0
LAYER
  2
文字
 70
     0
 62
    79
  6
CONTINUOUS
  0
LAYER
  2
寸法
 70
     0
 62
    80
  6
CONTINUOUS
  0
LAYER
  2
ﾊｯﾁﾝｸﾞ
 70
     0
 62
    95
  6
CONTINUOUS
  0
LAYER
  2
別途部材
 70
     0
 62
    96
  6
CONTINUOUS
  0
LAYER
  2
曲げ物
 70
     0
 62
   111
  6
CONTINUOUS
  0
LAYER
  2
鉄骨等
 70
     0
 62
   112
  6
CONTINUOUS
  0
LAYER
  2
St
 70
     0
 62
   127
  6
CONTINUOUS
  0
LAYER
  2
その他部品等
 70
     0
 62
   128
  6
CONTINUOUS
  0
LAYER
  2
ｶﾞｽｹｯﾄ
 70
     0
 62
   143
  6
CONTINUOUS
  0
LAYER
  2
ｽｹｯﾁ
 70
     0
 62
    14
  6
CONTINUOUS
  0
LAYER
  2
0
 70
     0
 62
    17
  6
CONTINUOUS
  0
LAYER
  2
1
 70
     0
 62
    30
  6
CONTINUOUS
  0
LAYER
  2
4
 70
     0
 62
    33
  6
CONTINUOUS
  0
LAYER
  2
ﾚｲﾔ3
 70
     0
 62
    46
  6
CONTINUOUS
  0
LAYER
  2
外形線
 70
     0
 62
    49
  6
CONTINUOUS
  0
LAYER
  2
部品
 70
     0
 62
    14
  6
CONTINUOUS
  0
LAYER
  2
サッシ芯
 70
     0
 62
    17
  6
DASHDOTX2
  0
LAYER
  2
寸法線
 70
     0
 62
    62
  6
CONTINUOUS
  0
LAYER
  2
姿図外形線
 70
     0
 62
    65
  6
CONTINUOUS
  0
LAYER
  2
姿補助線
 70
     0
 62
    30
  6
CONTINUOUS
  0
LAYER
  2
透視線
 70
     0
 62
    78
  6
DOT
  0
LAYER
  2
用紙
 70
     0
 62
    81
  6
CONTINUOUS
  0
LAYER
  2
実線図枠
 70
     0
 62
    94
  6
CONTINUOUS
  0
LAYER
  2
補助図枠
 70
     0
 62
    97
  6
CONTINUOUS
  0
LAYER
  2
建具記号
 70
     0
 62
   110
  6
CONTINUOUS
  0
LAYER
  2
補助文字
 70
     0
 62
   113
  6
CONTINUOUS
  0
ENDTAB
  0
TABLE
  2
STYLE
 70
    10
  0
STYLE
  2
STANDARD
 70
     0
 40
1.0
 41
1.0
 42
1.0
 50
0.0
 71
     0
  3
TXT
  4
BIGFONT
  0
STYLE
  2
TATE
 70
     4
 40
1.0
 41
1.0
 42
1.0
 50
0.0
 71
     0
  3
TXT
  4
BIGFONT
  0
STYLE
  2
TextStyle03
 70
     0
 40
1.0
 41
1.0
 42
1.0
 50
0.0
 71
     0
  3
MONOTXT
  4
BIGFONT
  0
STYLE
  2
TextStyle04
 70
     0
 40
1.0
 41
1.0
 42
1.0
 50
0.0
 71
     0
  3
MONOTXT
  4
BIGFONT
  0
STYLE
  2
TextStyle05
 70
     0
 40
1.0
 41
1.0
 42
1.0
 50
0.0
 71
     0
  3
MONOTXT
  4
BIGFONT
  0
STYLE
  2
TextStyle06
 70
     0
 40
1.0
 41
1.0
 42
1.0
 50
0.0
 71
     0
  3
MONOTXT
  4
BIGFONT
  0
STYLE
  2
TextStyle07
 70
     0
 40
1.0
 41
1.0
 42
1.0
 50
0.0
 71
     0
  3
MONOTXT
  4
BIGFONT
  0
STYLE
  2
TextStyle08
 70
     0
 40
1.0
 41
1.0
 42
1.0
 50
0.0
 71
     0
  3
MONOTXT
  4
BIGFONT
  0
STYLE
  2
TextStyle09
 70
     0
 40
1.0
 41
1.0
 42
1.0
 50
0.0
 71
     0
  3
MONOTXT
  4
BIGFONT
  0
STYLE
  2
TextStyle10
 70
     0
 40
1.0
 41
1.0
 42
1.0
 50
0.0
 71
     0
  3
MONOTXT
  4
BIGFONT
  0
ENDTAB
  0
ENDSEC
  0
SECTION
  2
BLOCKS
  0
BLOCK
  2
*GRP_0001
 70
    65
 10
0.0
 20
0.0
  0
LINE
  8
型材断面
  6
CONTINUOUS
 10
195.0
 20
133.5
 11
195.0
 21
-133.5
  0
LINE
  8
型材断面
  6
CONTINUOUS
 10
195.0
 20
-133.5
 11
-185.0
 21
-133.5
  0
LINE
  8
型材断面
  6
CONTINUOUS
 10
-185.0
 20
-133.5
 11
-185.0
 21
133.5
  0
LINE
  8
型材断面
  6
CONTINUOUS
 10
195.0
 20
133.5
 11
-185.0
 21
133.5
  0
LINE
  8
型材断面
  6
CONTINUOUS
 10
145.0
 20
-133.5
 11
145.0
 21
-118.5
  0
LINE
  8
型材断面
  6
CONTINUOUS
 10
195.0
 20
-118.5
 11
145.0
 21
-118.5
  0
ENDBLK
  0
BLOCK
  2
*GRP_0002
 70
    65
 10
0.0
 20
0.0
  0
INSERT
  2
*GRP_0014
  8
補助線
  6
CONTINUOUS
 10
0.0
 20
0.0
  0
LINE
  8
ボルト／ビス
  6
CONTINUOUS
 10
-84.935405
 20
0.403315
 11
-84.685405
 21
0.547653
  0
LINE
  8
ボルト／ビス
  6
CONTINUOUS
 10
-84.935405
 20
0.403315
 11
-85.185405
 21
0.547653
  0
LINE
  8
ボルト／ビス
  6
CONTINUOUS
 10
-84.685405
 20
0.836327
 11
-84.935405
 21
0.980665
  0
LINE
  8
ボルト／ビス
  6
CONTINUOUS
 10
-85.185405
 20
0.836327
 11
-84.935405
 21
0.980665
  0
CIRCLE
  8
ボルト／ビス
  6
CONTINUOUS
 10
-84.935405
 20
0.69199
 40
0.25
  0
LINE
  8
ボルト／ビス
  6
CONTINUOUS
 10
-85.185405
 20
0.547653
 11
-85.185405
 21
0.836327
  0
LINE
  8
ボルト／ビス
  6
CONTINUOUS
 10
-84.685405
 20
0.836327
 11
-84.685405
 21
0.547653
  0
ENDBLK
  0
BLOCK
  2
*GRP_0003
 70
    65
 10
0.0
 20
0.0
  0
INSERT
  2
*GRP_0015
  8
補助線
  6
CONTINUOUS
 10
0.0
 20
0.0
  0
LINE
  8
ボルト／ビス
  6
CONTINUOUS
 10
-93.72408
 20
9.19199
 11
-93.579742
 21
9.44199
  0
LINE
  8
ボルト／ビス
  6
CONTINUOUS
 10
-93.72408
 20
9.19199
 11
-93.579742
 21
8.94199
  0
LINE
  8
ボルト／ビス
  6
CONTINUOUS
 10
-93.291068
 20
9.44199
 11
-93.14673
 21
9.19199
  0
LINE
  8
ボルト／ビス
  6
CONTINUOUS
 10
-93.291068
 20
8.94199
 11
-93.14673
 21
9.19199
  0
CIRCLE
  8
ボルト／ビス
  6
CONTINUOUS
 10
-93.435405
 20
9.19199
 40
0.25
  0
LINE
  8
ボルト／ビス
  6
CONTINUOUS
 10
-93.579742
 20
8.94199
 11
-93.291068
 21
8.94199
  0
LINE
  8
ボルト／ビス
  6
CONTINUOUS
 10
-93.291068
 20
9.44199
 11
-93.579742
 21
9.44199
  0
ENDBLK
  0
BLOCK
  2
*GRP_0004
 70
    65
 10
0.0
 20
0.0
  0
INSERT
  2
*GRP_0016
  8
補助線
  6
CONTINUOUS
 10
0.0
 20
0.0
  0
LINE
  8
ボルト／ビス
  6
CONTINUOUS
 10
-69.935405
 20
0.403315
 11
-70.185405
 21
0.547653
  0
LINE
  8
ボルト／ビス
  6
CONTINUOUS
 10
-69.935405
 20
0.403315
 11
-69.685405
 21
0.547653
  0
LINE
  8
ボルト／ビス
  6
CONTINUOUS
 10
-70.185405
 20
0.836327
 11
-69.935405
 21
0.980665
  0
LINE
  8
ボルト／ビス
  6
CONTINUOUS
 10
-69.685405
 20
0.836327
 11
-69.935405
 21
0.980665
  0
CIRCLE
  8
ボルト／ビス
  6
CONTINUOUS
 10
-69.935405
 20
0.69199
 40
0.25
  0
LINE
  8
ボルト／ビス
  6
CONTINUOUS
 10
-69.685405
 20
0.547653
 11
-69.685405
 21
0.836327
  0
LINE
  8
ボルト／ビス
  6
CONTINUOUS
 10
-70.185405
 20
0.836327
 11
-70.185405
 21
0.547653
  0
ENDBLK
  0
BLOCK
  2
*GRP_0005
 70
    65
 10
0.0
 20
0.0
  0
INSERT
  2
*GRP_0017
  8
補助線
  6
CONTINUOUS
 10
0.0
 20
0.0
  0
LINE
  8
ボルト／ビス
  6
CONTINUOUS
 10
-61.14673
 20
9.19199
 11
-61.291068
 21
9.44199
  0
LINE
  8
ボルト／ビス
  6
CONTINUOUS
 10
-61.14673
 20
9.19199
 11
-61.291068
 21
8.94199
  0
LINE
  8
ボルト／ビス
  6
CONTINUOUS
 10
-61.579742
 20
9.44199
 11
-61.72408
 21
9.19199
  0
LINE
  8
ボルト／ビス
  6
CONTINUOUS
 10
-61.579742
 20
8.94199
 11
-61.72408
 21
9.19199
  0
CIRCLE
  8
ボルト／ビス
  6
CONTINUOUS
 10
-61.435405
 20
9.19199
 40
0.25
  0
LINE
  8
ボルト／ビス
  6
CONTINUOUS
 10
-61.291068
 20
8.94199
 11
-61.579742
 21
8.94199
  0
LINE
  8
ボルト／ビス
  6
CONTINUOUS
 10
-61.579742
 20
9.44199
 11
-61.291068
 21
9.44199
  0
ENDBLK
  0
BLOCK
  2
*GRP_0006
 70
    65
 10
0.0
 20
0.0
  0
INSERT
  2
*GRP_0018
  8
補助線
  6
CONTINUOUS
 10
0.0
 20
0.0
  0
LINE
  8
ボルト／ビス
  6
CONTINUOUS
 10
-69.935405
 20
32.980665
 11
-70.185405
 21
32.836327
  0
LINE
  8
ボルト／ビス
  6
CONTINUOUS
 10
-69.935405
 20
32.980665
 11
-69.685405
 21
32.836327
  0
LINE
  8
ボルト／ビス
  6
CONTINUOUS
 10
-70.185405
 20
32.547653
 11
-69.935405
 21
32.403315
  0
LINE
  8
ボルト／ビス
  6
CONTINUOUS
 10
-69.685405
 20
32.547653
 11
-69.935405
 21
32.403315
  0
CIRCLE
  8
ボルト／ビス
  6
CONTINUOUS
 10
-69.935405
 20
32.69199
 40
0.25
  0
LINE
  8
ボルト／ビス
  6
CONTINUOUS
 10
-69.685405
 20
32.836327
 11
-69.685405
 21
32.547653
  0
LINE
  8
ボルト／ビス
  6
CONTINUOUS
 10
-70.185405
 20
32.547653
 11
-70.185405
 21
32.836327
  0
ENDBLK
  0
BLOCK
  2
*GRP_0007
 70
    65
 10
0.0
 20
0.0
  0
INSERT
  2
*GRP_0019
  8
補助線
  6
CONTINUOUS
 10
0.0
 20
0.0
  0
LINE
  8
ボルト／ビス
  6
CONTINUOUS
 10
-61.14673
 20
24.19199
 11
-61.291068
 21
23.94199
  0
LINE
  8
ボルト／ビス
  6
CONTINUOUS
 10
-61.14673
 20
24.19199
 11
-61.291068
 21
24.44199
  0
LINE
  8
ボルト／ビス
  6
CONTINUOUS
 10
-61.579742
 20
23.94199
 11
-61.72408
 21
24.19199
  0
LINE
  8
ボルト／ビス
  6
CONTINUOUS
 10
-61.579742
 20
24.44199
 11
-61.72408
 21
24.19199
  0
CIRCLE
  8
ボルト／ビス
  6
CONTINUOUS
 10
-61.435405
 20
24.19199
 40
0.25
  0
LINE
  8
ボルト／ビス
  6
CONTINUOUS
 10
-61.291068
 20
24.44199
 11
-61.579742
 21
24.44199
  0
LINE
  8
ボルト／ビス
  6
CONTINUOUS
 10
-61.579742
 20
23.94199
 11
-61.291068
 21
23.94199
  0
ENDBLK
  0
BLOCK
  2
*GRP_0008
 70
    65
 10
0.0
 20
0.0
  0
INSERT
  2
*GRP_0020
  8
補助線
  6
CONTINUOUS
 10
0.0
 20
0.0
  0
LINE
  8
ボルト／ビス
  6
CONTINUOUS
 10
-84.935405
 20
32.980665
 11
-84.685405
 21
32.836327
  0
LINE
  8
ボルト／ビス
  6
CONTINUOUS
 10
-84.935405
 20
32.980665
 11
-85.185405
 21
32.836327
  0
LINE
  8
ボルト／ビス
  6
CONTINUOUS
 10
-84.685405
 20
32.547653
 11
-84.935405
 21
32.403315
  0
LINE
  8
ボルト／ビス
  6
CONTINUOUS
 10
-85.185405
 20
32.547653
 11
-84.935405
 21
32.403315
  0
CIRCLE
  8
ボルト／ビス
  6
CONTINUOUS
 10
-84.935405
 20
32.69199
 40
0.25
  0
LINE
  8
ボルト／ビス
  6
CONTINUOUS
 10
-85.185405
 20
32.836327
 11
-85.185405
 21
32.547653
  0
LINE
  8
ボルト／ビス
  6
CONTINUOUS
 10
-84.685405
 20
32.547653
 11
-84.685405
 21
32.836327
  0
ENDBLK
  0
BLOCK
  2
*GRP_0009
 70
    65
 10
0.0
 20
0.0
  0
INSERT
  2
*GRP_0021
  8
補助線
  6
CONTINUOUS
 10
0.0
 20
0.0
  0
LINE
  8
ボルト／ビス
  6
CONTINUOUS
 10
-93.72408
 20
24.19199
 11
-93.579742
 21
23.94199
  0
LINE
  8
ボルト／ビス
  6
CONTINUOUS
 10
-93.72408
 20
24.19199
 11
-93.579742
 21
24.44199
  0
LINE
  8
ボルト／ビス
  6
CONTINUOUS
 10
-93.291068
 20
23.94199
 11
-93.14673
 21
24.19199
  0
LINE
  8
ボルト／ビス
  6
CONTINUOUS
 10
-93.291068
 20
24.44199
 11
-93.14673
 21
24.19199
  0
CIRCLE
  8
ボルト／ビス
  6
CONTINUOUS
 10
-93.435405
 20
24.19199
 40
0.25
  0
LINE
  8
ボルト／ビス
  6
CONTINUOUS
 10
-93.579742
 20
24.44199
 11
-93.291068
 21
24.44199
  0
LINE
  8
ボルト／ビス
  6
CONTINUOUS
 10
-93.291068
 20
23.94199
 11
-93.579742
 21
23.94199
  0
ENDBLK
  0
BLOCK
  2
*DIM_0010
 70
    65
 10
0.0
 20
0.0
  0
LINE
  8
寸法
  6
BYBLOCK
 62
     0
 10
-76.435405
 20
-54.248265
 11
-41.30588
 21
-54.248265
  0
LINE
  8
寸法
  6
BYBLOCK
 62
     0
 10
-41.30588
 20
-62.248265
 11
-41.30588
 21
-54.248265
  0
POINT
  8
寸法
 62
     0
 10
-41.30588
 20
-62.248265
  0
POINT
  8
寸法
 62
     0
 10
-41.30588
 20
-54.248265
  0
TEXT
  7
TextStyle03
  8
寸法
  6
CONTINUOUS
 62
     0
 10
-41.7
 20
-60.6875
  1
160
 40
3.0
 50
90.0
 72
     5
 11
-41.7
 21
-55.8125
  0
ENDBLK
  0
BLOCK
  2
*DIM_0011
 70
    65
 10
0.0
 20
0.0
  0
LINE
  8
寸法
  6
BYBLOCK
 62
     0
 10
-92.435405
 20
-26.094458
 11
-62.435405
 21
-26.094458
  0
POINT
  8
寸法
 62
     0
 10
-92.435405
 20
-26.094458
  0
POINT
  8
寸法
 62
     0
 10
-62.435405
 20
-26.094458
  0
TEXT
  7
TextStyle03
  8
寸法
  6
CONTINUOUS
 62
     0
 10
-88.325
 20
-25.725
  1
呼称寸法　600
 40
3.0
 72
     5
 11
-66.575
 21
-25.725
  0
ENDBLK
  0
BLOCK
  2
*DIM_0012
 70
    65
 10
0.0
 20
0.0
  0
LINE
  8
寸法
  6
CONTINUOUS
 62
     0
 10
-67.435405
 20
32.691987
 11
-67.435405
 21
52.642592
  0
LINE
  8
寸法
  6
CONTINUOUS
 62
     0
 10
-87.435405
 20
32.691987
 11
-87.435405
 21
52.642592
  0
LINE
  8
寸法
  6
CONTINUOUS
 62
     0
 10
-67.435405
 20
52.642592
 11
-87.435405
 21
52.642592
  0
POINT
  8
寸法
 62
     0
 10
-67.435405
 20
52.642592
 50
-270.0
  0
POINT
  8
寸法
 62
     0
 10
-87.435405
 20
52.642592
 50
-270.0
  0
TEXT
  7
TextStyle03
  8
寸法
  6
CONTINUOUS
 62
     0
 10
-79.9125
 20
53.05
  1
400
 40
3.0
 72
     5
 11
-75.0375
 21
53.05
  0
ENDBLK
  0
BLOCK
  2
*GRP_0013
 70
    65
 10
0.0
 20
0.0
  0
POLYLINE
  8
寸法
  6
CONTINUOUS
 62
     0
 66
     1
  0
VERTEX
  8
寸法
 10
-64.771885
 20
14.188283
  0
VERTEX
  8
寸法
 10
-61.09069
 20
10.507087
  0
VERTEX
  8
寸法
 10
-38.248113
 20
10.507087
  0
SEQEND
  0
ENDBLK
  0
BLOCK
  2
*GRP_0014
 70
    65
 10
0.0
 20
0.0
  0
LINE
  8
補助線
  6
BYBLOCK
 62
     0
 10
-85.060405
 20
0.69199
 11
-84.810405
 21
0.69199
  0
LINE
  8
補助線
  6
BYBLOCK
 62
     0
 10
-84.935405
 20
0.56699
 11
-84.935405
 21
0.81699
  0
ENDBLK
  0
BLOCK
  2
*GRP_0015
 70
    65
 10
0.0
 20
0.0
  0
LINE
  8
補助線
  6
BYBLOCK
 62
     0
 10
-93.435405
 20
9.06699
 11
-93.435405
 21
9.31699
  0
LINE
  8
補助線
  6
BYBLOCK
 62
     0
 10
-93.560405
 20
9.19199
 11
-93.310405
 21
9.19199
  0
ENDBLK
  0
BLOCK
  2
*GRP_0016
 70
    65
 10
0.0
 20
0.0
  0
LINE
  8
補助線
  6
BYBLOCK
 62
     0
 10
-69.810405
 20
0.69199
 11
-70.060405
 21
0.69199
  0
LINE
  8
補助線
  6
BYBLOCK
 62
     0
 10
-69.935405
 20
0.56699
 11
-69.935405
 21
0.81699
  0
ENDBLK
  0
BLOCK
  2
*GRP_0017
 70
    65
 10
0.0
 20
0.0
  0
LINE
  8
補助線
  6
BYBLOCK
 62
     0
 10
-61.435405
 20
9.06699
 11
-61.435405
 21
9.31699
  0
LINE
  8
補助線
  6
BYBLOCK
 62
     0
 10
-61.310405
 20
9.19199
 11
-61.560405
 21
9.19199
  0
ENDBLK
  0
BLOCK
  2
*GRP_0018
 70
    65
 10
0.0
 20
0.0
  0
LINE
  8
補助線
  6
BYBLOCK
 62
     0
 10
-69.810405
 20
32.69199
 11
-70.060405
 21
32.69199
  0
LINE
  8
補助線
  6
BYBLOCK
 62
     0
 10
-69.935405
 20
32.81699
 11
-69.935405
 21
32.56699
  0
ENDBLK
  0
BLOCK
  2
*GRP_0019
 70
    65
 10
0.0
 20
0.0
  0
LINE
  8
補助線
  6
BYBLOCK
 62
     0
 10
-61.435405
 20
24.31699
 11
-61.435405
 21
24.06699
  0
LINE
  8
補助線
  6
BYBLOCK
 62
     0
 10
-61.310405
 20
24.19199
 11
-61.560405
 21
24.19199
  0
ENDBLK
  0
BLOCK
  2
*GRP_0020
 70
    65
 10
0.0
 20
0.0
  0
LINE
  8
補助線
  6
BYBLOCK
 62
     0
 10
-85.060405
 20
32.69199
 11
-84.810405
 21
32.69199
  0
LINE
  8
補助線
  6
BYBLOCK
 62
     0
 10
-84.935405
 20
32.81699
 11
-84.935405
 21
32.56699
  0
ENDBLK
  0
BLOCK
  2
*GRP_0021
 70
    65
 10
0.0
 20
0.0
  0
LINE
  8
補助線
  6
BYBLOCK
 62
     0
 10
-93.435405
 20
24.31699
 11
-93.435405
 21
24.06699
  0
LINE
  8
補助線
  6
BYBLOCK
 62
     0
 10
-93.560405
 20
24.19199
 11
-93.310405
 21
24.19199
  0
ENDBLK
  0
BLOCK
  2
*DIM_0022
 70
    65
 10
0.0
 20
0.0
  0
LINE
  8
寸法
  6
BYBLOCK
 62
     0
 10
-58.935405
 20
-62.248265
 11
-41.30588
 21
-62.248265
  0
LINE
  8
寸法
  6
BYBLOCK
 62
     0
 10
-58.485405
 20
-72.423192
 11
-41.30588
 21
-72.423192
  0
LINE
  8
寸法
  6
BYBLOCK
 62
     0
 10
-41.30588
 20
-62.248265
 11
-41.30588
 21
-72.423192
  0
POINT
  8
寸法
 62
     0
 10
-41.30588
 20
-62.248265
  0
POINT
  8
寸法
 62
     0
 10
-41.30588
 20
-72.423192
  0
TEXT
  7
TextStyle03
  8
寸法
  6
CONTINUOUS
 62
     0
 10
-41.7
 20
-71.475
  1
203.5
 40
3.0
 50
90.0
 72
     5
 11
-41.7
 21
-63.225
  0
ENDBLK
  0
BLOCK
  2
*DIM_0023
 70
    65
 10
0.0
 20
0.0
  0
LINE
  8
寸法
  6
BYBLOCK
 62
     0
 10
-59.015405
 20
-66.98223
 11
-59.015405
 21
-26.094458
  0
LINE
  8
寸法
  6
BYBLOCK
 62
     0
 10
-62.435405
 20
-26.094458
 11
-59.015405
 21
-26.094458
  0
POINT
  8
寸法
 62
     0
 10
-62.435405
 20
-26.094458
  0
POINT
  8
寸法
 62
     0
 10
-59.015405
 20
-26.094458
  0
TEXT
  7
TextStyle03
  8
寸法
  6
CONTINUOUS
 62
     0
 10
-57.28125
 20
-25.725
  1
68.4
 40
3.0
 72
     5
 11
-50.71875
 21
-25.725
  0
ENDBLK
  0
BLOCK
  2
*DIM_0024
 70
    65
 10
0.0
 20
0.0
  0
LINE
  8
寸法
  6
BYBLOCK
 62
     0
 10
-95.855405
 20
-66.98223
 11
-95.855405
 21
-26.094458
  0
LINE
  8
寸法
  6
BYBLOCK
 62
     0
 10
-92.435405
 20
-26.094458
 11
-95.855405
 21
-26.094458
  0
POINT
  8
寸法
 62
     0
 10
-92.435405
 20
-26.094458
  0
POINT
  8
寸法
 62
     0
 10
-95.855405
 20
-26.094458
  0
TEXT
  7
TextStyle03
  8
寸法
  6
CONTINUOUS
 62
     0
 10
-104.18125
 20
-25.725
  1
68.4
 40
3.0
 72
     5
 11
-97.61875
 21
-25.725
  0
ENDBLK
  0
BLOCK
  2
*DIM_0025
 70
    65
 10
0.0
 20
0.0
  0
LINE
  8
寸法
  6
BYBLOCK
 62
     0
 10
-61.435405
 20
31.69199
 11
-45.345905
 21
31.69199
  0
LINE
  8
寸法
  6
BYBLOCK
 62
     0
 10
-53.411528
 20
25.84199
 11
-45.345905
 21
25.84199
  0
LINE
  8
寸法
  6
BYBLOCK
 62
     0
 10
-45.345905
 20
31.69199
 11
-45.345905
 21
25.84199
  0
POINT
  8
寸法
 62
     0
 10
-45.345905
 20
31.69199
  0
POINT
  8
寸法
 62
     0
 10
-45.345905
 20
25.84199
  0
TEXT
  7
TextStyle03
  8
寸法
  6
CONTINUOUS
 62
     0
 10
-45.725
 20
26.3125
  1
117
 40
3.0
 50
90.0
 72
     5
 11
-45.725
 21
31.1875
  0
ENDBLK
  0
BLOCK
  2
*DIM_0026
 70
    65
 10
0.0
 20
0.0
  0
LINE
  8
寸法
  6
BYBLOCK
 62
     0
 10
-61.435405
 20
1.69199
 11
-45.345905
 21
1.69199
  0
LINE
  8
寸法
  6
BYBLOCK
 62
     0
 10
-53.411528
 20
7.54199
 11
-45.345905
 21
7.54199
  0
LINE
  8
寸法
  6
BYBLOCK
 62
     0
 10
-45.345905
 20
1.69199
 11
-45.345905
 21
7.54199
  0
POINT
  8
寸法
 62
     0
 10
-45.345905
 20
1.69199
  0
POINT
  8
寸法
 62
     0
 10
-45.345905
 20
7.54199
  0
TEXT
  7
TextStyle03
  8
寸法
  6
CONTINUOUS
 62
     0
 10
-45.725
 20
2.1625
  1
117
 40
3.0
 50
90.0
 72
     5
 11
-45.725
 21
7.0375
  0
ENDBLK
  0
BLOCK
  2
*GRP_0027
 70
    65
 10
0.0
 20
0.0
  0
LINE
  8
補助線
  6
BYBLOCK
 62
    64
 10
35.211655
 20
-69.92663
 11
35.41663
 21
-70.069755
  0
LINE
  8
補助線
  6
BYBLOCK
 62
    64
 10
35.385705
 20
-69.895705
 11
35.24258
 21
-70.10068
  0
LINE
  8
補助線
  6
BYBLOCK
 62
    64
 10
27.217535
 20
-64.344827
 11
27.012558
 21
-64.201703
  0
LINE
  8
補助線
  6
BYBLOCK
 62
    64
 10
27.186607
 20
-64.170775
 11
27.043485
 21
-64.375753
  0
LINE
  8
補助線
  6
BYBLOCK
 62
    64
 10
19.018433
 20
-58.619905
 11
18.813455
 21
-58.476782
  0
LINE
  8
補助線
  6
BYBLOCK
 62
    64
 10
18.987505
 20
-58.445855
 11
18.844383
 21
-58.650832
  0
LINE
  8
型材断面
  6
CONTINUOUS
 10
36.439715
 20
-69.259552
 11
36.625275
 21
-70.303852
  0
LINE
  8
型材断面
  6
CONTINUOUS
 10
36.625275
 20
-70.303852
 11
36.052782
 21
-71.123765
  0
LINE
  8
型材断面
  6
CONTINUOUS
 10
36.052782
 20
-71.123765
 11
35.008482
 21
-71.309325
  0
LINE
  8
型材断面
  6
CONTINUOUS
 10
27.40129
 20
-63.863315
 11
26.828795
 21
-64.683225
  0
LINE
  8
型材断面
  6
CONTINUOUS
 10
19.221602
 20
-57.23721
 11
18.177303
 21
-57.422772
  0
LINE
  8
型材断面
  6
CONTINUOUS
 10
18.177303
 20
-57.422772
 11
17.60481
 21
-58.242682
  0
LINE
  8
型材断面
  6
CONTINUOUS
 10
17.60481
 20
-58.242682
 11
17.790375
 21
-59.286985
  0
LINE
  8
型材断面
  6
CONTINUOUS
 10
36.439715
 20
-69.259552
 11
19.221617
 21
-57.237208
  0
LINE
  8
型材断面
  6
CONTINUOUS
 10
35.008482
 20
-71.309325
 11
17.79037
 21
-59.286975
  0
LINE
  8
ボルト／ビス
  6
CONTINUOUS
 62
    64
 10
35.578565
 20
-69.619492
 11
35.774317
 21
-70.03784
  0
LINE
  8
ボルト／ビス
  6
CONTINUOUS
 62
    64
 10
35.578565
 20
-69.619492
 11
35.11839
 21
-69.579847
  0
LINE
  8
ボルト／ビス
  6
CONTINUOUS
 62
    64
 10
35.04972
 20
-70.376893
 11
35.509895
 21
-70.416537
  0
LINE
  8
ボルト／ビス
  6
CONTINUOUS
 62
    64
 10
35.04972
 20
-70.376893
 11
34.853967
 21
-69.958545
  0
CIRCLE
  8
ボルト／ビス
  6
CONTINUOUS
 62
    64
 10
35.314142
 20
-69.998193
 40
0.4
  0
LINE
  8
ボルト／ビス
  6
CONTINUOUS
 62
    64
 10
35.11839
 20
-69.579847
 11
34.853967
 21
-69.958545
  0
LINE
  8
ボルト／ビス
  6
CONTINUOUS
 62
    64
 10
35.774317
 20
-70.03784
 11
35.509895
 21
-70.416537
  0
LINE
  8
ボルト／ビス
  6
CONTINUOUS
 62
    64
 10
27.37947
 20
-63.894565
 11
26.919292
 21
-63.854918
  0
LINE
  8
ボルト／ビス
  6
CONTINUOUS
 62
    64
 10
27.37947
 20
-63.894565
 11
27.575223
 21
-64.31291
  0
LINE
  8
ボルト／ビス
  6
CONTINUOUS
 62
    64
 10
26.850622
 20
-64.651962
 11
26.65487
 21
-64.233618
  0
LINE
  8
ボルト／ビス
  6
CONTINUOUS
 62
    64
 10
26.850622
 20
-64.651962
 11
27.310798
 21
-64.69161
  0
CIRCLE
  8
ボルト／ビス
  6
CONTINUOUS
 62
    64
 10
27.115045
 20
-64.273265
 40
0.4
  0
LINE
  8
ボルト／ビス
  6
CONTINUOUS
 62
    64
 10
27.575223
 20
-64.31291
 11
27.310798
 21
-64.69161
  0
LINE
  8
ボルト／ビス
  6
CONTINUOUS
 62
    64
 10
26.919292
 20
-63.854918
 11
26.65487
 21
-64.233618
  0
LINE
  8
ボルト／ビス
  6
CONTINUOUS
 62
    64
 10
19.180365
 20
-58.169645
 11
18.72019
 21
-58.129997
  0
LINE
  8
ボルト／ビス
  6
CONTINUOUS
 62
    64
 10
19.180365
 20
-58.169645
 11
19.376117
 21
-58.587993
  0
LINE
  8
ボルト／ビス
  6
CONTINUOUS
 62
    64
 10
18.651522
 20
-58.927045
 11
18.45577
 21
-58.508698
  0
LINE
  8
ボルト／ビス
  6
CONTINUOUS
 62
    64
 10
18.651522
 20
-58.927045
 11
19.111698
 21
-58.96669
  0
CIRCLE
  8
ボルト／ビス
  6
CONTINUOUS
 62
    64
 10
18.915942
 20
-58.548345
 40
0.4
  0
LINE
  8
ボルト／ビス
  6
CONTINUOUS
 62
    64
 10
19.376117
 20
-58.587993
 11
19.111698
 21
-58.96669
  0
LINE
  8
ボルト／ビス
  6
CONTINUOUS
 62
    64
 10
18.72019
 20
-58.129997
 11
18.45577
 21
-58.508698
  0
ENDBLK
  0
BLOCK
  2
*GRP_0028
 70
    65
 10
0.0
 20
0.0
  0
LINE
  8
補助線
  6
BYBLOCK
 62
    64
 10
19.018435
 20
-69.92663
 11
18.81346
 21
-70.069755
  0
LINE
  8
補助線
  6
BYBLOCK
 62
    64
 10
18.844385
 20
-69.895705
 11
18.98751
 21
-70.10068
  0
LINE
  8
補助線
  6
BYBLOCK
 62
    64
 10
27.012555
 20
-64.344827
 11
27.217533
 21
-64.201703
  0
LINE
  8
補助線
  6
BYBLOCK
 62
    64
 10
27.043483
 20
-64.170775
 11
27.186605
 21
-64.375753
  0
LINE
  8
補助線
  6
BYBLOCK
 62
    64
 10
35.211658
 20
-58.619905
 11
35.416635
 21
-58.476782
  0
LINE
  8
補助線
  6
BYBLOCK
 62
    64
 10
35.242585
 20
-58.445855
 11
35.385707
 21
-58.650832
  0
LINE
  8
型材断面
  6
CONTINUOUS
 10
17.790375
 20
-69.259552
 11
17.604815
 21
-70.303852
  0
LINE
  8
型材断面
  6
CONTINUOUS
 10
17.604815
 20
-70.303852
 11
18.177307
 21
-71.123765
  0
LINE
  8
型材断面
  6
CONTINUOUS
 10
18.177307
 20
-71.123765
 11
19.221608
 21
-71.309325
  0
LINE
  8
型材断面
  6
CONTINUOUS
 10
26.8288
 20
-63.863315
 11
27.401295
 21
-64.683225
  0
LINE
  8
型材断面
  6
CONTINUOUS
 10
35.008488
 20
-57.23721
 11
36.052787
 21
-57.422772
  0
LINE
  8
型材断面
  6
CONTINUOUS
 10
36.052787
 20
-57.422772
 11
36.62528
 21
-58.242682
  0
LINE
  8
型材断面
  6
CONTINUOUS
 10
36.62528
 20
-58.242682
 11
36.439715
 21
-59.286985
  0
LINE
  8
型材断面
  6
CONTINUOUS
 10
17.790375
 20
-69.259552
 11
35.008473
 21
-57.237208
  0
LINE
  8
型材断面
  6
CONTINUOUS
 10
19.221608
 20
-71.309325
 11
36.43972
 21
-59.286975
  0
LINE
  8
ボルト／ビス
  6
CONTINUOUS
 62
    64
 10
18.651525
 20
-69.619492
 11
18.455773
 21
-70.03784
  0
LINE
  8
ボルト／ビス
  6
CONTINUOUS
 62
    64
 10
18.651525
 20
-69.619492
 11
19.1117
 21
-69.579847
  0
LINE
  8
ボルト／ビス
  6
CONTINUOUS
 62
    64
 10
19.18037
 20
-70.376893
 11
18.720195
 21
-70.416537
  0
LINE
  8
ボルト／ビス
  6
CONTINUOUS
 62
    64
 10
19.18037
 20
-70.376893
 11
19.376123
 21
-69.958545
  0
CIRCLE
  8
ボルト／ビス
  6
CONTINUOUS
 62
    64
 10
18.915948
 20
-69.998193
 40
0.4
  0
LINE
  8
ボルト／ビス
  6
CONTINUOUS
 62
    64
 10
19.1117
 20
-69.579847
 11
19.376123
 21
-69.958545
  0
LINE
  8
ボルト／ビス
  6
CONTINUOUS
 62
    64
 10
18.455773
 20
-70.03784
 11
18.720195
 21
-70.416537
  0
LINE
  8
ボルト／ビス
  6
CONTINUOUS
 62
    64
 10
26.85062
 20
-63.894565
 11
27.310798
 21
-63.854918
  0
LINE
  8
ボルト／ビス
  6
CONTINUOUS
 62
    64
 10
26.85062
 20
-63.894565
 11
26.654868
 21
-64.31291
  0
LINE
  8
ボルト／ビス
  6
CONTINUOUS
 62
    64
 10
27.379467
 20
-64.651962
 11
27.57522
 21
-64.233618
  0
LINE
  8
ボルト／ビス
  6
CONTINUOUS
 62
    64
 10
27.379467
 20
-64.651962
 11
26.919292
 21
-64.69161
  0
CIRCLE
  8
ボルト／ビス
  6
CONTINUOUS
 62
    64
 10
27.115045
 20
-64.273265
 40
0.4
  0
LINE
  8
ボルト／ビス
  6
CONTINUOUS
 62
    64
 10
26.654868
 20
-64.31291
 11
26.919292
 21
-64.69161
  0
LINE
  8
ボルト／ビス
  6
CONTINUOUS
 62
    64
 10
27.310798
 20
-63.854918
 11
27.57522
 21
-64.233618
  0
LINE
  8
ボルト／ビス
  6
CONTINUOUS
 62
    64
 10
35.049725
 20
-58.169645
 11
35.5099
 21
-58.129997
  0
LINE
  8
ボルト／ビス
  6
CONTINUOUS
 62
    64
 10
35.049725
 20
-58.169645
 11
34.853973
 21
-58.587993
  0
LINE
  8
ボルト／ビス
  6
CONTINUOUS
 62
    64
 10
35.578567
 20
-58.927045
 11
35.77432
 21
-58.508698
  0
LINE
  8
ボルト／ビス
  6
CONTINUOUS
 62
    64
 10
35.578567
 20
-58.927045
 11
35.118392
 21
-58.96669
  0
CIRCLE
  8
ボルト／ビス
  6
CONTINUOUS
 62
    64
 10
35.314148
 20
-58.548345
 40
0.4
  0
LINE
  8
ボルト／ビス
  6
CONTINUOUS
 62
    64
 10
34.853973
 20
-58.587993
 11
35.118392
 21
-58.96669
  0
LINE
  8
ボルト／ビス
  6
CONTINUOUS
 62
    64
 10
35.5099
 20
-58.129997
 11
35.77432
 21
-58.508698
  0
ENDBLK
  0
BLOCK
  2
*DIM_0029
 70
    65
 10
0.0
 20
0.0
  0
LINE
  8
寸法
  6
BYBLOCK
 62
     0
 10
170.304785
 20
74.557477
 11
179.967098
 21
74.557477
  0
LINE
  8
寸法
  6
BYBLOCK
 62
     0
 10
170.304785
 20
45.557477
 11
179.967098
 21
45.557477
  0
LINE
  8
寸法
  6
BYBLOCK
 62
     0
 10
179.967098
 20
74.557477
 11
179.967098
 21
45.557477
  0
POINT
  8
寸法
 62
     0
 10
179.967098
 20
74.557477
  0
POINT
  8
寸法
 62
     0
 10
179.967098
 20
45.557477
  0
TEXT
  7
TextStyle03
  8
寸法
  6
CONTINUOUS
 62
     0
 10
179.575
 20
57.6125
  1
580
 40
3.0
 50
90.0
 72
     5
 11
179.575
 21
62.4875
  0
ENDBLK
  0
BLOCK
  2
*DIM_0030
 70
    65
 10
0.0
 20
0.0
  0
LINE
  8
寸法
  6
BYBLOCK
 62
     0
 10
138.304785
 20
77.557477
 11
138.304785
 21
85.30483
  0
LINE
  8
寸法
  6
BYBLOCK
 62
     0
 10
167.304785
 20
77.557477
 11
167.304785
 21
85.30483
  0
LINE
  8
寸法
  6
BYBLOCK
 62
     0
 10
138.304785
 20
85.30483
 11
167.304785
 21
85.30483
  0
POINT
  8
寸法
 62
     0
 10
138.304785
 20
85.30483
  0
POINT
  8
寸法
 62
     0
 10
167.304785
 20
85.30483
  0
TEXT
  7
TextStyle03
  8
寸法
  6
CONTINUOUS
 62
     0
 10
150.3625
 20
85.675
  1
580
 40
3.0
 72
     5
 11
155.2375
 21
85.675
  0
ENDBLK
  0
BLOCK
  2
*GRP_0032
 70
    65
 10
0.0
 20
0.0
  0
LINE
  8
ボルト／ビス
  6
CONTINUOUS
 10
-93.435405
 20
-62.248268
 11
-93.435405
 21
-61.548268
  0
LINE
  8
ボルト／ビス
  6
CONTINUOUS
 10
-93.985405
 20
-62.248268
 11
-93.985405
 21
-62.148268
  0
LINE
  8
ボルト／ビス
  6
CONTINUOUS
 10
-93.985405
 20
-62.148268
 11
-92.885405
 21
-62.148268
  0
LINE
  8
ボルト／ビス
  6
CONTINUOUS
 10
-92.885405
 20
-62.148268
 11
-92.885405
 21
-62.248268
  0
LINE
  8
ボルト／ビス
  6
CONTINUOUS
 10
-93.985405
 20
-62.248268
 11
-92.885405
 21
-62.248268
  0
LINE
  8
ボルト／ビス
  6
CONTINUOUS
 10
-93.885405
 20
-62.098268
 11
-93.885405
 21
-62.148268
  0
LINE
  8
ボルト／ビス
  6
CONTINUOUS
 10
-93.885405
 20
-62.098268
 11
-92.985405
 21
-62.098268
  0
LINE
  8
ボルト／ビス
  6
CONTINUOUS
 10
-92.985405
 20
-62.098268
 11
-92.985405
 21
-62.148268
  0
LINE
  8
ボルト／ビス
  6
CONTINUOUS
 62
    64
 10
-93.675968
 20
-61.798268
 11
-93.72408
 21
-61.81578
  0
ARC
  8
ボルト／ビス
  6
CONTINUOUS
 62
    64
 10
-93.651912
 20
-61.955736
 40
0.157468
 50
62.721967
 51
90.0
  0
ARC
  8
ボルト／ビス
  6
CONTINUOUS
 62
    64
 10
-93.435406
 20
-62.401872
 40
0.603603
 50
76.165002
 51
103.834985
  0
LINE
  8
ボルト／ビス
  6
CONTINUOUS
 62
    64
 10
-93.194842
 20
-61.798268
 11
-93.14673
 21
-61.81578
  0
ARC
  8
ボルト／ビス
  6
CONTINUOUS
 62
    64
 10
-93.2189
 20
-61.955736
 40
0.157468
 50
90.0
 51
117.278033
  0
LINE
  8
ボルト／ビス
  6
CONTINUOUS
 62
    64
 10
-93.675968
 20
-61.798268
 11
-93.194842
 21
-61.798268
  0
LINE
  8
ボルト／ビス
  6
CONTINUOUS
 62
    64
 10
-93.14673
 20
-61.81578
 11
-93.14673
 21
-61.998268
  0
LINE
  8
ボルト／ビス
  6
CONTINUOUS
 62
    64
 10
-93.291068
 20
-61.81578
 11
-93.291068
 21
-61.998268
  0
LINE
  8
ボルト／ビス
  6
CONTINUOUS
 62
    64
 10
-93.72408
 20
-61.81578
 11
-93.72408
 21
-61.998268
  0
LINE
  8
ボルト／ビス
  6
CONTINUOUS
 62
    64
 10
-93.579742
 20
-61.81578
 11
-93.579742
 21
-61.998268
  0
LINE
  8
ボルト／ビス
  6
CONTINUOUS
 10
-93.72408
 20
-61.998268
 11
-93.14673
 21
-61.998268
  0
LINE
  8
ボルト／ビス
  6
CONTINUOUS
 10
-93.735405
 20
-61.998268
 11
-93.735405
 21
-62.098268
  0
LINE
  8
ボルト／ビス
  6
CONTINUOUS
 10
-93.735405
 20
-61.998268
 11
-93.135405
 21
-61.998268
  0
LINE
  8
ボルト／ビス
  6
CONTINUOUS
 10
-93.135405
 20
-61.998268
 11
-93.135405
 21
-62.098268
  0
ENDBLK
  0
BLOCK
  2
*GRP_0033
 70
    65
 10
0.0
 20
0.0
  0
LINE
  8
ボルト／ビス
  6
CONTINUOUS
 10
-61.435405
 20
-62.248268
 11
-61.435405
 21
-61.548268
  0
LINE
  8
ボルト／ビス
  6
CONTINUOUS
 10
-60.885405
 20
-62.248268
 11
-60.885405
 21
-62.148268
  0
LINE
  8
ボルト／ビス
  6
CONTINUOUS
 10
-60.885405
 20
-62.148268
 11
-61.985405
 21
-62.148268
  0
LINE
  8
ボルト／ビス
  6
CONTINUOUS
 10
-61.985405
 20
-62.148268
 11
-61.985405
 21
-62.248268
  0
LINE
  8
ボルト／ビス
  6
CONTINUOUS
 10
-60.885405
 20
-62.248268
 11
-61.985405
 21
-62.248268
  0
LINE
  8
ボルト／ビス
  6
CONTINUOUS
 10
-60.985405
 20
-62.098268
 11
-60.985405
 21
-62.148268
  0
LINE
  8
ボルト／ビス
  6
CONTINUOUS
 10
-60.985405
 20
-62.098268
 11
-61.885405
 21
-62.098268
  0
LINE
  8
ボルト／ビス
  6
CONTINUOUS
 10
-61.885405
 20
-62.098268
 11
-61.885405
 21
-62.148268
  0
LINE
  8
ボルト／ビス
  6
CONTINUOUS
 62
    64
 10
-61.194842
 20
-61.798268
 11
-61.14673
 21
-61.81578
  0
ARC
  8
ボルト／ビス
  6
CONTINUOUS
 62
    64
 10
-61.218898
 20
-61.955736
 40
0.157468
 50
90.0
 51
117.278033
  0
ARC
  8
ボルト／ビス
  6
CONTINUOUS
 62
    64
 10
-61.435404
 20
-62.401872
 40
0.603603
 50
76.165015
 51
103.834998
  0
LINE
  8
ボルト／ビス
  6
CONTINUOUS
 62
    64
 10
-61.675968
 20
-61.798268
 11
-61.72408
 21
-61.81578
  0
ARC
  8
ボルト／ビス
  6
CONTINUOUS
 62
    64
 10
-61.65191
 20
-61.955736
 40
0.157468
 50
62.721967
 51
90.0
  0
LINE
  8
ボルト／ビス
  6
CONTINUOUS
 62
    64
 10
-61.194842
 20
-61.798268
 11
-61.675968
 21
-61.798268
  0
LINE
  8
ボルト／ビス
  6
CONTINUOUS
 62
    64
 10
-61.72408
 20
-61.81578
 11
-61.72408
 21
-61.998268
  0
LINE
  8
ボルト／ビス
  6
CONTINUOUS
 62
    64
 10
-61.579742
 20
-61.81578
 11
-61.579742
 21
-61.998268
  0
LINE
  8
ボルト／ビス
  6
CONTINUOUS
 62
    64
 10
-61.14673
 20
-61.81578
 11
-61.14673
 21
-61.998268
  0
LINE
  8
ボルト／ビス
  6
CONTINUOUS
 62
    64
 10
-61.291068
 20
-61.81578
 11
-61.291068
 21
-61.998268
  0
LINE
  8
ボルト／ビス
  6
CONTINUOUS
 10
-61.14673
 20
-61.998268
 11
-61.72408
 21
-61.998268
  0
LINE
  8
ボルト／ビス
  6
CONTINUOUS
 10
-61.135405
 20
-61.998268
 11
-61.135405
 21
-62.098268
  0
LINE
  8
ボルト／ビス
  6
CONTINUOUS
 10
-61.135405
 20
-61.998268
 11
-61.735405
 21
-61.998268
  0
LINE
  8
ボルト／ビス
  6
CONTINUOUS
 10
-61.735405
 20
-61.998268
 11
-61.735405
 21
-62.098268
  0
ENDBLK
  0
BLOCK
  2
*GRP_0034
 70
    65
 10
0.0
 20
0.0
  0
LINE
  8
ボルト／ビス
  6
CONTINUOUS
 10
9.31414
 20
-62.248268
 11
9.31414
 21
-61.548268
  0
LINE
  8
ボルト／ビス
  6
CONTINUOUS
 10
9.86414
 20
-62.248268
 11
9.86414
 21
-62.148268
  0
LINE
  8
ボルト／ビス
  6
CONTINUOUS
 10
9.86414
 20
-62.148268
 11
8.76414
 21
-62.148268
  0
LINE
  8
ボルト／ビス
  6
CONTINUOUS
 10
8.76414
 20
-62.148268
 11
8.76414
 21
-62.248268
  0
LINE
  8
ボルト／ビス
  6
CONTINUOUS
 10
9.86414
 20
-62.248268
 11
8.76414
 21
-62.248268
  0
LINE
  8
ボルト／ビス
  6
CONTINUOUS
 10
9.76414
 20
-62.098268
 11
9.76414
 21
-62.148268
  0
LINE
  8
ボルト／ビス
  6
CONTINUOUS
 10
9.76414
 20
-62.098268
 11
8.86414
 21
-62.098268
  0
LINE
  8
ボルト／ビス
  6
CONTINUOUS
 10
8.86414
 20
-62.098268
 11
8.86414
 21
-62.148268
  0
LINE
  8
ボルト／ビス
  6
CONTINUOUS
 62
    64
 10
9.554702
 20
-61.798268
 11
9.602815
 21
-61.81578
  0
ARC
  8
ボルト／ビス
  6
CONTINUOUS
 62
    64
 10
9.530648
 20
-61.955737
 40
0.157468
 50
90.0
 51
117.278033
  0
ARC
  8
ボルト／ビス
  6
CONTINUOUS
 62
    64
 10
9.314141
 20
-62.401872
 40
0.603603
 50
76.165015
 51
103.834998
  0
LINE
  8
ボルト／ビス
  6
CONTINUOUS
 62
    64
 10
9.073577
 20
-61.798268
 11
9.025465
 21
-61.81578
  0
ARC
  8
ボルト／ビス
  6
CONTINUOUS
 62
    64
 10
9.097635
 20
-61.955737
 40
0.157468
 50
62.721967
 51
90.0
  0
LINE
  8
ボルト／ビス
  6
CONTINUOUS
 62
    64
 10
9.554702
 20
-61.798268
 11
9.073577
 21
-61.798268
  0
LINE
  8
ボルト／ビス
  6
CONTINUOUS
 62
    64
 10
9.025465
 20
-61.81578
 11
9.025465
 21
-61.998268
  0
LINE
  8
ボルト／ビス
  6
CONTINUOUS
 62
    64
 10
9.169802
 20
-61.81578
 11
9.169802
 21
-61.998268
  0
LINE
  8
ボルト／ビス
  6
CONTINUOUS
 62
    64
 10
9.602815
 20
-61.81578
 11
9.602815
 21
-61.998268
  0
LINE
  8
ボルト／ビス
  6
CONTINUOUS
 62
    64
 10
9.458477
 20
-61.81578
 11
9.458477
 21
-61.998268
  0
LINE
  8
ボルト／ビス
  6
CONTINUOUS
 10
9.602815
 20
-61.998268
 11
9.025465
 21
-61.998268
  0
LINE
  8
ボルト／ビス
  6
CONTINUOUS
 10
9.61414
 20
-61.998268
 11
9.61414
 21
-62.098268
  0
LINE
  8
ボルト／ビス
  6
CONTINUOUS
 10
9.61414
 20
-61.998268
 11
9.01414
 21
-61.998268
  0
LINE
  8
ボルト／ビス
  6
CONTINUOUS
 10
9.01414
 20
-61.998268
 11
9.01414
 21
-62.098268
  0
ENDBLK
  0
BLOCK
  2
*GRP_0035
 70
    65
 10
0.0
 20
0.0
  0
LINE
  8
ボルト／ビス
  6
CONTINUOUS
 10
41.31414
 20
-62.248268
 11
41.31414
 21
-61.548268
  0
LINE
  8
ボルト／ビス
  6
CONTINUOUS
 10
41.86414
 20
-62.248268
 11
41.86414
 21
-62.148268
  0
LINE
  8
ボルト／ビス
  6
CONTINUOUS
 10
41.86414
 20
-62.148268
 11
40.76414
 21
-62.148268
  0
LINE
  8
ボルト／ビス
  6
CONTINUOUS
 10
40.76414
 20
-62.148268
 11
40.76414
 21
-62.248268
  0
LINE
  8
ボルト／ビス
  6
CONTINUOUS
 10
41.86414
 20
-62.248268
 11
40.76414
 21
-62.248268
  0
LINE
  8
ボルト／ビス
  6
CONTINUOUS
 10
41.76414
 20
-62.098268
 11
41.76414
 21
-62.148268
  0
LINE
  8
ボルト／ビス
  6
CONTINUOUS
 10
41.76414
 20
-62.098268
 11
40.86414
 21
-62.098268
  0
LINE
  8
ボルト／ビス
  6
CONTINUOUS
 10
40.86414
 20
-62.098268
 11
40.86414
 21
-62.148268
  0
LINE
  8
ボルト／ビス
  6
CONTINUOUS
 62
    64
 10
41.554702
 20
-61.798268
 11
41.602815
 21
-61.81578
  0
ARC
  8
ボルト／ビス
  6
CONTINUOUS
 62
    64
 10
41.530648
 20
-61.955737
 40
0.157468
 50
90.0
 51
117.278033
  0
ARC
  8
ボルト／ビス
  6
CONTINUOUS
 62
    64
 10
41.314141
 20
-62.401872
 40
0.603603
 50
76.165015
 51
103.834998
  0
LINE
  8
ボルト／ビス
  6
CONTINUOUS
 62
    64
 10
41.073577
 20
-61.798268
 11
41.025465
 21
-61.81578
  0
ARC
  8
ボルト／ビス
  6
CONTINUOUS
 62
    64
 10
41.097635
 20
-61.955737
 40
0.157468
 50
62.721967
 51
90.0
  0
LINE
  8
ボルト／ビス
  6
CONTINUOUS
 62
    64
 10
41.554702
 20
-61.798268
 11
41.073577
 21
-61.798268
  0
LINE
  8
ボルト／ビス
  6
CONTINUOUS
 62
    64
 10
41.025465
 20
-61.81578
 11
41.025465
 21
-61.998268
  0
LINE
  8
ボルト／ビス
  6
CONTINUOUS
 62
    64
 10
41.169802
 20
-61.81578
 11
41.169802
 21
-61.998268
  0
LINE
  8
ボルト／ビス
  6
CONTINUOUS
 62
    64
 10
41.602815
 20
-61.81578
 11
41.602815
 21
-61.998268
  0
LINE
  8
ボルト／ビス
  6
CONTINUOUS
 62
    64
 10
41.458477
 20
-61.81578
 11
41.458477
 21
-61.998268
  0
LINE
  8
ボルト／ビス
  6
CONTINUOUS
 10
41.602815
 20
-61.998268
 11
41.025465
 21
-61.998268
  0
LINE
  8
ボルト／ビス
  6
CONTINUOUS
 10
41.61414
 20
-61.998268
 11
41.61414
 21
-62.098268
  0
LINE
  8
ボルト／ビス
  6
CONTINUOUS
 10
41.61414
 20
-61.998268
 11
41.01414
 21
-61.998268
  0
LINE
  8
ボルト／ビス
  6
CONTINUOUS
 10
41.01414
 20
-61.998268
 11
41.01414
 21
-62.098268
  0
ENDBLK
  0
BLOCK
  2
*GRP_0036
 70
    65
 10
0.0
 20
0.0
  0
LINE
  8
型材断面
  6
DOT
 62
    47
 10
8.21914
 20
-59.723193
 11
9.38914
 21
-59.723193
  0
LINE
  8
型材断面
  6
DOT
 10
8.06914
 20
-56.973193
 11
8.06914
 21
-56.298193
  0
LINE
  8
型材断面
  6
DOT
 62
    47
 10
6.89414
 20
-60.98223
 11
6.89414
 21
-60.48223
  0
LINE
  8
型材断面
  6
DOT
 62
    47
 10
6.89414
 20
-60.48223
 11
8.06914
 21
-60.33223
  0
LINE
  8
型材断面
  6
DOT
 62
    47
 10
8.06914
 20
-59.723193
 11
8.06914
 21
-60.33223
  0
LINE
  8
型材断面
  6
DOT
 62
    47
 10
7.36414
 20
-59.723193
 11
7.36414
 21
-56.973193
  0
LINE
  8
型材断面
  6
DOT
 10
8.06914
 20
-56.298193
 11
25.31414
 21
-56.298193
  0
LINE
  8
型材断面
  6
DOT
 10
7.36414
 20
-56.973193
 11
25.31414
 21
-56.973193
  0
LINE
  8
型材断面
  6
DOT
 62
    47
 10
7.36414
 20
-59.723193
 11
25.31414
 21
-59.723193
  0
LINE
  8
型材断面
  6
DOT
 10
25.31414
 20
-60.33223
 11
8.06914
 21
-60.33223
  0
LINE
  8
型材断面
  6
DOT
 10
25.31414
 20
-60.48223
 11
6.89414
 21
-60.48223
  0
LINE
  8
型材断面
  6
DOT
 62
    47
 10
6.89414
 20
-60.98223
 11
25.31414
 21
-60.98223
  0
LINE
  8
型材断面
  6
DOT
 62
    47
 10
42.40914
 20
-59.723193
 11
41.23914
 21
-59.723193
  0
LINE
  8
型材断面
  6
DOT
 10
42.55914
 20
-56.973193
 11
42.55914
 21
-56.298193
  0
LINE
  8
型材断面
  6
DOT
 62
    47
 10
43.73414
 20
-60.98223
 11
43.73414
 21
-60.48223
  0
LINE
  8
型材断面
  6
DOT
 62
    47
 10
43.73414
 20
-60.48223
 11
42.55914
 21
-60.33223
  0
LINE
  8
型材断面
  6
DOT
 62
    47
 10
42.55914
 20
-59.723193
 11
42.55914
 21
-60.33223
  0
LINE
  8
型材断面
  6
DOT
 62
    47
 10
43.26414
 20
-59.723193
 11
43.26414
 21
-56.973193
  0
LINE
  8
型材断面
  6
DOT
 10
42.55914
 20
-56.298193
 11
25.31414
 21
-56.298193
  0
LINE
  8
型材断面
  6
DOT
 10
43.26414
 20
-56.973193
 11
25.31414
 21
-56.973193
  0
LINE
  8
型材断面
  6
DOT
 62
    47
 10
43.26414
 20
-59.723193
 11
25.31414
 21
-59.723193
  0
LINE
  8
型材断面
  6
DOT
 10
25.31414
 20
-60.33223
 11
42.55914
 21
-60.33223
  0
LINE
  8
型材断面
  6
DOT
 10
25.31414
 20
-60.48223
 11
43.73414
 21
-60.48223
  0
LINE
  8
型材断面
  6
DOT
 62
    47
 10
43.73414
 20
-60.98223
 11
25.31414
 21
-60.98223
  0
LINE
  8
別途部材
  6
DOT
 62
    96
 10
7.81414
 20
-54.748265
 11
7.21414
 21
-56.248265
  0
LINE
  8
別途部材
  6
DOT
 62
    96
 10
7.81414
 20
-54.748265
 11
25.31414
 21
-54.748265
  0
LINE
  8
別途部材
  6
DOT
 10
7.21414
 20
-56.248265
 11
25.31414
 21
-56.248265
  0
LINE
  8
別途部材
  6
DOT
 62
    96
 10
42.81414
 20
-54.748265
 11
43.41414
 21
-56.248265
  0
LINE
  8
別途部材
  6
DOT
 62
    96
 10
42.81414
 20
-54.748265
 11
25.31414
 21
-54.748265
  0
LINE
  8
別途部材
  6
DOT
 10
43.41414
 20
-56.248265
 11
25.31414
 21
-56.248265
  0
ARC
  8
別途部材
  6
DOT
 10
25.314141
 20
-64.810764
 40
18.0625
 50
33.855026
 51
146.144974
  0
INSERT
  2
*GRP_0037
  8
別途部材
  6
DOT
 10
0.0
 20
0.0
  0
INSERT
  2
*GRP_0038
  8
別途部材
  6
DOT
 10
0.0
 20
0.0
  0
ENDBLK
  0
BLOCK
  2
*GRP_0037
 70
    65
 10
0.0
 20
0.0
  0
LINE
  8
ボルト／ビス
  6
DOT
 10
9.31414
 20
-54.748268
 11
9.31414
 21
-54.048268
  0
LINE
  8
ボルト／ビス
  6
DOT
 10
9.86414
 20
-54.748268
 11
9.86414
 21
-54.648268
  0
LINE
  8
ボルト／ビス
  6
DOT
 10
9.86414
 20
-54.648268
 11
8.76414
 21
-54.648268
  0
LINE
  8
ボルト／ビス
  6
DOT
 10
8.76414
 20
-54.648268
 11
8.76414
 21
-54.748268
  0
LINE
  8
ボルト／ビス
  6
DOT
 10
9.86414
 20
-54.748268
 11
8.76414
 21
-54.748268
  0
LINE
  8
ボルト／ビス
  6
DOT
 10
9.76414
 20
-54.598268
 11
9.76414
 21
-54.648268
  0
LINE
  8
ボルト／ビス
  6
DOT
 10
9.76414
 20
-54.598268
 11
8.86414
 21
-54.598268
  0
LINE
  8
ボルト／ビス
  6
DOT
 10
8.86414
 20
-54.598268
 11
8.86414
 21
-54.648268
  0
LINE
  8
ボルト／ビス
  6
DOT
 62
    64
 10
9.554702
 20
-54.298268
 11
9.602815
 21
-54.31578
  0
ARC
  8
ボルト／ビス
  6
DOT
 62
    64
 10
9.530648
 20
-54.455737
 40
0.157468
 50
90.0
 51
117.278033
  0
ARC
  8
ボルト／ビス
  6
DOT
 62
    64
 10
9.314141
 20
-54.901873
 40
0.603603
 50
76.165015
 51
103.834998
  0
LINE
  8
ボルト／ビス
  6
DOT
 62
    64
 10
9.073577
 20
-54.298268
 11
9.025465
 21
-54.31578
  0
ARC
  8
ボルト／ビス
  6
DOT
 62
    64
 10
9.097635
 20
-54.455737
 40
0.157468
 50
62.721967
 51
90.0
  0
LINE
  8
ボルト／ビス
  6
DOT
 62
    64
 10
9.554702
 20
-54.298268
 11
9.073577
 21
-54.298268
  0
LINE
  8
ボルト／ビス
  6
DOT
 62
    64
 10
9.025465
 20
-54.31578
 11
9.025465
 21
-54.498268
  0
LINE
  8
ボルト／ビス
  6
DOT
 62
    64
 10
9.169802
 20
-54.31578
 11
9.169802
 21
-54.498268
  0
LINE
  8
ボルト／ビス
  6
DOT
 62
    64
 10
9.602815
 20
-54.31578
 11
9.602815
 21
-54.498268
  0
LINE
  8
ボルト／ビス
  6
DOT
 62
    64
 10
9.458477
 20
-54.31578
 11
9.458477
 21
-54.498268
  0
LINE
  8
ボルト／ビス
  6
DOT
 10
9.602815
 20
-54.498268
 11
9.025465
 21
-54.498268
  0
LINE
  8
ボルト／ビス
  6
DOT
 10
9.61414
 20
-54.498268
 11
9.61414
 21
-54.598268
  0
LINE
  8
ボルト／ビス
  6
DOT
 10
9.61414
 20
-54.498268
 11
9.01414
 21
-54.498268
  0
LINE
  8
ボルト／ビス
  6
DOT
 10
9.01414
 20
-54.498268
 11
9.01414
 21
-54.598268
  0
ENDBLK
  0
BLOCK
  2
*GRP_0038
 70
    65
 10
0.0
 20
0.0
  0
LINE
  8
ボルト／ビス
  6
DOT
 10
41.31414
 20
-54.748268
 11
41.31414
 21
-54.048268
  0
LINE
  8
ボルト／ビス
  6
DOT
 10
41.86414
 20
-54.748268
 11
41.86414
 21
-54.648268
  0
LINE
  8
ボルト／ビス
  6
DOT
 10
41.86414
 20
-54.648268
 11
40.76414
 21
-54.648268
  0
LINE
  8
ボルト／ビス
  6
DOT
 10
40.76414
 20
-54.648268
 11
40.76414
 21
-54.748268
  0
LINE
  8
ボルト／ビス
  6
DOT
 10
41.86414
 20
-54.748268
 11
40.76414
 21
-54.748268
  0
LINE
  8
ボルト／ビス
  6
DOT
 10
41.76414
 20
-54.598268
 11
41.76414
 21
-54.648268
  0
LINE
  8
ボルト／ビス
  6
DOT
 10
41.76414
 20
-54.598268
 11
40.86414
 21
-54.598268
  0
LINE
  8
ボルト／ビス
  6
DOT
 10
40.86414
 20
-54.598268
 11
40.86414
 21
-54.648268
  0
LINE
  8
ボルト／ビス
  6
DOT
 62
    64
 10
41.554702
 20
-54.298268
 11
41.602815
 21
-54.31578
  0
ARC
  8
ボルト／ビス
  6
DOT
 62
    64
 10
41.530648
 20
-54.455737
 40
0.157468
 50
90.0
 51
117.278033
  0
ARC
  8
ボルト／ビス
  6
DOT
 62
    64
 10
41.314141
 20
-54.901873
 40
0.603603
 50
76.165015
 51
103.834998
  0
LINE
  8
ボルト／ビス
  6
DOT
 62
    64
 10
41.073577
 20
-54.298268
 11
41.025465
 21
-54.31578
  0
ARC
  8
ボルト／ビス
  6
DOT
 62
    64
 10
41.097635
 20
-54.455737
 40
0.157468
 50
62.721967
 51
90.0
  0
LINE
  8
ボルト／ビス
  6
DOT
 62
    64
 10
41.554702
 20
-54.298268
 11
41.073577
 21
-54.298268
  0
LINE
  8
ボルト／ビス
  6
DOT
 62
    64
 10
41.025465
 20
-54.31578
 11
41.025465
 21
-54.498268
  0
LINE
  8
ボルト／ビス
  6
DOT
 62
    64
 10
41.169802
 20
-54.31578
 11
41.169802
 21
-54.498268
  0
LINE
  8
ボルト／ビス
  6
DOT
 62
    64
 10
41.602815
 20
-54.31578
 11
41.602815
 21
-54.498268
  0
LINE
  8
ボルト／ビス
  6
DOT
 62
    64
 10
41.458477
 20
-54.31578
 11
41.458477
 21
-54.498268
  0
LINE
  8
ボルト／ビス
  6
DOT
 10
41.602815
 20
-54.498268
 11
41.025465
 21
-54.498268
  0
LINE
  8
ボルト／ビス
  6
DOT
 10
41.61414
 20
-54.498268
 11
41.61414
 21
-54.598268
  0
LINE
  8
ボルト／ビス
  6
DOT
 10
41.61414
 20
-54.498268
 11
41.01414
 21
-54.498268
  0
LINE
  8
ボルト／ビス
  6
DOT
 10
41.01414
 20
-54.498268
 11
41.01414
 21
-54.598268
  0
ENDBLK
  0
BLOCK
  2
*DIM_0039
 70
    65
 10
0.0
 20
0.0
  0
LINE
  8
寸法
  6
BYBLOCK
 62
     0
 10
46.734143
 20
-60.98223
 11
56.50403
 21
-60.98223
  0
LINE
  8
寸法
  6
BYBLOCK
 62
     0
 10
46.734143
 20
-68.48223
 11
56.50403
 21
-68.48223
  0
LINE
  8
寸法
  6
BYBLOCK
 62
     0
 10
56.50403
 20
-60.98223
 11
56.50403
 21
-68.48223
  0
POINT
  8
寸法
 62
     0
 10
56.50403
 20
-60.98223
  0
POINT
  8
寸法
 62
     0
 10
56.50403
 20
-68.48223
  0
TEXT
  7
TextStyle03
  8
寸法
  6
CONTINUOUS
 62
     0
 10
60.875
 20
-74.1625
  1
上昇高さ150
 40
3.0
 50
90.0
 72
     5
 11
60.875
 21
-55.7875
  0
ENDBLK
  0
ENDSEC
  0
SECTION
  2
ENTITIES
  0
POLYLINE
  8
通り芯
  6
CONTINUOUS
 66
     1
 70
     1
  0
VERTEX
  8
通り芯
 10
-210.0
 20
-148.5
  0
VERTEX
  8
通り芯
 10
210.0
 20
-148.5
  0
VERTEX
  8
通り芯
 10
210.0
 20
148.5
  0
VERTEX
  8
通り芯
 10
-210.0
 20
148.5
  0
SEQEND
  0
INSERT
  2
*GRP_0001
  8
型材断面
  6
CONTINUOUS
 10
0.0
 20
0.0
  0
LINE
  8
型材断面
  6
DASHDOT
 10
-92.435405
 20
1.69199
 11
-62.435405
 21
1.69199
  0
LINE
  8
型材断面
  6
DASHDOT
 10
-92.435405
 20
-77.76228
 11
-92.435405
 21
31.69199
  0
LINE
  8
型材断面
  6
DASHDOT
 10
-77.435405
 20
-77.76228
 11
-77.435405
 21
31.69199
  0
LINE
  8
型材断面
  6
DASHDOT
 10
-62.435405
 20
-77.76228
 11
-62.435405
 21
31.69199
  0
LINE
  8
型材断面
  6
DASHDOT
 10
-92.435405
 20
16.69199
 11
-62.435405
 21
16.69199
  0
LINE
  8
型材断面
  6
DASHDOT
 10
-92.435405
 20
31.69199
 11
-62.435405
 21
31.69199
  0
LINE
  8
型材断面
  6
CONTINUOUS
 10
-100.459278
 20
16.69199
 11
-104.345038
 21
14.448545
  0
LINE
  8
型材断面
  6
CONTINUOUS
 10
-100.459278
 20
16.69199
 11
-104.345038
 21
18.935435
  0
LINE
  8
型材断面
  6
CONTINUOUS
 10
-104.345038
 20
18.935435
 11
-104.345038
 21
14.448545
  0
LINE
  8
型材断面
  6
CONTINUOUS
 10
-54.411528
 20
16.69199
 11
-50.525767
 21
14.448545
  0
LINE
  8
型材断面
  6
CONTINUOUS
 10
-54.411528
 20
16.69199
 11
-50.525767
 21
18.935435
  0
LINE
  8
型材断面
  6
CONTINUOUS
 10
-50.525767
 20
18.935435
 11
-50.525767
 21
14.448545
  0
LINE
  8
型材断面
  6
CONTINUOUS
 10
-77.435405
 20
39.715863
 11
-79.67885
 21
43.601622
  0
LINE
  8
型材断面
  6
CONTINUOUS
 10
-77.435405
 20
39.715863
 11
-75.19196
 21
43.601622
  0
LINE
  8
型材断面
  6
CONTINUOUS
 10
-75.19196
 20
43.601622
 11
-79.67885
 21
43.601622
  0
LINE
  8
型材断面
  6
CONTINUOUS
 10
-77.435405
 20
-6.331887
 11
-79.67885
 21
-10.217648
  0
LINE
  8
型材断面
  6
CONTINUOUS
 10
-77.435405
 20
-6.331887
 11
-75.19196
 21
-10.217648
  0
LINE
  8
型材断面
  6
CONTINUOUS
 10
-75.19196
 20
-10.217648
 11
-79.67885
 21
-10.217648
  0
LINE
  8
型材断面
  6
DOT
 10
-66.771885
 20
1.69199
 11
-66.771885
 21
31.691993
  0
LINE
  8
型材断面
  6
DOT
 10
-64.771885
 20
1.69199
 11
-64.771885
 21
31.691993
  0
LINE
  8
型材断面
  6
CONTINUOUS
 10
-35.48472
 20
-6.182028
 11
-37.728165
 21
-10.067788
  0
LINE
  8
型材断面
  6
CONTINUOUS
 10
-35.48472
 20
-6.182028
 11
-33.241275
 21
-10.067788
  0
LINE
  8
型材断面
  6
CONTINUOUS
 10
-33.241275
 20
-10.067788
 11
-37.728165
 21
-10.067788
  0
LINE
  8
型材断面
  6
CONTINUOUS
 10
-35.48472
 20
-13.871575
 11
-34.590635
 21
-17.757335
  0
LINE
  8
型材断面
  6
CONTINUOUS
 10
-35.48472
 20
-13.871575
 11
-36.378805
 21
-17.757335
  0
LINE
  8
型材断面
  6
CONTINUOUS
 10
-36.378805
 20
-17.757335
 11
-34.590635
 21
-17.757335
  0
LINE
  8
型材断面
  6
CONTINUOUS
 10
-44.5186
 20
-11.47568
 11
8.13808
 21
-11.47568
  0
LINE
  8
型材断面
  6
CONTINUOUS
 10
-44.5186
 20
-22.675673
 11
8.13808
 21
-22.675673
  0
LINE
  8
型材断面
  6
CONTINUOUS
 10
-44.5186
 20
-29.515618
 11
8.13808
 21
-29.515618
  0
LINE
  8
型材断面
  6
DASHDOT
 10
-92.435405
 20
-63.798193
 11
-92.435405
 21
-72.82829
  0
LINE
  8
型材断面
  6
CONTINUOUS
 62
    47
 10
-94.530405
 20
-67.223193
 11
-93.360405
 21
-67.223193
  0
LINE
  8
型材断面
  6
CONTINUOUS
 10
-94.680405
 20
-64.473193
 11
-94.680405
 21
-63.798193
  0
LINE
  8
型材断面
  6
CONTINUOUS
 62
    47
 10
-95.855405
 20
-68.48223
 11
-95.855405
 21
-67.98223
  0
LINE
  8
型材断面
  6
CONTINUOUS
 62
    47
 10
-95.855405
 20
-67.98223
 11
-94.680405
 21
-67.83223
  0
LINE
  8
型材断面
  6
CONTINUOUS
 62
    47
 10
-94.680405
 20
-67.223193
 11
-94.680405
 21
-67.83223
  0
LINE
  8
型材断面
  6
CONTINUOUS
 62
    47
 10
-95.385405
 20
-67.223193
 11
-95.385405
 21
-64.473193
  0
LINE
  8
型材断面
  6
CONTINUOUS
 10
-94.680405
 20
-63.798193
 11
-77.435405
 21
-63.798193
  0
LINE
  8
型材断面
  6
CONTINUOUS
 10
-95.385405
 20
-64.473193
 11
-77.435405
 21
-64.473193
  0
LINE
  8
型材断面
  6
CONTINUOUS
 62
    47
 10
-95.385405
 20
-67.223193
 11
-77.435405
 21
-67.223193
  0
LINE
  8
型材断面
  6
CONTINUOUS
 10
-77.435405
 20
-67.83223
 11
-94.680405
 21
-67.83223
  0
LINE
  8
型材断面
  6
CONTINUOUS
 10
-77.435405
 20
-67.98223
 11
-95.855405
 21
-67.98223
  0
LINE
  8
型材断面
  6
CONTINUOUS
 62
    47
 10
-95.855405
 20
-68.48223
 11
-77.435405
 21
-68.48223
  0
LINE
  8
型材断面
  6
CONTINUOUS
 62
    47
 10
-95.385405
 20
-72.423192
 11
-77.435405
 21
-72.423192
  0
LINE
  8
型材断面
  6
CONTINUOUS
 62
    47
 10
-94.535405
 20
-73.173192
 11
-94.535405
 21
-72.423192
  0
LINE
  8
型材断面
  6
CONTINUOUS
 62
    47
 10
-94.535405
 20
-73.173192
 11
-77.435405
 21
-73.173192
  0
LINE
  8
型材断面
  6
CONTINUOUS
 62
    47
 10
-95.385405
 20
-72.423192
 11
-95.385405
 21
-68.48223
  0
LINE
  8
型材断面
  6
DASHDOT
 10
-62.435405
 20
-63.798193
 11
-62.435405
 21
-72.82829
  0
LINE
  8
型材断面
  6
CONTINUOUS
 62
    47
 10
-60.340405
 20
-67.223193
 11
-61.510405
 21
-67.223193
  0
LINE
  8
型材断面
  6
CONTINUOUS
 10
-60.190405
 20
-64.473193
 11
-60.190405
 21
-63.798193
  0
LINE
  8
型材断面
  6
CONTINUOUS
 62
    47
 10
-59.015405
 20
-68.48223
 11
-59.015405
 21
-67.98223
  0
LINE
  8
型材断面
  6
CONTINUOUS
 62
    47
 10
-59.015405
 20
-67.98223
 11
-60.190405
 21
-67.83223
  0
LINE
  8
型材断面
  6
CONTINUOUS
 62
    47
 10
-60.190405
 20
-67.223193
 11
-60.190405
 21
-67.83223
  0
LINE
  8
型材断面
  6
CONTINUOUS
 62
    47
 10
-59.485405
 20
-67.223193
 11
-59.485405
 21
-64.473193
  0
LINE
  8
型材断面
  6
CONTINUOUS
 10
-60.190405
 20
-63.798193
 11
-77.435405
 21
-63.798193
  0
LINE
  8
型材断面
  6
CONTINUOUS
 10
-59.485405
 20
-64.473193
 11
-77.435405
 21
-64.473193
  0
LINE
  8
型材断面
  6
CONTINUOUS
 62
    47
 10
-59.485405
 20
-67.223193
 11
-77.435405
 21
-67.223193
  0
LINE
  8
型材断面
  6
CONTINUOUS
 10
-77.435405
 20
-67.83223
 11
-60.190405
 21
-67.83223
  0
LINE
  8
型材断面
  6
CONTINUOUS
 10
-77.435405
 20
-67.98223
 11
-59.015405
 21
-67.98223
  0
LINE
  8
型材断面
  6
CONTINUOUS
 62
    47
 10
-59.015405
 20
-68.48223
 11
-77.435405
 21
-68.48223
  0
LINE
  8
型材断面
  6
CONTINUOUS
 62
    47
 10
-59.485405
 20
-72.423192
 11
-77.435405
 21
-72.423192
  0
LINE
  8
型材断面
  6
CONTINUOUS
 62
    47
 10
-60.335405
 20
-73.173192
 11
-60.335405
 21
-72.423192
  0
LINE
  8
型材断面
  6
CONTINUOUS
 62
    47
 10
-60.335405
 20
-73.173192
 11
-77.435405
 21
-73.173192
  0
LINE
  8
型材断面
  6
CONTINUOUS
 62
    47
 10
-59.485405
 20
-72.423192
 11
-59.485405
 21
-68.48223
  0
LINE
  8
型材断面
  6
CONTINUOUS
 10
-54.411528
 20
25.84199
 11
-50.525767
 21
24.947905
  0
LINE
  8
型材断面
  6
CONTINUOUS
 10
-54.411528
 20
25.84199
 11
-50.525767
 21
26.736075
  0
LINE
  8
型材断面
  6
CONTINUOUS
 10
-50.525767
 20
26.736075
 11
-50.525767
 21
24.947905
  0
LINE
  8
型材断面
  6
CONTINUOUS
 10
-54.411528
 20
7.54199
 11
-50.525767
 21
8.436075
  0
LINE
  8
型材断面
  6
CONTINUOUS
 10
-54.411528
 20
7.54199
 11
-50.525767
 21
6.647905
  0
LINE
  8
型材断面
  6
CONTINUOUS
 10
-50.525767
 20
6.647905
 11
-50.525767
 21
8.436075
  0
LINE
  8
型材断面
  6
CONTINUOUS
 10
-100.459282
 20
25.84199
 11
-104.345043
 21
24.947905
  0
LINE
  8
型材断面
  6
CONTINUOUS
 10
-100.459282
 20
25.84199
 11
-104.345043
 21
26.736075
  0
LINE
  8
型材断面
  6
CONTINUOUS
 10
-104.345043
 20
26.736075
 11
-104.345043
 21
24.947905
  0
LINE
  8
型材断面
  6
CONTINUOUS
 10
-100.459282
 20
7.54199
 11
-104.345043
 21
8.436075
  0
LINE
  8
型材断面
  6
CONTINUOUS
 10
-100.459282
 20
7.54199
 11
-104.345043
 21
6.647905
  0
LINE
  8
型材断面
  6
CONTINUOUS
 10
-104.345043
 20
6.647905
 11
-104.345043
 21
8.436075
  0
LINE
  8
型材断面
  6
DASHDOT
 10
10.31414
 20
-63.798193
 11
10.31414
 21
-72.82829
  0
LINE
  8
型材断面
  6
CONTINUOUS
 62
    47
 10
8.21914
 20
-67.223193
 11
9.38914
 21
-67.223193
  0
LINE
  8
型材断面
  6
CONTINUOUS
 10
8.06914
 20
-64.473193
 11
8.06914
 21
-63.798193
  0
LINE
  8
型材断面
  6
CONTINUOUS
 62
    47
 10
6.89414
 20
-68.48223
 11
6.89414
 21
-67.98223
  0
LINE
  8
型材断面
  6
CONTINUOUS
 62
    47
 10
6.89414
 20
-67.98223
 11
8.06914
 21
-67.83223
  0
LINE
  8
型材断面
  6
CONTINUOUS
 62
    47
 10
8.06914
 20
-67.223193
 11
8.06914
 21
-67.83223
  0
LINE
  8
型材断面
  6
CONTINUOUS
 62
    47
 10
7.36414
 20
-67.223193
 11
7.36414
 21
-64.473193
  0
LINE
  8
型材断面
  6
CONTINUOUS
 10
8.06914
 20
-63.798193
 11
25.31414
 21
-63.798193
  0
LINE
  8
型材断面
  6
CONTINUOUS
 10
7.36414
 20
-64.473193
 11
25.31414
 21
-64.473193
  0
LINE
  8
型材断面
  6
CONTINUOUS
 62
    47
 10
7.36414
 20
-67.223193
 11
25.31414
 21
-67.223193
  0
LINE
  8
型材断面
  6
CONTINUOUS
 10
25.31414
 20
-67.83223
 11
8.06914
 21
-67.83223
  0
LINE
  8
型材断面
  6
CONTINUOUS
 10
25.31414
 20
-67.98223
 11
6.89414
 21
-67.98223
  0
LINE
  8
型材断面
  6
CONTINUOUS
 62
    47
 10
6.89414
 20
-68.48223
 11
25.31414
 21
-68.48223
  0
LINE
  8
型材断面
  6
CONTINUOUS
 62
    47
 10
7.36414
 20
-72.423192
 11
25.31414
 21
-72.423192
  0
LINE
  8
型材断面
  6
CONTINUOUS
 62
    47
 10
8.21414
 20
-73.173192
 11
8.21414
 21
-72.423192
  0
LINE
  8
型材断面
  6
CONTINUOUS
 62
    47
 10
8.21414
 20
-73.173192
 11
25.31414
 21
-73.173192
  0
LINE
  8
型材断面
  6
CONTINUOUS
 62
    47
 10
7.36414
 20
-72.423192
 11
7.36414
 21
-68.48223
  0
LINE
  8
型材断面
  6
DASHDOT
 10
40.31414
 20
-63.798193
 11
40.31414
 21
-72.82829
  0
LINE
  8
型材断面
  6
CONTINUOUS
 62
    47
 10
42.40914
 20
-67.223193
 11
41.23914
 21
-67.223193
  0
LINE
  8
型材断面
  6
CONTINUOUS
 10
42.55914
 20
-64.473193
 11
42.55914
 21
-63.798193
  0
LINE
  8
型材断面
  6
CONTINUOUS
 62
    47
 10
43.73414
 20
-68.48223
 11
43.73414
 21
-67.98223
  0
LINE
  8
型材断面
  6
CONTINUOUS
 62
    47
 10
43.73414
 20
-67.98223
 11
42.55914
 21
-67.83223
  0
LINE
  8
型材断面
  6
CONTINUOUS
 62
    47
 10
42.55914
 20
-67.223193
 11
42.55914
 21
-67.83223
  0
LINE
  8
型材断面
  6
CONTINUOUS
 62
    47
 10
43.26414
 20
-67.223193
 11
43.26414
 21
-64.473193
  0
LINE
  8
型材断面
  6
CONTINUOUS
 10
42.55914
 20
-63.798193
 11
25.31414
 21
-63.798193
  0
LINE
  8
型材断面
  6
CONTINUOUS
 10
43.26414
 20
-64.473193
 11
25.31414
 21
-64.473193
  0
LINE
  8
型材断面
  6
CONTINUOUS
 62
    47
 10
43.26414
 20
-67.223193
 11
25.31414
 21
-67.223193
  0
LINE
  8
型材断面
  6
CONTINUOUS
 10
25.31414
 20
-67.83223
 11
42.55914
 21
-67.83223
  0
LINE
  8
型材断面
  6
CONTINUOUS
 10
25.31414
 20
-67.98223
 11
43.73414
 21
-67.98223
  0
LINE
  8
型材断面
  6
CONTINUOUS
 62
    47
 10
43.73414
 20
-68.48223
 11
25.31414
 21
-68.48223
  0
LINE
  8
型材断面
  6
CONTINUOUS
 62
    47
 10
43.26414
 20
-72.423192
 11
25.31414
 21
-72.423192
  0
LINE
  8
型材断面
  6
CONTINUOUS
 62
    47
 10
42.41414
 20
-73.173192
 11
42.41414
 21
-72.423192
  0
LINE
  8
型材断面
  6
CONTINUOUS
 62
    47
 10
42.41414
 20
-73.173192
 11
25.31414
 21
-73.173192
  0
LINE
  8
型材断面
  6
CONTINUOUS
 62
    47
 10
43.26414
 20
-72.423192
 11
43.26414
 21
-68.48223
  0
INSERT
  2
*GRP_0027
  8
型材断面
  6
CONTINUOUS
 10
0.0
 20
0.0
  0
INSERT
  2
*GRP_0028
  8
型材断面
  6
CONTINUOUS
 10
0.0
 20
0.0
  0
LINE
  8
型材断面
  6
CONTINUOUS
 10
-59.335405
 20
34.79199
 11
-59.015405
 21
35.11199
  0
LINE
  8
型材断面
  6
CONTINUOUS
 10
-59.015405
 20
16.69199
 11
-59.015405
 21
35.11199
  0
LINE
  8
型材断面
  6
CONTINUOUS
 10
-77.435405
 20
35.11199
 11
-59.015405
 21
35.11199
  0
LINE
  8
型材断面
  6
CONTINUOUS
 10
-59.335405
 20
-1.40801
 11
-59.015405
 21
-1.72801
  0
LINE
  8
型材断面
  6
CONTINUOUS
 10
-59.015405
 20
16.69199
 11
-59.015405
 21
-1.72801
  0
LINE
  8
型材断面
  6
CONTINUOUS
 10
-77.435405
 20
-1.72801
 11
-59.015405
 21
-1.72801
  0
LINE
  8
型材断面
  6
CONTINUOUS
 10
-95.535405
 20
-1.40801
 11
-95.855405
 21
-1.72801
  0
LINE
  8
型材断面
  6
CONTINUOUS
 10
-95.855405
 20
16.69199
 11
-95.855405
 21
-1.72801
  0
LINE
  8
型材断面
  6
CONTINUOUS
 10
-77.435405
 20
-1.72801
 11
-95.855405
 21
-1.72801
  0
LINE
  8
型材断面
  6
CONTINUOUS
 10
-95.535405
 20
34.79199
 11
-95.855405
 21
35.11199
  0
LINE
  8
型材断面
  6
CONTINUOUS
 10
-95.855405
 20
16.69199
 11
-95.855405
 21
35.11199
  0
LINE
  8
型材断面
  6
CONTINUOUS
 10
-77.435405
 20
35.11199
 11
-95.855405
 21
35.11199
  0
POLYLINE
  8
型材断面
  6
CONTINUOUS
 66
     1
 70
     1
  0
VERTEX
  8
型材断面
 10
-68.225518
 20
-11.194607
  0
VERTEX
  8
型材断面
 10
-86.78073
 20
-11.194607
  0
VERTEX
  8
型材断面
 10
-86.78073
 20
-15.986643
  0
VERTEX
  8
型材断面
 10
-68.225518
 20
-15.986643
  0
SEQEND
  0
POLYLINE
  8
型材断面
  6
CONTINUOUS
 66
     1
 70
     1
  0
VERTEX
  8
型材断面
 10
-68.225518
 20
49.10435
  0
VERTEX
  8
型材断面
 10
-86.78073
 20
49.10435
  0
VERTEX
  8
型材断面
 10
-86.78073
 20
44.312315
  0
VERTEX
  8
型材断面
 10
-68.225518
 20
44.312315
  0
SEQEND
  0
LINE
  8
型材断面
  6
CONTINUOUS
 10
-44.5186
 20
-36.355562
 11
8.13808
 21
-36.355562
  0
LINE
  8
ガラス
  6
CONTINUOUS
 10
138.304785
 20
45.557477
 11
167.304785
 21
45.557477
  0
LINE
  8
ガラス
  6
CONTINUOUS
 10
167.304785
 20
74.557477
 11
167.304785
 21
45.557477
  0
LINE
  8
ガラス
  6
CONTINUOUS
 10
167.304785
 20
74.557477
 11
138.304785
 21
74.557477
  0
LINE
  8
ガラス
  6
CONTINUOUS
 10
138.304785
 20
45.557477
 11
138.304785
 21
74.557477
  0
INSERT
  2
*GRP_0036
  8
ガラス
  6
DOT
 10
0.0
 20
0.0
  0
CIRCLE
  8
ボルト／ビス
  6
CONTINUOUS
 10
-84.935405
 20
0.69199
 40
0.288675
  0
CIRCLE
  8
ボルト／ビス
  6
CONTINUOUS
 10
-84.935405
 20
0.69199
 40
0.455885
  0
CIRCLE
  8
ボルト／ビス
  6
CONTINUOUS
 10
-93.435405
 20
9.19199
 40
0.288675
  0
CIRCLE
  8
ボルト／ビス
  6
CONTINUOUS
 10
-93.435405
 20
9.19199
 40
0.455885
  0
CIRCLE
  8
ボルト／ビス
  6
CONTINUOUS
 10
-69.935405
 20
0.69199
 40
0.288675
  0
CIRCLE
  8
ボルト／ビス
  6
CONTINUOUS
 10
-69.935405
 20
0.69199
 40
0.455885
  0
CIRCLE
  8
ボルト／ビス
  6
CONTINUOUS
 10
-61.435405
 20
9.19199
 40
0.288675
  0
CIRCLE
  8
ボルト／ビス
  6
CONTINUOUS
 10
-61.435405
 20
9.19199
 40
0.455885
  0
CIRCLE
  8
ボルト／ビス
  6
CONTINUOUS
 10
-69.935405
 20
32.69199
 40
0.288675
  0
CIRCLE
  8
ボルト／ビス
  6
CONTINUOUS
 10
-69.935405
 20
32.69199
 40
0.455885
  0
CIRCLE
  8
ボルト／ビス
  6
CONTINUOUS
 10
-61.435405
 20
24.19199
 40
0.288675
  0
CIRCLE
  8
ボルト／ビス
  6
CONTINUOUS
 10
-61.435405
 20
24.19199
 40
0.455885
  0
CIRCLE
  8
ボルト／ビス
  6
CONTINUOUS
 10
-84.935405
 20
32.69199
 40
0.288675
  0
CIRCLE
  8
ボルト／ビス
  6
CONTINUOUS
 10
-84.935405
 20
32.69199
 40
0.455885
  0
CIRCLE
  8
ボルト／ビス
  6
CONTINUOUS
 10
-93.435405
 20
24.19199
 40
0.288675
  0
CIRCLE
  8
ボルト／ビス
  6
CONTINUOUS
 10
-93.435405
 20
24.19199
 40
0.455885
  0
INSERT
  2
*GRP_0002
  8
文字
  6
CONTINUOUS
 10
0.0
 20
0.0
  0
INSERT
  2
*GRP_0003
  8
文字
  6
CONTINUOUS
 10
0.0
 20
0.0
  0
INSERT
  2
*GRP_0004
  8
文字
  6
CONTINUOUS
 10
0.0
 20
0.0
  0
INSERT
  2
*GRP_0005
  8
文字
  6
CONTINUOUS
 10
0.0
 20
0.0
  0
INSERT
  2
*GRP_0006
  8
文字
  6
CONTINUOUS
 10
0.0
 20
0.0
  0
INSERT
  2
*GRP_0007
  8
文字
  6
CONTINUOUS
 10
0.0
 20
0.0
  0
INSERT
  2
*GRP_0008
  8
文字
  6
CONTINUOUS
 10
0.0
 20
0.0
  0
INSERT
  2
*GRP_0009
  8
文字
  6
CONTINUOUS
 10
0.0
 20
0.0
  0
TEXT
  7
TextStyle03
  8
文字
  6
CONTINUOUS
 10
-98.825
 20
58.075
  1
アンカーピッチ
 40
3.0
 72
     5
 11
-75.575
 21
58.075
  0
TEXT
  7
TextStyle03
  8
文字
  6
CONTINUOUS
 10
-37.5
 20
9.075
  1
ﾊﾞﾗﾝｽｽﾃｰ
 40
3.0
 72
     5
 11
-24.1875
 21
9.075
  0
TEXT
  7
TextStyle03
  8
文字
  6
CONTINUOUS
 10
-31.2
 20
-9.725
  1
は排水穴位置を示す
 40
3.0
 72
     5
 11
-1.2
 21
-9.725
  0
TEXT
  7
TextStyle03
  8
文字
  6
CONTINUOUS
 10
-31.2
 20
-17.575
  1
はケーシング位置を示す
 40
3.0
 72
     5
 11
5.55
 21
-17.575
  0
TEXT
  7
TextStyle03
  8
文字
  6
CONTINUOUS
 10
-31.2
 20
-20.95
  1
４ヶ所中1ヶ所に設定
 40
3.0
 72
     5
 11
0.4875
 21
-20.95
  0
TEXT
  7
TextStyle03
  8
文字
  6
CONTINUOUS
 10
-36.8
 20
-28.1
  1
アンカー数量　４ヶ所
 40
3.0
 72
     5
 11
-3.425
 21
-28.1
  0
TEXT
  7
TextStyle03
  8
文字
  6
CONTINUOUS
 10
-85.8
 20
-14.975
  1
可動装置側
 40
3.0
 72
     5
 11
-69.3
 21
-14.975
  0
TEXT
  7
TextStyle03
  8
文字
  6
CONTINUOUS
 10
-85.8
 20
45.3
  1
可動装置側
 40
3.0
 72
     5
 11
-69.3
 21
45.3
  0
TEXT
  7
TextStyle03
  8
文字
  6
CONTINUOUS
 10
72.7
 20
103.025
  1
ＮＳコード：ＮＳＤＳ
 40
5.0
 72
     5
 11
128.325
 21
103.025
  0
TEXT
  7
TextStyle03
  8
文字
  6
CONTINUOUS
 10
146.1
 20
53.8
  1
網入り6.8t
 40
3.0
 72
     5
 11
162.7875
 21
53.8
  0
TEXT
  7
TextStyle03
  8
文字
  6
CONTINUOUS
 10
152.725
 20
48.55
  1
×１枚
 40
3.0
 72
     5
 11
162.475
 21
48.55
  0
TEXT
  7
TextStyle03
  8
文字
  6
CONTINUOUS
 10
-36.85
 20
-34.95
  1
アームユニット数　２ヶ所
 40
3.0
 72
     5
 11
3.275
 21
-34.95
  0
TEXT
  7
TextStyle03
  8
文字
  6
CONTINUOUS
 10
73.075
 20
125.25
  1
シリーズ：ＳＴＤ
 40
5.0
 72
     5
 11
117.45
 21
125.25
  0
TEXT
  7
TextStyle03
  8
文字
  6
CONTINUOUS
 10
73.075
 20
119.625
  1
　　　　　（上下可動）600×600タイプ
 40
5.0
 72
     5
 11
173.7
 21
119.625
  0
TEXT
  7
TextStyle03
  8
文字
  6
CONTINUOUS
 10
73.075
 20
114.0
  1
図面名　：外観姿図
 40
5.0
 72
     5
 11
123.075
 21
114.0
  0
TEXT
  7
TextStyle03
  8
文字
  6
CONTINUOUS
 10
73.075
 20
108.375
  1
　　　　　　
 40
5.0
 72
     5
 11
106.2
 21
108.375
  0
INSERT
  2
*DIM_0010
  8
寸法
  6
CONTINUOUS
 10
0.0
 20
0.0
  0
INSERT
  2
*DIM_0011
  8
寸法
  6
CONTINUOUS
 10
0.0
 20
0.0
  0
INSERT
  2
*DIM_0012
  8
寸法
  6
CONTINUOUS
 10
0.0
 20
0.0
  0
INSERT
  2
*GRP_0013
  8
寸法
  6
CONTINUOUS
 10
0.0
 20
0.0
  0
INSERT
  2
*DIM_0022
  8
寸法
  6
CONTINUOUS
 10
0.0
 20
0.0
  0
INSERT
  2
*DIM_0023
  8
寸法
  6
CONTINUOUS
 10
0.0
 20
0.0
  0
INSERT
  2
*DIM_0024
  8
寸法
  6
CONTINUOUS
 10
0.0
 20
0.0
  0
INSERT
  2
*DIM_0025
  8
寸法
  6
CONTINUOUS
 10
0.0
 20
0.0
  0
INSERT
  2
*DIM_0026
  8
寸法
  6
CONTINUOUS
 10
0.0
 20
0.0
  0
INSERT
  2
*DIM_0029
  8
寸法
  6
CONTINUOUS
 10
0.0
 20
0.0
  0
INSERT
  2
*DIM_0030
  8
寸法
  6
CONTINUOUS
 10
0.0
 20
0.0
  0
INSERT
  2
*DIM_0039
  8
寸法
  6
CONTINUOUS
 10
0.0
 20
0.0
  0
LINE
  8
別途部材
  6
CONTINUOUS
 10
-95.535405
 20
-1.40801
 11
-94.935405
 21
-0.80801
  0
LINE
  8
別途部材
  6
CONTINUOUS
 62
    96
 10
-94.935405
 20
-62.248265
 11
-95.535405
 21
-63.748265
  0
LINE
  8
別途部材
  6
CONTINUOUS
 62
    96
 10
-94.935405
 20
-62.248265
 11
-77.435405
 21
-62.248265
  0
LINE
  8
別途部材
  6
CONTINUOUS
 10
-95.535405
 20
-63.748265
 11
-77.435405
 21
-63.748265
  0
LINE
  8
別途部材
  6
CONTINUOUS
 62
    96
 10
-59.935405
 20
-62.248265
 11
-59.335405
 21
-63.748265
  0
LINE
  8
別途部材
  6
CONTINUOUS
 62
    96
 10
-59.935405
 20
-62.248265
 11
-77.435405
 21
-62.248265
  0
LINE
  8
別途部材
  6
CONTINUOUS
 10
-59.335405
 20
-63.748265
 11
-77.435405
 21
-63.748265
  0
ARC
  8
別途部材
  6
CONTINUOUS
 10
-77.435405
 20
-72.310764
 40
18.0625
 50
33.855026
 51
146.144974
  0
LINE
  8
別途部材
  6
CONTINUOUS
 10
-95.535405
 20
-1.40801
 11
-95.535405
 21
16.69199
  0
LINE
  8
別途部材
  6
CONTINUOUS
 10
-94.935405
 20
-0.80801
 11
-94.935405
 21
16.69199
  0
LINE
  8
別途部材
  6
CONTINUOUS
 10
-94.935405
 20
-0.80801
 11
-77.435405
 21
-0.80801
  0
LINE
  8
別途部材
  6
CONTINUOUS
 10
-95.535405
 20
-1.40801
 11
-77.435405
 21
-1.40801
  0
LINE
  8
別途部材
  6
CONTINUOUS
 10
-59.335405
 20
-1.40801
 11
-59.935405
 21
-0.80801
  0
LINE
  8
別途部材
  6
CONTINUOUS
 10
-59.335405
 20
-1.40801
 11
-59.335405
 21
16.69199
  0
LINE
  8
別途部材
  6
CONTINUOUS
 10
-59.935405
 20
-0.80801
 11
-59.935405
 21
16.69199
  0
LINE
  8
別途部材
  6
CONTINUOUS
 10
-59.935405
 20
-0.80801
 11
-77.435405
 21
-0.80801
  0
LINE
  8
別途部材
  6
CONTINUOUS
 10
-59.335405
 20
-1.40801
 11
-77.435405
 21
-1.40801
  0
LINE
  8
別途部材
  6
CONTINUOUS
 10
-59.335405
 20
34.79199
 11
-59.935405
 21
34.19199
  0
LINE
  8
別途部材
  6
CONTINUOUS
 10
-59.335405
 20
34.79199
 11
-59.335405
 21
16.69199
  0
LINE
  8
別途部材
  6
CONTINUOUS
 10
-59.935405
 20
34.19199
 11
-59.935405
 21
16.69199
  0
LINE
  8
別途部材
  6
CONTINUOUS
 10
-59.935405
 20
34.19199
 11
-77.435405
 21
34.19199
  0
LINE
  8
別途部材
  6
CONTINUOUS
 10
-59.335405
 20
34.79199
 11
-77.435405
 21
34.79199
  0
LINE
  8
別途部材
  6
CONTINUOUS
 10
-95.535405
 20
34.79199
 11
-94.935405
 21
34.19199
  0
LINE
  8
別途部材
  6
CONTINUOUS
 10
-95.535405
 20
34.79199
 11
-95.535405
 21
16.69199
  0
LINE
  8
別途部材
  6
CONTINUOUS
 10
-94.935405
 20
34.19199
 11
-94.935405
 21
16.69199
  0
LINE
  8
別途部材
  6
CONTINUOUS
 10
-94.935405
 20
34.19199
 11
-77.435405
 21
34.19199
  0
LINE
  8
別途部材
  6
CONTINUOUS
 10
-95.535405
 20
34.79199
 11
-77.435405
 21
34.79199
  0
LINE
  8
別途部材
  6
CONTINUOUS
 10
-92.435405
 20
1.69199
 11
-88.025072
 21
6.102323
  0
LINE
  8
別途部材
  6
CONTINUOUS
 10
-62.435405
 20
1.69199
 11
-66.845737
 21
6.102323
  0
LINE
  8
別途部材
  6
CONTINUOUS
 62
    96
 10
7.81414
 20
-62.248265
 11
7.21414
 21
-63.748265
  0
LINE
  8
別途部材
  6
CONTINUOUS
 62
    96
 10
7.81414
 20
-62.248265
 11
25.31414
 21
-62.248265
  0
LINE
  8
別途部材
  6
CONTINUOUS
 10
7.21414
 20
-63.748265
 11
25.31414
 21
-63.748265
  0
LINE
  8
別途部材
  6
CONTINUOUS
 62
    96
 10
42.81414
 20
-62.248265
 11
43.41414
 21
-63.748265
  0
LINE
  8
別途部材
  6
CONTINUOUS
 62
    96
 10
42.81414
 20
-62.248265
 11
25.31414
 21
-62.248265
  0
LINE
  8
別途部材
  6
CONTINUOUS
 10
43.41414
 20
-63.748265
 11
25.31414
 21
-63.748265
  0
ARC
  8
別途部材
  6
CONTINUOUS
 10
25.314141
 20
-72.310764
 40
18.0625
 50
33.855026
 51
146.144974
  0
LINE
  8
別途部材
  6
CONTINUOUS
 10
-92.435405
 20
31.69199
 11
-88.025072
 21
27.281658
  0
LINE
  8
別途部材
  6
CONTINUOUS
 10
-62.435405
 20
31.69199
 11
-66.845737
 21
27.281658
  0
INSERT
  2
*GRP_0032
  8
別途部材
  6
DOT
 10
0.0
 20
0.0
  0
INSERT
  2
*GRP_0033
  8
別途部材
  6
DOT
 10
0.0
 20
0.0
  0
INSERT
  2
*GRP_0034
  8
別途部材
  6
DOT
 10
0.0
 20
0.0
  0
INSERT
  2
*GRP_0035
  8
別途部材
  6
DOT
 10
0.0
 20
0.0
  0
ENDSEC
  0
EOF
