  0
SECTION
  2
HEADER
  9
$EXTMIN
 10
-210.0
 20
-148.5
  9
$EXTMAX
 10
210.0
 20
148.5
  9
$PDMODE
 70
    32
  9
$PDSIZE
 40
1.5
  9
$LTSCALE
 40
10.0
  0
ENDSEC
  0
SECTION
  2
TABLES
  0
TABLE
  2
LTYPE
 70
    15
  0
LTYPE
  2
CONTINUOUS
 70
    64
  3
実線
 72
    65
 73
     0
 40
0.0
  0
LTYPE
  2
DASHED
 70
    64
  3
破線A
 72
    65
 73
     2
 40
0.6
 49
0.4
 49
-0.2
  0
LTYPE
  2
DASHEDX2
 70
    64
  3
破線B
 72
    65
 73
     2
 40
1.3
 49
0.9
 49
-0.4
  0
LTYPE
  2
DASHDOT
 70
    64
  3
１点鎖線A
 72
    65
 73
     4
 40
0.5375
 49
0.375
 49
-0.05
 49
0.0625
 49
-0.05
  0
LTYPE
  2
DASHDOTX2
 70
    64
  3
１点鎖線B
 72
    65
 73
     4
 40
1.075
 49
0.75
 49
-0.1
 49
0.125
 49
-0.1
  0
LTYPE
  2
DIVIDE2
 70
    64
  3
２点鎖線A
 72
    65
 73
     6
 40
0.5125
 49
0.3
 49
-0.0375
 49
0.05
 49
-0.0375
 49
0.05
 49
-0.0375
  0
LTYPE
  2
DIVIDE
 70
    64
  3
２点鎖線B
 72
    65
 73
     6
 40
1.05
 49
0.55
 49
-0.1
 49
0.1
 49
-0.1
 49
0.1
 49
-0.1
  0
LTYPE
  2
DOT
 70
    64
  3
点線A
 72
    65
 73
     2
 40
0.1125
 49
0.0625
 49
-0.05
  0
LTYPE
  2
DOTX2
 70
    64
  3
点線B
 72
    65
 73
     2
 40
0.275
 49
0.15
 49
-0.125
  0
LTYPE
  2
CONTINUOUS
 70
    64
  3
実線
 72
    65
 73
     0
 40
0.0
  0
LTYPE
  2
CONTINUOUS
 70
    64
  3
実線
 72
    65
 73
     0
 40
0.0
  0
LTYPE
  2
CONTINUOUS
 70
    64
  3
実線
 72
    65
 73
     0
 40
0.0
  0
LTYPE
  2
CONTINUOUS
 70
    64
  3
実線
 72
    65
 73
     0
 40
0.0
  0
LTYPE
  2
CONTINUOUS
 70
    64
  3
実線
 72
    65
 73
     0
 40
0.0
  0
LTYPE
  2
CONTINUOUS
 70
    64
  3
実線
 72
    65
 73
     0
 40
0.0
  0
ENDTAB
  0
TABLE
  2
LAYER
 70
    34
  0
LAYER
  2
通り芯
 70
     0
 62
    15
  6
CONTINUOUS
  0
LAYER
  2
補助線
 70
     0
 62
    16
  6
DOT
  0
LAYER
  2
躯体
 70
     0
 62
    31
  6
CONTINUOUS
  0
LAYER
  2
型材
 70
     0
 62
    32
  6
CONTINUOUS
  0
LAYER
  2
型材断面
 70
     0
 62
    47
  6
CONTINUOUS
  0
LAYER
  2
ガラス
 70
     0
 62
    48
  6
CONTINUOUS
  0
LAYER
  2
ゴム等
 70
     0
 62
    63
  6
CONTINUOUS
  0
LAYER
  2
ボルト／ビス
 70
     0
 62
    64
  6
CONTINUOUS
  0
LAYER
  2
文字
 70
     0
 62
    79
  6
CONTINUOUS
  0
LAYER
  2
寸法
 70
     0
 62
    80
  6
CONTINUOUS
  0
LAYER
  2
ﾊｯﾁﾝｸﾞ
 70
     0
 62
    95
  6
CONTINUOUS
  0
LAYER
  2
別途部材
 70
     0
 62
    96
  6
CONTINUOUS
  0
LAYER
  2
曲げ物
 70
     0
 62
   111
  6
CONTINUOUS
  0
LAYER
  2
鉄骨等
 70
     0
 62
   112
  6
CONTINUOUS
  0
LAYER
  2
St
 70
     0
 62
   127
  6
CONTINUOUS
  0
LAYER
  2
その他部品等
 70
     0
 62
   128
  6
CONTINUOUS
  0
LAYER
  2
ｶﾞｽｹｯﾄ
 70
     0
 62
   143
  6
CONTINUOUS
  0
LAYER
  2
ｽｹｯﾁ
 70
     0
 62
    14
  6
CONTINUOUS
  0
LAYER
  2
0
 70
     0
 62
    17
  6
CONTINUOUS
  0
LAYER
  2
1
 70
     0
 62
    30
  6
CONTINUOUS
  0
LAYER
  2
4
 70
     0
 62
    33
  6
CONTINUOUS
  0
LAYER
  2
ﾚｲﾔ3
 70
     0
 62
    46
  6
CONTINUOUS
  0
LAYER
  2
外形線
 70
     0
 62
    49
  6
CONTINUOUS
  0
LAYER
  2
部品
 70
     0
 62
    14
  6
CONTINUOUS
  0
LAYER
  2
サッシ芯
 70
     0
 62
    17
  6
DASHDOTX2
  0
LAYER
  2
寸法線
 70
     0
 62
    62
  6
CONTINUOUS
  0
LAYER
  2
姿図外形線
 70
     0
 62
    65
  6
CONTINUOUS
  0
LAYER
  2
姿補助線
 70
     0
 62
    30
  6
CONTINUOUS
  0
LAYER
  2
透視線
 70
     0
 62
    78
  6
DOT
  0
LAYER
  2
用紙
 70
     0
 62
    81
  6
CONTINUOUS
  0
LAYER
  2
実線図枠
 70
     0
 62
    94
  6
CONTINUOUS
  0
LAYER
  2
補助図枠
 70
     0
 62
    97
  6
CONTINUOUS
  0
LAYER
  2
建具記号
 70
     0
 62
   110
  6
CONTINUOUS
  0
LAYER
  2
補助文字
 70
     0
 62
   113
  6
CONTINUOUS
  0
ENDTAB
  0
TABLE
  2
STYLE
 70
    10
  0
STYLE
  2
STANDARD
 70
     0
 40
1.0
 41
1.0
 42
1.0
 50
0.0
 71
     0
  3
TXT
  4
BIGFONT
  0
STYLE
  2
TATE
 70
     4
 40
1.0
 41
1.0
 42
1.0
 50
0.0
 71
     0
  3
TXT
  4
BIGFONT
  0
STYLE
  2
TextStyle03
 70
     0
 40
1.0
 41
1.0
 42
1.0
 50
0.0
 71
     0
  3
MONOTXT
  4
BIGFONT
  0
STYLE
  2
TextStyle04
 70
     0
 40
1.0
 41
1.0
 42
1.0
 50
0.0
 71
     0
  3
MONOTXT
  4
BIGFONT
  0
STYLE
  2
TextStyle05
 70
     0
 40
1.0
 41
1.0
 42
1.0
 50
0.0
 71
     0
  3
MONOTXT
  4
BIGFONT
  0
STYLE
  2
TextStyle06
 70
     0
 40
1.0
 41
1.0
 42
1.0
 50
0.0
 71
     0
  3
MONOTXT
  4
BIGFONT
  0
STYLE
  2
TextStyle07
 70
     0
 40
1.0
 41
1.0
 42
1.0
 50
0.0
 71
     0
  3
MONOTXT
  4
BIGFONT
  0
STYLE
  2
TextStyle08
 70
     0
 40
1.0
 41
1.0
 42
1.0
 50
0.0
 71
     0
  3
MONOTXT
  4
BIGFONT
  0
STYLE
  2
TextStyle09
 70
     0
 40
1.0
 41
1.0
 42
1.0
 50
0.0
 71
     0
  3
MONOTXT
  4
BIGFONT
  0
STYLE
  2
TextStyle10
 70
     0
 40
1.0
 41
1.0
 42
1.0
 50
0.0
 71
     0
  3
MONOTXT
  4
BIGFONT
  0
ENDTAB
  0
ENDSEC
  0
SECTION
  2
BLOCKS
  0
BLOCK
  2
*HAT_0001
 70
    65
 10
0.0
 20
0.0
  0
LINE
  8
ゴム等
 10
43.35
 20
-42.4
 11
43.3
 21
-42.3
  0
LINE
  8
ゴム等
 10
43.35
 20
-43.8
 11
41.9
 21
-42.3
  0
LINE
  8
ゴム等
 10
43.35
 20
-45.2
 11
40.45
 21
-42.3
  0
LINE
  8
ゴム等
 10
43.35
 20
-46.6
 11
39.05
 21
-42.3
  0
LINE
  8
ゴム等
 10
43.35
 20
-48.05
 11
37.65
 21
-42.3
  0
LINE
  8
ゴム等
 10
43.35
 20
-49.45
 11
37.35
 21
-43.45
  0
LINE
  8
ゴム等
 10
43.35
 20
-50.85
 11
37.35
 21
-44.85
  0
LINE
  8
ゴム等
 10
43.35
 20
-52.25
 11
38.35
 21
-47.25
  0
LINE
  8
ゴム等
 10
37.4
 20
-46.3
 11
37.35
 21
-46.25
  0
LINE
  8
ゴム等
 10
43.35
 20
-53.7
 11
38.35
 21
-48.7
  0
LINE
  8
ゴム等
 10
43.35
 20
-55.1
 11
38.35
 21
-50.1
  0
LINE
  8
ゴム等
 10
42.2
 20
-55.3
 11
37.4
 21
-50.55
  0
LINE
  8
ゴム等
 10
40.75
 20
-55.3
 11
37.55
 21
-52.1
  0
LINE
  8
ゴム等
 10
39.4
 20
-55.35
 11
37.7
 21
-53.65
  0
LINE
  8
ゴム等
 10
39.05
 20
-56.45
 11
38.1
 21
-55.5
  0
LINE
  8
ゴム等
 10
39.05
 20
-57.8
 11
38.15
 21
-56.95
  0
LINE
  8
ゴム等
 10
38.6
 20
-58.8
 11
38.2
 21
-58.4
  0
ENDBLK
  0
BLOCK
  2
*HAT_0002
 70
    65
 10
0.0
 20
0.0
  0
LINE
  8
St
 10
-68.175
 20
-15.125
 11
-70.0
 21
-13.275
  0
LINE
  8
St
 10
-68.175
 20
-16.525
 11
-70.875
 21
-13.85
  0
LINE
  8
St
 10
-68.175
 20
-17.95
 11
-71.175
 21
-14.95
  0
LINE
  8
St
 10
-68.175
 20
-19.35
 11
-71.175
 21
-16.35
  0
LINE
  8
St
 10
-68.175
 20
-20.775
 11
-71.175
 21
-17.775
  0
LINE
  8
St
 10
-68.175
 20
-22.175
 11
-71.175
 21
-19.175
  0
LINE
  8
St
 10
-68.175
 20
-23.6
 11
-71.175
 21
-20.6
  0
LINE
  8
St
 10
-68.175
 20
-25.0
 11
-71.175
 21
-22.0
  0
LINE
  8
St
 10
-68.175
 20
-26.425
 11
-71.175
 21
-23.425
  0
LINE
  8
St
 10
-68.175
 20
-27.825
 11
-71.175
 21
-24.825
  0
LINE
  8
St
 10
-68.175
 20
-29.25
 11
-71.175
 21
-26.25
  0
LINE
  8
St
 10
-68.175
 20
-30.65
 11
-71.175
 21
-27.65
  0
LINE
  8
St
 10
-68.175
 20
-32.075
 11
-71.175
 21
-29.075
  0
LINE
  8
St
 10
-68.175
 20
-33.475
 11
-71.175
 21
-30.475
  0
LINE
  8
St
 10
-68.175
 20
-34.9
 11
-71.175
 21
-31.9
  0
LINE
  8
St
 10
-68.175
 20
-36.3
 11
-71.175
 21
-33.3
  0
LINE
  8
St
 10
-68.175
 20
-37.725
 11
-71.175
 21
-34.725
  0
LINE
  8
St
 10
-68.175
 20
-39.125
 11
-71.175
 21
-36.125
  0
LINE
  8
St
 10
-68.175
 20
-40.55
 11
-71.175
 21
-37.55
  0
LINE
  8
St
 10
-68.175
 20
-41.95
 11
-71.175
 21
-38.95
  0
LINE
  8
St
 10
-68.675
 20
-42.875
 11
-71.175
 21
-40.375
  0
LINE
  8
St
 10
-69.7
 20
-43.25
 11
-71.175
 21
-41.775
  0
ENDBLK
  0
BLOCK
  2
*GRP_0001
 70
    65
 10
0.0
 20
0.0
  0
LINE
  8
補助線
  6
BYBLOCK
 62
     0
 10
80.865762
 20
-26.25543
 11
80.865762
 21
-61.25543
  0
LINE
  8
補助線
  6
BYBLOCK
 62
     0
 10
63.365762
 20
-43.75543
 11
98.365762
 21
-43.75543
  0
ENDBLK
  0
BLOCK
  2
*GRP_0002
 70
    65
 10
0.0
 20
0.0
  0
LINE
  8
補助線
  6
BYBLOCK
 62
     0
 10
1.865762
 20
-26.255445
 11
1.865762
 21
-61.255445
  0
LINE
  8
補助線
  6
BYBLOCK
 62
     0
 10
-15.634238
 20
-43.755445
 11
19.365762
 21
-43.755445
  0
ENDBLK
  0
BLOCK
  2
*GRP_0003
 70
    65
 10
0.0
 20
0.0
  0
LINE
  8
型材断面
  6
CONTINUOUS
 62
    47
 10
129.365738
 20
-40.2554
 11
130.865738
 21
-40.2554
  0
LINE
  8
型材断面
  6
CONTINUOUS
 62
    47
 10
130.865738
 20
-48.7554
 11
130.865738
 21
-40.2554
  0
LINE
  8
型材断面
  6
CONTINUOUS
 62
    47
 10
144.365738
 20
-50.2554
 11
144.365738
 21
-48.7554
  0
LINE
  8
型材断面
  6
CONTINUOUS
 62
    47
 10
130.865738
 20
-48.7554
 11
144.365738
 21
-48.7554
  0
ARC
  8
型材断面
  6
CONTINUOUS
 62
    47
 10
130.865737
 20
-48.755395
 40
1.5
 50
180.0
 51
270.0
  0
LINE
  8
型材断面
  6
CONTINUOUS
 62
    47
 10
129.365738
 20
-40.2554
 11
129.365738
 21
-50.2554
  0
LINE
  8
型材断面
  6
CONTINUOUS
 62
    47
 10
144.365738
 20
-50.2554
 11
129.365738
 21
-50.2554
  0
ENDBLK
  0
BLOCK
  2
*GRP_0004
 70
    65
 10
0.0
 20
0.0
  0
LINE
  8
型材断面
  6
CONTINUOUS
 62
    47
 10
127.865738
 20
11.744575
 11
126.365738
 21
11.744575
  0
LINE
  8
型材断面
  6
CONTINUOUS
 62
    47
 10
99.865738
 20
-8.255425
 11
99.865738
 21
-6.755425
  0
LINE
  8
型材断面
  6
CONTINUOUS
 62
    47
 10
99.865738
 20
-6.755425
 11
126.365738
 21
-6.755425
  0
LINE
  8
型材断面
  6
CONTINUOUS
 62
    47
 10
126.365738
 20
11.744575
 11
126.365738
 21
-6.755425
  0
ARC
  8
型材断面
  6
CONTINUOUS
 62
    47
 10
126.365736
 20
-6.755422
 40
1.5
 50
270.0
 51
360.0
  0
LINE
  8
型材断面
  6
CONTINUOUS
 62
    47
 10
99.865738
 20
-8.255425
 11
127.865738
 21
-8.255425
  0
LINE
  8
型材断面
  6
CONTINUOUS
 62
    47
 10
127.865738
 20
11.744575
 11
127.865738
 21
-8.255425
  0
LINE
  8
型材断面
  6
CONTINUOUS
 62
    47
 10
110.365738
 20
-8.255425
 11
110.365738
 21
-6.755425
  0
LINE
  8
型材断面
  6
CONTINUOUS
 62
    47
 10
113.865738
 20
-8.255425
 11
113.865738
 21
-6.755425
  0
LINE
  8
型材断面
  6
CONTINUOUS
 62
    47
 10
110.365738
 20
-7.880425
 11
113.865738
 21
-7.880425
  0
LINE
  8
型材断面
  6
CONTINUOUS
 62
    47
 10
110.365738
 20
-7.505425
 11
113.865738
 21
-7.505425
  0
LINE
  8
型材断面
  6
CONTINUOUS
 62
    47
 10
110.365738
 20
-7.130425
 11
113.865738
 21
-7.130425
  0
LINE
  8
型材断面
  6
CONTINUOUS
 62
    47
 10
112.115738
 20
-5.13443
 11
112.115738
 21
-10.12517
  0
ENDBLK
  0
BLOCK
  2
*GRP_0005
 70
    65
 10
0.0
 20
0.0
  0
LINE
  8
通り芯
  6
CONTINUOUS
 62
    47
 10
117.865738
 20
-65.7554
 11
117.865738
 21
-55.7554
  0
LINE
  8
通り芯
  6
CONTINUOUS
 62
    47
 10
116.365738
 20
-65.7554
 11
117.865738
 21
-65.7554
  0
LINE
  8
通り芯
  6
CONTINUOUS
 62
    47
 10
126.365738
 20
-54.2554
 11
126.365738
 21
-44.2554
  0
LINE
  8
通り芯
  6
CONTINUOUS
 62
    47
 10
126.365738
 20
-44.2554
 11
127.865738
 21
-44.2554
  0
ARC
  8
通り芯
  6
CONTINUOUS
 62
    47
 10
117.865736
 20
-55.755397
 40
1.5
 50
90.0
 51
180.0
  0
ARC
  8
通り芯
  6
CONTINUOUS
 62
    47
 10
126.365736
 20
-54.255397
 40
1.5
 50
270.0
 51
360.0
  0
LINE
  8
通り芯
  6
CONTINUOUS
 62
    47
 10
116.365738
 20
-65.7554
 11
116.365738
 21
-54.2554
  0
LINE
  8
通り芯
  6
CONTINUOUS
 62
    47
 10
126.365738
 20
-54.2554
 11
116.365738
 21
-54.2554
  0
LINE
  8
通り芯
  6
CONTINUOUS
 62
    47
 10
117.865738
 20
-55.7554
 11
127.865738
 21
-55.7554
  0
LINE
  8
通り芯
  6
CONTINUOUS
 62
    47
 10
127.865738
 20
-44.2554
 11
127.865738
 21
-55.7554
  0
ENDBLK
  0
BLOCK
  2
*GRP_0006
 70
    65
 10
0.0
 20
0.0
  0
LINE
  8
型材断面
  6
CONTINUOUS
 62
    63
 10
59.365757
 20
-36.005435
 11
59.365757
 21
-41.50544
  0
LINE
  8
型材断面
  6
CONTINUOUS
 62
    63
 10
56.615757
 20
-38.755435
 11
62.115753
 21
-38.755435
  0
LINE
  8
型材断面
  6
CONTINUOUS
 62
    63
 10
102.365762
 20
-36.005435
 11
102.365762
 21
-41.50544
  0
LINE
  8
型材断面
  6
CONTINUOUS
 62
    63
 10
99.615762
 20
-38.755435
 11
105.115768
 21
-38.755435
  0
ARC
  8
型材断面
  6
CONTINUOUS
 62
    63
 10
62.865757
 20
-15.755429
 40
2.2
 50
282.301255
 51
437.698745
  0
LINE
  8
型材断面
  6
CONTINUOUS
 62
    63
 10
62.865762
 20
-13.60595
 11
63.334488
 21
-13.60595
  0
LINE
  8
型材断面
  6
CONTINUOUS
 62
    63
 10
62.865762
 20
-17.904935
 11
63.334457
 21
-17.904935
  0
ARC
  8
型材断面
  6
CONTINUOUS
 62
    63
 10
80.86576
 20
-43.755425
 40
15.5
 50
121.072958
 51
418.927056
  0
LINE
  8
型材断面
  6
CONTINUOUS
 62
    63
 10
58.865757
 20
-26.755445
 11
58.865757
 21
-9.755425
  0
ARC
  8
型材断面
  6
CONTINUOUS
 62
    63
 10
60.365755
 20
-9.755425
 40
1.5
 50
90.0
 51
180.0
  0
LINE
  8
型材断面
  6
CONTINUOUS
 62
    63
 10
102.865768
 20
-11.255425
 11
102.865768
 21
-32.25544
  0
ARC
  8
型材断面
  6
CONTINUOUS
 62
    63
 10
47.865757
 20
-64.255393
 40
1.5
 50
180.0
 51
270.0
  0
LINE
  8
型材断面
  6
CONTINUOUS
 62
    63
 10
112.115748
 20
-8.555425
 11
111.815748
 21
-8.255425
  0
LINE
  8
型材断面
  6
CONTINUOUS
 62
    63
 10
112.115748
 20
-8.555425
 11
112.415747
 21
-8.255425
  0
LINE
  8
型材断面
  6
CONTINUOUS
 62
    63
 10
33.164313
 20
-34.75544
 11
32.864313
 21
-35.05544
  0
LINE
  8
型材断面
  6
CONTINUOUS
 62
    63
 10
33.164313
 20
-34.75544
 11
32.864313
 21
-34.45544
  0
LINE
  8
型材断面
  6
CONTINUOUS
 62
    63
 10
102.865768
 20
-32.25544
 11
96.613788
 21
-32.25544
  0
ARC
  8
型材断面
  6
CONTINUOUS
 62
    63
 10
34.364315
 20
-28.255438
 40
1.5
 50
90.0
 51
180.0
  0
LINE
  8
型材断面
  6
CONTINUOUS
 62
    63
 10
32.864313
 20
-34.45544
 11
32.864313
 21
-28.255445
  0
LINE
  8
型材断面
  6
CONTINUOUS
 62
    63
 10
58.865757
 20
-29.755445
 11
35.864313
 21
-29.755445
  0
LINE
  8
型材断面
  6
CONTINUOUS
 62
    63
 10
35.864313
 20
-40.75544
 11
34.364313
 21
-40.75544
  0
LINE
  8
型材断面
  6
CONTINUOUS
 62
    63
 10
32.864313
 20
-35.05544
 11
32.864313
 21
-39.25544
  0
ARC
  8
型材断面
  6
CONTINUOUS
 62
    63
 10
34.364316
 20
-39.255437
 40
1.5
 50
180.0
 51
270.0
  0
LINE
  8
型材断面
  6
CONTINUOUS
 62
    63
 10
35.864313
 20
-29.755445
 11
35.864313
 21
-40.75544
  0
LINE
  8
型材断面
  6
CONTINUOUS
 62
    63
 10
61.365762
 20
-43.75544
 11
49.365753
 21
-43.75544
  0
ARC
  8
型材断面
  6
CONTINUOUS
 62
    63
 10
59.277252
 20
-36.10691
 40
0.6
 50
91.913936
 51
195.000027
  0
LINE
  8
型材断面
  6
CONTINUOUS
 62
    63
 10
58.697697
 20
-36.26221
 11
58.777693
 21
-36.56075
  0
ARC
  8
型材断面
  6
CONTINUOUS
 62
    63
 10
59.357244
 20
-36.405447
 40
0.6
 50
195.000108
 51
270.207564
  0
ARC
  8
型材断面
  6
CONTINUOUS
 62
    63
 10
59.365758
 20
-38.755431
 40
1.75
 50
179.792532
 51
450.207564
  0
ARC
  8
型材断面
  6
CONTINUOUS
 62
    63
 10
57.015773
 20
-38.746922
 40
0.6
 50
-0.207468
 51
75.00005
  0
LINE
  8
型材断面
  6
CONTINUOUS
 62
    63
 10
56.872528
 20
-38.08738
 11
57.171062
 21
-38.167375
  0
ARC
  8
型材断面
  6
CONTINUOUS
 62
    63
 10
56.717236
 20
-38.66693
 40
0.6
 50
74.999988
 51
178.086157
  0
ARC
  8
型材断面
  6
CONTINUOUS
 62
    63
 10
104.301134
 20
-40.565637
 40
0.6
 50
-43.086064
 51
60.000027
  0
LINE
  8
型材断面
  6
CONTINUOUS
 62
    63
 10
104.601132
 20
-40.04602
 11
104.333473
 21
-39.89149
  0
ARC
  8
型材断面
  6
CONTINUOUS
 62
    63
 10
104.033474
 20
-40.411103
 40
0.6
 50
60.000108
 51
135.207564
  0
ARC
  8
型材断面
  6
CONTINUOUS
 62
    63
 10
102.365764
 20
-38.755433
 40
1.75
 50
44.792532
 51
315.207564
  0
ARC
  8
型材断面
  6
CONTINUOUS
 62
    63
 10
104.033471
 20
-37.09976
 40
0.6
 50
224.792532
 51
300.00005
  0
LINE
  8
型材断面
  6
CONTINUOUS
 62
    63
 10
104.601123
 20
-37.464845
 11
104.333462
 21
-37.619375
  0
ARC
  8
型材断面
  6
CONTINUOUS
 62
    63
 10
104.301131
 20
-36.945225
 40
0.6
 50
299.999988
 51
403.086157
  0
ARC
  8
型材断面
  6
CONTINUOUS
 62
    63
 10
80.865762
 20
-43.755425
 40
19.500003
 50
23.740612
 51
36.138764
  0
ARC
  8
型材断面
  6
CONTINUOUS
 62
    63
 10
102.365764
 20
-38.755433
 40
3.25
 50
43.086157
 51
130.051309
  0
ARC
  8
型材断面
  6
CONTINUOUS
 62
    63
 10
99.631002
 20
-35.502191
 40
1.0
 50
203.740612
 51
310.051309
  0
ARC
  8
型材断面
  6
CONTINUOUS
 62
    63
 10
80.865762
 20
-43.755425
 40
19.500003
 50
0.000003
 51
2.443134
  0
ARC
  8
型材断面
  6
CONTINUOUS
 62
    63
 10
102.365764
 20
-38.755433
 40
3.25
 50
256.132437
 51
316.913936
  0
ARC
  8
型材断面
  6
CONTINUOUS
 62
    63
 10
101.347131
 20
-42.881555
 40
1.0
 50
76.132437
 51
182.443134
  0
ARC
  8
型材断面
  6
CONTINUOUS
 62
    63
 10
59.365758
 20
-38.755431
 40
3.25
 50
49.948648
 51
91.913936
  0
LINE
  8
型材断面
  6
CONTINUOUS
 62
    63
 10
46.365753
 20
-40.75544
 11
55.235082
 21
-40.75544
  0
ARC
  8
型材断面
  6
CONTINUOUS
 62
    63
 10
59.365758
 20
-38.755431
 40
3.25
 50
178.086157
 51
193.609035
  0
ARC
  8
型材断面
  6
CONTINUOUS
 62
    63
 10
55.235081
 20
-39.755437
 40
1.0
 50
-90.0
 51
13.609035
  0
LINE
  8
型材断面
  6
CONTINUOUS
 62
    63
 10
62.865762
 20
-23.255445
 11
62.865762
 21
-17.904935
  0
LINE
  8
型材断面
  6
CONTINUOUS
 62
    63
 10
98.865762
 20
-23.255445
 11
98.865762
 21
-17.904925
  0
ARC
  8
型材断面
  6
CONTINUOUS
 62
    63
 10
62.100522
 20
-35.502192
 40
1.0
 50
229.948648
 51
319.928457
  0
LINE
  8
型材断面
  6
CONTINUOUS
 62
    63
 10
93.865762
 20
-28.255445
 11
98.865762
 21
-23.255445
  0
ARC
  8
型材断面
  6
CONTINUOUS
 62
    63
 10
126.365737
 20
-64.255393
 40
1.5
 50
270.0
 51
360.0
  0
LINE
  8
型材断面
  6
CONTINUOUS
 62
    63
 10
124.865738
 20
-62.75539
 11
124.865738
 21
-11.255425
  0
LINE
  8
型材断面
  6
CONTINUOUS
 62
    63
 10
102.865757
 20
-11.255425
 11
124.865738
 21
-11.255425
  0
LINE
  8
型材断面
  6
CONTINUOUS
 62
    63
 10
112.415747
 20
-8.255425
 11
127.865738
 21
-8.255425
  0
LINE
  8
型材断面
  6
CONTINUOUS
 62
    63
 10
127.865738
 20
-64.2554
 11
127.865738
 21
-32.55544
  0
LINE
  8
型材断面
  6
CONTINUOUS
 62
    63
 10
127.865738
 20
-8.255425
 11
127.865738
 21
-31.95544
  0
LINE
  8
型材断面
  6
CONTINUOUS
 62
    63
 10
49.365753
 20
-43.75544
 11
49.365753
 21
-52.7554
  0
LINE
  8
型材断面
  6
CONTINUOUS
 62
    63
 10
46.665753
 20
-48.7554
 11
46.365753
 21
-49.0554
  0
LINE
  8
型材断面
  6
CONTINUOUS
 62
    63
 10
46.665753
 20
-48.7554
 11
46.365753
 21
-48.4554
  0
LINE
  8
型材断面
  6
CONTINUOUS
 62
    63
 10
46.365753
 20
-40.75544
 11
46.365753
 21
-48.4554
  0
LINE
  8
型材断面
  6
CONTINUOUS
 62
    63
 10
47.865753
 20
-65.7554
 11
77.565762
 21
-65.7554
  0
LINE
  8
型材断面
  6
CONTINUOUS
 62
    63
 10
78.165762
 20
-65.7554
 11
83.565762
 21
-65.7554
  0
LINE
  8
型材断面
  6
CONTINUOUS
 62
    63
 10
84.165762
 20
-65.7554
 11
126.365738
 21
-65.7554
  0
LINE
  8
型材断面
  6
CONTINUOUS
 62
    63
 10
90.676533
 20
-62.7554
 11
124.865738
 21
-62.7554
  0
ARC
  8
型材断面
  6
CONTINUOUS
 62
    63
 10
80.865762
 20
-43.755425
 40
19.500003
 50
298.592316
 51
360.000003
  0
ARC
  8
型材断面
  6
CONTINUOUS
 62
    63
 10
80.865762
 20
-43.755425
 40
19.500003
 50
179.999997
 51
241.407684
  0
LINE
  8
型材断面
  6
CONTINUOUS
 62
    63
 10
62.865762
 20
-36.14594
 11
62.865762
 21
-32.755445
  0
LINE
  8
型材断面
  6
CONTINUOUS
 62
    63
 10
58.865757
 20
-29.755445
 11
58.865757
 21
-32.755445
  0
LINE
  8
型材断面
  6
CONTINUOUS
 62
    63
 10
39.864313
 20
-27.055445
 11
39.564313
 21
-26.755445
  0
LINE
  8
型材断面
  6
CONTINUOUS
 62
    63
 10
39.864313
 20
-27.055445
 11
40.164313
 21
-26.755445
  0
LINE
  8
型材断面
  6
CONTINUOUS
 62
    63
 10
34.364313
 20
-26.755445
 11
39.564313
 21
-26.755445
  0
LINE
  8
型材断面
  6
CONTINUOUS
 62
    63
 10
58.865757
 20
-26.755445
 11
40.164313
 21
-26.755445
  0
LINE
  8
型材断面
  6
CONTINUOUS
 62
    63
 10
60.365757
 20
-8.255425
 11
62.365762
 21
-8.255425
  0
LINE
  8
型材断面
  6
CONTINUOUS
 62
    63
 10
62.865762
 20
-13.60595
 11
62.865762
 21
-8.755425
  0
LINE
  8
型材断面
  6
CONTINUOUS
 62
    63
 10
98.865762
 20
-13.60595
 11
98.865762
 21
-8.755425
  0
LINE
  8
型材断面
  6
CONTINUOUS
 62
    63
 10
111.815748
 20
-8.255425
 11
99.365762
 21
-8.255425
  0
LINE
  8
型材断面
  6
CONTINUOUS
 62
    63
 10
46.365753
 20
-64.2554
 11
46.365753
 21
-63.2554
  0
LINE
  8
型材断面
  6
CONTINUOUS
 62
    63
 10
71.054992
 20
-62.7554
 11
46.865753
 21
-62.7554
  0
LINE
  8
型材断面
  6
CONTINUOUS
 62
    63
 10
46.365753
 20
-52.2554
 11
46.365753
 21
-49.0554
  0
LINE
  8
型材断面
  6
CONTINUOUS
 62
    63
 10
127.565738
 20
-32.25544
 11
127.865738
 21
-31.95544
  0
LINE
  8
型材断面
  6
CONTINUOUS
 62
    63
 10
127.565738
 20
-32.25544
 11
127.865738
 21
-32.55544
  0
LINE
  8
型材断面
  6
CONTINUOUS
 62
    63
 10
77.865762
 20
-65.4554
 11
77.565762
 21
-65.7554
  0
LINE
  8
型材断面
  6
CONTINUOUS
 62
    63
 10
77.865762
 20
-65.4554
 11
78.165762
 21
-65.7554
  0
LINE
  8
型材断面
  6
CONTINUOUS
 62
    63
 10
83.865762
 20
-65.4554
 11
83.565762
 21
-65.7554
  0
LINE
  8
型材断面
  6
CONTINUOUS
 62
    63
 10
83.865762
 20
-65.4554
 11
84.165762
 21
-65.7554
  0
ARC
  8
型材断面
  6
CONTINUOUS
 62
    63
 10
90.676533
 20
-61.755394
 40
1.0
 50
118.592316
 51
270.0
  0
ARC
  8
型材断面
  6
CONTINUOUS
 62
    63
 10
71.054992
 20
-61.755394
 40
1.0
 50
-90.0
 51
61.407684
  0
LINE
  8
型材断面
  6
CONTINUOUS
 62
    63
 10
62.865762
 20
-32.755445
 11
58.865757
 21
-32.755445
  0
ARC
  8
型材断面
  6
CONTINUOUS
 62
    63
 10
62.365762
 20
-8.755421
 40
0.5
 50
0.0
 51
90.0
  0
ARC
  8
型材断面
  6
CONTINUOUS
 62
    63
 10
99.365762
 20
-8.755421
 40
0.5
 50
90.0
 51
180.0
  0
ARC
  8
型材断面
  6
CONTINUOUS
 62
    63
 10
46.865755
 20
-63.255393
 40
0.5
 50
90.0
 51
180.0
  0
LINE
  8
型材断面
  6
CONTINUOUS
 62
    63
 10
46.865753
 20
-52.7554
 11
49.365753
 21
-52.7554
  0
ARC
  8
型材断面
  6
CONTINUOUS
 62
    63
 10
46.865755
 20
-52.255393
 40
0.5
 50
180.0
 51
270.0
  0
LINE
  8
型材断面
  6
CONTINUOUS
 62
    63
 10
98.865762
 20
-17.904925
 11
97.589178
 21
-17.904925
  0
LINE
  8
型材断面
  6
CONTINUOUS
 62
    63
 10
98.865762
 20
-13.60595
 11
97.589157
 21
-13.60595
  0
LINE
  8
型材断面
  6
CONTINUOUS
 62
    63
 10
67.865762
 20
-28.255445
 11
72.865757
 21
-28.255445
  0
LINE
  8
型材断面
  6
CONTINUOUS
 62
    63
 10
93.865762
 20
-28.255445
 11
88.865757
 21
-28.255445
  0
LINE
  8
型材断面
  6
CONTINUOUS
 62
    63
 10
88.865757
 20
-30.579515
 11
88.865757
 21
-28.255445
  0
LINE
  8
型材断面
  6
CONTINUOUS
 62
    63
 10
72.865757
 20
-30.579515
 11
72.865757
 21
-28.255445
  0
LINE
  8
ゴム等
  6
CONTINUOUS
 62
    63
 10
35.864313
 20
-33.005445
 11
32.864313
 21
-33.005445
  0
LINE
  8
ゴム等
  6
CONTINUOUS
 62
    63
 10
35.864313
 20
-36.505445
 11
32.864313
 21
-36.505445
  0
LINE
  8
ゴム等
  6
CONTINUOUS
 62
    63
 10
47.615027
 20
-29.755445
 11
47.615027
 21
-26.755445
  0
LINE
  8
ゴム等
  6
CONTINUOUS
 62
    63
 10
44.115027
 20
-29.755445
 11
44.115027
 21
-26.755445
  0
LINE
  8
ゴム等
  6
CONTINUOUS
 62
    63
 10
113.865742
 20
-11.255425
 11
113.865742
 21
-8.255425
  0
LINE
  8
ゴム等
  6
CONTINUOUS
 62
    63
 10
110.365742
 20
-11.255425
 11
110.365742
 21
-8.255425
  0
LINE
  8
ゴム等
  6
CONTINUOUS
 62
    63
 10
124.865738
 20
-51.5054
 11
127.865738
 21
-51.5054
  0
LINE
  8
ゴム等
  6
CONTINUOUS
 62
    63
 10
124.865738
 20
-55.0054
 11
127.865738
 21
-55.0054
  0
LINE
  8
ゴム等
  6
CONTINUOUS
 62
    63
 10
125.615738
 20
-51.5054
 11
125.615738
 21
-55.0054
  0
LINE
  8
ゴム等
  6
CONTINUOUS
 62
    63
 10
126.365738
 20
-51.5054
 11
126.365738
 21
-55.0054
  0
LINE
  8
ゴム等
  6
CONTINUOUS
 62
    63
 10
127.115738
 20
-51.5054
 11
127.115738
 21
-55.0054
  0
LINE
  8
ゴム等
  6
CONTINUOUS
 62
    63
 10
110.365742
 20
-9.005425
 11
113.865742
 21
-9.005425
  0
LINE
  8
ゴム等
  6
CONTINUOUS
 62
    63
 10
110.365742
 20
-9.755425
 11
113.865742
 21
-9.755425
  0
LINE
  8
ゴム等
  6
CONTINUOUS
 62
    63
 10
110.365742
 20
-10.505425
 11
113.865742
 21
-10.505425
  0
LINE
  8
ゴム等
  6
CONTINUOUS
 62
    63
 10
44.115027
 20
-29.005445
 11
47.615027
 21
-29.005445
  0
LINE
  8
ゴム等
  6
CONTINUOUS
 62
    63
 10
44.115027
 20
-28.255445
 11
47.615027
 21
-28.255445
  0
LINE
  8
ゴム等
  6
CONTINUOUS
 62
    63
 10
44.115027
 20
-27.505445
 11
47.615027
 21
-27.505445
  0
LINE
  8
ゴム等
  6
CONTINUOUS
 62
    63
 10
33.614313
 20
-36.505445
 11
33.614313
 21
-33.005445
  0
LINE
  8
ゴム等
  6
CONTINUOUS
 62
    63
 10
34.364313
 20
-36.505445
 11
34.364313
 21
-33.005445
  0
LINE
  8
ゴム等
  6
CONTINUOUS
 62
    63
 10
35.114313
 20
-36.505445
 11
35.114313
 21
-33.005445
  0
LINE
  8
ゴム等
  6
CONTINUOUS
 62
    63
 10
90.365762
 20
-25.759835
 11
90.365762
 21
-25.759835
  0
LINE
  8
ゴム等
  6
CONTINUOUS
 62
    63
 10
62.865762
 20
-23.255445
 11
67.865762
 21
-28.255445
  0
LINE
  8
ゴム等
  6
CONTINUOUS
 62
    63
 10
67.865762
 20
-28.255445
 11
69.865762
 21
-28.255445
  0
ARC
  8
ゴム等
  6
CONTINUOUS
 62
    63
 10
98.865765
 20
-15.755426
 40
2.5
 50
120.706651
 51
239.29391
  0
ENDBLK
  0
BLOCK
  2
*GRP_0007
 70
    65
 10
0.0
 20
0.0
  0
LINE
  8
型材断面
  6
CONTINUOUS
 62
    47
 10
23.865753
 20
-8.255425
 11
-41.634253
 21
-8.255425
  0
ARC
  8
型材断面
  6
CONTINUOUS
 62
    47
 10
23.865754
 20
-8.255421
 40
1.5
 50
0.0
 51
90.0
  0
LINE
  8
型材断面
  6
CONTINUOUS
 62
    47
 10
25.365753
 20
-6.755425
 11
-41.634253
 21
-6.755425
  0
ARC
  8
型材断面
  6
CONTINUOUS
 62
    47
 10
25.365754
 20
-50.155423
 40
1.5
 50
180.0
 51
270.0
  0
LINE
  8
型材断面
  6
CONTINUOUS
 62
    47
 10
25.365753
 20
-6.755425
 11
25.365753
 21
-50.15543
  0
LINE
  8
型材断面
  6
CONTINUOUS
 62
    47
 10
25.365753
 20
-50.15543
 11
38.365753
 21
-50.15543
  0
LINE
  8
型材断面
  6
CONTINUOUS
 62
    47
 10
38.365753
 20
-51.65543
 11
38.365753
 21
-50.15543
  0
LINE
  8
型材断面
  6
CONTINUOUS
 62
    47
 10
23.865753
 20
-8.255425
 11
23.865753
 21
-51.65543
  0
LINE
  8
型材断面
  6
CONTINUOUS
 62
    47
 10
23.865753
 20
-51.65543
 11
38.365753
 21
-51.65543
  0
LINE
  8
型材断面
  6
CONTINUOUS
 62
    47
 10
-41.634253
 20
-8.255425
 11
-41.634253
 21
-6.755425
  0
ENDBLK
  0
BLOCK
  2
*GRP_0008
 70
    65
 10
0.0
 20
0.0
  0
LINE
  8
補助線
  6
BYBLOCK
 62
    63
 10
1.865762
 20
-27.255445
 11
1.865762
 21
-60.255445
  0
LINE
  8
補助線
  6
BYBLOCK
 62
    63
 10
-14.634238
 20
-43.755445
 11
18.365762
 21
-43.755445
  0
LINE
  8
補助線
  6
BYBLOCK
 62
    63
 10
-16.134232
 20
-12.255445
 11
-16.134232
 21
-19.255445
  0
LINE
  8
補助線
  6
BYBLOCK
 62
    63
 10
-19.634232
 20
-15.755445
 11
-12.634232
 21
-15.755445
  0
LINE
  8
補助線
  6
BYBLOCK
 62
    63
 10
19.865757
 20
-12.555445
 11
19.865757
 21
-18.955445
  0
LINE
  8
補助線
  6
BYBLOCK
 62
    63
 10
16.665757
 20
-15.755445
 11
23.065757
 21
-15.755445
  0
LINE
  8
ゴム等
  6
CONTINUOUS
 62
    63
 10
-11.134238
 20
-28.25985
 11
-16.134238
 21
-23.25985
  0
LINE
  8
ゴム等
  6
CONTINUOUS
 62
    63
 10
14.865762
 20
-28.25985
 11
19.865762
 21
-23.25985
  0
LINE
  8
ゴム等
  6
CONTINUOUS
 62
    63
 10
-31.834238
 20
-42.15527
 11
-31.834238
 21
-51.655395
  0
LINE
  8
ゴム等
  6
CONTINUOUS
 62
    63
 10
-31.834238
 20
-39.655265
 11
-31.834238
 21
-26.455345
  0
LINE
  8
ゴム等
  6
CONTINUOUS
 62
    63
 10
-29.834238
 20
-49.65539
 11
-29.834238
 21
-23.955345
  0
LINE
  8
ゴム等
  6
CONTINUOUS
 62
    63
 10
-30.634238
 20
-23.955345
 11
-29.834238
 21
-23.955345
  0
LINE
  8
St
  6
CONTINUOUS
 62
    63
 10
-14.634238
 20
-43.755445
 11
-16.134242
 21
-43.755445
  0
LINE
  8
St
  6
CONTINUOUS
 62
    63
 10
-16.134242
 20
-43.755445
 11
-16.134242
 21
-27.50249
  0
ARC
  8
St
  6
CONTINUOUS
 62
    63
 10
-16.134232
 20
-15.755444
 40
2.5
 50
180.000057
 51
180.000057
  0
ARC
  8
St
  6
CONTINUOUS
 62
    63
 10
19.865757
 20
-15.755447
 40
2.2
 50
102.301255
 51
257.698745
  0
LINE
  8
St
  6
CONTINUOUS
 62
    63
 10
19.865762
 20
-17.904925
 11
19.397033
 21
-17.904925
  0
LINE
  8
St
  6
CONTINUOUS
 62
    63
 10
19.865762
 20
-13.605945
 11
19.397033
 21
-13.605945
  0
ARC
  8
St
  6
CONTINUOUS
 62
    63
 10
1.86576
 20
-43.755443
 40
15.5
 50
121.072958
 51
418.927056
  0
LINE
  8
St
  6
CONTINUOUS
 62
    63
 10
-18.634238
 20
-8.255425
 11
-16.634242
 21
-8.255425
  0
LINE
  8
St
  6
CONTINUOUS
 62
    63
 10
-16.134238
 20
-13.605945
 11
-16.134238
 21
-8.75542
  0
LINE
  8
St
  6
CONTINUOUS
 62
    63
 10
19.865762
 20
-13.605945
 11
19.865762
 21
-8.75542
  0
ARC
  8
St
  6
CONTINUOUS
 62
    63
 10
-16.634238
 20
-8.75544
 40
0.5
 50
0.0
 51
90.0
  0
ARC
  8
St
  6
CONTINUOUS
 62
    63
 10
20.365762
 20
-8.75544
 40
0.5
 50
90.0
 51
180.0
  0
LINE
  8
St
  6
CONTINUOUS
 62
    63
 10
20.365762
 20
-8.255425
 11
20.865757
 21
-8.255425
  0
ARC
  8
St
  6
CONTINUOUS
 62
    63
 10
-25.13424
 20
-62.755412
 40
3.0
 50
180.0
 51
270.0
  0
ARC
  8
St
  6
CONTINUOUS
 62
    63
 10
-25.13424
 20
-62.755412
 40
1.0
 50
180.0
 51
270.0
  0
ARC
  8
St
  6
CONTINUOUS
 62
    63
 10
20.865765
 20
-62.755412
 40
3.0
 50
270.0
 51
360.0
  0
ARC
  8
St
  6
CONTINUOUS
 62
    63
 10
20.865765
 20
-62.755412
 40
1.0
 50
270.0
 51
360.0
  0
ARC
  8
St
  6
CONTINUOUS
 62
    63
 10
20.865765
 20
-11.25544
 40
3.0
 50
0.0
 51
90.0
  0
LINE
  8
St
  6
CONTINUOUS
 62
    63
 10
-28.134238
 20
-62.755395
 11
-28.134238
 21
-51.655395
  0
LINE
  8
St
  6
CONTINUOUS
 62
    63
 10
-26.134238
 20
-62.755395
 11
-26.134238
 21
-49.65539
  0
LINE
  8
St
  6
CONTINUOUS
 62
    63
 10
-41.634238
 20
-8.255425
 11
-24.934238
 21
-8.255425
  0
LINE
  8
St
  6
CONTINUOUS
 62
    63
 10
-24.334238
 20
-8.255425
 11
-16.134238
 21
-8.255425
  0
LINE
  8
St
  6
CONTINUOUS
 62
    63
 10
-22.634242
 20
-65.455395
 11
-22.934242
 21
-65.755395
  0
LINE
  8
St
  6
CONTINUOUS
 62
    63
 10
-22.634242
 20
-65.455395
 11
-22.334242
 21
-65.755395
  0
LINE
  8
St
  6
CONTINUOUS
 62
    63
 10
-22.934242
 20
-65.755395
 11
-25.134238
 21
-65.755395
  0
LINE
  8
St
  6
CONTINUOUS
 62
    63
 10
20.865757
 20
-65.755395
 11
6.865762
 21
-65.755395
  0
LINE
  8
St
  6
CONTINUOUS
 62
    63
 10
-22.334242
 20
-65.755395
 11
6.865762
 21
-65.755395
  0
LINE
  8
St
  6
CONTINUOUS
 62
    63
 10
20.865757
 20
-63.75539
 11
3.865762
 21
-63.75539
  0
LINE
  8
St
  6
CONTINUOUS
 62
    63
 10
-25.134238
 20
-63.75539
 11
-0.134242
 21
-63.75539
  0
LINE
  8
St
  6
CONTINUOUS
 62
    63
 10
-24.634238
 20
-8.555425
 11
-24.934238
 21
-8.255425
  0
LINE
  8
St
  6
CONTINUOUS
 62
    63
 10
-24.634238
 20
-8.555425
 11
-24.334238
 21
-8.255425
  0
ARC
  8
St
  6
CONTINUOUS
 62
    63
 10
-41.334259
 20
-12.855425
 40
0.3
 50
180.00412
 51
270.0
  0
ARC
  8
St
  6
CONTINUOUS
 62
    63
 10
-41.334259
 20
-21.855385
 40
0.3
 50
90.002747
 51
180.00412
  0
LINE
  8
St
  6
CONTINUOUS
 62
    63
 10
-41.634238
 20
-21.85537
 11
-41.634238
 21
-25.455345
  0
LINE
  8
St
  6
CONTINUOUS
 62
    63
 10
-41.634238
 20
-8.255425
 11
-41.634238
 21
-12.851895
  0
ARC
  8
St
  6
CONTINUOUS
 62
    63
 10
-41.334259
 20
-37.555311
 40
0.3
 50
90.0
 51
179.99588
  0
ARC
  8
St
  6
CONTINUOUS
 62
    63
 10
-41.334259
 20
-28.555352
 40
0.3
 50
179.99588
 51
269.997253
  0
LINE
  8
St
  6
CONTINUOUS
 62
    63
 10
-41.634238
 20
-28.555345
 11
-41.634238
 21
-24.955345
  0
LINE
  8
St
  6
CONTINUOUS
 62
    63
 10
-41.634238
 20
-42.15527
 11
-41.634238
 21
-37.55882
  0
LINE
  8
St
  6
CONTINUOUS
 62
    63
 10
-39.134242
 20
-22.05532
 11
-39.134242
 21
-23.955345
  0
LINE
  8
St
  6
CONTINUOUS
 62
    63
 10
-39.134242
 20
-12.65532
 11
-39.134242
 21
-10.75542
  0
ARC
  8
St
  6
CONTINUOUS
 62
    63
 10
-39.634247
 20
-22.055347
 40
0.5
 50
0.001373
 51
90.002747
  0
ARC
  8
St
  6
CONTINUOUS
 62
    63
 10
-39.634247
 20
-12.655323
 40
0.5
 50
270.0
 51
360.001373
  0
LINE
  8
St
  6
CONTINUOUS
 62
    63
 10
-39.134242
 20
-28.35537
 11
-39.134242
 21
-26.455345
  0
LINE
  8
St
  6
CONTINUOUS
 62
    63
 10
-39.134242
 20
-37.755395
 11
-39.134242
 21
-39.655265
  0
ARC
  8
St
  6
CONTINUOUS
 62
    63
 10
-39.634247
 20
-28.35539
 40
0.5
 50
269.997253
 51
359.998627
  0
ARC
  8
St
  6
CONTINUOUS
 62
    63
 10
-39.634247
 20
-37.755413
 40
0.5
 50
359.998627
 51
450.0
  0
LINE
  8
St
  6
CONTINUOUS
 62
    63
 10
-41.334263
 20
-21.555325
 11
-39.634288
 21
-21.555325
  0
LINE
  8
St
  6
CONTINUOUS
 62
    63
 10
-41.334263
 20
-28.855395
 11
-39.634288
 21
-28.855395
  0
LINE
  8
St
  6
CONTINUOUS
 62
    63
 10
-41.334263
 20
-13.155325
 11
-39.634288
 21
-13.155325
  0
LINE
  8
St
  6
CONTINUOUS
 62
    63
 10
-41.334263
 20
-37.255395
 11
-39.634288
 21
-37.255395
  0
LINE
  8
St
  6
CONTINUOUS
 62
    63
 10
-39.134242
 20
-23.955345
 11
-32.634238
 21
-23.955345
  0
LINE
  8
St
  6
CONTINUOUS
 62
    63
 10
-32.634238
 20
-23.955345
 11
-32.634238
 21
-10.75542
  0
LINE
  8
St
  6
CONTINUOUS
 62
    63
 10
-39.134242
 20
-10.75542
 11
-32.634238
 21
-10.75542
  0
LINE
  8
St
  6
CONTINUOUS
 62
    63
 10
-30.634238
 20
-10.75542
 11
-18.634238
 21
-10.75542
  0
LINE
  8
St
  6
CONTINUOUS
 62
    63
 10
-0.134242
 20
-63.75539
 11
-0.134242
 21
-61.64397
  0
LINE
  8
St
  6
CONTINUOUS
 62
    63
 10
3.865762
 20
-63.75539
 11
3.865762
 21
-61.64397
  0
LINE
  8
St
  6
CONTINUOUS
 62
    63
 10
-16.134238
 20
-13.605945
 11
-14.857643
 21
-13.605945
  0
LINE
  8
St
  6
CONTINUOUS
 62
    63
 10
-16.134238
 20
-17.904945
 11
-14.857662
 21
-17.904945
  0
ARC
  8
St
  6
CONTINUOUS
 62
    63
 10
-16.134232
 20
-15.755444
 40
2.5
 50
300.705753
 51
419.293349
  0
LINE
  8
St
  6
CONTINUOUS
 62
    63
 10
-6.134242
 20
-30.57952
 11
-6.134242
 21
-28.25545
  0
LINE
  8
St
  6
CONTINUOUS
 62
    63
 10
9.865762
 20
-30.47952
 11
9.865762
 21
-28.259845
  0
LINE
  8
St
  6
CONTINUOUS
 62
    63
 10
21.865762
 20
-62.755395
 11
21.865762
 21
-45.755435
  0
LINE
  8
St
  6
CONTINUOUS
 62
    63
 10
-20.134238
 20
-16.25542
 11
-18.634238
 21
-15.25542
  0
LINE
  8
St
  6
CONTINUOUS
 62
    63
 10
-18.634238
 20
-10.75542
 11
-18.634238
 21
-15.25542
  0
LINE
  8
St
  6
CONTINUOUS
 62
    63
 10
-30.634238
 20
-10.75542
 11
-30.634238
 21
-23.955345
  0
LINE
  8
St
  6
CONTINUOUS
 62
    63
 10
-39.134242
 20
-39.655265
 11
-31.834238
 21
-39.655265
  0
LINE
  8
St
  6
CONTINUOUS
 62
    63
 10
-41.634238
 20
-42.15527
 11
-31.834238
 21
-42.15527
  0
LINE
  8
St
  6
CONTINUOUS
 62
    63
 10
-28.134238
 20
-51.655395
 11
-31.834238
 21
-51.655395
  0
LINE
  8
St
  6
CONTINUOUS
 62
    63
 10
-26.134238
 20
-49.65539
 11
-29.834238
 21
-49.65539
  0
LINE
  8
St
  6
CONTINUOUS
 62
    63
 10
-39.134242
 20
-26.455345
 11
-31.834238
 21
-26.455345
  0
LINE
  8
St
  6
CONTINUOUS
 62
    63
 10
-6.134242
 20
-28.25545
 11
-11.138638
 21
-28.25545
  0
LINE
  8
St
  6
CONTINUOUS
 62
    63
 10
-16.134238
 20
-17.904945
 11
-16.134238
 21
-23.25985
  0
LINE
  8
St
  6
CONTINUOUS
 62
    63
 10
9.865762
 20
-28.259845
 11
14.865768
 21
-28.259845
  0
LINE
  8
St
  6
CONTINUOUS
 62
    63
 10
19.865762
 20
-17.904925
 11
19.865762
 21
-23.25985
  0
LINE
  8
St
  6
CONTINUOUS
 62
    63
 10
-20.134238
 20
-16.25542
 11
-20.134238
 21
-23.50249
  0
LINE
  8
St
  6
CONTINUOUS
 62
    63
 10
23.865757
 20
-62.755395
 11
23.865757
 21
-42.755395
  0
LINE
  8
St
  6
CONTINUOUS
 62
    63
 10
21.865718
 20
-45.755435
 11
19.754303
 21
-45.755435
  0
LINE
  8
St
  6
CONTINUOUS
 62
    63
 10
23.865757
 20
-11.255425
 11
23.865757
 21
-24.916705
  0
ARC
  8
St
  6
CONTINUOUS
 62
    63
 10
1.865759
 20
-43.755443
 40
18.0
 50
276.379378
 51
353.620659
  0
LINE
  8
St
  6
CONTINUOUS
 62
    63
 10
23.865757
 20
-24.916705
 11
19.865757
 21
-28.916705
  0
LINE
  8
St
  6
CONTINUOUS
 62
    63
 10
23.865757
 20
-42.755395
 11
20.865757
 21
-42.755395
  0
LINE
  8
St
  6
CONTINUOUS
 62
    63
 10
19.865757
 20
-28.916705
 11
19.865757
 21
-41.755395
  0
ARC
  8
St
  6
CONTINUOUS
 62
    63
 10
20.865758
 20
-41.755394
 40
1.0
 50
180.0
 51
270.0
  0
LINE
  8
St
  6
CONTINUOUS
 62
    63
 10
-20.134238
 20
-23.50249
 11
-16.134242
 21
-27.50249
  0
ARC
  8
St
  6
CONTINUOUS
 62
    63
 10
1.865759
 20
-43.755443
 40
18.0
 50
180.000003
 51
263.620638
  0
ENDBLK
  0
BLOCK
  2
*GRP_0009
 70
    65
 10
0.0
 20
0.0
  0
LINE
  8
型材断面
  6
CONTINUOUS
 10
127.865738
 20
-65.7554
 11
127.865738
 21
-67.2554
  0
LINE
  8
型材断面
  6
CONTINUOUS
 10
121.865738
 20
-65.7554
 11
121.865738
 21
-67.2554
  0
LINE
  8
型材断面
  6
CONTINUOUS
 10
121.865738
 20
-66.8804
 11
127.865738
 21
-66.8804
  0
LINE
  8
型材断面
  6
CONTINUOUS
 10
121.865738
 20
-66.5054
 11
127.865738
 21
-66.5054
  0
LINE
  8
型材断面
  6
CONTINUOUS
 10
121.865738
 20
-66.1304
 11
127.865738
 21
-66.1304
  0
LINE
  8
型材断面
  6
CONTINUOUS
 62
    47
 10
129.365738
 20
-56.2554
 11
127.865738
 21
-55.42207
  0
LINE
  8
型材断面
  6
CONTINUOUS
 62
    47
 10
127.865738
 20
-51.088735
 11
129.365738
 21
-50.2554
  0
LINE
  8
型材断面
  6
CONTINUOUS
 62
    47
 10
128.240738
 20
-50.8804
 11
128.240738
 21
-55.6304
  0
LINE
  8
型材断面
  6
CONTINUOUS
 62
    47
 10
128.615738
 20
-50.672065
 11
128.615738
 21
-55.838735
  0
LINE
  8
型材断面
  6
CONTINUOUS
 62
    47
 10
128.990738
 20
-50.463735
 11
128.990738
 21
-56.047065
  0
ARC
  8
型材断面
  6
CONTINUOUS
 62
    47
 10
127.865742
 20
-65.755395
 40
1.5
 50
270.0
 51
360.0
  0
ARC
  8
型材断面
  6
CONTINUOUS
 62
    47
 10
127.865742
 20
47.744575
 40
1.5
 50
0.0
 51
90.0
  0
LINE
  8
型材断面
  6
CONTINUOUS
 62
    47
 10
127.865738
 20
-65.7554
 11
127.865738
 21
47.74457
  0
LINE
  8
型材断面
  6
CONTINUOUS
 62
    47
 10
129.365738
 20
-67.2554
 11
129.365738
 21
49.24457
  0
LINE
  8
型材断面
  6
CONTINUOUS
 62
    47
 10
29.864307
 20
-37.755445
 11
31.364313
 21
-36.92211
  0
LINE
  8
型材断面
  6
CONTINUOUS
 62
    47
 10
31.364313
 20
-32.588775
 11
29.864307
 21
-31.755445
  0
LINE
  8
型材断面
  6
CONTINUOUS
 62
    47
 10
30.239313
 20
-31.96378
 11
30.239313
 21
-37.54711
  0
LINE
  8
型材断面
  6
CONTINUOUS
 62
    47
 10
30.614313
 20
-32.17211
 11
30.614313
 21
-37.338775
  0
LINE
  8
型材断面
  6
CONTINUOUS
 62
    47
 10
30.989313
 20
-32.380445
 11
30.989313
 21
-37.130445
  0
LINE
  8
型材断面
  6
CONTINUOUS
 62
    47
 10
31.364313
 20
-26.755445
 11
31.364313
 21
-40.755395
  0
ARC
  8
型材断面
  6
CONTINUOUS
 62
    47
 10
31.364317
 20
-40.75539
 40
1.5
 50
180.0
 51
270.0
  0
ARC
  8
型材断面
  6
CONTINUOUS
 62
    47
 10
43.365757
 20
-42.25539
 40
1.5
 50
0.0
 51
90.0
  0
ARC
  8
型材断面
  6
CONTINUOUS
 62
    47
 10
44.865757
 20
-65.755395
 40
1.5
 50
180.0
 51
270.0
  0
LINE
  8
型材断面
  6
CONTINUOUS
 62
    47
 10
43.365753
 20
-42.255395
 11
43.365753
 21
-67.2554
  0
LINE
  8
型材断面
  6
CONTINUOUS
 62
    47
 10
44.865753
 20
-65.7554
 11
44.865753
 21
-40.755395
  0
LINE
  8
型材断面
  6
CONTINUOUS
 62
    47
 10
31.364313
 20
-40.755395
 11
44.865753
 21
-40.755395
  0
LINE
  8
型材断面
  6
CONTINUOUS
 62
    47
 10
43.365753
 20
-42.255395
 11
29.864313
 21
-42.255395
  0
LINE
  8
型材断面
  6
CONTINUOUS
 62
    47
 10
29.864313
 20
-42.255395
 11
29.864313
 21
-26.755445
  0
LINE
  8
型材断面
  6
CONTINUOUS
 62
    47
 10
129.365738
 20
-67.2554
 11
43.365753
 21
-67.2554
  0
LINE
  8
型材断面
  6
CONTINUOUS
 62
    47
 10
127.865738
 20
-65.7554
 11
44.865753
 21
-65.7554
  0
LINE
  8
型材断面
  6
CONTINUOUS
 10
29.864313
 20
-26.755445
 11
31.364313
 21
-26.755445
  0
LINE
  8
型材断面
  6
CONTINUOUS
 62
    47
 10
129.365738
 20
49.24457
 11
109.365738
 21
49.24457
  0
LINE
  8
型材断面
  6
CONTINUOUS
 10
109.365738
 20
49.24457
 11
109.365738
 21
47.74457
  0
LINE
  8
型材断面
  6
CONTINUOUS
 62
    47
 10
127.865738
 20
47.74457
 11
109.365738
 21
47.74457
  0
ENDBLK
  0
BLOCK
  2
*GRP_0010
 70
    65
 10
0.0
 20
0.0
  0
LINE
  8
型材断面
  6
CONTINUOUS
 10
-66.62923
 20
-48.255422
 11
-66.62923
 21
-9.755422
  0
LINE
  8
型材断面
  6
CONTINUOUS
 10
-68.12923
 20
-48.255422
 11
-66.62923
 21
-48.255422
  0
ARC
  8
型材断面
  6
CONTINUOUS
 10
-66.629229
 20
-9.755421
 40
1.5
 50
90.0
 51
180.0
  0
LINE
  8
型材断面
  6
CONTINUOUS
 10
-68.12923
 20
-48.255422
 11
-68.12923
 21
-8.255422
  0
ARC
  8
型材断面
  6
CONTINUOUS
 10
-41.634253
 20
-51.655399
 40
1.5
 50
180.0
 51
270.0
  0
ARC
  8
型材断面
  6
CONTINUOUS
 10
-28.134238
 20
-65.755399
 40
1.5
 50
180.0
 51
270.0
  0
LINE
  8
型材断面
  6
CONTINUOUS
 10
-29.634238
 20
-51.6554
 11
-41.634253
 21
-51.6554
  0
LINE
  8
型材断面
  6
CONTINUOUS
 10
-28.134238
 20
-53.1554
 11
-28.134238
 21
-65.7554
  0
ARC
  8
型材断面
  6
CONTINUOUS
 10
-29.634238
 20
-53.155399
 40
1.5
 50
0.0
 51
90.0
  0
LINE
  8
型材断面
  6
CONTINUOUS
 10
-66.62923
 20
-9.755422
 11
-43.134253
 21
-9.755422
  0
ARC
  8
型材断面
  6
CONTINUOUS
 10
-43.134253
 20
-9.755422
 40
1.5
 50
0.0
 51
90.0
  0
LINE
  8
型材断面
  6
CONTINUOUS
 10
-41.634253
 20
-51.6554
 11
-41.634253
 21
-8.255422
  0
LINE
  8
型材断面
  6
CONTINUOUS
 10
-68.12923
 20
-8.255422
 11
-41.634253
 21
-8.255422
  0
LINE
  8
型材断面
  6
CONTINUOUS
 10
-43.134253
 20
-9.755422
 11
-43.134253
 21
-53.1554
  0
LINE
  8
型材断面
  6
CONTINUOUS
 10
-29.634238
 20
-53.1554
 11
-43.134253
 21
-53.1554
  0
LINE
  8
型材断面
  6
CONTINUOUS
 10
-29.634238
 20
-53.1554
 11
-29.634238
 21
-67.2554
  0
ARC
  8
型材断面
  6
CONTINUOUS
 62
    47
 10
23.865754
 20
-65.755394
 40
1.5
 50
270.0
 51
360.0
  0
ARC
  8
型材断面
  6
CONTINUOUS
 62
    47
 10
25.365754
 20
-53.155424
 40
1.5
 50
90.0
 51
180.0
  0
LINE
  8
型材断面
  6
CONTINUOUS
 62
    47
 10
41.867193
 20
-75.155425
 11
50.546508
 21
-75.155425
  0
LINE
  8
型材断面
  6
CONTINUOUS
 62
    47
 10
50.546508
 20
-75.155425
 11
50.546508
 21
-76.655425
  0
ARC
  8
型材断面
  6
CONTINUOUS
 62
    47
 10
41.867188
 20
-75.155421
 40
1.5
 50
187.275006
 51
270.0
  0
LINE
  8
型材断面
  6
CONTINUOUS
 62
    47
 10
50.546508
 20
-76.655425
 11
40.546502
 21
-76.655425
  0
LINE
  8
型材断面
  6
CONTINUOUS
 62
    47
 10
40.546502
 20
-76.655425
 11
37.546502
 21
-53.15543
  0
LINE
  8
型材断面
  6
CONTINUOUS
 62
    47
 10
25.365753
 20
-53.15543
 11
37.546502
 21
-53.15543
  0
ARC
  8
型材断面
  6
CONTINUOUS
 62
    47
 10
37.546504
 20
-53.155426
 40
1.5
 50
7.275006
 51
90.0
  0
LINE
  8
型材断面
  6
CONTINUOUS
 62
    47
 10
41.867193
 20
-75.155425
 11
38.867193
 21
-51.65543
  0
LINE
  8
型材断面
  6
CONTINUOUS
 62
    47
 10
23.865753
 20
-51.65543
 11
38.867193
 21
-51.65543
  0
LINE
  8
型材断面
  6
CONTINUOUS
 62
    47
 10
25.365753
 20
-53.15543
 11
25.365753
 21
-67.2554
  0
LINE
  8
型材断面
  6
CONTINUOUS
 62
    47
 10
23.865753
 20
-65.7554
 11
23.865753
 21
-51.65543
  0
LINE
  8
型材断面
  6
CONTINUOUS
 62
    47
 10
25.365753
 20
-67.2554
 11
-29.634238
 21
-67.2554
  0
LINE
  8
型材断面
  6
CONTINUOUS
 62
    47
 10
23.865753
 20
-65.7554
 11
-28.134238
 21
-65.7554
  0
ENDBLK
  0
BLOCK
  2
*GRP_0011
 70
    65
 10
0.0
 20
0.0
  0
LINE
  8
型材断面
  6
CONTINUOUS
 10
-67.434238
 20
17.544578
 11
-65.934238
 21
17.544578
  0
LINE
  8
型材断面
  6
CONTINUOUS
 10
-67.434238
 20
17.544578
 11
-67.434238
 21
-8.255422
  0
LINE
  8
型材断面
  6
CONTINUOUS
 10
-65.934238
 20
17.544578
 11
-65.934238
 21
-8.255422
  0
LINE
  8
型材断面
  6
CONTINUOUS
 10
-65.934238
 20
-8.255422
 11
-67.434238
 21
-8.255422
  0
ENDBLK
  0
BLOCK
  2
*GRP_0012
 70
    65
 10
0.0
 20
0.0
  0
LINE
  8
型材断面
  6
CONTINUOUS
 10
-49.634253
 20
17.54457
 11
-49.634253
 21
16.044572
  0
LINE
  8
型材断面
  6
CONTINUOUS
 10
-43.134253
 20
16.044575
 11
-43.134253
 21
-6.755425
  0
ARC
  8
型材断面
  6
CONTINUOUS
 10
-43.134254
 20
-6.755423
 40
1.5
 50
270.0
 51
360.0
  0
LINE
  8
型材断面
  6
CONTINUOUS
 10
-49.634253
 20
16.044572
 11
-43.134253
 21
16.044575
  0
ARC
  8
型材断面
  6
CONTINUOUS
 10
-43.134254
 20
16.044573
 40
1.5
 50
0.0
 51
90.000015
  0
LINE
  8
型材断面
  6
CONTINUOUS
 10
-49.634253
 20
17.544572
 11
-41.634253
 21
17.544575
  0
LINE
  8
型材断面
  6
CONTINUOUS
 62
    47
 10
-41.634253
 20
17.544575
 11
-41.634253
 21
-8.255425
  0
LINE
  8
型材断面
  6
CONTINUOUS
 10
-64.434252
 20
-6.755425
 11
-64.434252
 21
1.744575
  0
LINE
  8
型材断面
  6
CONTINUOUS
 10
-65.934252
 20
1.744575
 11
-64.434252
 21
1.744575
  0
ARC
  8
型材断面
  6
CONTINUOUS
 10
-64.434252
 20
-6.755423
 40
1.5
 50
180.0
 51
270.0
  0
LINE
  8
型材断面
  6
CONTINUOUS
 10
-65.934252
 20
-8.255425
 11
-65.934252
 21
1.744575
  0
LINE
  8
型材断面
  6
CONTINUOUS
 10
-41.634253
 20
-8.255425
 11
-65.934252
 21
-8.255425
  0
LINE
  8
型材断面
  6
CONTINUOUS
 10
-43.134253
 20
-6.755425
 11
-64.434252
 21
-6.755425
  0
ENDBLK
  0
BLOCK
  2
*GRP_0013
 70
    65
 10
0.0
 20
0.0
  0
LINE
  8
ゴム等
  6
CONTINUOUS
 10
38.365753
 20
-50.255395
 11
38.365753
 21
-46.255395
  0
LINE
  8
ゴム等
  6
CONTINUOUS
 10
38.365753
 20
-46.255395
 11
37.365753
 21
-46.255395
  0
LINE
  8
ゴム等
  6
CONTINUOUS
 10
38.365753
 20
-50.255395
 11
37.365753
 21
-50.255395
  0
LINE
  8
ゴム等
  6
CONTINUOUS
 10
37.365753
 20
-46.255395
 11
37.365753
 21
-42.255395
  0
LINE
  8
ゴム等
  6
CONTINUOUS
 10
37.365753
 20
-42.255395
 11
43.365753
 21
-42.255395
  0
LINE
  8
ゴム等
  6
CONTINUOUS
 10
43.365753
 20
-42.255395
 11
43.365753
 21
-55.255395
  0
LINE
  8
ゴム等
  6
CONTINUOUS
 10
43.365753
 20
-55.255395
 11
39.706302
 21
-55.255395
  0
LINE
  8
ゴム等
  6
CONTINUOUS
 10
37.365753
 20
-50.255395
 11
37.745027
 21
-54.23737
  0
LINE
  8
ゴム等
  6
CONTINUOUS
 10
37.745027
 20
-54.23737
 11
38.019982
 21
-54.211185
  0
ARC
  8
ゴム等
  6
CONTINUOUS
 10
38.615616
 20
-58.339018
 40
0.4
 50
181.441077
 51
364.310481
  0
LINE
  8
ゴム等
  6
CONTINUOUS
 10
38.215738
 20
-58.349075
 11
38.096552
 21
-55.0151
  0
LINE
  8
ゴム等
  6
CONTINUOUS
 10
38.019982
 20
-54.211185
 11
38.096552
 21
-55.015095
  0
ARC
  8
ゴム等
  6
CONTINUOUS
 10
39.706307
 20
-57.255393
 40
2.0
 50
90.0
 51
107.753828
  0
LINE
  8
ゴム等
  6
CONTINUOUS
 10
39.014478
 20
-58.308955
 11
39.096448
 21
-55.350645
  0
INSERT
  2
*HAT_0001
  8
ゴム等
 10
0.0
 20
0.0
  0
ENDBLK
  0
BLOCK
  2
*GRP_0014
 70
    65
 10
0.0
 20
0.0
  0
LINE
  8
ボルト／ビス
  6
CONTINUOUS
 10
-26.634238
 20
-12.255425
 11
-26.134238
 21
-12.755425
  0
LINE
  8
ボルト／ビス
  6
CONTINUOUS
 10
-22.634238
 20
-12.255425
 11
-23.134238
 21
-12.755425
  0
LINE
  8
ボルト／ビス
  6
CONTINUOUS
 10
-26.134238
 20
-12.755425
 11
-23.134238
 21
-12.755425
  0
LINE
  8
ボルト／ビス
  6
CONTINUOUS
 10
-26.634238
 20
-12.255425
 11
-22.634238
 21
-12.255425
  0
LINE
  8
ボルト／ビス
  6
CONTINUOUS
 10
-26.634238
 20
-12.255425
 11
-26.634238
 21
-8.555425
  0
LINE
  8
ボルト／ビス
  6
CONTINUOUS
 10
-26.134238
 20
-12.755425
 11
-26.134238
 21
-8.555425
  0
LINE
  8
ボルト／ビス
  6
CONTINUOUS
 10
-23.134238
 20
-12.755425
 11
-23.134238
 21
-8.555425
  0
LINE
  8
ボルト／ビス
  6
CONTINUOUS
 10
-22.634238
 20
-12.255425
 11
-22.634238
 21
-8.555425
  0
LINE
  8
ボルト／ビス
  6
CONTINUOUS
 10
-26.634238
 20
-8.555425
 11
-22.634238
 21
-8.555425
  0
LINE
  8
ボルト／ビス
  6
CONTINUOUS
 10
-27.634238
 20
-6.755425
 11
-26.634238
 21
-8.555425
  0
LINE
  8
ボルト／ビス
  6
CONTINUOUS
 10
-27.634238
 20
-6.755425
 11
-21.634238
 21
-6.755425
  0
LINE
  8
ボルト／ビス
  6
CONTINUOUS
 10
-21.634238
 20
-6.755425
 11
-22.634238
 21
-8.555425
  0
LINE
  8
ボルト／ビス
  6
CONTINUOUS
 10
-24.634238
 20
-14.3359
 11
-24.634238
 21
-5.271895
  0
ENDBLK
  0
BLOCK
  2
*GRP_0015
 70
    65
 10
0.0
 20
0.0
  0
LINE
  8
ボルト／ビス
  6
CONTINUOUS
 10
29.365753
 20
-47.65543
 11
29.865753
 21
-47.15543
  0
LINE
  8
ボルト／ビス
  6
CONTINUOUS
 10
33.365753
 20
-47.65543
 11
32.865753
 21
-47.15543
  0
LINE
  8
ボルト／ビス
  6
CONTINUOUS
 10
29.865753
 20
-47.15543
 11
32.865753
 21
-47.15543
  0
LINE
  8
ボルト／ビス
  6
CONTINUOUS
 10
29.365753
 20
-47.65543
 11
33.365753
 21
-47.65543
  0
LINE
  8
ボルト／ビス
  6
CONTINUOUS
 10
29.365753
 20
-47.65543
 11
29.365753
 21
-51.35543
  0
LINE
  8
ボルト／ビス
  6
CONTINUOUS
 10
29.865753
 20
-47.15543
 11
29.865753
 21
-51.35543
  0
LINE
  8
ボルト／ビス
  6
CONTINUOUS
 10
32.865753
 20
-47.15543
 11
32.865753
 21
-51.35543
  0
LINE
  8
ボルト／ビス
  6
CONTINUOUS
 10
33.365753
 20
-47.65543
 11
33.365753
 21
-51.35543
  0
LINE
  8
ボルト／ビス
  6
CONTINUOUS
 10
29.365753
 20
-51.35543
 11
33.365753
 21
-51.35543
  0
LINE
  8
ボルト／ビス
  6
CONTINUOUS
 10
28.365753
 20
-53.15543
 11
29.365753
 21
-51.35543
  0
LINE
  8
ボルト／ビス
  6
CONTINUOUS
 10
28.365753
 20
-53.15543
 11
34.365753
 21
-53.15543
  0
LINE
  8
ボルト／ビス
  6
CONTINUOUS
 10
34.365753
 20
-53.15543
 11
33.365753
 21
-51.35543
  0
LINE
  8
ボルト／ビス
  6
CONTINUOUS
 10
31.365753
 20
-45.574955
 11
31.365753
 21
-54.63896
  0
ENDBLK
  0
BLOCK
  2
*GRP_0016
 70
    65
 10
0.0
 20
0.0
  0
LINE
  8
ボルト／ビス
  6
CONTINUOUS
 10
35.364313
 20
-32.75544
 11
35.864313
 21
-33.25544
  0
LINE
  8
ボルト／ビス
  6
CONTINUOUS
 10
35.364313
 20
-36.75544
 11
35.864313
 21
-36.25544
  0
LINE
  8
ボルト／ビス
  6
CONTINUOUS
 10
35.864313
 20
-33.25544
 11
35.864313
 21
-36.25544
  0
LINE
  8
ボルト／ビス
  6
CONTINUOUS
 10
35.364313
 20
-32.75544
 11
35.364313
 21
-36.75544
  0
LINE
  8
ボルト／ビス
  6
CONTINUOUS
 10
35.364313
 20
-32.75544
 11
31.664313
 21
-32.75544
  0
LINE
  8
ボルト／ビス
  6
CONTINUOUS
 10
35.864313
 20
-33.25544
 11
31.664313
 21
-33.25544
  0
LINE
  8
ボルト／ビス
  6
CONTINUOUS
 10
35.864313
 20
-36.25544
 11
31.664313
 21
-36.25544
  0
LINE
  8
ボルト／ビス
  6
CONTINUOUS
 10
35.364313
 20
-36.75544
 11
31.664313
 21
-36.75544
  0
LINE
  8
ボルト／ビス
  6
CONTINUOUS
 10
31.664313
 20
-32.75544
 11
31.664313
 21
-36.75544
  0
LINE
  8
ボルト／ビス
  6
CONTINUOUS
 10
29.864313
 20
-31.75544
 11
31.664313
 21
-32.75544
  0
LINE
  8
ボルト／ビス
  6
CONTINUOUS
 10
29.864313
 20
-31.75544
 11
29.864313
 21
-37.75544
  0
LINE
  8
ボルト／ビス
  6
CONTINUOUS
 10
29.864313
 20
-37.75544
 11
31.664313
 21
-36.75544
  0
LINE
  8
ボルト／ビス
  6
CONTINUOUS
 10
37.444787
 20
-34.75544
 11
28.380782
 21
-34.75544
  0
ENDBLK
  0
BLOCK
  2
*GRP_0017
 70
    65
 10
0.0
 20
0.0
  0
LINE
  8
ボルト／ビス
  6
CONTINUOUS
 10
43.865027
 20
-30.755445
 11
44.365027
 21
-31.255445
  0
LINE
  8
ボルト／ビス
  6
CONTINUOUS
 10
47.865027
 20
-30.755445
 11
47.365027
 21
-31.255445
  0
LINE
  8
ボルト／ビス
  6
CONTINUOUS
 10
44.365027
 20
-31.255445
 11
47.365027
 21
-31.255445
  0
LINE
  8
ボルト／ビス
  6
CONTINUOUS
 10
43.865027
 20
-30.755445
 11
47.865027
 21
-30.755445
  0
LINE
  8
ボルト／ビス
  6
CONTINUOUS
 10
43.865027
 20
-30.755445
 11
43.865027
 21
-27.055445
  0
LINE
  8
ボルト／ビス
  6
CONTINUOUS
 10
44.365027
 20
-31.255445
 11
44.365027
 21
-27.055445
  0
LINE
  8
ボルト／ビス
  6
CONTINUOUS
 10
47.365027
 20
-31.255445
 11
47.365027
 21
-27.055445
  0
LINE
  8
ボルト／ビス
  6
CONTINUOUS
 10
47.865027
 20
-30.755445
 11
47.865027
 21
-27.055445
  0
LINE
  8
ボルト／ビス
  6
CONTINUOUS
 10
43.865027
 20
-27.055445
 11
47.865027
 21
-27.055445
  0
LINE
  8
ボルト／ビス
  6
CONTINUOUS
 10
42.865027
 20
-25.255445
 11
43.865027
 21
-27.055445
  0
LINE
  8
ボルト／ビス
  6
CONTINUOUS
 10
42.865027
 20
-25.255445
 11
48.865027
 21
-25.255445
  0
LINE
  8
ボルト／ビス
  6
CONTINUOUS
 10
48.865027
 20
-25.255445
 11
47.865027
 21
-27.055445
  0
LINE
  8
ボルト／ビス
  6
CONTINUOUS
 10
45.865027
 20
-32.83592
 11
45.865027
 21
-23.771915
  0
ENDBLK
  0
BLOCK
  2
*GRP_0018
 70
    65
 10
0.0
 20
0.0
  0
LINE
  8
ボルト／ビス
  6
CONTINUOUS
 10
110.115738
 20
-7.055425
 11
114.115738
 21
-7.055425
  0
LINE
  8
ボルト／ビス
  6
CONTINUOUS
 10
109.115738
 20
-5.255425
 11
110.115738
 21
-7.055425
  0
LINE
  8
ボルト／ビス
  6
CONTINUOUS
 10
109.115738
 20
-5.255425
 11
115.115738
 21
-5.255425
  0
LINE
  8
ボルト／ビス
  6
CONTINUOUS
 10
115.115738
 20
-5.255425
 11
114.115738
 21
-7.055425
  0
LINE
  8
ボルト／ビス
  6
CONTINUOUS
 10
112.115738
 20
-3.771893
 11
112.115738
 21
-14.134453
  0
LINE
  8
ボルト／ビス
  6
CONTINUOUS
 10
110.115738
 20
-12.755425
 11
110.615738
 21
-13.255425
  0
LINE
  8
ボルト／ビス
  6
CONTINUOUS
 10
114.115738
 20
-12.755425
 11
113.615738
 21
-13.255425
  0
LINE
  8
ボルト／ビス
  6
CONTINUOUS
 10
110.615738
 20
-13.255425
 11
113.615738
 21
-13.255425
  0
LINE
  8
ボルト／ビス
  6
CONTINUOUS
 10
110.115738
 20
-12.755425
 11
114.115738
 21
-12.755425
  0
LINE
  8
ボルト／ビス
  6
CONTINUOUS
 10
110.615738
 20
-7.055425
 11
110.615738
 21
-13.255425
  0
LINE
  8
ボルト／ビス
  6
CONTINUOUS
 10
113.615738
 20
-7.055425
 11
113.615738
 21
-13.255425
  0
LINE
  8
ボルト／ビス
  6
CONTINUOUS
 10
114.115738
 20
-7.055425
 11
114.115738
 21
-12.755425
  0
LINE
  8
ボルト／ビス
  6
CONTINUOUS
 10
110.115738
 20
-7.055425
 11
110.115738
 21
-12.755425
  0
ENDBLK
  0
BLOCK
  2
*GRP_0019
 70
    65
 10
0.0
 20
0.0
  0
LINE
  8
ボルト／ビス
  6
CONTINUOUS
 10
127.565738
 20
-51.2554
 11
127.565738
 21
-55.2554
  0
LINE
  8
ボルト／ビス
  6
CONTINUOUS
 10
129.365738
 20
-50.2554
 11
127.565738
 21
-51.2554
  0
LINE
  8
ボルト／ビス
  6
CONTINUOUS
 10
129.365738
 20
-50.2554
 11
129.365738
 21
-56.2554
  0
LINE
  8
ボルト／ビス
  6
CONTINUOUS
 10
129.365738
 20
-56.2554
 11
127.565738
 21
-55.2554
  0
LINE
  8
ボルト／ビス
  6
CONTINUOUS
 10
130.84927
 20
-53.2554
 11
120.48671
 21
-53.2554
  0
LINE
  8
ボルト／ビス
  6
CONTINUOUS
 10
121.865738
 20
-51.2554
 11
121.365738
 21
-51.7554
  0
LINE
  8
ボルト／ビス
  6
CONTINUOUS
 10
121.865738
 20
-55.2554
 11
121.365738
 21
-54.7554
  0
LINE
  8
ボルト／ビス
  6
CONTINUOUS
 10
121.365738
 20
-51.7554
 11
121.365738
 21
-54.7554
  0
LINE
  8
ボルト／ビス
  6
CONTINUOUS
 10
121.865738
 20
-51.2554
 11
121.865738
 21
-55.2554
  0
LINE
  8
ボルト／ビス
  6
CONTINUOUS
 10
127.565738
 20
-51.7554
 11
121.365738
 21
-51.7554
  0
LINE
  8
ボルト／ビス
  6
CONTINUOUS
 10
127.565738
 20
-54.7554
 11
121.365738
 21
-54.7554
  0
LINE
  8
ボルト／ビス
  6
CONTINUOUS
 10
127.565738
 20
-55.2554
 11
121.865738
 21
-55.2554
  0
LINE
  8
ボルト／ビス
  6
CONTINUOUS
 10
127.565738
 20
-51.2554
 11
121.865738
 21
-51.2554
  0
ENDBLK
  0
BLOCK
  2
*GRP_0020
 70
    65
 10
0.0
 20
0.0
  0
INSERT
  2
M8横横
  8
型材断面
  6
CONTINUOUS
 10
-38.634213
 20
-33.055382
 50
90.0
 42
-1.0
  0
INSERT
  2
M8横
  8
ゴム等
  6
CONTINUOUS
 10
-46.834238
 20
-33.055382
 50
90.0
  0
INSERT
  2
*GRP_0055
  8
ゴム等
  6
CONTINUOUS
 10
0.0
 20
0.0
  0
LINE
  8
ボルト／ビス
  6
CONTINUOUS
 10
-53.134213
 20
-29.055382
 11
-53.634213
 21
-29.555382
  0
LINE
  8
ボルト／ビス
  6
CONTINUOUS
 10
-53.634213
 20
-36.555382
 11
-53.134213
 21
-37.055382
  0
LINE
  8
ボルト／ビス
  6
CONTINUOUS
 10
-53.134213
 20
-37.055382
 11
-53.134213
 21
-29.055382
  0
LINE
  8
ボルト／ビス
  6
CONTINUOUS
 10
-53.634213
 20
-36.555382
 11
-53.634213
 21
-29.555382
  0
LINE
  8
ボルト／ビス
  6
CONTINUOUS
 10
-38.634213
 20
-29.055382
 11
-43.134238
 21
-29.055382
  0
LINE
  8
ボルト／ビス
  6
CONTINUOUS
 10
-38.634213
 20
-29.555382
 11
-43.134238
 21
-29.555382
  0
LINE
  8
ボルト／ビス
  6
CONTINUOUS
 10
-38.634213
 20
-36.555382
 11
-43.134238
 21
-36.555382
  0
LINE
  8
ボルト／ビス
  6
CONTINUOUS
 10
-38.634213
 20
-37.055382
 11
-43.134238
 21
-37.055382
  0
LINE
  8
ボルト／ビス
  6
CONTINUOUS
 10
-53.634213
 20
-29.555382
 11
-52.334238
 21
-29.555382
  0
LINE
  8
ボルト／ビス
  6
CONTINUOUS
 10
-53.134213
 20
-29.055382
 11
-52.334238
 21
-29.055382
  0
LINE
  8
ボルト／ビス
  6
CONTINUOUS
 10
-53.134213
 20
-37.055382
 11
-52.334238
 21
-37.055382
  0
LINE
  8
ボルト／ビス
  6
CONTINUOUS
 10
-53.634213
 20
-36.555382
 11
-52.334238
 21
-36.555382
  0
ENDBLK
  0
BLOCK
  2
*GRP_0021
 70
    65
 10
0.0
 20
0.0
  0
LINE
  8
ボルト／ビス
  6
CONTINUOUS
 10
-65.634242
 20
-1.255422
 11
-65.634242
 21
-5.255425
  0
LINE
  8
ボルト／ビス
  6
CONTINUOUS
 10
-67.434242
 20
-0.255422
 11
-65.634242
 21
-1.255422
  0
LINE
  8
ボルト／ビス
  6
CONTINUOUS
 10
-67.434242
 20
-0.255422
 11
-67.434242
 21
-6.255422
  0
LINE
  8
ボルト／ビス
  6
CONTINUOUS
 10
-67.434242
 20
-6.255422
 11
-65.634242
 21
-5.255425
  0
LINE
  8
ボルト／ビス
  6
CONTINUOUS
 10
-68.91777
 20
-3.255422
 11
-56.315498
 21
-3.255422
  0
LINE
  8
ボルト／ビス
  6
CONTINUOUS
 10
-57.934238
 20
-1.255422
 11
-57.434242
 21
-1.755422
  0
LINE
  8
ボルト／ビス
  6
CONTINUOUS
 10
-57.934238
 20
-5.255425
 11
-57.434242
 21
-4.755422
  0
LINE
  8
ボルト／ビス
  6
CONTINUOUS
 10
-57.434242
 20
-1.755422
 11
-57.434242
 21
-4.755422
  0
LINE
  8
ボルト／ビス
  6
CONTINUOUS
 10
-57.934238
 20
-1.255422
 11
-57.934238
 21
-5.255425
  0
LINE
  8
ボルト／ビス
  6
CONTINUOUS
 10
-65.634242
 20
-4.755422
 11
-57.434242
 21
-4.755422
  0
LINE
  8
ボルト／ビス
  6
CONTINUOUS
 10
-65.634242
 20
-1.755422
 11
-57.434242
 21
-1.755422
  0
LINE
  8
ボルト／ビス
  6
CONTINUOUS
 10
-65.634242
 20
-1.255422
 11
-57.934238
 21
-1.255422
  0
LINE
  8
ボルト／ビス
  6
CONTINUOUS
 10
-65.634242
 20
-5.255425
 11
-57.934238
 21
-5.255425
  0
ENDBLK
  0
BLOCK
  2
*GRP_0022
 70
    65
 10
0.0
 20
0.0
  0
LINE
  8
ボルト／ビス
  6
CONTINUOUS
 10
-55.134238
 20
-7.955422
 11
-51.134235
 21
-7.955422
  0
LINE
  8
ボルト／ビス
  6
CONTINUOUS
 10
-56.134238
 20
-9.755422
 11
-55.134238
 21
-7.955422
  0
LINE
  8
ボルト／ビス
  6
CONTINUOUS
 10
-56.134238
 20
-9.755422
 11
-50.134238
 21
-9.755422
  0
LINE
  8
ボルト／ビス
  6
CONTINUOUS
 10
-50.134238
 20
-9.755422
 11
-51.134235
 21
-7.955422
  0
LINE
  8
ボルト／ビス
  6
CONTINUOUS
 10
-53.134238
 20
-11.23895
 11
-53.134238
 21
1.363325
  0
LINE
  8
ボルト／ビス
  6
CONTINUOUS
 10
-55.134238
 20
-0.255415
 11
-54.634238
 21
0.244578
  0
LINE
  8
ボルト／ビス
  6
CONTINUOUS
 10
-51.134235
 20
-0.255415
 11
-51.634238
 21
0.244578
  0
LINE
  8
ボルト／ビス
  6
CONTINUOUS
 10
-54.634238
 20
0.244578
 11
-51.634238
 21
0.244578
  0
LINE
  8
ボルト／ビス
  6
CONTINUOUS
 10
-55.134238
 20
-0.255415
 11
-51.134235
 21
-0.255415
  0
LINE
  8
ボルト／ビス
  6
CONTINUOUS
 10
-51.634238
 20
-7.955422
 11
-51.634238
 21
0.244578
  0
LINE
  8
ボルト／ビス
  6
CONTINUOUS
 10
-54.634238
 20
-7.955422
 11
-54.634238
 21
0.244578
  0
LINE
  8
ボルト／ビス
  6
CONTINUOUS
 10
-55.134238
 20
-7.955422
 11
-55.134238
 21
-0.255415
  0
LINE
  8
ボルト／ビス
  6
CONTINUOUS
 10
-51.134235
 20
-7.955422
 11
-51.134235
 21
-0.255415
  0
ENDBLK
  0
BLOCK
  2
*GRP_0023
 70
    65
 10
0.0
 20
0.0
  0
INSERT
  2
M8横横
  8
型材断面
  6
CONTINUOUS
 10
-38.634213
 20
-33.055382
 50
90.0
 42
-1.0
  0
INSERT
  2
M8横
  8
ゴム等
  6
CONTINUOUS
 10
-46.834238
 20
-33.055382
 50
90.0
  0
INSERT
  2
*GRP_0056
  8
ゴム等
  6
CONTINUOUS
 10
0.0
 20
0.0
  0
LINE
  8
ボルト／ビス
  6
CONTINUOUS
 10
-53.134213
 20
-29.055382
 11
-53.634213
 21
-29.555382
  0
LINE
  8
ボルト／ビス
  6
CONTINUOUS
 10
-53.634213
 20
-36.555382
 11
-53.134213
 21
-37.055382
  0
LINE
  8
ボルト／ビス
  6
CONTINUOUS
 10
-53.134213
 20
-37.055382
 11
-53.134213
 21
-29.055382
  0
LINE
  8
ボルト／ビス
  6
CONTINUOUS
 10
-53.634213
 20
-36.555382
 11
-53.634213
 21
-29.555382
  0
LINE
  8
ボルト／ビス
  6
CONTINUOUS
 10
-38.634213
 20
-29.055382
 11
-43.134238
 21
-29.055382
  0
LINE
  8
ボルト／ビス
  6
CONTINUOUS
 10
-38.634213
 20
-29.555382
 11
-43.134238
 21
-29.555382
  0
LINE
  8
ボルト／ビス
  6
CONTINUOUS
 10
-38.634213
 20
-36.555382
 11
-43.134238
 21
-36.555382
  0
LINE
  8
ボルト／ビス
  6
CONTINUOUS
 10
-38.634213
 20
-37.055382
 11
-43.134238
 21
-37.055382
  0
LINE
  8
ボルト／ビス
  6
CONTINUOUS
 10
-53.634213
 20
-29.555382
 11
-52.334238
 21
-29.555382
  0
LINE
  8
ボルト／ビス
  6
CONTINUOUS
 10
-53.134213
 20
-29.055382
 11
-52.334238
 21
-29.055382
  0
LINE
  8
ボルト／ビス
  6
CONTINUOUS
 10
-53.134213
 20
-37.055382
 11
-52.334238
 21
-37.055382
  0
LINE
  8
ボルト／ビス
  6
CONTINUOUS
 10
-53.634213
 20
-36.555382
 11
-52.334238
 21
-36.555382
  0
ENDBLK
  0
BLOCK
  2
*GRP_0024
 70
    65
 10
0.0
 20
0.0
  0
LINE
  8
別途部材
  6
CONTINUOUS
 62
    15
 10
-44.132815
 20
-70.2554
 11
-44.132815
 21
-67.02045
  0
ARC
  8
別途部材
  6
CONTINUOUS
 62
    15
 10
-66.123282
 20
-52.832669
 40
5.005952
 50
180.001373
 51
248.200992
  0
LINE
  8
別途部材
  6
CONTINUOUS
 62
    15
 10
-74.132815
 20
-58.255422
 11
-74.132815
 21
-8.255422
  0
LINE
  8
別途部材
  6
CONTINUOUS
 62
    15
 10
-71.12923
 20
-52.832665
 11
-71.12923
 21
-6.492453
  0
LINE
  8
別途部材
  6
CONTINUOUS
 62
    15
 10
-74.132815
 20
-58.255422
 11
-44.132815
 21
-70.2554
  0
LINE
  8
別途部材
  6
CONTINUOUS
 62
    15
 10
-67.982432
 20
-57.48061
 11
-44.132815
 21
-67.02045
  0
ARC
  8
別途部材
  6
CONTINUOUS
 62
    15
 10
22.504931
 20
163.90953
 40
197.43258
 50
193.646823
 51
240.69411
  0
ARC
  8
別途部材
  6
CONTINUOUS
 62
    15
 10
22.504931
 20
163.90953
 40
194.433
 50
193.861529
 51
241.211654
  0
ENDBLK
  0
BLOCK
  2
*DIM_0025
 70
    65
 10
0.0
 20
0.0
  0
LINE
  8
寸法
  6
BYBLOCK
 62
     0
 10
-75.448425
 20
-8.255428
 11
-137.75407
 21
-8.255428
  0
LINE
  8
寸法
  6
BYBLOCK
 62
     0
 10
-137.75407
 20
117.301663
 11
-137.75407
 21
-8.255428
  0
POINT
  8
寸法
 62
     0
 10
-137.75407
 20
117.301663
 50
-90.0
  0
POINT
  8
寸法
 62
     0
 10
-137.75407
 20
-8.255428
 50
-90.0
  0
TEXT
  7
TextStyle03
  8
寸法
  6
CONTINUOUS
 62
     0
 10
-139.3
 20
70.975
  1
　
 40
3.5
 50
90.0
 72
     5
 11
-139.3
 21
74.475
  0
ENDBLK
  0
BLOCK
  2
*DIM_0026
 70
    65
 10
0.0
 20
0.0
  0
LINE
  8
寸法
  6
BYBLOCK
 62
     0
 10
-76.134265
 20
-58.255428
 11
-137.75407
 21
-58.255428
  0
LINE
  8
寸法
  6
BYBLOCK
 62
     0
 10
-137.75407
 20
-8.255428
 11
-137.75407
 21
-58.255428
  0
POINT
  8
寸法
 62
     0
 10
-137.75407
 20
-8.255428
 50
-90.0
  0
POINT
  8
寸法
 62
     0
 10
-137.75407
 20
-58.255428
 50
-90.0
  0
TEXT
  7
TextStyle03
  8
寸法
  6
CONTINUOUS
 62
     0
 10
-138.1
 20
-35.1125
  1
50
 40
3.5
 50
90.0
 72
     5
 11
-138.1
 21
-31.3875
  0
ENDBLK
  0
BLOCK
  2
*DIM_0027
 70
    65
 10
0.0
 20
0.0
  0
LINE
  8
寸法
  6
BYBLOCK
 62
     0
 10
37.630185
 20
-77.2554
 11
-137.75407
 21
-77.2554
  0
LINE
  8
寸法
  6
BYBLOCK
 62
     0
 10
-137.75407
 20
-58.255428
 11
-137.75407
 21
-77.2554
  0
POINT
  8
寸法
 62
     0
 10
-137.75407
 20
-58.255428
 50
-90.0
  0
POINT
  8
寸法
 62
     0
 10
-137.75407
 20
-77.2554
 50
-90.0
  0
TEXT
  7
TextStyle03
  8
寸法
  6
CONTINUOUS
 62
     0
 10
-138.1
 20
-69.6125
  1
19
 40
3.5
 50
90.0
 72
     5
 11
-138.1
 21
-65.8875
  0
ENDBLK
  0
BLOCK
  2
*DIM_0028
 70
    65
 10
0.0
 20
0.0
  0
LINE
  8
寸法
  6
BYBLOCK
 62
     0
 10
-130.136128
 20
-77.2554
 11
-129.012233
 21
-77.2554
  0
LINE
  8
寸法
  6
BYBLOCK
 62
     0
 10
112.365738
 20
49.244572
 11
-129.012233
 21
49.244572
  0
LINE
  8
寸法
  6
BYBLOCK
 62
     0
 10
-129.012233
 20
-77.2554
 11
-129.012233
 21
49.244572
  0
POINT
  8
寸法
 62
     0
 10
-129.012233
 20
-77.2554
 50
-90.0
  0
POINT
  8
寸法
 62
     0
 10
-129.012233
 20
49.244572
 50
-90.0
  0
TEXT
  7
TextStyle03
  8
寸法
  6
CONTINUOUS
 62
     0
 10
-129.375
 20
-18.825
  1
126.5
 40
3.5
 50
90.0
 72
     5
 11
-129.375
 21
-9.175
  0
ENDBLK
  0
BLOCK
  2
*DIM_0029
 70
    65
 10
0.0
 20
0.0
  0
LINE
  8
寸法
  6
BYBLOCK
 62
     0
 10
129.365738
 20
51.244572
 11
129.365738
 21
99.048942
  0
LINE
  8
寸法
  6
BYBLOCK
 62
     0
 10
-67.435688
 20
19.544572
 11
-67.435688
 21
99.048942
  0
LINE
  8
寸法
  6
BYBLOCK
 62
     0
 10
129.365738
 20
99.048942
 11
-67.435688
 21
99.048942
  0
POINT
  8
寸法
 62
     0
 10
129.365738
 20
99.048942
 50
-90.0
  0
POINT
  8
寸法
 62
     0
 10
-67.435688
 20
99.048942
 50
-90.0
  0
TEXT
  7
TextStyle03
  8
寸法
  6
CONTINUOUS
 62
     0
 10
35.825
 20
98.675
  1
196.8
 40
3.5
 50
180.0
 72
     5
 11
26.175
 21
98.675
  0
ENDBLK
  0
BLOCK
  2
*DIM_0030
 70
    65
 10
0.0
 20
0.0
  0
LINE
  8
寸法
  6
BYBLOCK
 62
     0
 10
-74.134265
 20
-110.376058
 11
-74.134265
 21
-110.566323
  0
LINE
  8
寸法
  6
BYBLOCK
 62
     0
 10
-44.134265
 20
-72.255408
 11
-44.134265
 21
-110.566323
  0
LINE
  8
寸法
  6
BYBLOCK
 62
     0
 10
-74.134265
 20
-110.566323
 11
-44.134265
 21
-110.566323
  0
POINT
  8
寸法
 62
     0
 10
-74.134265
 20
-110.566323
 50
-90.0
  0
POINT
  8
寸法
 62
     0
 10
-44.134265
 20
-110.566323
 50
-90.0
  0
TEXT
  7
TextStyle03
  8
寸法
  6
CONTINUOUS
 62
     0
 10
-57.2375
 20
-110.95
  1
30
 40
3.5
 50
180.0
 72
     5
 11
-60.9625
 21
-110.95
  0
ENDBLK
  0
BLOCK
  2
*DIM_0031
 70
    65
 10
0.0
 20
0.0
  0
LINE
  8
寸法
  6
BYBLOCK
 62
     0
 10
37.545068
 20
-55.15543
 11
37.545068
 21
-110.566323
  0
LINE
  8
寸法
  6
BYBLOCK
 62
     0
 10
25.364317
 20
-69.2554
 11
25.364317
 21
-110.566323
  0
LINE
  8
寸法
  6
BYBLOCK
 62
     0
 10
37.545068
 20
-110.566323
 11
25.364317
 21
-110.566323
  0
POINT
  8
寸法
 62
     0
 10
37.545068
 20
-110.566323
 50
-90.0
  0
POINT
  8
寸法
 62
     0
 10
25.364317
 20
-110.566323
 50
-90.0
  0
TEXT
  7
TextStyle03
  8
寸法
  6
CONTINUOUS
 62
     0
 10
35.2875
 20
-110.95
  1
12.2
 40
3.5
 50
180.0
 72
     5
 11
27.6125
 21
-110.95
  0
ENDBLK
  0
BLOCK
  2
*DIM_0032
 70
    65
 10
0.0
 20
0.0
  0
LINE
  8
寸法
  6
BYBLOCK
 62
     0
 10
-29.635688
 20
-69.2554
 11
-29.635688
 21
-110.566323
  0
LINE
  8
寸法
  6
BYBLOCK
 62
     0
 10
25.364317
 20
-110.566323
 11
-29.635688
 21
-110.566323
  0
POINT
  8
寸法
 62
     0
 10
-29.635688
 20
-110.566323
 50
-90.0
  0
TEXT
  7
TextStyle03
  8
寸法
  6
CONTINUOUS
 62
     0
 10
-0.2875
 20
-110.95
  1
55
 40
3.5
 50
180.0
 72
     5
 11
-4.0125
 21
-110.95
  0
ENDBLK
  0
BLOCK
  2
*DIM_0033
 70
    65
 10
0.0
 20
0.0
  0
LINE
  8
寸法
  6
BYBLOCK
 62
     0
 10
-44.134265
 20
-72.255405
 11
-44.134265
 21
-110.566323
  0
LINE
  8
寸法
  6
BYBLOCK
 62
     0
 10
-29.635688
 20
-110.566323
 11
-44.134265
 21
-110.566323
  0
POINT
  8
寸法
 62
     0
 10
-44.134265
 20
-110.566323
 50
-90.0
  0
TEXT
  7
TextStyle03
  8
寸法
  6
CONTINUOUS
 62
     0
 10
-33.0625
 20
-110.95
  1
14.5
 40
3.5
 50
180.0
 72
     5
 11
-40.7375
 21
-110.95
  0
ENDBLK
  0
BLOCK
  2
*DIM_0034
 70
    65
 10
0.0
 20
0.0
  0
LINE
  8
寸法
  6
BYBLOCK
 62
     0
 10
40.546505
 20
-78.655425
 11
40.546505
 21
-110.566323
  0
LINE
  8
寸法
  6
BYBLOCK
 62
     0
 10
37.545068
 20
-110.566323
 11
40.546505
 21
-110.566323
  0
POINT
  8
寸法
 62
     0
 10
37.545068
 20
-110.566323
 50
-90.0
  0
POINT
  8
寸法
 62
     0
 10
40.546505
 20
-110.566323
 50
-90.0
  0
TEXT
  7
TextStyle03
  8
寸法
  6
CONTINUOUS
 62
     0
 10
39.925
 20
-110.95
  1
3
 40
3.5
 50
180.0
 72
     5
 11
38.175
 21
-110.95
  0
ENDBLK
  0
BLOCK
  2
*DIM_0035
 70
    65
 10
0.0
 20
0.0
  0
LINE
  8
寸法
  6
BYBLOCK
 62
     0
 10
50.546508
 20
-78.655425
 11
50.546508
 21
-110.566323
  0
LINE
  8
寸法
  6
BYBLOCK
 62
     0
 10
40.546505
 20
-110.566323
 11
50.546508
 21
-110.566323
  0
POINT
  8
寸法
 62
     0
 10
50.546508
 20
-110.566323
 50
-90.0
  0
TEXT
  7
TextStyle03
  8
寸法
  6
CONTINUOUS
 62
     0
 10
47.4125
 20
-110.95
  1
10
 40
3.5
 50
180.0
 72
     5
 11
43.6875
 21
-110.95
  0
ENDBLK
  0
BLOCK
  2
*DIM_0036
 70
    65
 10
0.0
 20
0.0
  0
LINE
  8
寸法
  6
BYBLOCK
 62
     0
 10
-74.132815
 20
-60.255422
 11
-74.132815
 21
-120.466497
  0
LINE
  8
寸法
  6
BYBLOCK
 62
     0
 10
129.365738
 20
-69.2554
 11
129.365738
 21
-120.466497
  0
LINE
  8
寸法
  6
BYBLOCK
 62
     0
 10
-74.132815
 20
-120.466497
 11
129.365738
 21
-120.466497
  0
POINT
  8
寸法
 62
     0
 10
-74.132815
 20
-120.466497
 50
-90.0
  0
POINT
  8
寸法
 62
     0
 10
129.365738
 20
-120.466497
 50
-90.0
  0
TEXT
  7
TextStyle03
  8
寸法
  6
CONTINUOUS
 62
     0
 10
32.45
 20
-120.85
  1
203.5
 40
3.5
 50
180.0
 72
     5
 11
22.8
 21
-120.85
  0
ENDBLK
  0
BLOCK
  2
*DIM_0037
 70
    65
 10
0.0
 20
0.0
  0
LINE
  8
寸法
  6
BYBLOCK
 62
     0
 10
129.365738
 20
-71.2554
 11
129.365738
 21
-110.566323
  0
LINE
  8
寸法
  6
BYBLOCK
 62
     0
 10
50.546508
 20
-110.566323
 11
129.365738
 21
-110.566323
  0
POINT
  8
寸法
 62
     0
 10
50.546508
 20
-110.566323
 50
-90.0
  0
POINT
  8
寸法
 62
     0
 10
129.365738
 20
-110.566323
 50
-90.0
  0
TEXT
  7
TextStyle03
  8
寸法
  6
CONTINUOUS
 62
     0
 10
93.7875
 20
-110.95
  1
78.8
 40
3.5
 50
180.0
 72
     5
 11
86.1125
 21
-110.95
  0
ENDBLK
  0
BLOCK
  2
*DIM_0038
 70
    65
 10
0.0
 20
0.0
  0
LINE
  8
寸法
  6
BYBLOCK
 62
     0
 10
80.867212
 20
24.04016
 11
80.867212
 21
76.28412
  0
LINE
  8
寸法
  6
BYBLOCK
 62
     0
 10
1.865762
 20
24.04016
 11
1.865762
 21
76.28412
  0
LINE
  8
寸法
  6
BYBLOCK
 62
     0
 10
80.867212
 20
76.28412
 11
1.865762
 21
76.28412
  0
POINT
  8
寸法
 62
     0
 10
80.867212
 20
76.28412
 50
-90.0
  0
POINT
  8
寸法
 62
     0
 10
1.865762
 20
76.28412
 50
-90.0
  0
TEXT
  7
TextStyle03
  8
寸法
  6
CONTINUOUS
 62
     0
 10
43.2375
 20
75.9
  1
79
 40
3.5
 50
180.0
 72
     5
 11
39.5125
 21
75.9
  0
ENDBLK
  0
BLOCK
  2
*DIM_0039
 70
    65
 10
0.0
 20
0.0
  0
LINE
  8
寸法
  6
BYBLOCK
 62
     0
 10
-41.634253
 20
19.544575
 11
-41.634253
 21
76.28412
  0
LINE
  8
寸法
  6
BYBLOCK
 62
     0
 10
1.865762
 20
76.28412
 11
-41.634253
 21
76.28412
  0
POINT
  8
寸法
 62
     0
 10
-41.634253
 20
76.28412
 50
-90.0
  0
TEXT
  7
TextStyle03
  8
寸法
  6
CONTINUOUS
 62
     0
 10
-16.0375
 20
75.9
  1
43.5
 40
3.5
 50
180.0
 72
     5
 11
-23.7125
 21
75.9
  0
ENDBLK
  0
BLOCK
  2
*DIM_0040
 70
    65
 10
0.0
 20
0.0
  0
LINE
  8
寸法
  6
BYBLOCK
 62
     0
 10
-67.435688
 20
21.544572
 11
-67.435688
 21
88.106465
  0
LINE
  8
寸法
  6
BYBLOCK
 62
     0
 10
-41.634253
 20
88.106465
 11
-67.435688
 21
88.106465
  0
POINT
  8
寸法
 62
     0
 10
-67.435688
 20
88.106465
 50
-90.0
  0
TEXT
  7
TextStyle03
  8
寸法
  6
CONTINUOUS
 62
     0
 10
-50.6875
 20
87.725
  1
25.8
 40
3.5
 50
180.0
 72
     5
 11
-58.3625
 21
87.725
  0
ENDBLK
  0
BLOCK
  2
*GRP_0041
 70
    65
 10
0.0
 20
0.0
  0
POLYLINE
  8
寸法
  6
BYBLOCK
 62
     0
 66
     1
  0
VERTEX
  8
寸法
 10
-148.205145
 20
59.58843
  0
VERTEX
  8
寸法
 10
-146.705145
 20
62.186505
  0
VERTEX
  8
寸法
 10
-149.30322
 20
60.686505
  0
SEQEND
  0
POLYLINE
  8
寸法
  6
BYBLOCK
 62
     0
 66
     1
  0
VERTEX
  8
寸法
 10
-146.705145
 20
62.186505
  0
VERTEX
  8
寸法
 10
-154.22138
 20
54.67027
  0
VERTEX
  8
寸法
 10
-154.22138
 20
47.083592
  0
SEQEND
  0
ENDBLK
  0
BLOCK
  2
*GRP_0042
 70
    65
 10
0.0
 20
0.0
  0
POLYLINE
  8
寸法
  6
BYBLOCK
 62
     0
 66
     1
  0
VERTEX
  8
寸法
 10
-72.675
 20
-38.723075
  0
VERTEX
  8
寸法
 10
-71.175
 20
-36.125
  0
VERTEX
  8
寸法
 10
-73.773075
 20
-37.625
  0
SEQEND
  0
POLYLINE
  8
寸法
  6
BYBLOCK
 62
     0
 66
     1
  0
VERTEX
  8
寸法
 10
-71.175
 20
-36.125
  0
VERTEX
  8
寸法
 10
-86.928315
 20
-51.878315
  0
VERTEX
  8
寸法
 10
-86.928315
 20
-60.994812
  0
SEQEND
  0
ENDBLK
  0
BLOCK
  2
*GRP_0043
 70
    65
 10
0.0
 20
0.0
  0
POLYLINE
  8
寸法
  6
BYBLOCK
 62
     0
 66
     1
  0
VERTEX
  8
寸法
 10
-8.159605
 20
-67.227553
  0
VERTEX
  8
寸法
 10
-6.659605
 20
-64.629478
  0
VERTEX
  8
寸法
 10
-9.25768
 20
-66.129478
  0
SEQEND
  0
POLYLINE
  8
寸法
  6
BYBLOCK
 62
     0
 66
     1
  0
VERTEX
  8
寸法
 10
-6.659605
 20
-64.629478
  0
VERTEX
  8
寸法
 10
-14.436325
 20
-72.406197
  0
VERTEX
  8
寸法
 10
-14.436325
 20
-84.30857
  0
SEQEND
  0
ENDBLK
  0
BLOCK
  2
*DIM_0044
 70
    65
 10
0.0
 20
0.0
  0
LINE
  8
寸法
  6
BYBLOCK
 62
     0
 10
-41.634253
 20
20.544575
 11
-41.634253
 21
88.106465
  0
LINE
  8
寸法
  6
BYBLOCK
 62
     0
 10
25.365753
 20
-5.755425
 11
25.365753
 21
88.106465
  0
LINE
  8
寸法
  6
BYBLOCK
 62
     0
 10
-41.634253
 20
88.106465
 11
25.365753
 21
88.106465
  0
POINT
  8
寸法
 62
     0
 10
-41.634253
 20
88.106465
 50
-90.0
  0
POINT
  8
寸法
 62
     0
 10
25.365753
 20
88.106465
 50
-90.0
  0
TEXT
  7
TextStyle03
  8
寸法
  6
CONTINUOUS
 62
     0
 10
-6.2625
 20
87.725
  1
67
 40
3.5
 50
180.0
 72
     5
 11
-9.9875
 21
87.725
  0
ENDBLK
  0
BLOCK
  2
*DIM_0045
 70
    65
 10
0.0
 20
0.0
  0
LINE
  8
寸法
  6
BYBLOCK
 62
     0
 10
29.864313
 20
-24.255445
 11
29.864313
 21
88.106465
  0
LINE
  8
寸法
  6
BYBLOCK
 62
     0
 10
25.365753
 20
88.106465
 11
29.864313
 21
88.106465
  0
POINT
  8
寸法
 62
     0
 10
29.864313
 20
88.106465
 50
-90.0
  0
TEXT
  7
TextStyle03
  8
寸法
  6
CONTINUOUS
 62
     0
 10
30.475
 20
91.675
  1
4.5
 40
3.5
 50
180.0
 72
     5
 11
24.775
 21
91.675
  0
ENDBLK
  0
BLOCK
  2
*DIM_0046
 70
    65
 10
0.0
 20
0.0
  0
LINE
  8
寸法
  6
BYBLOCK
 62
     0
 10
55.865757
 20
-4.255425
 11
55.865757
 21
88.106465
  0
LINE
  8
寸法
  6
BYBLOCK
 62
     0
 10
29.864313
 20
88.106465
 11
55.865757
 21
88.106465
  0
POINT
  8
寸法
 62
     0
 10
55.865757
 20
88.106465
 50
-90.0
  0
TEXT
  7
TextStyle03
  8
寸法
  6
CONTINUOUS
 62
     0
 10
44.7375
 20
87.725
  1
26
 40
3.5
 50
180.0
 72
     5
 11
41.0125
 21
87.725
  0
ENDBLK
  0
BLOCK
  2
*DIM_0047
 70
    65
 10
0.0
 20
0.0
  0
LINE
  8
寸法
  6
BYBLOCK
 62
     0
 10
109.365738
 20
50.24457
 11
109.365738
 21
88.106465
  0
LINE
  8
寸法
  6
BYBLOCK
 62
     0
 10
55.865757
 20
88.106465
 11
109.365738
 21
88.106465
  0
POINT
  8
寸法
 62
     0
 10
109.365738
 20
88.106465
 50
-90.0
  0
TEXT
  7
TextStyle03
  8
寸法
  6
CONTINUOUS
 62
     0
 10
86.4625
 20
87.725
  1
53.5
 40
3.5
 50
180.0
 72
     5
 11
78.7875
 21
87.725
  0
ENDBLK
  0
BLOCK
  2
*DIM_0048
 70
    65
 10
0.0
 20
0.0
  0
LINE
  8
寸法
  6
BYBLOCK
 62
     0
 10
129.365738
 20
52.244572
 11
129.365738
 21
88.106465
  0
LINE
  8
寸法
  6
BYBLOCK
 62
     0
 10
109.365738
 20
88.106465
 11
129.365738
 21
88.106465
  0
POINT
  8
寸法
 62
     0
 10
129.365738
 20
88.106465
 50
-90.0
  0
TEXT
  7
TextStyle03
  8
寸法
  6
CONTINUOUS
 62
     0
 10
121.2375
 20
87.725
  1
20
 40
3.5
 50
180.0
 72
     5
 11
117.5125
 21
87.725
  0
ENDBLK
  0
BLOCK
  2
*DIM_0049
 70
    65
 10
0.0
 20
0.0
  0
LINE
  8
寸法
  6
BYBLOCK
 62
     0
 10
80.867212
 20
76.28412
 11
109.365738
 21
76.28412
  0
POINT
  8
寸法
 62
     0
 10
80.867212
 20
76.28412
 50
-90.0
  0
POINT
  8
寸法
 62
     0
 10
109.365738
 20
76.28412
 50
-90.0
  0
TEXT
  7
TextStyle03
  8
寸法
  6
CONTINUOUS
 62
     0
 10
98.9625
 20
75.9
  1
28.5
 40
3.5
 50
180.0
 72
     5
 11
91.2875
 21
75.9
  0
ENDBLK
  0
BLOCK
  2
*GRP_0050
 70
    65
 10
0.0
 20
0.0
  0
POLYLINE
  8
寸法
  6
BYBLOCK
 62
     0
 66
     1
  0
VERTEX
  8
寸法
 10
40.194415
 20
-51.930265
  0
VERTEX
  8
寸法
 10
32.392182
 20
-54.787255
  0
VERTEX
  8
寸法
 10
32.392182
 20
-58.871187
  0
SEQEND
  0
ENDBLK
  0
BLOCK
  2
*GRP_0051
 70
    65
 10
0.0
 20
0.0
  0
POLYLINE
  8
寸法
  6
BYBLOCK
 62
     0
 66
     1
  0
VERTEX
  8
寸法
 10
106.874243
 20
-66.392483
  0
VERTEX
  8
寸法
 10
108.374243
 20
-63.794405
  0
VERTEX
  8
寸法
 10
105.776165
 20
-65.294405
  0
SEQEND
  0
POLYLINE
  8
寸法
  6
BYBLOCK
 62
     0
 66
     1
  0
VERTEX
  8
寸法
 10
108.374243
 20
-63.794405
  0
VERTEX
  8
寸法
 10
97.926488
 20
-74.24216
  0
VERTEX
  8
寸法
 10
97.926488
 20
-81.848125
  0
SEQEND
  0
ENDBLK
  0
BLOCK
  2
*GRP_0052
 70
    65
 10
0.0
 20
0.0
  0
LINE
  8
ボルト／ビス
  6
CONTINUOUS
 10
58.865757
 20
-25.255425
 11
58.865757
 21
-15.255425
  0
LINE
  8
ボルト／ビス
  6
CONTINUOUS
 10
58.865757
 20
-25.255425
 11
62.165757
 21
-22.755425
  0
LINE
  8
ボルト／ビス
  6
CONTINUOUS
 10
62.165757
 20
-17.755425
 11
58.865757
 21
-15.255425
  0
LINE
  8
ボルト／ビス
  6
CONTINUOUS
 10
62.165757
 20
-22.755425
 11
62.165757
 21
-17.755425
  0
LINE
  8
ボルト／ビス
  6
CONTINUOUS
 10
57.361283
 20
-20.255425
 11
112.115003
 21
-20.255425
  0
LINE
  8
ボルト／ビス
  6
CONTINUOUS
 10
103.365757
 20
-22.755425
 11
103.865757
 21
-22.255425
  0
LINE
  8
ボルト／ビス
  6
CONTINUOUS
 10
103.365757
 20
-17.755425
 11
103.865757
 21
-18.255425
  0
LINE
  8
ボルト／ビス
  6
CONTINUOUS
 10
103.865757
 20
-18.255425
 11
103.865757
 21
-22.255425
  0
LINE
  8
ボルト／ビス
  6
CONTINUOUS
 10
103.365757
 20
-22.755425
 11
103.365757
 21
-17.755425
  0
LINE
  8
ボルト／ビス
  6
CONTINUOUS
 10
62.165757
 20
-18.255425
 11
103.865757
 21
-18.255425
  0
LINE
  8
ボルト／ビス
  6
CONTINUOUS
 10
62.165757
 20
-22.255425
 11
103.865757
 21
-22.255425
  0
LINE
  8
ボルト／ビス
  6
CONTINUOUS
 10
62.165757
 20
-22.755425
 11
103.365757
 21
-22.755425
  0
LINE
  8
ボルト／ビス
  6
CONTINUOUS
 10
62.165757
 20
-17.755425
 11
103.365757
 21
-17.755425
  0
ENDBLK
  0
BLOCK
  2
*GRP_0053
 70
    65
 10
0.0
 20
0.0
  0
LINE
  8
ボルト／ビス
  6
CONTINUOUS
 10
23.865753
 20
-25.255425
 11
23.865753
 21
-15.255425
  0
LINE
  8
ボルト／ビス
  6
CONTINUOUS
 10
23.865753
 20
-25.255425
 11
20.565753
 21
-22.755425
  0
LINE
  8
ボルト／ビス
  6
CONTINUOUS
 10
20.565753
 20
-17.755425
 11
23.865753
 21
-15.255425
  0
LINE
  8
ボルト／ビス
  6
CONTINUOUS
 10
20.565753
 20
-22.755425
 11
20.565753
 21
-17.755425
  0
LINE
  8
ボルト／ビス
  6
CONTINUOUS
 10
25.370227
 20
-20.255425
 11
-29.383493
 21
-20.255425
  0
LINE
  8
ボルト／ビス
  6
CONTINUOUS
 10
-20.634248
 20
-22.755425
 11
-21.134248
 21
-22.255425
  0
LINE
  8
ボルト／ビス
  6
CONTINUOUS
 10
-20.634248
 20
-17.755425
 11
-21.134248
 21
-18.255425
  0
LINE
  8
ボルト／ビス
  6
CONTINUOUS
 10
-21.134248
 20
-18.255425
 11
-21.134248
 21
-22.255425
  0
LINE
  8
ボルト／ビス
  6
CONTINUOUS
 10
-20.634248
 20
-22.755425
 11
-20.634248
 21
-17.755425
  0
LINE
  8
ボルト／ビス
  6
CONTINUOUS
 10
20.565753
 20
-18.255425
 11
-21.134248
 21
-18.255425
  0
LINE
  8
ボルト／ビス
  6
CONTINUOUS
 10
20.565753
 20
-22.255425
 11
-21.134248
 21
-22.255425
  0
LINE
  8
ボルト／ビス
  6
CONTINUOUS
 10
20.565753
 20
-22.755425
 11
-20.634248
 21
-22.755425
  0
LINE
  8
ボルト／ビス
  6
CONTINUOUS
 10
20.565753
 20
-17.755425
 11
-20.634248
 21
-17.755425
  0
ENDBLK
  0
BLOCK
  2
*GRP_0054
 70
    65
 10
0.0
 20
0.0
  0
ARC
  8
ゴム等
  6
CONTINUOUS
 62
   127
 10
-69.629233
 20
-14.755421
 40
1.5
 50
90.0
 51
180.0
  0
LINE
  8
ゴム等
  6
CONTINUOUS
 62
   127
 10
-69.62923
 20
-13.255418
 11
-69.62923
 21
-13.255418
  0
ARC
  8
ゴム等
  6
CONTINUOUS
 62
   127
 10
-69.629233
 20
-14.755421
 40
1.5
 50
0.0
 51
90.0
  0
LINE
  8
ゴム等
  6
CONTINUOUS
 62
   127
 10
-71.12923
 20
-41.755418
 11
-71.12923
 21
-14.755418
  0
ARC
  8
ゴム等
  6
CONTINUOUS
 62
   127
 10
-69.629233
 20
-41.755421
 40
1.5
 50
180.0
 51
270.0
  0
LINE
  8
ゴム等
  6
CONTINUOUS
 62
   127
 10
-69.62923
 20
-43.255418
 11
-69.62923
 21
-43.255418
  0
LINE
  8
ゴム等
  6
CONTINUOUS
 62
   127
 10
-68.12923
 20
-41.755418
 11
-68.12923
 21
-14.755418
  0
ARC
  8
ゴム等
  6
CONTINUOUS
 62
   127
 10
-69.629233
 20
-41.755421
 40
1.5
 50
270.0
 51
360.0
  0
ENDBLK
  0
BLOCK
  2
*GRP_0055
 70
    65
 10
0.0
 20
0.0
  0
LINE
  8
ボルト／ビス
  6
CONTINUOUS
 10
-46.834238
 20
-44.055382
 11
-46.834238
 21
-22.055382
  0
LINE
  8
ボルト／ビス
  6
CONTINUOUS
 10
-45.634238
 20
-20.555382
 11
-43.134238
 21
-20.555382
  0
LINE
  8
ボルト／ビス
  6
CONTINUOUS
 10
-43.134238
 20
-20.555382
 11
-43.134238
 21
-45.555382
  0
LINE
  8
ボルト／ビス
  6
CONTINUOUS
 10
-43.134238
 20
-45.555382
 11
-45.634238
 21
-45.555382
  0
LINE
  8
ボルト／ビス
  6
CONTINUOUS
 10
-45.634238
 20
-20.555382
 11
-45.634238
 21
-45.555382
  0
LINE
  8
ボルト／ビス
  6
CONTINUOUS
 10
-46.834238
 20
-44.055382
 11
-45.634238
 21
-44.055382
  0
LINE
  8
ボルト／ビス
  6
CONTINUOUS
 10
-46.834238
 20
-22.055382
 11
-45.634238
 21
-22.055382
  0
LINE
  8
ボルト／ビス
  6
CONTINUOUS
 10
-45.334238
 20
-33.055382
 11
-46.834238
 21
-33.055382
  0
ENDBLK
  0
BLOCK
  2
*GRP_0056
 70
    65
 10
0.0
 20
0.0
  0
LINE
  8
ボルト／ビス
  6
CONTINUOUS
 10
-46.834238
 20
-44.055382
 11
-46.834238
 21
-22.055382
  0
LINE
  8
ボルト／ビス
  6
CONTINUOUS
 10
-45.634238
 20
-20.555382
 11
-43.134238
 21
-20.555382
  0
LINE
  8
ボルト／ビス
  6
CONTINUOUS
 10
-43.134238
 20
-20.555382
 11
-43.134238
 21
-45.555382
  0
LINE
  8
ボルト／ビス
  6
CONTINUOUS
 10
-43.134238
 20
-45.555382
 11
-45.634238
 21
-45.555382
  0
LINE
  8
ボルト／ビス
  6
CONTINUOUS
 10
-45.634238
 20
-20.555382
 11
-45.634238
 21
-45.555382
  0
LINE
  8
ボルト／ビス
  6
CONTINUOUS
 10
-46.834238
 20
-44.055382
 11
-45.634238
 21
-44.055382
  0
LINE
  8
ボルト／ビス
  6
CONTINUOUS
 10
-46.834238
 20
-22.055382
 11
-45.634238
 21
-22.055382
  0
LINE
  8
ボルト／ビス
  6
CONTINUOUS
 10
-45.334238
 20
-33.055382
 11
-46.834238
 21
-33.055382
  0
ENDBLK
  0
BLOCK
  2
*GRP_0057
 70
    65
 10
0.0
 20
0.0
  0
LINE
  8
型材断面
  6
CONTINUOUS
 10
195.0
 20
133.5
 11
195.0
 21
-133.5
  0
LINE
  8
型材断面
  6
CONTINUOUS
 10
195.0
 20
-133.5
 11
-185.0
 21
-133.5
  0
LINE
  8
型材断面
  6
CONTINUOUS
 10
-185.0
 20
-133.5
 11
-185.0
 21
133.5
  0
LINE
  8
型材断面
  6
CONTINUOUS
 10
195.0
 20
133.5
 11
-185.0
 21
133.5
  0
LINE
  8
型材断面
  6
CONTINUOUS
 10
145.0
 20
-133.5
 11
145.0
 21
-118.5
  0
LINE
  8
型材断面
  6
CONTINUOUS
 10
195.0
 20
-118.5
 11
145.0
 21
-118.5
  0
ENDBLK
  0
BLOCK
  2
*DIM_0058
 70
    65
 10
0.0
 20
0.0
  0
LINE
  8
寸法
  6
BYBLOCK
 62
     0
 10
144.365738
 20
-51.2554
 11
144.365738
 21
-120.466497
  0
LINE
  8
寸法
  6
BYBLOCK
 62
     0
 10
129.365738
 20
-120.466497
 11
144.365738
 21
-120.466497
  0
POINT
  8
寸法
 62
     0
 10
129.365738
 20
-120.466497
  0
POINT
  8
寸法
 62
     0
 10
144.365738
 20
-120.466497
  0
TEXT
  7
TextStyle03
  8
寸法
  6
CONTINUOUS
 62
     0
 10
135.25625
 20
-120.1
  1
15
 40
3.0
 72
     5
 11
138.44375
 21
-120.1
  0
ENDBLK
  0
BLOCK
  2
*DIM_0059
 70
    65
 10
0.0
 20
0.0
  0
LINE
  8
寸法
  6
BYBLOCK
 62
     0
 10
130.365738
 20
-67.2554
 11
168.70329
 21
-67.2554
  0
LINE
  8
寸法
  6
BYBLOCK
 62
     0
 10
145.365738
 20
-50.2554
 11
168.70329
 21
-50.2554
  0
LINE
  8
寸法
  6
BYBLOCK
 62
     0
 10
168.70329
 20
-67.2554
 11
168.70329
 21
-50.2554
  0
POINT
  8
寸法
 62
     0
 10
168.70329
 20
-67.2554
  0
POINT
  8
寸法
 62
     0
 10
168.70329
 20
-50.2554
  0
TEXT
  7
TextStyle03
  8
寸法
  6
CONTINUOUS
 62
     0
 10
168.325
 20
-60.36875
  1
17
 40
3.0
 50
90.0
 72
     5
 11
168.325
 21
-57.18125
  0
ENDBLK
  0
BLOCK
  2
*DIM_0060
 70
    65
 10
0.0
 20
0.0
  0
LINE
  8
寸法
  6
BYBLOCK
 62
     0
 10
130.365738
 20
49.24457
 11
168.70329
 21
49.24457
  0
LINE
  8
寸法
  6
BYBLOCK
 62
     0
 10
168.70329
 20
-50.2554
 11
168.70329
 21
49.24457
  0
POINT
  8
寸法
 62
     0
 10
168.70329
 20
49.24457
  0
TEXT
  7
TextStyle03
  8
寸法
  6
CONTINUOUS
 62
     0
 10
168.325
 20
-3.80625
  1
99.5
 40
3.0
 50
90.0
 72
     5
 11
168.325
 21
2.75625
  0
ENDBLK
  0
BLOCK
  2
*GRP_0061
 70
    65
 10
0.0
 20
0.0
  0
ARC
  8
ボルト／ビス
  6
CONTINUOUS
 10
-59.129226
 20
-31.755426
 40
1.0
 50
270.0
 51
360.0
  0
LINE
  8
ボルト／ビス
  6
CONTINUOUS
 10
-58.12923
 20
-24.755425
 11
-58.12923
 21
-31.755425
  0
ARC
  8
ボルト／ビス
  6
CONTINUOUS
 10
-59.129226
 20
-24.755426
 40
1.0
 50
0.0
 51
90.0
  0
LINE
  8
ボルト／ビス
  6
CONTINUOUS
 10
-68.62923
 20
-23.255425
 11
-68.12923
 21
-23.255425
  0
LINE
  8
ボルト／ビス
  6
CONTINUOUS
 10
-68.62923
 20
-33.255425
 11
-68.12923
 21
-33.255425
  0
LINE
  8
ボルト／ビス
  6
CONTINUOUS
 10
-68.62923
 20
-23.255425
 11
-68.62923
 21
-33.255425
  0
LINE
  8
ボルト／ビス
  6
CONTINUOUS
 10
-68.12923
 20
-23.255425
 11
-68.12923
 21
-33.255425
  0
LINE
  8
ボルト／ビス
  6
CONTINUOUS
 10
-59.12923
 20
-23.755425
 11
-65.12923
 21
-23.755425
  0
LINE
  8
ボルト／ビス
  6
CONTINUOUS
 10
-66.62923
 20
-23.755425
 11
-68.12923
 21
-23.755425
  0
LINE
  8
ボルト／ビス
  6
CONTINUOUS
 10
-68.12923
 20
-32.755425
 11
-66.62923
 21
-32.755425
  0
LINE
  8
ボルト／ビス
  6
CONTINUOUS
 10
-65.12923
 20
-32.755425
 11
-59.12923
 21
-32.755425
  0
LINE
  8
ボルト／ビス
  6
CONTINUOUS
 10
-66.62923
 20
-22.505425
 11
-66.62923
 21
-28.255425
  0
ARC
  8
ボルト／ビス
  6
CONTINUOUS
 10
-65.879226
 20
-22.505426
 40
0.75
 50
90.0
 51
180.0
  0
LINE
  8
ボルト／ビス
  6
CONTINUOUS
 10
-65.87923
 20
-21.755425
 11
-65.87923
 21
-21.755425
  0
LINE
  8
ボルト／ビス
  6
CONTINUOUS
 10
-65.12923
 20
-22.505425
 11
-65.12923
 21
-28.255425
  0
ARC
  8
ボルト／ビス
  6
CONTINUOUS
 10
-65.879226
 20
-22.505426
 40
0.75
 50
0.0
 51
90.0
  0
LINE
  8
ボルト／ビス
  6
CONTINUOUS
 10
-66.62923
 20
-34.005425
 11
-66.62923
 21
-28.255425
  0
ARC
  8
ボルト／ビス
  6
CONTINUOUS
 10
-65.879226
 20
-34.005426
 40
0.75
 50
180.0
 51
270.0
  0
LINE
  8
ボルト／ビス
  6
CONTINUOUS
 10
-65.87923
 20
-34.755425
 11
-65.87923
 21
-34.755425
  0
LINE
  8
ボルト／ビス
  6
CONTINUOUS
 10
-65.12923
 20
-34.005425
 11
-65.12923
 21
-28.255425
  0
ARC
  8
ボルト／ビス
  6
CONTINUOUS
 10
-65.879226
 20
-34.005426
 40
0.75
 50
270.0
 51
360.0
  0
ENDBLK
  0
BLOCK
  2
*DIM_0062
 70
    65
 10
0.0
 20
0.0
  0
LINE
  8
寸法
  6
BYBLOCK
 62
     0
 10
-119.642105
 20
-8.255428
 11
-120.425
 21
-8.255428
  0
LINE
  8
寸法
  6
BYBLOCK
 62
     0
 10
-87.832815
 20
-28.255425
 11
-120.425
 21
-28.255425
  0
LINE
  8
寸法
  6
BYBLOCK
 62
     0
 10
-120.425
 20
-8.255428
 11
-120.425
 21
-28.255425
  0
POINT
  8
寸法
 62
     0
 10
-120.425
 20
-8.255428
  0
POINT
  8
寸法
 62
     0
 10
-120.425
 20
-28.255425
  0
TEXT
  7
TextStyle03
  8
寸法
  6
CONTINUOUS
 62
     0
 10
-120.8
 20
-19.86875
  1
20
 40
3.0
 50
90.0
 72
     5
 11
-120.8
 21
-16.68125
  0
ENDBLK
  0
BLOCK
  2
*DIM_0063
 70
    65
 10
0.0
 20
0.0
  0
LINE
  8
寸法
  6
BYBLOCK
 62
     0
 10
-77.134265
 20
-58.255428
 11
-120.425
 21
-58.255428
  0
LINE
  8
寸法
  6
BYBLOCK
 62
     0
 10
-120.425
 20
-28.255425
 11
-120.425
 21
-58.255428
  0
POINT
  8
寸法
 62
     0
 10
-120.425
 20
-58.255428
  0
TEXT
  7
TextStyle03
  8
寸法
  6
CONTINUOUS
 62
     0
 10
-120.8
 20
-44.86875
  1
30
 40
3.0
 50
90.0
 72
     5
 11
-120.8
 21
-41.68125
  0
ENDBLK
  0
BLOCK
  2
*GRP_0064
 70
    65
 10
0.0
 20
0.0
  0
LINE
  8
ボルト／ビス
  6
CONTINUOUS
 10
-74.132852
 20
-39.255428
 11
-76.132855
 21
-39.255428
  0
LINE
  8
ボルト／ビス
  6
CONTINUOUS
 10
-76.132855
 20
-39.255428
 11
-76.132855
 21
-17.255422
  0
LINE
  8
ボルト／ビス
  6
CONTINUOUS
 10
-76.132855
 20
-17.255422
 11
-74.132852
 21
-17.255422
  0
LINE
  8
ボルト／ビス
  6
CONTINUOUS
 10
-74.132852
 20
-39.255428
 11
-74.132852
 21
-17.255422
  0
LINE
  8
ボルト／ビス
  6
CONTINUOUS
 10
-77.132852
 20
-37.255425
 11
-76.132855
 21
-37.255425
  0
LINE
  8
ボルト／ビス
  6
CONTINUOUS
 10
-77.132852
 20
-37.255425
 11
-77.132852
 21
-19.255425
  0
LINE
  8
ボルト／ビス
  6
CONTINUOUS
 10
-77.132852
 20
-19.255425
 11
-76.132855
 21
-19.255425
  0
LINE
  8
ボルト／ビス
  6
CONTINUOUS
 62
    64
 10
-83.132852
 20
-33.066675
 11
-82.782625
 21
-34.028925
  0
ARC
  8
ボルト／ビス
  6
CONTINUOUS
 62
    64
 10
-79.983502
 20
-32.58555
 40
3.149352
 50
152.721967
 51
180.0
  0
ARC
  8
ボルト／ビス
  6
CONTINUOUS
 62
    64
 10
-71.060787
 20
-28.255423
 40
12.072067
 50
166.165002
 51
193.834985
  0
LINE
  8
ボルト／ビス
  6
CONTINUOUS
 62
    64
 10
-83.132852
 20
-23.444175
 11
-82.782625
 21
-22.481925
  0
ARC
  8
ボルト／ビス
  6
CONTINUOUS
 62
    64
 10
-79.983502
 20
-23.925295
 40
3.149352
 50
180.0
 51
207.278033
  0
LINE
  8
ボルト／ビス
  6
CONTINUOUS
 62
    64
 10
-83.132852
 20
-33.066675
 11
-83.132852
 21
-23.444175
  0
LINE
  8
ボルト／ビス
  6
CONTINUOUS
 62
    64
 10
-82.782625
 20
-22.481925
 11
-79.132855
 21
-22.481925
  0
LINE
  8
ボルト／ビス
  6
CONTINUOUS
 62
    64
 10
-82.782625
 20
-25.368675
 11
-79.132855
 21
-25.368675
  0
LINE
  8
ボルト／ビス
  6
CONTINUOUS
 62
    64
 10
-82.782625
 20
-34.028925
 11
-79.132855
 21
-34.028925
  0
LINE
  8
ボルト／ビス
  6
CONTINUOUS
 62
    64
 10
-82.782625
 20
-31.142175
 11
-79.132855
 21
-31.142175
  0
LINE
  8
ボルト／ビス
  6
CONTINUOUS
 10
-79.132855
 20
-34.028925
 11
-79.132855
 21
-22.481925
  0
LINE
  8
ボルト／ビス
  6
CONTINUOUS
 10
-79.132855
 20
-34.255425
 11
-77.132852
 21
-34.255425
  0
LINE
  8
ボルト／ビス
  6
CONTINUOUS
 10
-79.132855
 20
-34.255425
 11
-79.132855
 21
-22.255425
  0
LINE
  8
ボルト／ビス
  6
CONTINUOUS
 10
-79.132855
 20
-22.255425
 11
-77.132852
 21
-22.255425
  0
LINE
  8
ボルト／ビス
  6
CONTINUOUS
 62
    64
 10
-74.132852
 20
-25.955422
 11
-54.132857
 21
-25.955422
  0
LINE
  8
ボルト／ビス
  6
CONTINUOUS
 62
    64
 10
-74.132852
 20
-30.555428
 11
-54.132857
 21
-30.555428
  0
LINE
  8
ボルト／ビス
  6
CONTINUOUS
 62
    64
 10
-54.132857
 20
-30.555428
 11
-54.132857
 21
-25.955422
  0
LINE
  8
ボルト／ビス
  6
CONTINUOUS
 62
    64
 10
-55.132855
 20
-25.255425
 11
-54.132857
 21
-25.955422
  0
LINE
  8
ボルト／ビス
  6
CONTINUOUS
 62
    64
 10
-55.132855
 20
-31.255425
 11
-54.132857
 21
-30.555428
  0
LINE
  8
ボルト／ビス
  6
CONTINUOUS
 62
    64
 10
-55.132855
 20
-31.255425
 11
-55.132855
 21
-25.255425
  0
LINE
  8
ボルト／ビス
  6
CONTINUOUS
 62
    64
 10
-54.132857
 20
-30.555428
 11
-54.132857
 21
-25.955422
  0
LINE
  8
ボルト／ビス
  6
CONTINUOUS
 62
    64
 10
-74.132852
 20
-31.255425
 11
-55.132855
 21
-31.255425
  0
LINE
  8
ボルト／ビス
  6
CONTINUOUS
 62
    64
 10
-74.132852
 20
-25.255425
 11
-55.132855
 21
-25.255425
  0
ENDBLK
  0
BLOCK
  2
*GRP_0065
 70
    65
 10
0.0
 20
0.0
  0
POLYLINE
  8
寸法
  6
BYBLOCK
 62
     0
 66
     1
  0
VERTEX
  8
寸法
 10
-44.8625
 20
15.373075
  0
VERTEX
  8
寸法
 10
-46.3625
 20
12.775
  0
VERTEX
  8
寸法
 10
-43.764425
 20
14.275
  0
SEQEND
  0
POLYLINE
  8
寸法
  6
BYBLOCK
 62
     0
 66
     1
  0
VERTEX
  8
寸法
 10
-46.3625
 20
12.775
  0
VERTEX
  8
寸法
 10
-34.721955
 20
24.415545
  0
VERTEX
  8
寸法
 10
-34.721955
 20
26.254682
  0
SEQEND
  0
ENDBLK
  0
BLOCK
  2
*GRP_0066
 70
    65
 10
0.0
 20
0.0
  0
LINE
  8
ゴム等
  6
CONTINUOUS
 10
-49.634253
 20
17.54457
 11
-49.634253
 21
16.044583
  0
LINE
  8
ゴム等
  6
CONTINUOUS
 10
-44.134257
 20
16.044575
 11
-49.634253
 21
16.044583
  0
LINE
  8
ゴム等
  6
CONTINUOUS
 10
-43.134255
 20
7.544575
 11
-43.13426
 21
15.044572
  0
LINE
  8
ゴム等
  6
CONTINUOUS
 10
-44.134257
 20
16.044575
 11
-43.13426
 21
15.044572
  0
LINE
  8
ゴム等
  6
CONTINUOUS
 10
-49.634253
 20
17.54457
 11
-51.134255
 21
17.54458
  0
LINE
  8
ゴム等
  6
CONTINUOUS
 10
-51.134255
 20
17.54458
 11
-51.134255
 21
7.544578
  0
LINE
  8
ゴム等
  6
CONTINUOUS
 10
-43.134255
 20
7.544575
 11
-51.134255
 21
7.544578
  0
LINE
  8
ゴム等
  6
CONTINUOUS
 10
-51.134255
 20
16.564328
 11
-50.154007
 21
17.544578
  0
LINE
  8
ゴム等
  6
CONTINUOUS
 10
-51.134253
 20
15.15012
 11
-49.63425
 21
16.650115
  0
LINE
  8
ゴム等
  6
CONTINUOUS
 10
-51.134253
 20
13.7359
 11
-48.825575
 21
16.04458
  0
LINE
  8
ゴム等
  6
CONTINUOUS
 10
-51.13425
 20
12.321693
 11
-47.411365
 21
16.044583
  0
LINE
  8
ゴム等
  6
CONTINUOUS
 10
-51.134257
 20
10.907488
 11
-45.997155
 21
16.044578
  0
LINE
  8
ゴム等
  6
CONTINUOUS
 10
-51.134255
 20
9.493262
 11
-44.582935
 21
16.044578
  0
LINE
  8
ゴム等
  6
CONTINUOUS
 10
-51.134253
 20
8.079055
 11
-43.65149
 21
15.561813
  0
LINE
  8
ゴム等
  6
CONTINUOUS
 10
-50.25452
 20
7.544575
 11
-43.134263
 21
14.664835
  0
LINE
  8
ゴム等
  6
CONTINUOUS
 10
-48.840302
 20
7.544575
 11
-43.134263
 21
13.250618
  0
LINE
  8
ゴム等
  6
CONTINUOUS
 10
-47.42609
 20
7.54457
 11
-43.134257
 21
11.836403
  0
LINE
  8
ゴム等
  6
CONTINUOUS
 10
-46.011865
 20
7.544575
 11
-43.13425
 21
10.422187
  0
LINE
  8
ゴム等
  6
CONTINUOUS
 10
-44.597663
 20
7.544572
 11
-43.134248
 21
9.00798
  0
ENDBLK
  0
BLOCK
  2
*GRP_0067
 70
    65
 10
0.0
 20
0.0
  0
LINE
  8
ゴム等
  6
CONTINUOUS
 10
-65.934238
 20
2.544578
 11
-57.934238
 21
2.544578
  0
LINE
  8
ゴム等
  6
CONTINUOUS
 10
-65.934238
 20
2.544578
 11
-65.934238
 21
17.544578
  0
LINE
  8
ゴム等
  6
CONTINUOUS
 10
-65.934238
 20
17.544578
 11
-57.934238
 21
17.544578
  0
LINE
  8
ゴム等
  6
CONTINUOUS
 10
-57.934238
 20
2.544578
 11
-57.934238
 21
17.544578
  0
LINE
  8
ゴム等
  6
CONTINUOUS
 10
-59.539805
 20
17.544578
 11
-57.934238
 21
15.93901
  0
LINE
  8
ゴム等
  6
CONTINUOUS
 10
-60.95402
 20
17.544578
 11
-57.934238
 21
14.524795
  0
LINE
  8
ゴム等
  6
CONTINUOUS
 10
-62.36823
 20
17.544578
 11
-57.934238
 21
13.110585
  0
LINE
  8
ゴム等
  6
CONTINUOUS
 10
-63.782445
 20
17.544578
 11
-57.934238
 21
11.69637
  0
LINE
  8
ゴム等
  6
CONTINUOUS
 10
-65.19666
 20
17.544578
 11
-57.934238
 21
10.282155
  0
LINE
  8
ゴム等
  6
CONTINUOUS
 10
-65.934238
 20
16.86794
 11
-57.934238
 21
8.86794
  0
LINE
  8
ゴム等
  6
CONTINUOUS
 10
-65.934238
 20
15.45373
 11
-57.934238
 21
7.45373
  0
LINE
  8
ゴム等
  6
CONTINUOUS
 10
-65.934238
 20
14.039515
 11
-57.934238
 21
6.039515
  0
LINE
  8
ゴム等
  6
CONTINUOUS
 10
-65.934238
 20
12.6253
 11
-57.934238
 21
4.6253
  0
LINE
  8
ゴム等
  6
CONTINUOUS
 10
-65.934238
 20
11.21109
 11
-57.934238
 21
3.21109
  0
LINE
  8
ゴム等
  6
CONTINUOUS
 10
-65.934238
 20
8.38266
 11
-60.096155
 21
2.544578
  0
LINE
  8
ゴム等
  6
CONTINUOUS
 10
-65.934238
 20
6.968445
 11
-61.51037
 21
2.544578
  0
LINE
  8
ゴム等
  6
CONTINUOUS
 10
-65.934238
 20
9.796875
 11
-58.68194
 21
2.544578
  0
LINE
  8
ゴム等
  6
CONTINUOUS
 10
-65.934238
 20
5.554235
 11
-62.92458
 21
2.544578
  0
LINE
  8
ゴム等
  6
CONTINUOUS
 10
-65.934238
 20
4.14002
 11
-64.338795
 21
2.544578
  0
ENDBLK
  0
BLOCK
  2
*GRP_0068
 70
    65
 10
0.0
 20
0.0
  0
POLYLINE
  8
寸法
  6
BYBLOCK
 62
     0
 66
     1
  0
VERTEX
  8
寸法
 10
-64.531948
 20
14.05144
  0
VERTEX
  8
寸法
 10
-76.61238
 20
19.389075
  0
VERTEX
  8
寸法
 10
-76.61238
 20
26.183193
  0
SEQEND
  0
ENDBLK
  0
BLOCK
  2
*GRP_0069
 70
    65
 10
0.0
 20
0.0
  0
SPLINE
  5
1400000
100
AcDbEntity
  8
ガラス
100
AcDbSpline
  6
CONTINUOUS
 70
     0
 71
     3
 74
     3
 44
0.0
 11
129.955803
 21
-71.89842
 11
128.38704
 21
-70.9754
 11
127.788103
 21
-69.405735
  0
SPLINE
  5
1400001
100
AcDbEntity
  8
ガラス
100
AcDbSpline
  6
CONTINUOUS
 70
     0
 71
     3
 74
     3
 44
0.0
 11
127.788103
 21
-69.405735
 11
129.034017
 21
-69.838148
 11
130.15568
 21
-69.998635
  0
ARC
  8
ガラス
  6
CONTINUOUS
 10
130.055741
 20
-70.948529
 40
0.955135
 50
263.993979
 51
443.993979
  0
ENDBLK
  0
BLOCK
  2
*GRP_0070
 70
    65
 10
0.0
 20
0.0
  0
SPLINE
  5
1400002
100
AcDbEntity
  8
ガラス
100
AcDbSpline
  6
CONTINUOUS
 70
     0
 71
     3
 74
     3
 44
0.0
 11
141.37868
 21
-74.79593
 11
139.809917
 21
-73.87291
 11
139.21098
 21
-72.303245
  0
SPLINE
  5
1400003
100
AcDbEntity
  8
ガラス
100
AcDbSpline
  6
CONTINUOUS
 70
     0
 71
     3
 74
     3
 44
0.0
 11
139.21098
 21
-72.303245
 11
140.456895
 21
-72.735657
 11
141.578557
 21
-72.896145
  0
ARC
  8
ガラス
  6
CONTINUOUS
 10
141.478618
 20
-73.846039
 40
0.955135
 50
263.993979
 51
443.993979
  0
ENDBLK
  0
BLOCK
  2
*GRP_0071
 70
    65
 10
0.0
 20
0.0
  0
SPLINE
  5
1400004
100
AcDbEntity
  8
ガラス
100
AcDbSpline
  6
CONTINUOUS
 70
     0
 71
     3
 74
     3
 44
0.0
 11
125.693802
 21
-61.87169
 11
125.680103
 21
-60.051583
 11
126.719333
 21
-58.731517
  0
SPLINE
  5
1400005
100
AcDbEntity
  8
ガラス
100
AcDbSpline
  6
CONTINUOUS
 70
     0
 71
     3
 74
     3
 44
0.0
 11
126.719333
 21
-58.731517
 11
126.988187
 21
-60.022642
 11
127.42655
 21
-61.067497
  0
ARC
  8
ガラス
  6
CONTINUOUS
 10
126.560176
 20
-61.469595
 40
0.955135
 50
204.896752
 51
384.896752
  0
ENDBLK
  0
BLOCK
  2
*GRP_0072
 70
    65
 10
0.0
 20
0.0
  0
SPLINE
  5
1400006
100
AcDbEntity
  8
ガラス
100
AcDbSpline
  6
CONTINUOUS
 70
     0
 71
     3
 74
     3
 44
0.0
 11
125.693802
 21
-40.976182
 11
125.680103
 21
-39.156075
 11
126.719333
 21
-37.83601
  0
SPLINE
  5
1400007
100
AcDbEntity
  8
ガラス
100
AcDbSpline
  6
CONTINUOUS
 70
     0
 71
     3
 74
     3
 44
0.0
 11
126.719333
 21
-37.83601
 11
126.988187
 21
-39.127135
 11
127.42655
 21
-40.17199
  0
ARC
  8
ガラス
  6
CONTINUOUS
 10
126.560176
 20
-40.574087
 40
0.955135
 50
204.896752
 51
384.896752
  0
ENDBLK
  0
BLOCK
  2
*GRP_0073
 70
    65
 10
0.0
 20
0.0
  0
SPLINE
  5
1400008
100
AcDbEntity
  8
ガラス
100
AcDbSpline
  6
CONTINUOUS
 70
     0
 71
     3
 74
     3
 44
0.0
 11
125.693802
 21
-20.916495
 11
125.680103
 21
-19.096388
 11
126.719333
 21
-17.776322
  0
SPLINE
  5
1400009
100
AcDbEntity
  8
ガラス
100
AcDbSpline
  6
CONTINUOUS
 70
     0
 71
     3
 74
     3
 44
0.0
 11
126.719333
 21
-17.776322
 11
126.988187
 21
-19.067447
 11
127.42655
 21
-20.112302
  0
ARC
  8
ガラス
  6
CONTINUOUS
 10
126.560176
 20
-20.514399
 40
0.955135
 50
204.896752
 51
384.896752
  0
ENDBLK
  0
BLOCK
  2
*GRP_0074
 70
    65
 10
0.0
 20
0.0
  0
SPLINE
  5
1400010
100
AcDbEntity
  8
ガラス
100
AcDbSpline
  6
CONTINUOUS
 70
     0
 71
     3
 74
     3
 44
0.0
 11
125.693802
 21
1.48349
 11
125.680103
 21
3.303598
 11
126.719333
 21
4.623662
  0
SPLINE
  5
1400011
100
AcDbEntity
  8
ガラス
100
AcDbSpline
  6
CONTINUOUS
 70
     0
 71
     3
 74
     3
 44
0.0
 11
126.719333
 21
4.623662
 11
126.988187
 21
3.332538
 11
127.42655
 21
2.287682
  0
ARC
  8
ガラス
  6
CONTINUOUS
 10
126.560176
 20
1.885586
 40
0.955135
 50
204.896752
 51
384.896752
  0
ENDBLK
  0
BLOCK
  2
*GRP_0075
 70
    65
 10
0.0
 20
0.0
  0
SPLINE
  5
1400012
100
AcDbEntity
  8
ガラス
100
AcDbSpline
  6
CONTINUOUS
 70
     0
 71
     3
 74
     3
 44
0.0
 11
125.693802
 21
20.205865
 11
125.680103
 21
22.025972
 11
126.719333
 21
23.346038
  0
SPLINE
  5
1400013
100
AcDbEntity
  8
ガラス
100
AcDbSpline
  6
CONTINUOUS
 70
     0
 71
     3
 74
     3
 44
0.0
 11
126.719333
 21
23.346038
 11
126.988187
 21
22.054912
 11
127.42655
 21
21.010058
  0
ARC
  8
ガラス
  6
CONTINUOUS
 10
126.560176
 20
20.607961
 40
0.955135
 50
204.896752
 51
384.896752
  0
ENDBLK
  0
BLOCK
  2
*GRP_0076
 70
    65
 10
0.0
 20
0.0
  0
INSERT
  2
*GRP_0077
  8
補助線
  6
DOT
 10
0.0
 20
0.0
  0
INSERT
  2
*GRP_0078
  8
補助線
  6
DOT
 10
0.0
 20
0.0
  0
LINE
  8
St
  6
CONTINUOUS
 62
   127
 10
-7.384227
 20
-2.255433
 11
11.11576
 21
-2.255433
  0
LINE
  8
St
  6
CONTINUOUS
 62
   127
 10
-10.634248
 20
-20.255447
 11
-10.634248
 21
-26.055437
  0
LINE
  8
St
  6
CONTINUOUS
 62
   127
 10
-10.634248
 20
-26.055437
 11
14.365757
 21
-26.055437
  0
LINE
  8
St
  6
CONTINUOUS
 62
   127
 10
14.365757
 20
-20.255447
 11
14.365757
 21
-26.055437
  0
LINE
  8
St
  6
CONTINUOUS
 62
   127
 10
-10.634248
 20
-20.255447
 11
14.365757
 21
-20.255447
  0
LINE
  8
St
  6
CONTINUOUS
 62
   127
 10
9.639183
 20
-10.75774
 11
-5.907815
 21
-10.75774
  0
LINE
  8
St
  6
CONTINUOUS
 62
   127
 10
9.639183
 20
-9.75769
 11
-5.907815
 21
-9.75769
  0
LINE
  8
St
  6
CONTINUOUS
 62
   127
 10
-5.907815
 20
-9.75769
 11
-5.907815
 21
-10.75774
  0
LINE
  8
St
  6
CONTINUOUS
 62
   127
 10
9.639183
 20
-9.75769
 11
9.639183
 21
-10.75774
  0
LINE
  8
St
  6
CONTINUOUS
 62
   127
 10
-2.94551
 20
-5.7577
 11
-3.9077
 21
-6.107928
  0
LINE
  8
St
  6
CONTINUOUS
 62
   127
 10
6.677035
 20
-5.7577
 11
7.639225
 21
-6.107928
  0
LINE
  8
St
  6
CONTINUOUS
 62
   127
 10
-2.94551
 20
-5.7577
 11
6.677035
 21
-5.7577
  0
LINE
  8
St
  6
CONTINUOUS
 62
   127
 10
7.639225
 20
-6.107928
 11
7.639225
 21
-9.75769
  0
LINE
  8
St
  6
CONTINUOUS
 62
   127
 10
4.752498
 20
-6.107928
 11
4.752498
 21
-9.75769
  0
LINE
  8
St
  6
CONTINUOUS
 62
   127
 10
-3.9077
 20
-6.107928
 11
-3.9077
 21
-9.75769
  0
LINE
  8
St
  6
CONTINUOUS
 62
   127
 10
-1.020972
 20
-6.107928
 11
-1.020972
 21
-9.75769
  0
LINE
  8
St
  6
CONTINUOUS
 62
   127
 10
7.639225
 20
-9.75769
 11
-3.9077
 21
-9.75769
  0
LINE
  8
St
  6
CONTINUOUS
 62
   127
 10
1.865762
 20
-19.757695
 11
6.615715
 21
-19.757695
  0
LINE
  8
St
  6
CONTINUOUS
 62
   127
 10
6.615715
 20
-19.757695
 11
6.11584
 21
-20.257645
  0
LINE
  8
St
  6
CONTINUOUS
 62
   127
 10
1.865762
 20
-20.257645
 11
6.11584
 21
-20.257645
  0
LINE
  8
St
  6
CONTINUOUS
 62
   127
 10
6.615715
 20
-19.257745
 11
6.615715
 21
-19.757695
  0
LINE
  8
St
  6
CONTINUOUS
 62
   127
 10
19.365647
 20
-13.308198
 11
1.865762
 21
-13.308198
  0
LINE
  8
St
  6
CONTINUOUS
 62
   127
 10
19.365647
 20
-18.207212
 11
1.865762
 21
-18.207212
  0
LINE
  8
St
  6
CONTINUOUS
 62
   127
 10
1.865762
 20
-11.757715
 11
6.615715
 21
-11.757715
  0
LINE
  8
St
  6
CONTINUOUS
 62
   127
 10
6.615715
 20
-11.757715
 11
6.11584
 21
-11.25769
  0
LINE
  8
St
  6
CONTINUOUS
 62
   127
 10
1.865762
 20
-11.25769
 11
6.11584
 21
-11.25769
  0
LINE
  8
St
  6
CONTINUOUS
 62
   127
 10
6.615715
 20
-12.257672
 11
6.615715
 21
-11.757715
  0
LINE
  8
St
  6
CONTINUOUS
 62
   127
 10
19.365647
 20
-18.207212
 11
19.365647
 21
-18.75772
  0
LINE
  8
St
  6
CONTINUOUS
 62
   127
 10
18.865772
 20
-19.257745
 11
1.865762
 21
-19.257745
  0
LINE
  8
St
  6
CONTINUOUS
 62
   127
 10
19.365647
 20
-13.308198
 11
19.365647
 21
-12.757697
  0
LINE
  8
St
  6
CONTINUOUS
 62
   127
 10
18.865772
 20
-12.257672
 11
1.865762
 21
-12.257672
  0
LINE
  8
St
  6
CONTINUOUS
 62
   127
 10
1.865762
 20
-19.757695
 11
-2.88419
 21
-19.757695
  0
LINE
  8
St
  6
CONTINUOUS
 62
   127
 10
-2.88419
 20
-19.757695
 11
-2.384315
 21
-20.257645
  0
LINE
  8
St
  6
CONTINUOUS
 62
   127
 10
1.865762
 20
-20.257645
 11
-2.384315
 21
-20.257645
  0
LINE
  8
St
  6
CONTINUOUS
 62
   127
 10
-2.88419
 20
-19.257745
 11
-2.88419
 21
-19.757695
  0
LINE
  8
St
  6
CONTINUOUS
 62
   127
 10
-15.634273
 20
-13.308198
 11
1.865762
 21
-13.308198
  0
LINE
  8
St
  6
CONTINUOUS
 62
   127
 10
-15.634273
 20
-18.207212
 11
1.865762
 21
-18.207212
  0
LINE
  8
St
  6
CONTINUOUS
 62
   127
 10
1.865762
 20
-11.757715
 11
-2.88419
 21
-11.757715
  0
LINE
  8
St
  6
CONTINUOUS
 62
   127
 10
-2.88419
 20
-11.757715
 11
-2.384315
 21
-11.25769
  0
LINE
  8
St
  6
CONTINUOUS
 62
   127
 10
1.865762
 20
-11.25769
 11
-2.384315
 21
-11.25769
  0
LINE
  8
St
  6
CONTINUOUS
 62
   127
 10
-2.88419
 20
-12.257672
 11
-2.88419
 21
-11.757715
  0
LINE
  8
St
  6
CONTINUOUS
 62
   127
 10
-15.634273
 20
-18.207212
 11
-15.634273
 21
-18.75772
  0
LINE
  8
St
  6
CONTINUOUS
 62
   127
 10
-15.13424
 20
-19.257745
 11
1.865762
 21
-19.257745
  0
LINE
  8
St
  6
CONTINUOUS
 62
   127
 10
-15.634273
 20
-13.308198
 11
-15.634273
 21
-12.757697
  0
LINE
  8
St
  6
CONTINUOUS
 62
   127
 10
-15.13424
 20
-12.257672
 11
1.865762
 21
-12.257672
  0
LINE
  8
St
  6
CONTINUOUS
 62
   127
 10
-7.384227
 20
-2.255433
 11
-7.384227
 21
-12.257672
  0
LINE
  8
St
  6
CONTINUOUS
 62
   127
 10
-7.384227
 20
-19.257745
 11
-7.384227
 21
-20.255447
  0
LINE
  8
St
  6
CONTINUOUS
 62
   127
 10
11.11576
 20
-2.255433
 11
11.11576
 21
-12.257672
  0
LINE
  8
St
  6
CONTINUOUS
 62
   127
 10
11.11576
 20
-19.257745
 11
11.11576
 21
-20.255447
  0
LINE
  8
St
  6
CONTINUOUS
 62
   127
 10
-4.884223
 20
-31.490155
 11
-4.884223
 21
-30.898398
  0
LINE
  8
St
  6
CONTINUOUS
 62
   127
 10
8.61577
 20
-31.490155
 11
8.61577
 21
-30.898398
  0
LINE
  8
St
  6
CONTINUOUS
 62
   127
 10
71.616872
 20
-2.255433
 11
90.11686
 21
-2.255433
  0
LINE
  8
St
  6
CONTINUOUS
 62
   127
 10
75.866845
 20
36.149067
 11
75.866845
 21
25.749072
  0
LINE
  8
St
  6
CONTINUOUS
 62
   127
 10
76.616837
 20
36.89906
 11
76.616837
 21
25.749072
  0
LINE
  8
St
  6
CONTINUOUS
 62
   127
 10
84.866852
 20
37.149095
 11
76.86685
 21
37.149095
  0
LINE
  8
St
  6
CONTINUOUS
 62
   127
 10
85.866857
 20
36.149067
 11
75.866845
 21
36.149067
  0
LINE
  8
St
  6
CONTINUOUS
 62
   127
 10
85.116865
 20
36.89906
 11
85.116865
 21
25.749072
  0
LINE
  8
St
  6
CONTINUOUS
 62
   127
 10
85.866857
 20
36.149067
 11
85.866857
 21
25.749072
  0
LINE
  8
St
  6
CONTINUOUS
 62
   127
 10
85.866857
 20
36.149067
 11
84.866852
 21
37.149095
  0
LINE
  8
St
  6
CONTINUOUS
 62
   127
 10
75.866845
 20
36.149067
 11
76.86685
 21
37.149095
  0
LINE
  8
St
  6
CONTINUOUS
 62
   127
 10
68.366845
 20
-20.255447
 11
68.366845
 21
-26.055437
  0
LINE
  8
St
  6
CONTINUOUS
 62
   127
 10
68.366845
 20
-26.055437
 11
93.366857
 21
-26.055437
  0
LINE
  8
St
  6
CONTINUOUS
 62
   127
 10
93.366857
 20
-20.255447
 11
93.366857
 21
-26.055437
  0
LINE
  8
St
  6
CONTINUOUS
 62
   127
 10
68.366845
 20
-20.255447
 11
93.366857
 21
-20.255447
  0
LINE
  8
St
  6
CONTINUOUS
 62
   127
 10
88.640282
 20
-10.75774
 11
73.093292
 21
-10.75774
  0
LINE
  8
St
  6
CONTINUOUS
 62
   127
 10
88.640282
 20
-9.75769
 11
73.093292
 21
-9.75769
  0
LINE
  8
St
  6
CONTINUOUS
 62
   127
 10
73.093292
 20
-9.75769
 11
73.093292
 21
-10.75774
  0
LINE
  8
St
  6
CONTINUOUS
 62
   127
 10
88.640282
 20
-9.75769
 11
88.640282
 21
-10.75774
  0
LINE
  8
St
  6
CONTINUOUS
 62
   127
 10
76.055597
 20
-5.7577
 11
75.0934
 21
-6.107928
  0
LINE
  8
St
  6
CONTINUOUS
 62
   127
 10
85.678135
 20
-5.7577
 11
86.640332
 21
-6.107928
  0
LINE
  8
St
  6
CONTINUOUS
 62
   127
 10
76.055597
 20
-5.7577
 11
85.678135
 21
-5.7577
  0
LINE
  8
St
  6
CONTINUOUS
 62
   127
 10
86.640332
 20
-6.107928
 11
86.640332
 21
-9.75769
  0
LINE
  8
St
  6
CONTINUOUS
 62
   127
 10
83.753598
 20
-6.107928
 11
83.753598
 21
-9.75769
  0
LINE
  8
St
  6
CONTINUOUS
 62
   127
 10
75.0934
 20
-6.107928
 11
75.0934
 21
-9.75769
  0
LINE
  8
St
  6
CONTINUOUS
 62
   127
 10
77.980135
 20
-6.107928
 11
77.980135
 21
-9.75769
  0
LINE
  8
St
  6
CONTINUOUS
 62
   127
 10
86.640332
 20
-9.75769
 11
75.0934
 21
-9.75769
  0
LINE
  8
St
  6
CONTINUOUS
 62
   127
 10
80.866863
 20
-19.757695
 11
85.616822
 21
-19.757695
  0
LINE
  8
St
  6
CONTINUOUS
 62
   127
 10
85.616822
 20
-19.757695
 11
85.11694
 21
-20.257645
  0
LINE
  8
St
  6
CONTINUOUS
 62
   127
 10
80.866863
 20
-20.257645
 11
85.11694
 21
-20.257645
  0
LINE
  8
St
  6
CONTINUOUS
 62
   127
 10
85.616822
 20
-19.257745
 11
85.616822
 21
-19.757695
  0
LINE
  8
St
  6
CONTINUOUS
 62
   127
 10
98.366748
 20
-13.308198
 11
80.866863
 21
-13.308198
  0
LINE
  8
St
  6
CONTINUOUS
 62
   127
 10
98.366748
 20
-18.207212
 11
80.866863
 21
-18.207212
  0
LINE
  8
St
  6
CONTINUOUS
 62
   127
 10
80.866863
 20
-11.757715
 11
85.616822
 21
-11.757715
  0
LINE
  8
St
  6
CONTINUOUS
 62
   127
 10
85.616822
 20
-11.757715
 11
85.11694
 21
-11.25769
  0
LINE
  8
St
  6
CONTINUOUS
 62
   127
 10
80.866863
 20
-11.25769
 11
85.11694
 21
-11.25769
  0
LINE
  8
St
  6
CONTINUOUS
 62
   127
 10
85.616822
 20
-12.257672
 11
85.616822
 21
-11.757715
  0
LINE
  8
St
  6
CONTINUOUS
 62
   127
 10
98.366748
 20
-18.207212
 11
98.366748
 21
-18.75772
  0
LINE
  8
St
  6
CONTINUOUS
 62
   127
 10
97.866872
 20
-19.257745
 11
80.866863
 21
-19.257745
  0
LINE
  8
St
  6
CONTINUOUS
 62
   127
 10
98.366748
 20
-13.308198
 11
98.366748
 21
-12.757697
  0
LINE
  8
St
  6
CONTINUOUS
 62
   127
 10
97.866872
 20
-12.257672
 11
80.866863
 21
-12.257672
  0
LINE
  8
St
  6
CONTINUOUS
 62
   127
 10
80.866863
 20
-19.757695
 11
76.11691
 21
-19.757695
  0
LINE
  8
St
  6
CONTINUOUS
 62
   127
 10
76.11691
 20
-19.757695
 11
76.616792
 21
-20.257645
  0
LINE
  8
St
  6
CONTINUOUS
 62
   127
 10
80.866863
 20
-20.257645
 11
76.616792
 21
-20.257645
  0
LINE
  8
St
  6
CONTINUOUS
 62
   127
 10
76.11691
 20
-19.257745
 11
76.11691
 21
-19.757695
  0
LINE
  8
St
  6
CONTINUOUS
 62
   127
 10
63.366835
 20
-13.308198
 11
80.866863
 21
-13.308198
  0
LINE
  8
St
  6
CONTINUOUS
 62
   127
 10
63.366835
 20
-18.207212
 11
80.866863
 21
-18.207212
  0
LINE
  8
St
  6
CONTINUOUS
 62
   127
 10
80.866863
 20
-11.757715
 11
76.11691
 21
-11.757715
  0
LINE
  8
St
  6
CONTINUOUS
 62
   127
 10
76.11691
 20
-11.757715
 11
76.616792
 21
-11.25769
  0
LINE
  8
St
  6
CONTINUOUS
 62
   127
 10
80.866863
 20
-11.25769
 11
76.616792
 21
-11.25769
  0
LINE
  8
St
  6
CONTINUOUS
 62
   127
 10
76.11691
 20
-12.257672
 11
76.11691
 21
-11.757715
  0
LINE
  8
St
  6
CONTINUOUS
 62
   127
 10
63.366835
 20
-18.207212
 11
63.366835
 21
-18.75772
  0
LINE
  8
St
  6
CONTINUOUS
 62
   127
 10
63.86686
 20
-19.257745
 11
80.866863
 21
-19.257745
  0
LINE
  8
St
  6
CONTINUOUS
 62
   127
 10
63.366835
 20
-13.308198
 11
63.366835
 21
-12.757697
  0
LINE
  8
St
  6
CONTINUOUS
 62
   127
 10
63.86686
 20
-12.257672
 11
80.866863
 21
-12.257672
  0
LINE
  8
St
  6
CONTINUOUS
 62
   127
 10
71.616872
 20
-2.255433
 11
71.616872
 21
-12.257672
  0
LINE
  8
St
  6
CONTINUOUS
 62
   127
 10
71.616872
 20
-19.257745
 11
71.616872
 21
-20.255447
  0
LINE
  8
St
  6
CONTINUOUS
 62
   127
 10
90.11686
 20
-2.255433
 11
90.11686
 21
-12.257672
  0
LINE
  8
St
  6
CONTINUOUS
 62
   127
 10
90.11686
 20
-19.257745
 11
90.11686
 21
-20.255447
  0
LINE
  8
St
  6
CONTINUOUS
 62
   127
 10
74.116878
 20
-31.490155
 11
74.116878
 21
-30.898398
  0
LINE
  8
St
  6
CONTINUOUS
 62
   127
 10
87.616878
 20
-31.490155
 11
87.616878
 21
-30.898398
  0
LINE
  8
St
  6
CONTINUOUS
 62
   127
 10
-4.784232
 20
-31.435645
 11
-4.784232
 21
-26.055437
  0
LINE
  8
St
  6
CONTINUOUS
 62
   127
 10
8.515757
 20
-31.435645
 11
8.515757
 21
-26.055437
  0
LINE
  8
St
  6
CONTINUOUS
 62
   127
 10
74.216868
 20
-31.435645
 11
74.216868
 21
-26.055437
  0
LINE
  8
St
  6
CONTINUOUS
 62
   127
 10
87.516857
 20
-31.435645
 11
87.516857
 21
-26.055437
  0
LINE
  8
St
  6
CONTINUOUS
 62
   127
 10
21.865975
 20
3.244557
 11
21.865975
 21
0.744575
  0
LINE
  8
St
  6
CONTINUOUS
 62
   127
 10
-18.134008
 20
0.744575
 11
21.865975
 21
0.744575
  0
LINE
  8
St
  6
CONTINUOUS
 62
   127
 10
-18.134008
 20
3.244557
 11
-18.134008
 21
0.744575
  0
LINE
  8
St
  6
CONTINUOUS
 62
   127
 10
11.865992
 20
3.244557
 11
11.865992
 21
23.24459
  0
LINE
  8
St
  6
DOT
 62
   127
 10
8.865985
 20
3.244557
 11
8.865985
 21
23.24459
  0
LINE
  8
St
  6
CONTINUOUS
 62
   127
 10
-8.134025
 20
3.244557
 11
-8.134025
 21
23.24459
  0
LINE
  8
St
  6
DOT
 62
   127
 10
-5.13404
 20
3.244557
 11
-5.13404
 21
23.24459
  0
LINE
  8
St
  6
CONTINUOUS
 62
   127
 10
14.365975
 20
1.744715
 11
19.36597
 21
1.744715
  0
LINE
  8
St
  6
CONTINUOUS
 62
   127
 10
18.658863
 20
1.744715
 11
18.658863
 21
10.24472
  0
LINE
  8
St
  6
CONTINUOUS
 62
   127
 10
15.07312
 20
1.744715
 11
15.07312
 21
10.24472
  0
LINE
  8
St
  6
CONTINUOUS
 62
   127
 10
14.365975
 20
9.537605
 11
19.36597
 21
9.537605
  0
LINE
  8
St
  6
CONTINUOUS
 62
   127
 10
19.36597
 20
9.537605
 11
18.658863
 21
10.24472
  0
LINE
  8
St
  6
CONTINUOUS
 62
   127
 10
19.36597
 20
1.744715
 11
19.36597
 21
9.537605
  0
LINE
  8
St
  6
CONTINUOUS
 62
   127
 10
14.365975
 20
1.744715
 11
14.365975
 21
9.537605
  0
LINE
  8
St
  6
CONTINUOUS
 62
   127
 10
14.365975
 20
9.537605
 11
15.07312
 21
10.24472
  0
LINE
  8
St
  6
CONTINUOUS
 62
   127
 10
15.07312
 20
10.24472
 11
18.658863
 21
10.24472
  0
LINE
  8
St
  6
CONTINUOUS
 62
   127
 10
-10.63403
 20
1.744715
 11
-15.634025
 21
1.744715
  0
LINE
  8
St
  6
CONTINUOUS
 62
   127
 10
-14.92688
 20
1.744715
 11
-14.92688
 21
10.24472
  0
LINE
  8
St
  6
CONTINUOUS
 62
   127
 10
-11.341137
 20
1.744715
 11
-11.341137
 21
10.24472
  0
LINE
  8
St
  6
CONTINUOUS
 62
   127
 10
-10.63403
 20
9.537605
 11
-15.634025
 21
9.537605
  0
LINE
  8
St
  6
CONTINUOUS
 62
   127
 10
-15.634025
 20
9.537605
 11
-14.92688
 21
10.24472
  0
LINE
  8
St
  6
CONTINUOUS
 62
   127
 10
-15.634025
 20
1.744715
 11
-15.634025
 21
9.537605
  0
LINE
  8
St
  6
CONTINUOUS
 62
   127
 10
-10.63403
 20
1.744715
 11
-10.63403
 21
9.537605
  0
LINE
  8
St
  6
CONTINUOUS
 62
   127
 10
-10.63403
 20
9.537605
 11
-11.341137
 21
10.24472
  0
LINE
  8
St
  6
CONTINUOUS
 62
   127
 10
-11.341137
 20
10.24472
 11
-14.92688
 21
10.24472
  0
LINE
  8
St
  6
CONTINUOUS
 62
   127
 10
100.866842
 20
32.537465
 11
100.159735
 21
33.244572
  0
LINE
  8
St
  6
CONTINUOUS
 62
   127
 10
95.866878
 20
32.537465
 11
96.573985
 21
33.244572
  0
LINE
  8
St
  6
CONTINUOUS
 62
   127
 10
94.36687
 20
13.244578
 11
102.36685
 21
13.244578
  0
LINE
  8
St
  6
CONTINUOUS
 62
   127
 10
94.36687
 20
13.244578
 11
94.36687
 21
18.244572
  0
LINE
  8
St
  6
CONTINUOUS
 62
   127
 10
102.36685
 20
13.244578
 11
102.36685
 21
18.244572
  0
LINE
  8
St
  6
CONTINUOUS
 62
   127
 10
65.86684
 20
32.537465
 11
60.866875
 21
32.537465
  0
LINE
  8
St
  6
CONTINUOUS
 62
   127
 10
60.866875
 20
32.537465
 11
61.573983
 21
33.244572
  0
LINE
  8
St
  6
CONTINUOUS
 62
   127
 10
65.86684
 20
32.537465
 11
65.159733
 21
33.244572
  0
LINE
  8
St
  6
CONTINUOUS
 62
   127
 10
65.159733
 20
33.244572
 11
61.573983
 21
33.244572
  0
LINE
  8
St
  6
CONTINUOUS
 62
   127
 10
67.366848
 20
13.244578
 11
59.366868
 21
13.244578
  0
LINE
  8
St
  6
CONTINUOUS
 62
   127
 10
67.366848
 20
13.244578
 11
67.366848
 21
18.244572
  0
LINE
  8
St
  6
CONTINUOUS
 62
   127
 10
59.366868
 20
13.244578
 11
59.366868
 21
18.244572
  0
LINE
  8
St
  6
DOT
 62
   127
 10
93.367082
 20
45.54458
 11
93.367082
 21
48.244572
  0
LINE
  8
St
  6
DOT
 62
   127
 10
68.367093
 20
45.54458
 11
68.367093
 21
48.244572
  0
LINE
  8
St
  6
CONTINUOUS
 62
   127
 10
73.966833
 20
25.744572
 11
87.766848
 21
25.744572
  0
LINE
  8
St
  6
DOT
 62
   127
 10
92.3671
 20
28.244578
 11
92.3671
 21
30.94457
  0
LINE
  8
St
  6
DOT
 62
   127
 10
69.367075
 20
28.244578
 11
69.367075
 21
30.94457
  0
LINE
  8
St
  6
DOT
 62
   127
 10
11.865992
 20
3.244542
 11
11.865992
 21
5.944557
  0
LINE
  8
St
  6
DOT
 62
   127
 10
11.865992
 20
20.544575
 11
11.865992
 21
23.24456
  0
LINE
  8
St
  6
DOT
 62
   127
 10
-8.134025
 20
3.244542
 11
-8.134025
 21
5.944557
  0
LINE
  8
St
  6
DOT
 62
   127
 10
-8.134025
 20
20.544575
 11
-8.134025
 21
23.24456
  0
LINE
  8
St
  6
CONTINUOUS
 62
   127
 10
21.865975
 20
3.244557
 11
-18.134008
 21
3.244557
  0
LINE
  8
St
  6
CONTINUOUS
 62
   127
 10
-8.134025
 20
23.24459
 11
11.865992
 21
23.24459
  0
LINE
  8
St
  6
CONTINUOUS
 62
   127
 10
68.866863
 20
-1.75543
 11
68.866863
 21
0.744575
  0
LINE
  8
St
  6
CONTINUOUS
 62
   127
 10
92.86687
 20
0.744575
 11
68.866863
 21
0.744575
  0
LINE
  8
St
  6
CONTINUOUS
 62
   127
 10
92.86687
 20
-1.75543
 11
92.86687
 21
0.744575
  0
LINE
  8
St
  6
CONTINUOUS
 62
   127
 10
92.86687
 20
-1.75543
 11
68.866863
 21
-1.75543
  0
LINE
  8
St
  6
DOT
 62
   127
 10
88.366863
 20
-1.75543
 11
88.366863
 21
0.744575
  0
LINE
  8
St
  6
DOT
 62
   127
 10
73.366863
 20
-1.75543
 11
73.366863
 21
0.744575
  0
LINE
  8
St
  6
CONTINUOUS
 62
   127
 10
-10.134238
 20
-1.75543
 11
-10.134238
 21
0.744575
  0
LINE
  8
St
  6
CONTINUOUS
 62
   127
 10
13.865762
 20
0.744575
 11
-10.134238
 21
0.744575
  0
LINE
  8
St
  6
CONTINUOUS
 62
   127
 10
13.865762
 20
-1.75543
 11
13.865762
 21
0.744575
  0
LINE
  8
St
  6
CONTINUOUS
 62
   127
 10
13.865762
 20
-1.75543
 11
-10.134238
 21
-1.75543
  0
LINE
  8
St
  6
DOT
 62
   127
 10
9.365762
 20
-1.75543
 11
9.365762
 21
0.744575
  0
LINE
  8
St
  6
DOT
 62
   127
 10
-5.634238
 20
-1.75543
 11
-5.634238
 21
0.744575
  0
LINE
  8
St
  6
CONTINUOUS
 62
   127
 10
-10.134238
 20
23.24456
 11
-10.134238
 21
25.744572
  0
LINE
  8
St
  6
CONTINUOUS
 62
   127
 10
13.865762
 20
25.744572
 11
-10.134238
 21
25.744572
  0
LINE
  8
St
  6
CONTINUOUS
 62
   127
 10
13.865762
 20
23.24456
 11
13.865762
 21
25.744572
  0
LINE
  8
St
  6
CONTINUOUS
 62
   127
 10
13.865762
 20
23.24456
 11
-10.134238
 21
23.24456
  0
LINE
  8
St
  6
DOT
 62
   127
 10
9.365762
 20
23.24456
 11
9.365762
 21
25.744572
  0
LINE
  8
St
  6
DOT
 62
   127
 10
-5.634238
 20
23.24456
 11
-5.634238
 21
25.744572
  0
LINE
  8
St
  6
CONTINUOUS
 62
   127
 10
-9.134232
 20
25.749072
 11
-9.134232
 21
27.24908
  0
LINE
  8
St
  6
CONTINUOUS
 62
   127
 10
12.865765
 20
27.24908
 11
-9.134232
 21
27.24908
  0
LINE
  8
St
  6
CONTINUOUS
 62
   127
 10
12.865765
 20
25.749072
 11
12.865765
 21
27.24908
  0
LINE
  8
St
  6
CONTINUOUS
 62
   127
 10
12.865765
 20
25.749072
 11
-9.134232
 21
25.749072
  0
LINE
  8
St
  6
DOT
 62
   127
 10
-3.384238
 20
25.749072
 11
-3.384238
 21
27.24908
  0
LINE
  8
St
  6
DOT
 62
   127
 10
7.115755
 20
25.749072
 11
7.115755
 21
27.24908
  0
LINE
  8
St
  6
DASHDOTX2
 62
   127
 10
1.865762
 20
-43.755445
 11
1.865762
 21
37.149095
  0
LINE
  8
St
  6
DASHDOTX2
 62
   127
 10
80.866863
 20
-43.755445
 11
80.866863
 21
37.149095
  0
LINE
  8
St
  6
CONTINUOUS
 62
   127
 10
90.666865
 20
33.037437
 11
89.959757
 21
33.744575
  0
LINE
  8
St
  6
CONTINUOUS
 62
   127
 10
71.773968
 20
33.744575
 11
71.06686
 21
33.037437
  0
LINE
  8
St
  6
CONTINUOUS
 62
   127
 10
76.427507
 20
33.037437
 11
75.720422
 21
33.744575
  0
LINE
  8
St
  6
CONTINUOUS
 62
   127
 10
85.366855
 20
33.037437
 11
84.659755
 21
33.744575
  0
LINE
  8
St
  6
CONTINUOUS
 62
   127
 10
76.427507
 20
33.037437
 11
77.134645
 21
33.744575
  0
LINE
  8
St
  6
CONTINUOUS
 62
   127
 10
85.366855
 20
33.037437
 11
84.659755
 21
33.744575
  0
LINE
  8
St
  6
CONTINUOUS
 62
   127
 10
85.366855
 20
33.037437
 11
86.073963
 21
33.744575
  0
LINE
  8
St
  6
CONTINUOUS
 62
   127
 10
73.616868
 20
34.244578
 11
73.616868
 21
35.664853
  0
LINE
  8
St
  6
CONTINUOUS
 62
   127
 10
73.116865
 20
33.744575
 11
71.773968
 21
33.744575
  0
LINE
  8
St
  6
CONTINUOUS
 62
   127
 10
88.116865
 20
34.244578
 11
88.116865
 21
35.664853
  0
LINE
  8
St
  6
CONTINUOUS
 62
   127
 10
88.616868
 20
33.744575
 11
89.959757
 21
33.744575
  0
LINE
  8
St
  6
CONTINUOUS
 62
   127
 10
88.616868
 20
33.744575
 11
73.116865
 21
33.744575
  0
LINE
  8
St
  6
CONTINUOUS
 62
   127
 10
71.773968
 20
25.744572
 11
71.06686
 21
26.45168
  0
LINE
  8
St
  6
CONTINUOUS
 62
   127
 10
71.06686
 20
33.037437
 11
71.06686
 21
26.45168
  0
LINE
  8
St
  6
CONTINUOUS
 62
   127
 10
90.666865
 20
33.037437
 11
90.666865
 21
26.45168
  0
LINE
  8
St
  6
CONTINUOUS
 62
   127
 10
89.959757
 20
25.744572
 11
90.666865
 21
26.45168
  0
LINE
  8
St
  6
CONTINUOUS
 62
   127
 10
71.773968
 20
25.744572
 11
89.959757
 21
25.744572
  0
LINE
  8
St
  6
CONTINUOUS
 62
   127
 10
76.427507
 20
26.45168
 11
75.720422
 21
25.744542
  0
LINE
  8
St
  6
CONTINUOUS
 62
   127
 10
85.366855
 20
26.45168
 11
84.659755
 21
25.744542
  0
LINE
  8
St
  6
CONTINUOUS
 62
   127
 10
76.427507
 20
26.45168
 11
77.134645
 21
25.744542
  0
LINE
  8
St
  6
CONTINUOUS
 62
   127
 10
85.366855
 20
26.45168
 11
84.659755
 21
25.744542
  0
LINE
  8
St
  6
CONTINUOUS
 62
   127
 10
85.366855
 20
26.45168
 11
86.073963
 21
25.744542
  0
LINE
  8
St
  6
CONTINUOUS
 62
   127
 10
76.427507
 20
33.037437
 11
76.427507
 21
26.45168
  0
LINE
  8
St
  6
CONTINUOUS
 62
   127
 10
85.366855
 20
33.037437
 11
85.366855
 21
26.45168
  0
LINE
  8
St
  6
DASHDOTX2
 62
   127
 10
80.866863
 20
41.244575
 11
80.866863
 21
25.744572
  0
LINE
  8
St
  6
CONTINUOUS
 62
   127
 10
11.665765
 20
34.537445
 11
10.958657
 21
35.244575
  0
LINE
  8
St
  6
CONTINUOUS
 62
   127
 10
-7.227132
 20
35.244575
 11
-7.93424
 21
34.537445
  0
LINE
  8
St
  6
CONTINUOUS
 62
   127
 10
-2.573592
 20
34.537445
 11
-3.280678
 21
35.244575
  0
LINE
  8
St
  6
CONTINUOUS
 62
   127
 10
6.365755
 20
34.537445
 11
5.658655
 21
35.244575
  0
LINE
  8
St
  6
CONTINUOUS
 62
   127
 10
-2.573592
 20
34.537445
 11
-1.866455
 21
35.244575
  0
LINE
  8
St
  6
CONTINUOUS
 62
   127
 10
6.365755
 20
34.537445
 11
5.658655
 21
35.244575
  0
LINE
  8
St
  6
CONTINUOUS
 62
   127
 10
6.365755
 20
34.537445
 11
7.072862
 21
35.244575
  0
LINE
  8
St
  6
CONTINUOUS
 62
   127
 10
-5.384232
 20
35.744578
 11
-5.384232
 21
37.16486
  0
LINE
  8
St
  6
CONTINUOUS
 62
   127
 10
-5.884235
 20
35.244575
 11
-7.227132
 21
35.244575
  0
LINE
  8
St
  6
CONTINUOUS
 62
   127
 10
9.115765
 20
35.744578
 11
9.115765
 21
37.16486
  0
LINE
  8
St
  6
CONTINUOUS
 62
   127
 10
9.615768
 20
35.244575
 11
10.958657
 21
35.244575
  0
LINE
  8
St
  6
CONTINUOUS
 62
   127
 10
9.615768
 20
35.244575
 11
-5.884235
 21
35.244575
  0
LINE
  8
St
  6
CONTINUOUS
 62
   127
 10
-7.227132
 20
27.244572
 11
-7.93424
 21
27.951687
  0
LINE
  8
St
  6
CONTINUOUS
 62
   127
 10
-7.93424
 20
34.537445
 11
-7.93424
 21
27.951687
  0
LINE
  8
St
  6
CONTINUOUS
 62
   127
 10
11.665765
 20
34.537445
 11
11.665765
 21
27.951687
  0
LINE
  8
St
  6
CONTINUOUS
 62
   127
 10
10.958657
 20
27.244572
 11
11.665765
 21
27.951687
  0
LINE
  8
St
  6
CONTINUOUS
 62
   127
 10
-7.227132
 20
27.244572
 11
10.958657
 21
27.244572
  0
LINE
  8
St
  6
CONTINUOUS
 62
   127
 10
-2.573592
 20
27.951687
 11
-3.280678
 21
27.24455
  0
LINE
  8
St
  6
CONTINUOUS
 62
   127
 10
6.365755
 20
27.951687
 11
5.658655
 21
27.24455
  0
LINE
  8
St
  6
CONTINUOUS
 62
   127
 10
-2.573592
 20
27.951687
 11
-1.866455
 21
27.24455
  0
LINE
  8
St
  6
CONTINUOUS
 62
   127
 10
6.365755
 20
27.951687
 11
5.658655
 21
27.24455
  0
LINE
  8
St
  6
CONTINUOUS
 62
   127
 10
6.365755
 20
27.951687
 11
7.072862
 21
27.24455
  0
LINE
  8
St
  6
CONTINUOUS
 62
   127
 10
-2.573592
 20
34.537445
 11
-2.573592
 21
27.951687
  0
LINE
  8
St
  6
CONTINUOUS
 62
   127
 10
6.365755
 20
34.537445
 11
6.365755
 21
27.951687
  0
LINE
  8
St
  6
DASHDOTX2
 62
   127
 10
1.865762
 20
42.744575
 11
1.865762
 21
27.244572
  0
LINE
  8
St
  6
CONTINUOUS
 62
   127
 10
102.36685
 20
18.244572
 11
94.36687
 21
18.244572
  0
LINE
  8
St
  6
CONTINUOUS
 62
   127
 10
67.366848
 20
18.244572
 11
59.366868
 21
18.244572
  0
LINE
  8
St
  6
CONTINUOUS
 62
   127
 10
-9.63383
 20
0.744537
 11
-10.63403
 21
1.744715
  0
LINE
  8
St
  6
CONTINUOUS
 62
   127
 10
-9.63383
 20
0.744537
 11
-16.634202
 21
0.744537
  0
LINE
  8
St
  6
CONTINUOUS
 62
   127
 10
-16.634202
 20
0.744537
 11
-15.634025
 21
1.744715
  0
LINE
  8
St
  6
CONTINUOUS
 62
   127
 10
20.366155
 20
0.744537
 11
19.36597
 21
1.744715
  0
LINE
  8
St
  6
CONTINUOUS
 62
   127
 10
13.365775
 20
0.744537
 11
20.366155
 21
0.744537
  0
LINE
  8
St
  6
CONTINUOUS
 62
   127
 10
13.365775
 20
0.744537
 11
14.365975
 21
1.744715
  0
LINE
  8
St
  6
DASHDOT
 62
   127
 10
16.865987
 20
0.744537
 11
16.865987
 21
10.24472
  0
LINE
  8
St
  6
DASHDOT
 62
   127
 10
-13.134027
 20
0.744537
 11
-13.134027
 21
10.24472
  0
LINE
  8
St
  6
DOT
 62
   127
 10
70.36687
 20
25.744595
 11
91.366885
 21
25.744595
  0
LINE
  8
St
  6
DOT
 62
   127
 10
87.866852
 20
0.744575
 11
87.866852
 21
25.744595
  0
LINE
  8
St
  6
DOT
 62
   127
 10
73.866827
 20
0.744575
 11
73.866827
 21
25.744595
  0
LINE
  8
St
  6
CONTINUOUS
 62
   127
 10
103.366863
 20
18.244572
 11
103.366863
 21
28.244578
  0
LINE
  8
St
  6
CONTINUOUS
 62
   127
 10
103.366863
 20
18.244572
 11
58.366863
 21
18.244572
  0
LINE
  8
St
  6
CONTINUOUS
 62
   127
 10
58.366863
 20
18.244572
 11
58.366863
 21
28.244578
  0
LINE
  8
St
  6
CONTINUOUS
 62
   127
 10
103.366863
 20
28.244578
 11
58.366863
 21
28.244578
  0
LINE
  8
St
  6
CONTINUOUS
 62
   127
 10
62.86687
 20
0.744575
 11
98.866863
 21
0.744575
  0
LINE
  8
St
  6
CONTINUOUS
 62
   127
 10
98.866863
 20
0.744575
 11
98.866863
 21
18.244572
  0
LINE
  8
St
  6
CONTINUOUS
 62
   127
 10
62.86687
 20
0.744575
 11
62.86687
 21
18.244572
  0
LINE
  8
St
  6
DOT
 62
   127
 10
60.616863
 20
18.244572
 11
60.616863
 21
28.244578
  0
LINE
  8
St
  6
DOT
 62
   127
 10
66.116868
 20
18.244572
 11
66.116868
 21
28.244578
  0
LINE
  8
St
  6
DOT
 62
   127
 10
95.616865
 20
18.244572
 11
95.616865
 21
28.244578
  0
LINE
  8
St
  6
DOT
 62
   127
 10
101.116855
 20
18.244572
 11
101.116855
 21
28.244578
  0
LINE
  8
St
  6
DASHDOTX2
 62
   127
 10
63.366857
 20
16.244563
 11
63.366857
 21
30.244587
  0
LINE
  8
St
  6
DASHDOTX2
 62
   127
 10
98.36686
 20
16.244563
 11
98.36686
 21
30.244587
  0
LINE
  8
St
  6
DOTX2
 62
   127
 10
68.36686
 20
0.744575
 11
68.36686
 21
18.244572
  0
LINE
  8
St
  6
DOTX2
 62
   127
 10
93.366857
 20
0.744575
 11
93.366857
 21
18.244572
  0
LINE
  8
St
  6
CONTINUOUS
 62
   127
 10
60.866875
 20
18.244572
 11
60.866875
 21
32.537465
  0
LINE
  8
St
  6
CONTINUOUS
 62
   127
 10
65.159733
 20
18.244572
 11
65.159733
 21
32.537465
  0
LINE
  8
St
  6
CONTINUOUS
 62
   127
 10
65.86684
 20
18.244572
 11
65.86684
 21
32.537465
  0
LINE
  8
St
  6
CONTINUOUS
 62
   127
 10
61.573983
 20
18.244572
 11
61.573983
 21
33.244572
  0
LINE
  8
St
  6
DASHDOT
 62
   127
 10
63.366857
 20
13.244578
 11
63.366857
 21
33.244572
  0
LINE
  8
St
  6
CONTINUOUS
 62
   127
 10
95.866878
 20
18.244572
 11
95.866878
 21
32.537465
  0
LINE
  8
St
  6
CONTINUOUS
 62
   127
 10
100.866842
 20
18.244572
 11
100.866842
 21
32.537465
  0
LINE
  8
St
  6
CONTINUOUS
 62
   127
 10
95.866878
 20
32.537465
 11
100.866842
 21
32.537465
  0
LINE
  8
St
  6
CONTINUOUS
 62
   127
 10
100.159735
 20
18.244572
 11
100.159735
 21
33.244572
  0
LINE
  8
St
  6
CONTINUOUS
 62
   127
 10
96.573985
 20
18.244572
 11
96.573985
 21
33.244572
  0
LINE
  8
St
  6
CONTINUOUS
 62
   127
 10
96.573985
 20
33.244572
 11
100.159735
 21
33.244572
  0
LINE
  8
St
  6
DASHDOT
 62
   127
 10
98.36686
 20
13.244578
 11
98.36686
 21
33.244572
  0
LINE
  8
St
  6
DOT
 62
   127
 10
-5.134235
 20
-5.255433
 11
8.86576
 21
-5.255433
  0
LINE
  8
St
  6
DOT
 62
   127
 10
-5.134235
 20
-5.255433
 11
-5.134235
 21
-2.255433
  0
LINE
  8
St
  6
DOT
 62
   127
 10
8.86576
 20
-5.255433
 11
8.86576
 21
-2.255433
  0
LINE
  8
St
  6
DOT
 62
   127
 10
-3.134232
 20
-5.255433
 11
-3.134232
 21
-56.832138
  0
LINE
  8
St
  6
DOT
 62
   127
 10
6.865757
 20
-5.255433
 11
6.865757
 21
-56.832138
  0
LINE
  8
St
  6
DOT
 62
   127
 10
73.866865
 20
-5.255433
 11
87.86686
 21
-5.255433
  0
LINE
  8
St
  6
DOT
 62
   127
 10
73.866865
 20
-5.255433
 11
73.866865
 21
-2.255433
  0
LINE
  8
St
  6
DOT
 62
   127
 10
87.86686
 20
-5.255433
 11
87.86686
 21
-2.255433
  0
LINE
  8
St
  6
DOT
 62
   127
 10
75.866875
 20
-5.255433
 11
75.866875
 21
-56.832138
  0
LINE
  8
St
  6
DOT
 62
   127
 10
85.866857
 20
-5.255433
 11
85.866857
 21
-56.832138
  0
LINE
  8
St
  6
CONTINUOUS
 62
   127
 10
73.966833
 20
-5.255433
 11
73.966833
 21
25.744572
  0
LINE
  8
St
  6
CONTINUOUS
 62
   127
 10
87.766848
 20
25.744572
 11
87.766848
 21
-5.255433
  0
LINE
  8
St
  6
CONTINUOUS
 62
   127
 10
73.966833
 20
-5.255433
 11
87.766848
 21
-5.255433
  0
LINE
  8
St
  6
CONTINUOUS
 62
   127
 10
84.866852
 20
-53.255433
 11
76.86685
 21
-53.255433
  0
LINE
  8
St
  6
CONTINUOUS
 62
   127
 10
85.866857
 20
-52.255405
 11
75.866845
 21
-52.255405
  0
LINE
  8
St
  6
CONTINUOUS
 62
   127
 10
85.866857
 20
-52.255405
 11
84.866852
 21
-53.255433
  0
LINE
  8
St
  6
CONTINUOUS
 62
   127
 10
75.866845
 20
-52.255405
 11
76.86685
 21
-53.255433
  0
LINE
  8
St
  6
CONTINUOUS
 62
   127
 10
85.866872
 20
-28.25542
 11
75.86686
 21
-28.25542
  0
LINE
  8
St
  6
CONTINUOUS
 62
   127
 10
75.866845
 20
-52.255405
 11
75.866845
 21
-5.255433
  0
LINE
  8
St
  6
CONTINUOUS
 62
   127
 10
85.866857
 20
-52.255405
 11
85.866857
 21
-5.255433
  0
LINE
  8
St
  6
CONTINUOUS
 62
   127
 10
85.116865
 20
-53.00539
 11
85.116865
 21
-28.25542
  0
LINE
  8
St
  6
CONTINUOUS
 62
   127
 10
76.616837
 20
-53.00539
 11
76.616837
 21
-28.25542
  0
LINE
  8
St
  6
CONTINUOUS
 62
   127
 10
-3.134255
 20
36.149067
 11
-3.134255
 21
25.749072
  0
LINE
  8
St
  6
CONTINUOUS
 62
   127
 10
-2.384263
 20
36.89906
 11
-2.384263
 21
25.749072
  0
LINE
  8
St
  6
CONTINUOUS
 62
   127
 10
5.865753
 20
37.149095
 11
-2.13425
 21
37.149095
  0
LINE
  8
St
  6
CONTINUOUS
 62
   127
 10
6.865757
 20
36.149067
 11
-3.134255
 21
36.149067
  0
LINE
  8
St
  6
CONTINUOUS
 62
   127
 10
6.115765
 20
36.89906
 11
6.115765
 21
25.749072
  0
LINE
  8
St
  6
CONTINUOUS
 62
   127
 10
6.865757
 20
36.149067
 11
6.865757
 21
25.749072
  0
LINE
  8
St
  6
CONTINUOUS
 62
   127
 10
6.865757
 20
36.149067
 11
5.865753
 21
37.149095
  0
LINE
  8
St
  6
CONTINUOUS
 62
   127
 10
-3.134255
 20
36.149067
 11
-2.13425
 21
37.149095
  0
LINE
  8
St
  6
CONTINUOUS
 62
   127
 10
-5.034267
 20
25.744572
 11
8.765747
 21
25.744572
  0
LINE
  8
St
  6
CONTINUOUS
 62
   127
 10
-5.034267
 20
-5.255433
 11
-5.034267
 21
25.744572
  0
LINE
  8
St
  6
CONTINUOUS
 62
   127
 10
8.765747
 20
25.744572
 11
8.765747
 21
-5.255433
  0
LINE
  8
St
  6
CONTINUOUS
 62
   127
 10
-5.034267
 20
-5.255433
 11
8.765747
 21
-5.255433
  0
LINE
  8
St
  6
CONTINUOUS
 62
   127
 10
5.865753
 20
-53.255433
 11
-2.13425
 21
-53.255433
  0
LINE
  8
St
  6
CONTINUOUS
 62
   127
 10
6.865757
 20
-52.255405
 11
-3.134255
 21
-52.255405
  0
LINE
  8
St
  6
CONTINUOUS
 62
   127
 10
6.865757
 20
-52.255405
 11
5.865753
 21
-53.255433
  0
LINE
  8
St
  6
CONTINUOUS
 62
   127
 10
-3.134255
 20
-52.255405
 11
-2.13425
 21
-53.255433
  0
LINE
  8
St
  6
CONTINUOUS
 62
   127
 10
6.865765
 20
-28.25542
 11
-3.13424
 21
-28.25542
  0
LINE
  8
St
  6
CONTINUOUS
 62
   127
 10
-3.134255
 20
-52.255405
 11
-3.134255
 21
-5.255433
  0
LINE
  8
St
  6
CONTINUOUS
 62
   127
 10
6.865757
 20
-52.255405
 11
6.865757
 21
-5.255433
  0
LINE
  8
St
  6
CONTINUOUS
 62
   127
 10
6.115765
 20
-53.00539
 11
6.115765
 21
-28.25542
  0
LINE
  8
St
  6
CONTINUOUS
 62
   127
 10
-2.384263
 20
-53.00539
 11
-2.384263
 21
-28.25542
  0
LINE
  8
St
  6
CONTINUOUS
 62
   127
 10
93.291872
 20
28.244578
 11
93.291872
 21
31.244585
  0
LINE
  8
St
  6
DOT
 62
   127
 10
91.366885
 20
25.744595
 11
91.366885
 21
31.244585
  0
LINE
  8
St
  6
CONTINUOUS
 62
   127
 10
68.441875
 20
28.244578
 11
68.441875
 21
31.244585
  0
LINE
  8
St
  6
CONTINUOUS
 62
   127
 10
93.291872
 20
31.244585
 11
68.441875
 21
31.244585
  0
LINE
  8
St
  6
DOT
 62
   127
 10
70.36687
 20
25.744595
 11
70.36687
 21
31.244585
  0
CIRCLE
  8
St
  6
CONTINUOUS
 62
   127
 10
1.865762
 20
-43.755445
 40
13.999995
  0
ARC
  8
St
  6
CONTINUOUS
 62
   127
 10
-2.464486
 20
-8.907048
 40
3.149353
 50
62.71606
 51
89.994507
  0
ARC
  8
St
  6
CONTINUOUS
 62
   127
 10
1.865761
 20
-17.829728
 40
12.072068
 50
76.159304
 51
103.829709
  0
ARC
  8
St
  6
CONTINUOUS
 62
   127
 10
6.195859
 20
-8.907048
 40
3.149353
 50
89.994522
 51
117.272969
  0
ARC
  8
St
  6
CONTINUOUS
 62
   127
 10
19.86582
 20
-15.757692
 40
2.5
 50
101.531655
 51
258.460121
  0
ARC
  8
St
  6
CONTINUOUS
 62
   127
 10
18.865767
 20
-18.757702
 40
0.5
 50
269.997253
 51
359.998627
  0
ARC
  8
St
  6
CONTINUOUS
 62
   127
 10
18.865767
 20
-12.757682
 40
0.5
 50
359.998627
 51
449.994507
  0
ARC
  8
St
  6
CONTINUOUS
 62
   127
 10
-16.134299
 20
-15.757692
 40
2.5
 50
281.534401
 51
438.457374
  0
ARC
  8
St
  6
CONTINUOUS
 62
   127
 10
-15.134246
 20
-18.757702
 40
0.5
 50
179.99588
 51
269.997253
  0
ARC
  8
St
  6
CONTINUOUS
 62
   127
 10
-15.134246
 20
-12.757682
 40
0.5
 50
89.994507
 51
179.99588
  0
ARC
  8
St
  6
CONTINUOUS
 62
   127
 10
1.865761
 20
-43.743606
 40
15.249999
 50
119.435859
 51
420.558663
  0
ARC
  8
St
  6
CONTINUOUS
 62
   127
 10
9.115772
 20
-30.898386
 40
0.5
 50
60.558663
 51
179.99588
  0
ARC
  8
St
  6
CONTINUOUS
 62
   127
 10
-5.384232
 20
-30.898386
 40
0.5
 50
359.998642
 51
479.435874
  0
CIRCLE
  8
St
  6
CONTINUOUS
 62
   127
 10
80.866863
 20
-43.755445
 40
13.999995
  0
ARC
  8
St
  6
CONTINUOUS
 62
   127
 10
76.536616
 20
-8.907048
 40
3.149353
 50
62.71606
 51
89.994507
  0
ARC
  8
St
  6
CONTINUOUS
 62
   127
 10
80.866863
 20
-17.829728
 40
12.072068
 50
76.159304
 51
103.829709
  0
ARC
  8
St
  6
CONTINUOUS
 62
   127
 10
85.196961
 20
-8.907048
 40
3.149353
 50
89.994522
 51
117.272969
  0
ARC
  8
St
  6
CONTINUOUS
 62
   127
 10
98.866922
 20
-15.757692
 40
2.5
 50
101.531655
 51
258.460121
  0
ARC
  8
St
  6
CONTINUOUS
 62
   127
 10
97.866869
 20
-18.757702
 40
0.5
 50
269.997253
 51
359.998627
  0
ARC
  8
St
  6
CONTINUOUS
 62
   127
 10
97.866869
 20
-12.757682
 40
0.5
 50
359.998627
 51
449.994507
  0
ARC
  8
St
  6
CONTINUOUS
 62
   127
 10
62.866803
 20
-15.757692
 40
2.5
 50
281.534401
 51
438.457374
  0
ARC
  8
St
  6
CONTINUOUS
 62
   127
 10
63.866856
 20
-18.757702
 40
0.5
 50
179.99588
 51
269.997253
  0
ARC
  8
St
  6
CONTINUOUS
 62
   127
 10
63.866856
 20
-12.757682
 40
0.5
 50
89.994507
 51
179.99588
  0
ARC
  8
St
  6
CONTINUOUS
 62
   127
 10
80.866863
 20
-43.743606
 40
15.249999
 50
119.435859
 51
420.558663
  0
ARC
  8
St
  6
CONTINUOUS
 62
   127
 10
88.116874
 20
-30.898386
 40
0.5
 50
60.558663
 51
179.99588
  0
ARC
  8
St
  6
CONTINUOUS
 62
   127
 10
73.616876
 20
-30.898386
 40
0.5
 50
359.998642
 51
479.435874
  0
ARC
  8
St
  6
CONTINUOUS
 62
   127
 10
80.866863
 20
33.744587
 40
7.5
 50
14.833936
 51
165.160571
  0
ARC
  8
St
  6
CONTINUOUS
 62
   127
 10
73.116862
 20
34.244589
 40
0.5
 50
269.997253
 51
359.998627
  0
ARC
  8
St
  6
CONTINUOUS
 62
   127
 10
88.616863
 20
34.244589
 40
0.5
 50
179.99588
 51
269.997253
  0
ARC
  8
St
  6
CONTINUOUS
 62
   127
 10
1.865761
 20
35.244592
 40
7.5
 50
14.833936
 51
165.160571
  0
ARC
  8
St
  6
CONTINUOUS
 62
   127
 10
-5.88424
 20
35.744594
 40
0.5
 50
269.997253
 51
359.998627
  0
ARC
  8
St
  6
CONTINUOUS
 62
   127
 10
9.615762
 20
35.744594
 40
0.5
 50
179.99588
 51
269.997253
  0
ARC
  8
St
  6
CONTINUOUS
 10
100.867058
 20
43.244587
 40
5.0
 50
0.0
 51
90.0
  0
LINE
  8
St
  6
CONTINUOUS
 62
   127
 10
105.867063
 20
33.24458
 11
105.867063
 21
43.24457
  0
ARC
  8
St
  6
CONTINUOUS
 10
100.867058
 20
33.244592
 40
5.0
 50
270.0
 51
360.0
  0
LINE
  8
St
  6
CONTINUOUS
 62
   127
 10
60.867085
 20
48.244572
 11
100.86706
 21
48.244572
  0
ARC
  8
St
  6
CONTINUOUS
 10
60.867078
 20
43.244587
 40
5.0
 50
90.0
 51
180.0
  0
LINE
  8
St
  6
CONTINUOUS
 62
   127
 10
55.867082
 20
33.24458
 11
55.867082
 21
43.24457
  0
LINE
  8
St
  6
CONTINUOUS
 62
   127
 10
60.867085
 20
28.244578
 11
100.86706
 21
28.244578
  0
ARC
  8
St
  6
CONTINUOUS
 10
60.867078
 20
33.244592
 40
5.0
 50
180.0
 51
270.0
  0
ARC
  8
St
  6
CONTINUOUS
 10
60.867063
 20
33.244585
 40
2.3
 50
180.0
 51
270.0
  0
LINE
  8
St
  6
CONTINUOUS
 62
   127
 10
58.567067
 20
33.244572
 11
58.567067
 21
43.244578
  0
ARC
  8
St
  6
CONTINUOUS
 10
60.867063
 20
43.244595
 40
2.3
 50
90.0
 51
180.0
  0
LINE
  8
St
  6
CONTINUOUS
 62
   127
 10
60.86707
 20
45.54458
 11
100.867052
 21
45.54458
  0
ARC
  8
St
  6
CONTINUOUS
 10
100.867051
 20
43.244595
 40
2.3
 50
0.0
 51
90.0
  0
LINE
  8
St
  6
CONTINUOUS
 62
   127
 10
103.167055
 20
33.244572
 11
103.167055
 21
43.244578
  0
LINE
  8
St
  6
CONTINUOUS
 62
   127
 10
60.86707
 20
30.94457
 11
100.867052
 21
30.94457
  0
ARC
  8
St
  6
CONTINUOUS
 10
100.867051
 20
33.244585
 40
2.3
 50
270.0
 51
360.0
  0
ARC
  8
St
  6
CONTINUOUS
 10
21.865988
 20
8.244557
 40
5.0
 50
-90.0
 51
0.0
  0
LINE
  8
St
  6
CONTINUOUS
 62
   127
 10
26.865992
 20
8.244545
 11
26.865992
 21
18.244557
  0
ARC
  8
St
  6
CONTINUOUS
 10
21.865988
 20
18.244575
 40
5.0
 50
0.0
 51
90.0
  0
LINE
  8
St
  6
CONTINUOUS
 62
   127
 10
-18.134022
 20
23.24456
 11
21.86599
 21
23.24456
  0
ARC
  8
St
  6
CONTINUOUS
 10
-18.134029
 20
18.244575
 40
5.0
 50
90.0
 51
180.0
  0
LINE
  8
St
  6
CONTINUOUS
 62
   127
 10
-23.134025
 20
8.244545
 11
-23.134025
 21
18.244557
  0
LINE
  8
St
  6
CONTINUOUS
 62
   127
 10
-18.134022
 20
3.244542
 11
21.86599
 21
3.244542
  0
ARC
  8
St
  6
CONTINUOUS
 10
-18.134029
 20
8.244557
 40
5.0
 50
180.0
 51
270.0
  0
ARC
  8
St
  6
CONTINUOUS
 10
-18.134037
 20
8.244572
 40
2.3
 50
180.0
 51
270.0
  0
LINE
  8
St
  6
CONTINUOUS
 62
   127
 10
-20.434033
 20
8.24456
 11
-20.434033
 21
18.244572
  0
ARC
  8
St
  6
CONTINUOUS
 10
-18.134037
 20
18.24459
 40
2.3
 50
90.0
 51
180.0
  0
LINE
  8
St
  6
CONTINUOUS
 62
   127
 10
-18.13403
 20
5.944557
 11
21.866005
 21
5.944557
  0
ARC
  8
St
  6
CONTINUOUS
 10
21.866003
 20
8.244572
 40
2.3
 50
-90.0
 51
0.0
  0
LINE
  8
St
  6
CONTINUOUS
 62
   127
 10
24.166007
 20
8.24456
 11
24.166007
 21
18.244572
  0
LINE
  8
St
  6
CONTINUOUS
 62
   127
 10
-18.13403
 20
20.544575
 11
21.866005
 21
20.544575
  0
ARC
  8
St
  6
CONTINUOUS
 10
21.866003
 20
18.24459
 40
2.3
 50
0.0
 51
90.0
  0
LINE
  8
St
  6
DASHDOT
 10
41.366523
 20
48.244572
 11
41.366523
 21
3.244557
  0
LINE
  8
St
  6
DOT
 62
   127
 10
60.86707
 20
3.24455
 11
100.867052
 21
3.24455
  0
ARC
  8
St
  6
DOT
 10
60.867054
 20
8.24455
 40
5.0
 50
180.0
 51
270.0
  0
LINE
  8
St
  6
DOT
 62
   127
 10
55.867052
 20
8.244537
 11
55.867052
 21
18.24455
  0
ARC
  8
St
  6
DOT
 10
60.867054
 20
18.244567
 40
5.0
 50
90.0
 51
180.0
  0
LINE
  8
St
  6
DOT
 62
   127
 10
100.867067
 20
23.244552
 11
60.867055
 21
23.244552
  0
ARC
  8
St
  6
DOT
 10
100.867071
 20
18.244567
 40
5.0
 50
0.0
 51
90.0
  0
LINE
  8
St
  6
DOT
 62
   127
 10
105.86707
 20
8.244537
 11
105.86707
 21
18.24455
  0
ARC
  8
St
  6
DOT
 10
100.867071
 20
8.24455
 40
5.0
 50
-90.0
 51
0.0
  0
ARC
  8
St
  6
DOT
 10
100.867079
 20
8.244565
 40
2.3
 50
270.0
 51
360.0
  0
LINE
  8
St
  6
DOT
 62
   127
 10
103.167078
 20
8.244552
 11
103.167078
 21
18.244565
  0
ARC
  8
St
  6
DOT
 10
100.867079
 20
18.244582
 40
2.3
 50
0.0
 51
90.0
  0
LINE
  8
St
  6
DOT
 62
   127
 10
100.867075
 20
5.94455
 11
60.86704
 21
5.94455
  0
ARC
  8
St
  6
DOT
 10
60.867039
 20
8.244565
 40
2.3
 50
180.0
 51
270.0
  0
LINE
  8
St
  6
DOT
 62
   127
 10
58.567037
 20
8.244552
 11
58.567037
 21
18.244565
  0
LINE
  8
St
  6
DOT
 62
   127
 10
100.867075
 20
20.544568
 11
60.86704
 21
20.544568
  0
ARC
  8
St
  6
DOT
 10
60.867039
 20
18.244582
 40
2.3
 50
90.0
 51
180.0
  0
LINE
  8
St
  6
DOT
 62
   127
 10
21.865975
 20
28.244563
 11
-18.134008
 21
28.244563
  0
ARC
  8
St
  6
DOT
 10
21.865988
 20
33.244562
 40
5.0
 50
-90.0
 51
0.0
  0
LINE
  8
St
  6
DOT
 62
   127
 10
26.865992
 20
33.24455
 11
26.865992
 21
43.244563
  0
ARC
  8
St
  6
DOT
 10
21.865988
 20
43.24458
 40
5.0
 50
0.0
 51
90.0
  0
LINE
  8
St
  6
DOT
 62
   127
 10
-18.134022
 20
48.244565
 11
21.86599
 21
48.244565
  0
ARC
  8
St
  6
DOT
 10
-18.134029
 20
43.24458
 40
5.0
 50
90.0
 51
180.0
  0
LINE
  8
St
  6
DOT
 62
   127
 10
-23.134025
 20
33.24455
 11
-23.134025
 21
43.244563
  0
ARC
  8
St
  6
DOT
 10
-18.134029
 20
33.244562
 40
5.0
 50
180.0
 51
270.0
  0
ARC
  8
St
  6
DOT
 10
-18.134037
 20
33.244577
 40
2.3
 50
180.0
 51
270.0
  0
LINE
  8
St
  6
DOT
 62
   127
 10
-20.434033
 20
33.244565
 11
-20.434033
 21
43.244578
  0
ARC
  8
St
  6
DOT
 10
-18.134037
 20
43.244595
 40
2.3
 50
90.0
 51
180.0
  0
LINE
  8
St
  6
DOT
 62
   127
 10
-18.13403
 20
30.944563
 11
21.866005
 21
30.944563
  0
ARC
  8
St
  6
DOT
 10
21.866003
 20
33.244577
 40
2.3
 50
-90.0
 51
0.0
  0
LINE
  8
St
  6
DOT
 62
   127
 10
24.166007
 20
33.244565
 11
24.166007
 21
43.244578
  0
LINE
  8
St
  6
DOT
 62
   127
 10
-18.13403
 20
45.54458
 11
21.866005
 21
45.54458
  0
ARC
  8
St
  6
DOT
 10
21.866003
 20
43.244595
 40
2.3
 50
0.0
 51
90.0
  0
LINE
  8
St
  6
DOT
 10
60.616863
 20
48.244572
 11
21.86599
 21
48.244572
  0
LINE
  8
St
  6
DOT
 10
60.616863
 20
28.244578
 11
21.880975
 21
28.244578
  0
LINE
  8
St
  6
DOT
 10
21.865975
 20
3.244557
 11
60.854823
 21
3.244557
  0
LINE
  8
St
  6
DOT
 10
21.865975
 20
23.24456
 11
60.867055
 21
23.24456
  0
ENDBLK
  0
BLOCK
  2
*GRP_0077
 70
    65
 10
0.0
 20
0.0
  0
LINE
  8
補助線
  6
BYBLOCK
 62
     0
 10
80.866863
 20
-42.255445
 11
80.866863
 21
-45.255445
  0
LINE
  8
補助線
  6
BYBLOCK
 62
     0
 10
82.366863
 20
-43.755445
 11
79.366863
 21
-43.755445
  0
ENDBLK
  0
BLOCK
  2
*GRP_0078
 70
    65
 10
0.0
 20
0.0
  0
LINE
  8
補助線
  6
BYBLOCK
 62
     0
 10
1.865762
 20
-42.255445
 11
1.865762
 21
-45.255445
  0
LINE
  8
補助線
  6
BYBLOCK
 62
     0
 10
3.365762
 20
-43.755445
 11
0.365762
 21
-43.755445
  0
ENDBLK
  0
BLOCK
  2
M8横
 70
    64
 10
-88.370132
 20
140.837665
  0
LINE
  8
ボルト／ビス
 10
-95.870132
 20
140.837665
 11
-80.870132
 21
140.837665
  0
LINE
  8
ボルト／ビス
 10
-80.870132
 20
145.837665
 11
-81.370132
 21
146.337665
  0
POLYLINE
  8
ボルト／ビス
 66
     1
  0
VERTEX
  8
ボルト／ビス
 10
-84.120132
 20
146.337665
  0
VERTEX
  8
ボルト／ビス
 10
-84.620132
 20
145.837665
  0
VERTEX
  8
ボルト／ビス
 10
-85.120132
 20
146.337665
  0
SEQEND
  0
POLYLINE
  8
ボルト／ビス
 66
     1
  0
VERTEX
  8
ボルト／ビス
 10
-91.620132
 20
146.337665
  0
VERTEX
  8
ボルト／ビス
 10
-92.120132
 20
145.837665
  0
VERTEX
  8
ボルト／ビス
 10
-92.620132
 20
146.337665
  0
SEQEND
  0
LINE
  8
ボルト／ビス
 10
-95.370132
 20
146.337665
 11
-95.870132
 21
145.837665
  0
LINE
  8
ボルト／ビス
 10
-95.870132
 20
140.837665
 11
-95.870132
 21
145.837665
  0
LINE
  8
ボルト／ビス
 10
-80.870132
 20
140.837665
 11
-80.870132
 21
145.837665
  0
LINE
  8
ボルト／ビス
 10
-95.370132
 20
146.337665
 11
-81.370132
 21
146.337665
  0
LINE
  8
ボルト／ビス
 10
-84.620132
 20
140.837665
 11
-84.620132
 21
145.837665
  0
LINE
  8
ボルト／ビス
 10
-92.120132
 20
140.837665
 11
-92.120132
 21
145.837665
  0
ENDBLK
  0
BLOCK
  2
M8横横
 70
    64
 10
-129.398
 20
116.440225
  0
LINE
  8
ボルト／ビス
 10
-135.89319
 20
121.440225
 11
-135.39319
 21
121.940225
  0
LINE
  8
ボルト／ビス
 10
-123.40281
 20
121.940225
 11
-122.90281
 21
121.440225
  0
POLYLINE
  8
ボルト／ビス
 66
     1
  0
VERTEX
  8
ボルト／ビス
 10
-129.898
 20
121.940225
  0
VERTEX
  8
ボルト／ビス
 10
-129.398
 20
121.440225
  0
VERTEX
  8
ボルト／ビス
 10
-128.898
 20
121.940225
  0
SEQEND
  0
LINE
  8
ボルト／ビス
 10
-135.89319
 20
116.440225
 11
-122.90281
 21
116.440225
  0
LINE
  8
ボルト／ビス
 10
-129.398
 20
116.440225
 11
-129.398
 21
121.440225
  0
LINE
  8
ボルト／ビス
 10
-135.39319
 20
121.940225
 11
-123.40281
 21
121.940225
  0
LINE
  8
ボルト／ビス
 10
-122.90281
 20
116.440225
 11
-122.90281
 21
121.440225
  0
LINE
  8
ボルト／ビス
 10
-135.89319
 20
116.440225
 11
-135.89319
 21
121.440225
  0
ENDBLK
  0
ENDSEC
  0
SECTION
  2
ENTITIES
  0
POLYLINE
  8
通り芯
  6
CONTINUOUS
 66
     1
 70
     1
  0
VERTEX
  8
通り芯
 10
-210.0
 20
-148.5
  0
VERTEX
  8
通り芯
 10
210.0
 20
-148.5
  0
VERTEX
  8
通り芯
 10
210.0
 20
148.5
  0
VERTEX
  8
通り芯
 10
-210.0
 20
148.5
  0
SEQEND
  0
INSERT
  2
*GRP_0001
  8
補助線
  6
CONTINUOUS
 10
0.0
 20
0.0
  0
INSERT
  2
*GRP_0002
  8
補助線
  6
CONTINUOUS
 10
0.0
 20
0.0
  0
LINE
  8
型材断面
  6
CONTINUOUS
 10
-129.012233
 20
117.301663
 11
-129.012233
 21
49.244572
  0
POLYLINE
  8
型材断面
  6
CONTINUOUS
 66
     1
  0
VERTEX
  8
型材断面
 10
-129.012233
 20
117.301663
  0
VERTEX
  8
型材断面
 10
-130.863912
 20
111.2767
  0
VERTEX
  8
型材断面
 10
-129.012233
 20
111.050885
  0
SEQEND
  0
POLYLINE
  8
型材断面
  6
CONTINUOUS
 66
     1
  0
VERTEX
  8
型材断面
 10
-129.012233
 20
114.388522
  0
VERTEX
  8
型材断面
 10
-130.863912
 20
108.36356
  0
VERTEX
  8
型材断面
 10
-129.012233
 20
108.137745
  0
SEQEND
  0
POLYLINE
  8
型材断面
  6
CONTINUOUS
 66
     1
  0
VERTEX
  8
型材断面
 10
-137.75407
 20
117.301663
  0
VERTEX
  8
型材断面
 10
-139.60575
 20
111.2767
  0
VERTEX
  8
型材断面
 10
-137.75407
 20
111.050885
  0
SEQEND
  0
POLYLINE
  8
型材断面
  6
CONTINUOUS
 66
     1
  0
VERTEX
  8
型材断面
 10
-137.75407
 20
114.388522
  0
VERTEX
  8
型材断面
 10
-139.60575
 20
108.36356
  0
VERTEX
  8
型材断面
 10
-137.75407
 20
108.137745
  0
SEQEND
  0
INSERT
  2
*GRP_0003
  8
型材断面
  6
CONTINUOUS
 62
    47
 10
0.0
 20
0.0
  0
INSERT
  2
*GRP_0004
  8
型材断面
  6
CONTINUOUS
 62
    47
 10
0.0
 20
0.0
  0
INSERT
  2
*GRP_0005
  8
型材断面
  6
CONTINUOUS
 62
    47
 10
0.0
 20
0.0
  0
LINE
  8
型材断面
  6
CONTINUOUS
 62
    47
 10
109.949072
 20
-6.755425
 11
109.115742
 21
-5.25543
  0
LINE
  8
型材断面
  6
CONTINUOUS
 62
    47
 10
114.282417
 20
-6.755425
 11
115.115742
 21
-5.25543
  0
LINE
  8
型材断面
  6
CONTINUOUS
 62
    47
 10
114.490748
 20
-6.380425
 11
109.740738
 21
-6.380425
  0
LINE
  8
型材断面
  6
CONTINUOUS
 62
    47
 10
114.699083
 20
-6.005425
 11
109.532408
 21
-6.005425
  0
LINE
  8
型材断面
  6
CONTINUOUS
 62
    47
 10
114.907412
 20
-5.630425
 11
109.324072
 21
-5.630425
  0
LINE
  8
型材断面
  6
CONTINUOUS
 62
    47
 10
43.698363
 20
-26.755445
 11
42.865027
 21
-25.255445
  0
LINE
  8
型材断面
  6
CONTINUOUS
 62
    47
 10
48.031697
 20
-26.755445
 11
48.865027
 21
-25.255445
  0
LINE
  8
型材断面
  6
CONTINUOUS
 62
    47
 10
48.240027
 20
-26.380445
 11
43.490027
 21
-26.380445
  0
LINE
  8
型材断面
  6
CONTINUOUS
 62
    47
 10
48.448363
 20
-26.005445
 11
43.281692
 21
-26.005445
  0
LINE
  8
型材断面
  6
CONTINUOUS
 62
    47
 10
48.656692
 20
-25.630445
 11
43.073363
 21
-25.630445
  0
LINE
  8
型材断面
  6
CONTINUOUS
 62
    47
 10
31.364313
 20
-26.755445
 11
29.864313
 21
-26.755445
  0
ARC
  8
型材断面
  6
CONTINUOUS
 62
    47
 10
55.865762
 20
-25.255438
 40
1.5
 50
270.0
 51
360.0
  0
LINE
  8
型材断面
  6
CONTINUOUS
 62
    47
 10
29.864313
 20
-26.755445
 11
57.365757
 21
-26.755445
  0
LINE
  8
型材断面
  6
CONTINUOUS
 62
    47
 10
57.365757
 20
-26.755445
 11
57.365757
 21
-6.755425
  0
LINE
  8
型材断面
  6
CONTINUOUS
 62
    47
 10
55.865757
 20
-25.255445
 11
29.864313
 21
-25.255445
  0
LINE
  8
型材断面
  6
CONTINUOUS
 62
    47
 10
29.864313
 20
-25.255445
 11
29.864313
 21
-26.755445
  0
ARC
  8
型材断面
  6
CONTINUOUS
 62
    47
 10
57.365756
 20
-6.755422
 40
1.5
 50
90.0
 51
180.0
  0
LINE
  8
型材断面
  6
CONTINUOUS
 62
    47
 10
55.865757
 20
-25.255445
 11
55.865757
 21
-5.255425
  0
LINE
  8
型材断面
  6
CONTINUOUS
 62
    47
 10
127.865738
 20
-6.755425
 11
57.365757
 21
-6.755425
  0
LINE
  8
型材断面
  6
CONTINUOUS
 62
    47
 10
127.865738
 20
-5.255425
 11
55.865757
 21
-5.255425
  0
LINE
  8
型材断面
  6
CONTINUOUS
 10
67.365762
 20
-6.755425
 11
67.365762
 21
-5.255425
  0
LINE
  8
型材断面
  6
CONTINUOUS
 62
    47
 10
67.365762
 20
-6.380425
 11
94.365762
 21
-6.380425
  0
LINE
  8
型材断面
  6
CONTINUOUS
 62
    47
 10
67.365762
 20
-6.005425
 11
94.365762
 21
-6.005425
  0
LINE
  8
型材断面
  6
CONTINUOUS
 62
    47
 10
67.365762
 20
-5.630425
 11
94.365762
 21
-5.630425
  0
LINE
  8
型材断面
  6
CONTINUOUS
 10
94.365762
 20
-5.255425
 11
94.365762
 21
-6.755425
  0
INSERT
  2
*GRP_0006
  8
型材断面
  6
CONTINUOUS
 62
    63
 10
0.0
 20
0.0
  0
ARC
  8
型材断面
  6
CONTINUOUS
 10
-19.134254
 20
-76.428628
 40
0.695595
 50
0.0
 51
0.0
  0
LINE
  8
型材断面
  6
CONTINUOUS
 62
    47
 10
28.365753
 20
-53.15543
 11
29.199083
 21
-51.65543
  0
LINE
  8
型材断面
  6
CONTINUOUS
 62
    47
 10
34.365753
 20
-53.15543
 11
33.532417
 21
-51.65543
  0
LINE
  8
型材断面
  6
CONTINUOUS
 62
    47
 10
28.574083
 20
-52.78043
 11
34.157417
 21
-52.78043
  0
LINE
  8
型材断面
  6
CONTINUOUS
 62
    47
 10
28.782417
 20
-52.40543
 11
33.949083
 21
-52.40543
  0
LINE
  8
型材断面
  6
CONTINUOUS
 62
    47
 10
28.990753
 20
-52.03043
 11
33.740753
 21
-52.03043
  0
INSERT
  2
*GRP_0007
  8
型材断面
  6
CONTINUOUS
 62
    47
 10
0.0
 20
0.0
  0
LINE
  8
型材断面
  6
CONTINUOUS
 62
    47
 10
-9.634238
 20
-6.755425
 11
-9.634238
 21
-8.255425
  0
LINE
  8
型材断面
  6
CONTINUOUS
 62
    47
 10
13.365762
 20
-6.755425
 11
13.365762
 21
-8.255425
  0
LINE
  8
型材断面
  6
CONTINUOUS
 62
    47
 10
13.365762
 20
-7.880425
 11
-9.634238
 21
-7.880425
  0
LINE
  8
型材断面
  6
CONTINUOUS
 62
    47
 10
13.365762
 20
-7.505425
 11
-9.634238
 21
-7.505425
  0
LINE
  8
型材断面
  6
CONTINUOUS
 62
    47
 10
13.365762
 20
-7.130425
 11
-9.634238
 21
-7.130425
  0
LINE
  8
型材断面
  6
CONTINUOUS
 62
    47
 10
-26.800903
 20
-8.255425
 11
-27.634238
 21
-6.755425
  0
LINE
  8
型材断面
  6
CONTINUOUS
 62
    47
 10
-22.467568
 20
-8.255425
 11
-21.634238
 21
-6.755425
  0
LINE
  8
型材断面
  6
CONTINUOUS
 62
    47
 10
-27.009238
 20
-7.880425
 11
-22.259238
 21
-7.880425
  0
LINE
  8
型材断面
  6
CONTINUOUS
 62
    47
 10
-27.217568
 20
-7.505425
 11
-22.050903
 21
-7.505425
  0
LINE
  8
型材断面
  6
CONTINUOUS
 62
    47
 10
-27.425903
 20
-7.130425
 11
-21.842568
 21
-7.130425
  0
LINE
  8
型材断面
  6
CONTINUOUS
 62
    47
 10
33.115753
 20
-50.15543
 11
33.115753
 21
-51.65543
  0
LINE
  8
型材断面
  6
CONTINUOUS
 62
    47
 10
29.615753
 20
-50.15543
 11
29.615753
 21
-51.65543
  0
LINE
  8
型材断面
  6
CONTINUOUS
 62
    47
 10
29.615753
 20
-50.53043
 11
33.115753
 21
-50.53043
  0
LINE
  8
型材断面
  6
CONTINUOUS
 62
    47
 10
29.615753
 20
-51.28043
 11
33.115753
 21
-51.28043
  0
LINE
  8
型材断面
  6
CONTINUOUS
 62
    47
 10
29.615753
 20
-50.90543
 11
33.115753
 21
-50.90543
  0
LINE
  8
型材断面
  6
DASHDOT
 62
    47
 10
31.365753
 20
-53.15543
 11
31.365753
 21
-46.5133
  0
LINE
  8
型材断面
  6
DASHDOT
 62
    47
 10
-24.634238
 20
-4.3788
 11
-24.634238
 21
-10.755425
  0
INSERT
  2
*GRP_0008
  8
型材断面
  6
CONTINUOUS
 62
    63
 10
0.0
 20
0.0
  0
LINE
  8
型材断面
  6
CONTINUOUS
 62
    63
 10
58.865757
 20
-20.255425
 11
62.865762
 21
-20.255425
  0
LINE
  8
型材断面
  6
CONTINUOUS
 62
    63
 10
98.865762
 20
-18.005425
 11
102.865768
 21
-18.005425
  0
LINE
  8
型材断面
  6
CONTINUOUS
 62
    63
 10
98.865762
 20
-22.505425
 11
102.865768
 21
-22.505425
  0
LINE
  8
型材断面
  6
CONTINUOUS
 62
    63
 10
58.865757
 20
-15.255425
 11
62.165757
 21
-17.755425
  0
LINE
  8
型材断面
  6
CONTINUOUS
 62
    63
 10
62.165757
 20
-22.755425
 11
62.165757
 21
-17.755425
  0
LINE
  8
型材断面
  6
CONTINUOUS
 62
    63
 10
58.865757
 20
-25.255425
 11
62.165757
 21
-22.755425
  0
LINE
  8
型材断面
  6
CONTINUOUS
 62
    63
 10
61.505758
 20
-17.255425
 11
61.505758
 21
-23.255425
  0
LINE
  8
型材断面
  6
CONTINUOUS
 62
    63
 10
37.152422
 20
-34.75544
 11
31.364313
 21
-34.75544
  0
LINE
  8
型材断面
  6
CONTINUOUS
 62
    63
 10
45.865027
 20
-29.755445
 11
45.865027
 21
-26.755445
  0
LINE
  8
型材断面
  6
CONTINUOUS
 62
    63
 10
124.865738
 20
-53.2554
 11
127.865738
 21
-53.2554
  0
LINE
  8
型材断面
  6
CONTINUOUS
 62
    63
 10
59.525757
 20
-24.755425
 11
59.525757
 21
-15.755425
  0
LINE
  8
型材断面
  6
CONTINUOUS
 62
    63
 10
60.185758
 20
-24.255425
 11
60.185758
 21
-16.255425
  0
LINE
  8
型材断面
  6
CONTINUOUS
 62
    63
 10
60.845758
 20
-23.755425
 11
60.845758
 21
-16.755425
  0
LINE
  8
型材断面
  6
CONTINUOUS
 62
    63
 10
99.865762
 20
-22.505425
 11
99.865762
 21
-18.005425
  0
LINE
  8
型材断面
  6
CONTINUOUS
 62
    63
 10
100.865762
 20
-22.505425
 11
100.865762
 21
-18.005425
  0
LINE
  8
型材断面
  6
CONTINUOUS
 62
    63
 10
101.865768
 20
-22.505425
 11
101.865768
 21
-18.005425
  0
LINE
  8
型材断面
  6
CONTINUOUS
 62
    63
 10
-26.384238
 20
-10.755425
 11
-26.384238
 21
-8.255425
  0
LINE
  8
型材断面
  6
CONTINUOUS
 62
    63
 10
-22.884238
 20
-10.755425
 11
-22.884238
 21
-8.255425
  0
LINE
  8
型材断面
  6
CONTINUOUS
 62
    63
 10
-22.884238
 20
-10.130425
 11
-26.384238
 21
-10.130425
  0
LINE
  8
型材断面
  6
CONTINUOUS
 62
    63
 10
-22.884238
 20
-9.505425
 11
-26.384238
 21
-9.505425
  0
LINE
  8
型材断面
  6
CONTINUOUS
 62
    63
 10
-22.884238
 20
-8.880425
 11
-26.384238
 21
-8.880425
  0
LINE
  8
型材断面
  6
CONTINUOUS
 62
    63
 10
23.865753
 20
-20.255425
 11
17.865747
 21
-20.255425
  0
LINE
  8
型材断面
  6
CONTINUOUS
 62
    63
 10
20.565753
 20
-23.005425
 11
23.865753
 21
-25.255425
  0
LINE
  8
型材断面
  6
CONTINUOUS
 62
    63
 10
20.565753
 20
-17.505425
 11
23.865753
 21
-15.255425
  0
LINE
  8
型材断面
  6
CONTINUOUS
 62
    63
 10
20.565753
 20
-23.005425
 11
20.565753
 21
-17.505425
  0
LINE
  8
型材断面
  6
CONTINUOUS
 62
    63
 10
-16.134238
 20
-17.90495
 11
-16.134238
 21
-13.60595
  0
LINE
  8
型材断面
  6
CONTINUOUS
 62
    63
 10
-16.134238
 20
-18.155425
 11
-20.134238
 21
-18.155425
  0
LINE
  8
型材断面
  6
CONTINUOUS
 62
    63
 10
-16.134238
 20
-22.355425
 11
-20.134238
 21
-22.355425
  0
LINE
  8
型材断面
  6
CONTINUOUS
 62
    63
 10
-16.759238
 20
-22.355425
 11
-16.759238
 21
-18.155425
  0
LINE
  8
型材断面
  6
CONTINUOUS
 62
    63
 10
-17.384238
 20
-22.355425
 11
-17.384238
 21
-18.155425
  0
LINE
  8
型材断面
  6
CONTINUOUS
 62
    63
 10
-18.009238
 20
-22.355425
 11
-18.009238
 21
-18.155425
  0
LINE
  8
型材断面
  6
CONTINUOUS
 62
    63
 10
-18.634238
 20
-22.355425
 11
-18.634238
 21
-18.155425
  0
LINE
  8
型材断面
  6
CONTINUOUS
 62
    63
 10
-19.259238
 20
-22.355425
 11
-19.259238
 21
-18.155425
  0
LINE
  8
型材断面
  6
CONTINUOUS
 62
    63
 10
21.225753
 20
-23.455425
 11
21.225753
 21
-17.055425
  0
LINE
  8
型材断面
  6
CONTINUOUS
 62
    63
 10
21.885752
 20
-23.905425
 11
21.885752
 21
-16.605425
  0
LINE
  8
型材断面
  6
CONTINUOUS
 62
    63
 10
22.545752
 20
-24.355425
 11
22.545752
 21
-16.155425
  0
LINE
  8
型材断面
  6
CONTINUOUS
 62
    63
 10
23.205753
 20
-24.805425
 11
23.205753
 21
-15.705425
  0
LINE
  8
型材断面
  6
CONTINUOUS
 62
    47
 10
127.865738
 20
-5.255425
 11
127.865738
 21
-6.755425
  0
INSERT
  2
*GRP_0009
  8
型材断面
  6
CONTINUOUS
 10
0.0
 20
0.0
  0
LINE
  8
型材断面
  6
DASHDOT
 10
-41.634253
 20
-8.255425
 11
-112.512025
 21
-8.255425
  0
INSERT
  2
*GRP_0010
  8
型材断面
  6
CONTINUOUS
 10
0.0
 20
0.0
  0
INSERT
  2
*GRP_0011
  8
型材断面
  6
CONTINUOUS
 10
0.0
 20
0.0
  0
INSERT
  2
*GRP_0057
  8
型材断面
  6
CONTINUOUS
 10
0.0
 20
0.0
  0
INSERT
  2
*GRP_0012
  8
ガラス
  6
CONTINUOUS
 10
0.0
 20
0.0
  0
LINE
  8
ガラス
  6
CONTINUOUS
 10
-51.134255
 20
1.744572
 11
-57.934255
 21
1.744572
  0
LINE
  8
ガラス
  6
CONTINUOUS
 10
-57.934255
 20
46.51492
 11
-57.934255
 21
1.744572
  0
LINE
  8
ガラス
  6
CONTINUOUS
 10
-57.434255
 20
46.51492
 11
-57.434255
 21
1.744572
  0
LINE
  8
ガラス
  6
CONTINUOUS
 10
-51.634255
 20
46.51492
 11
-51.634255
 21
1.744572
  0
LINE
  8
ガラス
  6
CONTINUOUS
 10
-51.134255
 20
46.51492
 11
-51.134255
 21
1.744572
  0
INSERT
  2
*GRP_0069
  8
ガラス
  6
CONTINUOUS
 10
0.0
 20
0.0
  0
INSERT
  2
*GRP_0070
  8
ガラス
  6
CONTINUOUS
 10
0.0
 20
0.0
  0
INSERT
  2
*GRP_0071
  8
ガラス
  6
CONTINUOUS
 10
0.0
 20
0.0
  0
INSERT
  2
*GRP_0072
  8
ガラス
  6
CONTINUOUS
 10
0.0
 20
0.0
  0
INSERT
  2
*GRP_0073
  8
ガラス
  6
CONTINUOUS
 10
0.0
 20
0.0
  0
INSERT
  2
*GRP_0074
  8
ガラス
  6
CONTINUOUS
 10
0.0
 20
0.0
  0
INSERT
  2
*GRP_0075
  8
ガラス
  6
CONTINUOUS
 10
0.0
 20
0.0
  0
INSERT
  2
*GRP_0013
  8
ゴム等
  6
CONTINUOUS
 10
0.0
 20
0.0
  0
INSERT
  2
*GRP_0066
  8
ゴム等
  6
CONTINUOUS
 10
0.0
 20
0.0
  0
INSERT
  2
*GRP_0067
  8
ゴム等
  6
CONTINUOUS
 10
0.0
 20
0.0
  0
INSERT
  2
*GRP_0014
  8
ボルト／ビス
  6
CONTINUOUS
 10
0.0
 20
0.0
  0
INSERT
  2
*GRP_0015
  8
ボルト／ビス
  6
CONTINUOUS
 10
0.0
 20
0.0
  0
INSERT
  2
*GRP_0016
  8
ボルト／ビス
  6
CONTINUOUS
 10
0.0
 20
0.0
  0
INSERT
  2
*GRP_0017
  8
ボルト／ビス
  6
CONTINUOUS
 10
0.0
 20
0.0
  0
INSERT
  2
*GRP_0018
  8
ボルト／ビス
  6
CONTINUOUS
 10
0.0
 20
0.0
  0
INSERT
  2
*GRP_0019
  8
ボルト／ビス
  6
CONTINUOUS
 10
0.0
 20
0.0
  0
CIRCLE
  8
ボルト／ビス
  6
CONTINUOUS
 10
80.865762
 20
-43.75543
 40
11.5
  0
CIRCLE
  8
ボルト／ビス
  6
CONTINUOUS
 10
1.865762
 20
-43.755445
 40
11.5
  0
INSERT
  2
*GRP_0020
  8
ボルト／ビス
  6
CONTINUOUS
 10
0.0
 20
0.0
  0
INSERT
  2
*GRP_0021
  8
ボルト／ビス
  6
CONTINUOUS
 10
0.0
 20
0.0
  0
INSERT
  2
*GRP_0022
  8
ボルト／ビス
  6
CONTINUOUS
 10
0.0
 20
0.0
  0
INSERT
  2
*GRP_0023
  8
ボルト／ビス
  6
CONTINUOUS
 10
0.0
 20
0.0
  0
INSERT
  2
*GRP_0024
  8
ボルト／ビス
  6
CONTINUOUS
 10
0.0
 20
0.0
  0
INSERT
  2
*GRP_0061
  8
ボルト／ビス
  6
CONTINUOUS
 10
0.0
 20
0.0
  0
INSERT
  2
*GRP_0064
  8
ボルト／ビス
  6
CONTINUOUS
 10
0.0
 20
0.0
  0
TEXT
  7
TextStyle03
  8
文字
  6
CONTINUOUS
 10
-137.725
 20
16.85
  1
ドーム呼称寸法
 40
4.0
 50
90.0
 72
     5
 11
-137.725
 21
47.85
  0
TEXT
  7
TextStyle03
  8
文字
  6
CONTINUOUS
 10
-129.0
 20
73.2
  1
有効開口
 40
4.0
 50
90.0
 72
     5
 11
-129.0
 21
90.7
  0
TEXT
  7
TextStyle03
  8
文字
  6
CONTINUOUS
 10
-156.875
 20
0.35
  1
アクリル乳白色
 40
4.0
 50
90.0
 72
     5
 11
-156.875
 21
31.35
  0
TEXT
  7
TextStyle03
  8
文字
  6
CONTINUOUS
 10
-152.375
 20
0.35
  1
ポリカ　ｸﾘｱ片面マット　
 40
4.0
 50
90.0
 72
     5
 11
-152.375
 21
51.6
  0
TEXT
  7
TextStyle03
  8
文字
  6
CONTINUOUS
 10
-147.875
 20
0.35
  1
を標準とする
 40
4.0
 50
90.0
 72
     5
 11
-147.875
 21
26.85
  0
TEXT
  7
TextStyle03
  8
文字
  6
CONTINUOUS
 10
-85.225
 20
-78.75
  1
TKR-1701
 40
4.0
 50
90.0
 72
     5
 11
-85.225
 21
-61.0
  0
TEXT
  7
TextStyle03
  8
文字
  6
CONTINUOUS
 10
-12.175
 20
-100.375
  1
TK-1130
 40
4.0
 50
90.0
 72
     5
 11
-12.175
 21
-84.875
  0
TEXT
  7
TextStyle03
  8
文字
  6
CONTINUOUS
 10
34.5
 20
-76.675
  1
TKR-1108
 40
4.0
 50
90.0
 72
     5
 11
34.5
 21
-58.925
  0
TEXT
  7
TextStyle03
  8
文字
  6
CONTINUOUS
 10
99.825
 20
-97.975
  1
TK-1128
 40
4.0
 50
90.0
 72
     5
 11
99.825
 21
-82.475
  0
TEXT
  7
TextStyle03
  8
文字
  6
CONTINUOUS
 10
24.775
 20
104.95
  1
ＮＳコード：ＮＳＤＳ
 40
5.0
 72
     5
 11
80.4
 21
104.95
  0
TEXT
  7
TextStyle03
  8
文字
  6
CONTINUOUS
 10
-32.925
 20
26.925
  1
TKR-1204S
 40
4.0
 50
90.0
 72
     5
 11
-32.925
 21
46.925
  0
TEXT
  7
TextStyle03
  8
文字
  6
CONTINUOUS
 10
-74.325
 20
26.925
  1
TKR-1303
 40
4.0
 50
90.0
 72
     5
 11
-74.325
 21
44.675
  0
TEXT
  7
TextStyle03
  8
文字
  6
CONTINUOUS
 10
25.2
 20
125.275
  1
シリーズ：ＳＴＤ
 40
5.0
 72
     5
 11
69.575
 21
125.275
  0
TEXT
  7
TextStyle03
  8
文字
  6
CONTINUOUS
 10
25.2
 20
119.65
  1
　　　　　（上下可動）　
 40
5.0
 72
     5
 11
92.075
 21
119.65
  0
TEXT
  7
TextStyle03
  8
文字
  6
CONTINUOUS
 10
25.2
 20
114.025
  1
図面名　：下枠断面詳細図
 40
5.0
 72
     5
 11
92.075
 21
114.025
  0
INSERT
  2
*DIM_0025
  8
寸法
  6
CONTINUOUS
 10
0.0
 20
0.0
  0
INSERT
  2
*DIM_0026
  8
寸法
  6
CONTINUOUS
 10
0.0
 20
0.0
  0
INSERT
  2
*DIM_0027
  8
寸法
  6
CONTINUOUS
 10
0.0
 20
0.0
  0
INSERT
  2
*DIM_0028
  8
寸法
  6
CONTINUOUS
 10
0.0
 20
0.0
  0
INSERT
  2
*DIM_0029
  8
寸法
  6
CONTINUOUS
 10
0.0
 20
0.0
  0
INSERT
  2
*DIM_0030
  8
寸法
  6
CONTINUOUS
 10
0.0
 20
0.0
  0
INSERT
  2
*DIM_0031
  8
寸法
  6
CONTINUOUS
 10
0.0
 20
0.0
  0
INSERT
  2
*DIM_0032
  8
寸法
  6
CONTINUOUS
 10
0.0
 20
0.0
  0
INSERT
  2
*DIM_0033
  8
寸法
  6
CONTINUOUS
 10
0.0
 20
0.0
  0
INSERT
  2
*DIM_0034
  8
寸法
  6
CONTINUOUS
 10
0.0
 20
0.0
  0
INSERT
  2
*DIM_0035
  8
寸法
  6
CONTINUOUS
 10
0.0
 20
0.0
  0
INSERT
  2
*DIM_0036
  8
寸法
  6
CONTINUOUS
 10
0.0
 20
0.0
  0
INSERT
  2
*DIM_0037
  8
寸法
  6
CONTINUOUS
 10
0.0
 20
0.0
  0
INSERT
  2
*DIM_0038
  8
寸法
  6
CONTINUOUS
 10
0.0
 20
0.0
  0
INSERT
  2
*DIM_0039
  8
寸法
  6
CONTINUOUS
 10
0.0
 20
0.0
  0
INSERT
  2
*DIM_0040
  8
寸法
  6
CONTINUOUS
 10
0.0
 20
0.0
  0
INSERT
  2
*GRP_0041
  8
寸法
  6
CONTINUOUS
 10
0.0
 20
0.0
  0
INSERT
  2
*GRP_0042
  8
寸法
  6
CONTINUOUS
 10
0.0
 20
0.0
  0
INSERT
  2
*GRP_0043
  8
寸法
  6
CONTINUOUS
 10
0.0
 20
0.0
  0
INSERT
  2
*DIM_0044
  8
寸法
  6
CONTINUOUS
 10
0.0
 20
0.0
  0
INSERT
  2
*DIM_0045
  8
寸法
  6
CONTINUOUS
 10
0.0
 20
0.0
  0
INSERT
  2
*DIM_0046
  8
寸法
  6
CONTINUOUS
 10
0.0
 20
0.0
  0
INSERT
  2
*DIM_0047
  8
寸法
  6
CONTINUOUS
 10
0.0
 20
0.0
  0
INSERT
  2
*DIM_0048
  8
寸法
  6
CONTINUOUS
 10
0.0
 20
0.0
  0
INSERT
  2
*DIM_0049
  8
寸法
  6
CONTINUOUS
 10
0.0
 20
0.0
  0
INSERT
  2
*GRP_0050
  8
寸法
  6
CONTINUOUS
 10
0.0
 20
0.0
  0
INSERT
  2
*GRP_0051
  8
寸法
  6
CONTINUOUS
 10
0.0
 20
0.0
  0
INSERT
  2
*DIM_0058
  8
寸法
  6
CONTINUOUS
 10
0.0
 20
0.0
  0
INSERT
  2
*DIM_0059
  8
寸法
  6
CONTINUOUS
 10
0.0
 20
0.0
  0
INSERT
  2
*DIM_0060
  8
寸法
  6
CONTINUOUS
 10
0.0
 20
0.0
  0
INSERT
  2
*DIM_0062
  8
寸法
  6
CONTINUOUS
 10
0.0
 20
0.0
  0
INSERT
  2
*DIM_0063
  8
寸法
  6
CONTINUOUS
 10
0.0
 20
0.0
  0
INSERT
  2
*GRP_0065
  8
寸法
  6
CONTINUOUS
 10
0.0
 20
0.0
  0
INSERT
  2
*GRP_0068
  8
寸法
  6
CONTINUOUS
 10
0.0
 20
0.0
  0
INSERT
  2
*GRP_0052
  8
別途部材
  6
CONTINUOUS
 10
0.0
 20
0.0
  0
INSERT
  2
*GRP_0053
  8
別途部材
  6
CONTINUOUS
 10
0.0
 20
0.0
  0
ARC
  8
St
  6
CONTINUOUS
 10
-19.134254
 20
-77.124223
 40
0.695595
 50
0.0
 51
0.0
  0
LINE
  8
St
  6
CONTINUOUS
 62
    47
 10
125.865738
 20
-5.255425
 11
125.865738
 21
-6.755425
  0
LINE
  8
St
  6
CONTINUOUS
 62
    47
 10
126.289998
 20
-6.755425
 11
125.865738
 21
-6.331165
  0
LINE
  8
St
  6
CONTINUOUS
 62
    47
 10
126.714267
 20
-6.755425
 11
125.865738
 21
-5.906895
  0
LINE
  8
St
  6
CONTINUOUS
 62
    47
 10
127.138528
 20
-6.755425
 11
125.865738
 21
-5.482635
  0
LINE
  8
St
  6
CONTINUOUS
 62
    47
 10
127.562797
 20
-6.755425
 11
126.062797
 21
-5.255425
  0
LINE
  8
St
  6
CONTINUOUS
 62
    47
 10
127.865738
 20
-6.634105
 11
126.487058
 21
-5.255425
  0
LINE
  8
St
  6
CONTINUOUS
 62
    47
 10
127.865738
 20
-6.209845
 11
126.911318
 21
-5.255425
  0
LINE
  8
St
  6
CONTINUOUS
 62
    47
 10
127.865738
 20
-5.785575
 11
127.335587
 21
-5.255425
  0
LINE
  8
St
  6
CONTINUOUS
 62
    47
 10
127.865738
 20
-5.361315
 11
127.759848
 21
-5.255425
  0
INSERT
  2
*GRP_0054
  8
St
  6
CONTINUOUS
 62
   127
 10
0.0
 20
0.0
  0
INSERT
  2
*HAT_0002
  8
St
 10
0.0
 20
0.0
  0
INSERT
  2
*GRP_0076
  8
St
  6
CONTINUOUS
 10
0.0
 20
0.0
  0
LINE
  8
St
  6
DOT
 10
-15.13424
 20
23.24456
 11
-15.13424
 21
104.300745
  0
LINE
  8
St
  6
DOT
 10
18.865765
 20
23.24456
 11
18.865765
 21
104.300745
  0
LINE
  8
St
  6
DOT
 10
63.86686
 20
48.244572
 11
63.86686
 21
104.300745
  0
LINE
  8
St
  6
DOT
 10
97.866865
 20
48.244572
 11
97.866865
 21
104.300745
  0
ENDSEC
  0
EOF
