  0
SECTION
  2
HEADER
  9
$EXTMIN
 10
-210.0
 20
-148.5
  9
$EXTMAX
 10
210.0
 20
148.5
  9
$PDMODE
 70
    32
  9
$PDSIZE
 40
1.5
  9
$LTSCALE
 40
10.0
  0
ENDSEC
  0
SECTION
  2
TABLES
  0
TABLE
  2
LTYPE
 70
    15
  0
LTYPE
  2
CONTINUOUS
 70
    64
  3
実線
 72
    65
 73
     0
 40
0.0
  0
LTYPE
  2
DASHED
 70
    64
  3
破線A
 72
    65
 73
     2
 40
0.6
 49
0.4
 49
-0.2
  0
LTYPE
  2
DASHEDX2
 70
    64
  3
破線B
 72
    65
 73
     2
 40
1.3
 49
0.9
 49
-0.4
  0
LTYPE
  2
DASHDOT
 70
    64
  3
１点鎖線A
 72
    65
 73
     4
 40
0.5375
 49
0.375
 49
-0.05
 49
0.0625
 49
-0.05
  0
LTYPE
  2
DASHDOTX2
 70
    64
  3
１点鎖線B
 72
    65
 73
     4
 40
1.075
 49
0.75
 49
-0.1
 49
0.125
 49
-0.1
  0
LTYPE
  2
DIVIDE2
 70
    64
  3
２点鎖線A
 72
    65
 73
     6
 40
0.5125
 49
0.3
 49
-0.0375
 49
0.05
 49
-0.0375
 49
0.05
 49
-0.0375
  0
LTYPE
  2
DIVIDE
 70
    64
  3
２点鎖線B
 72
    65
 73
     6
 40
1.05
 49
0.55
 49
-0.1
 49
0.1
 49
-0.1
 49
0.1
 49
-0.1
  0
LTYPE
  2
DOT
 70
    64
  3
点線A
 72
    65
 73
     2
 40
0.1125
 49
0.0625
 49
-0.05
  0
LTYPE
  2
DOTX2
 70
    64
  3
点線B
 72
    65
 73
     2
 40
0.275
 49
0.15
 49
-0.125
  0
LTYPE
  2
CONTINUOUS
 70
    64
  3
実線
 72
    65
 73
     0
 40
0.0
  0
LTYPE
  2
CONTINUOUS
 70
    64
  3
実線
 72
    65
 73
     0
 40
0.0
  0
LTYPE
  2
CONTINUOUS
 70
    64
  3
実線
 72
    65
 73
     0
 40
0.0
  0
LTYPE
  2
CONTINUOUS
 70
    64
  3
実線
 72
    65
 73
     0
 40
0.0
  0
LTYPE
  2
CONTINUOUS
 70
    64
  3
実線
 72
    65
 73
     0
 40
0.0
  0
LTYPE
  2
CONTINUOUS
 70
    64
  3
実線
 72
    65
 73
     0
 40
0.0
  0
ENDTAB
  0
TABLE
  2
LAYER
 70
    34
  0
LAYER
  2
通り芯
 70
     0
 62
    15
  6
CONTINUOUS
  0
LAYER
  2
補助線
 70
     0
 62
    16
  6
DOT
  0
LAYER
  2
躯体
 70
     0
 62
    31
  6
CONTINUOUS
  0
LAYER
  2
型材
 70
     0
 62
    32
  6
CONTINUOUS
  0
LAYER
  2
型材断面
 70
     0
 62
    47
  6
CONTINUOUS
  0
LAYER
  2
ガラス
 70
     0
 62
    48
  6
CONTINUOUS
  0
LAYER
  2
ゴム等
 70
     0
 62
    63
  6
CONTINUOUS
  0
LAYER
  2
ボルト／ビス
 70
     0
 62
    64
  6
CONTINUOUS
  0
LAYER
  2
文字
 70
     0
 62
    79
  6
CONTINUOUS
  0
LAYER
  2
寸法
 70
     0
 62
    80
  6
CONTINUOUS
  0
LAYER
  2
ﾊｯﾁﾝｸﾞ
 70
     0
 62
    95
  6
CONTINUOUS
  0
LAYER
  2
別途部材
 70
     0
 62
    96
  6
CONTINUOUS
  0
LAYER
  2
曲げ物
 70
     0
 62
   111
  6
CONTINUOUS
  0
LAYER
  2
鉄骨等
 70
     0
 62
   112
  6
CONTINUOUS
  0
LAYER
  2
St
 70
     0
 62
   127
  6
CONTINUOUS
  0
LAYER
  2
その他部品等
 70
     0
 62
   128
  6
CONTINUOUS
  0
LAYER
  2
ｶﾞｽｹｯﾄ
 70
     0
 62
   143
  6
CONTINUOUS
  0
LAYER
  2
ｽｹｯﾁ
 70
     0
 62
    14
  6
CONTINUOUS
  0
LAYER
  2
0
 70
     0
 62
    17
  6
CONTINUOUS
  0
LAYER
  2
1
 70
     0
 62
    30
  6
CONTINUOUS
  0
LAYER
  2
4
 70
     0
 62
    33
  6
CONTINUOUS
  0
LAYER
  2
ﾚｲﾔ3
 70
     0
 62
    46
  6
CONTINUOUS
  0
LAYER
  2
外形線
 70
     0
 62
    49
  6
CONTINUOUS
  0
LAYER
  2
部品
 70
     0
 62
    14
  6
CONTINUOUS
  0
LAYER
  2
サッシ芯
 70
     0
 62
    17
  6
DASHDOTX2
  0
LAYER
  2
寸法線
 70
     0
 62
    62
  6
CONTINUOUS
  0
LAYER
  2
姿図外形線
 70
     0
 62
    65
  6
CONTINUOUS
  0
LAYER
  2
姿補助線
 70
     0
 62
    30
  6
CONTINUOUS
  0
LAYER
  2
透視線
 70
     0
 62
    78
  6
DOT
  0
LAYER
  2
用紙
 70
     0
 62
    81
  6
CONTINUOUS
  0
LAYER
  2
実線図枠
 70
     0
 62
    94
  6
CONTINUOUS
  0
LAYER
  2
補助図枠
 70
     0
 62
    97
  6
CONTINUOUS
  0
LAYER
  2
建具記号
 70
     0
 62
   110
  6
CONTINUOUS
  0
LAYER
  2
補助文字
 70
     0
 62
   113
  6
CONTINUOUS
  0
ENDTAB
  0
TABLE
  2
STYLE
 70
    10
  0
STYLE
  2
STANDARD
 70
     0
 40
1.0
 41
1.0
 42
1.0
 50
0.0
 71
     0
  3
TXT
  4
BIGFONT
  0
STYLE
  2
TATE
 70
     4
 40
1.0
 41
1.0
 42
1.0
 50
0.0
 71
     0
  3
TXT
  4
BIGFONT
  0
STYLE
  2
TextStyle03
 70
     0
 40
1.0
 41
1.0
 42
1.0
 50
0.0
 71
     0
  3
MONOTXT
  4
BIGFONT
  0
STYLE
  2
TextStyle04
 70
     0
 40
1.0
 41
1.0
 42
1.0
 50
0.0
 71
     0
  3
MONOTXT
  4
BIGFONT
  0
STYLE
  2
TextStyle05
 70
     0
 40
1.0
 41
1.0
 42
1.0
 50
0.0
 71
     0
  3
MONOTXT
  4
BIGFONT
  0
STYLE
  2
TextStyle06
 70
     0
 40
1.0
 41
1.0
 42
1.0
 50
0.0
 71
     0
  3
MONOTXT
  4
BIGFONT
  0
STYLE
  2
TextStyle07
 70
     0
 40
1.0
 41
1.0
 42
1.0
 50
0.0
 71
     0
  3
MONOTXT
  4
BIGFONT
  0
STYLE
  2
TextStyle08
 70
     0
 40
1.0
 41
1.0
 42
1.0
 50
0.0
 71
     0
  3
MONOTXT
  4
BIGFONT
  0
STYLE
  2
TextStyle09
 70
     0
 40
1.0
 41
1.0
 42
1.0
 50
0.0
 71
     0
  3
MONOTXT
  4
BIGFONT
  0
STYLE
  2
TextStyle10
 70
     0
 40
1.0
 41
1.0
 42
1.0
 50
0.0
 71
     0
  3
MONOTXT
  4
BIGFONT
  0
ENDTAB
  0
ENDSEC
  0
SECTION
  2
BLOCKS
  0
BLOCK
  2
*GRP_0001
 70
    65
 10
0.0
 20
0.0
  0
LINE
  8
型材断面
  6
CONTINUOUS
 10
195.0
 20
133.5
 11
195.0
 21
-133.5
  0
LINE
  8
型材断面
  6
CONTINUOUS
 10
195.0
 20
-133.5
 11
-185.0
 21
-133.5
  0
LINE
  8
型材断面
  6
CONTINUOUS
 10
-185.0
 20
-133.5
 11
-185.0
 21
133.5
  0
LINE
  8
型材断面
  6
CONTINUOUS
 10
195.0
 20
133.5
 11
-185.0
 21
133.5
  0
LINE
  8
型材断面
  6
CONTINUOUS
 10
145.0
 20
-133.5
 11
145.0
 21
-118.5
  0
LINE
  8
型材断面
  6
CONTINUOUS
 10
195.0
 20
-118.5
 11
145.0
 21
-118.5
  0
ENDBLK
  0
BLOCK
  2
*DIM_0002
 70
    65
 10
0.0
 20
0.0
  0
LINE
  8
寸法
  6
BYBLOCK
 62
     0
 10
32.616278
 20
-67.95793
 11
69.252595
 21
-67.95793
  0
LINE
  8
寸法
  6
BYBLOCK
 62
     0
 10
69.252595
 20
-79.624597
 11
69.252595
 21
-67.95793
  0
POINT
  8
寸法
 62
     0
 10
69.252595
 20
-79.624597
  0
POINT
  8
寸法
 62
     0
 10
69.252595
 20
-67.95793
  0
TEXT
  7
TextStyle03
  8
寸法
  6
CONTINUOUS
 62
     0
 10
68.9
 20
-76.2375
  1
350
 40
3.0
 50
90.0
 72
     5
 11
68.9
 21
-71.3625
  0
ENDBLK
  0
BLOCK
  2
*DIM_0003
 70
    65
 10
0.0
 20
0.0
  0
LINE
  8
寸法
  6
BYBLOCK
 62
     0
 10
53.282945
 20
-22.536362
 11
-96.717055
 21
-22.536362
  0
POINT
  8
寸法
 62
     0
 10
53.282945
 20
-22.536362
  0
POINT
  8
寸法
 62
     0
 10
-96.717055
 20
-22.536362
  0
TEXT
  7
TextStyle03
  8
寸法
  6
CONTINUOUS
 62
     0
 10
-33.44375
 20
-22.175
  1
呼称寸法　4500
 40
3.0
 72
     5
 11
-10.00625
 21
-22.175
  0
ENDBLK
  0
BLOCK
  2
*DIM_0004
 70
    65
 10
0.0
 20
0.0
  0
LINE
  8
寸法
  6
BYBLOCK
 62
     0
 10
-80.050388
 20
9.76892
 11
-80.050388
 21
4.855835
  0
LINE
  8
寸法
  6
BYBLOCK
 62
     0
 10
-21.717055
 20
9.76892
 11
-21.717055
 21
4.855835
  0
LINE
  8
寸法
  6
BYBLOCK
 62
     0
 10
-80.050388
 20
4.855835
 11
-21.717055
 21
4.855835
  0
POINT
  8
寸法
 62
     0
 10
-80.050388
 20
4.855835
  0
POINT
  8
寸法
 62
     0
 10
-21.717055
 20
4.855835
  0
TEXT
  7
TextStyle03
  8
寸法
  6
CONTINUOUS
 62
     0
 10
-54.18125
 20
5.225
  1
1750
 40
3.0
 72
     5
 11
-47.61875
 21
5.225
  0
ENDBLK
  0
BLOCK
  2
*DIM_0005
 70
    65
 10
0.0
 20
0.0
  0
LINE
  8
寸法
  6
BYBLOCK
 62
     0
 10
36.616278
 20
9.76892
 11
36.616278
 21
4.855835
  0
LINE
  8
寸法
  6
BYBLOCK
 62
     0
 10
-21.717055
 20
4.855835
 11
36.616278
 21
4.855835
  0
POINT
  8
寸法
 62
     0
 10
36.616278
 20
4.855835
  0
TEXT
  7
TextStyle03
  8
寸法
  6
CONTINUOUS
 62
     0
 10
4.14375
 20
5.225
  1
1750
 40
3.0
 72
     5
 11
10.70625
 21
5.225
  0
ENDBLK
  0
BLOCK
  2
*DIM_0006
 70
    65
 10
0.0
 20
0.0
  0
LINE
  8
寸法
  6
BYBLOCK
 62
     0
 10
87.302595
 20
13.399048
 11
87.302595
 21
56.73238
  0
POINT
  8
寸法
 62
     0
 10
87.302595
 20
13.399048
  0
POINT
  8
寸法
 62
     0
 10
87.302595
 20
56.73238
  0
TEXT
  7
TextStyle03
  8
寸法
  6
CONTINUOUS
 62
     0
 10
86.95
 20
23.33125
  1
呼称寸法　1300
 40
3.0
 50
90.0
 72
     5
 11
86.95
 21
46.76875
  0
ENDBLK
  0
BLOCK
  2
*DIM_0007
 70
    65
 10
0.0
 20
0.0
  0
LINE
  8
寸法
  6
BYBLOCK
 62
     0
 10
131.149542
 20
36.065715
 11
131.149542
 21
72.668433
  0
LINE
  8
寸法
  6
BYBLOCK
 62
     0
 10
142.81621
 20
72.668433
 11
131.149542
 21
72.668433
  0
POINT
  8
寸法
 62
     0
 10
131.149542
 20
72.668433
  0
TEXT
  7
TextStyle03
  8
寸法
  6
CONTINUOUS
 62
     0
 10
134.5625
 20
73.025
  1
350
 40
3.0
 72
     5
 11
139.4375
 21
73.025
  0
ENDBLK
  0
BLOCK
  2
*DIM_0008
 70
    65
 10
0.0
 20
0.0
  0
LINE
  8
寸法
  6
BYBLOCK
 62
     0
 10
142.81621
 20
59.39905
 11
142.81621
 21
72.668433
  0
LINE
  8
寸法
  6
BYBLOCK
 62
     0
 10
149.599495
 20
59.69905
 11
149.599495
 21
72.668433
  0
LINE
  8
寸法
  6
BYBLOCK
 62
     0
 10
142.81621
 20
72.668433
 11
149.599495
 21
72.668433
  0
POINT
  8
寸法
 62
     0
 10
142.81621
 20
72.668433
  0
POINT
  8
寸法
 62
     0
 10
149.599495
 20
72.668433
  0
TEXT
  7
TextStyle03
  8
寸法
  6
CONTINUOUS
 62
     0
 10
150.475
 20
73.025
  1
203.5
 40
3.0
 72
     5
 11
158.725
 21
73.025
  0
ENDBLK
  0
BLOCK
  2
*DIM_0009
 70
    65
 10
0.0
 20
0.0
  0
LINE
  8
寸法
  6
BYBLOCK
 62
     0
 10
55.949612
 20
-79.624597
 11
69.252595
 21
-79.624597
  0
LINE
  8
寸法
  6
BYBLOCK
 62
     0
 10
56.249612
 20
-86.407882
 11
69.252595
 21
-86.407882
  0
LINE
  8
寸法
  6
BYBLOCK
 62
     0
 10
69.252595
 20
-79.624597
 11
69.252595
 21
-86.407882
  0
POINT
  8
寸法
 62
     0
 10
69.252595
 20
-79.624597
  0
POINT
  8
寸法
 62
     0
 10
69.252595
 20
-86.407882
  0
TEXT
  7
TextStyle03
  8
寸法
  6
CONTINUOUS
 62
     0
 10
68.85
 20
-95.575
  1
203.5
 40
3.0
 50
90.0
 72
     5
 11
68.85
 21
-87.325
  0
ENDBLK
  0
BLOCK
  2
*DIM_0010
 70
    65
 10
0.0
 20
0.0
  0
LINE
  8
寸法
  6
BYBLOCK
 62
     0
 10
145.638853
 20
59.012385
 11
87.302595
 21
59.012385
  0
LINE
  8
寸法
  6
BYBLOCK
 62
     0
 10
87.302595
 20
56.73238
 11
87.302595
 21
59.012385
  0
POINT
  8
寸法
 62
     0
 10
87.302595
 20
56.73238
  0
POINT
  8
寸法
 62
     0
 10
87.302595
 20
59.012385
  0
TEXT
  7
TextStyle03
  8
寸法
  6
CONTINUOUS
 62
     0
 10
86.9
 20
61.31875
  1
68.4
 40
3.0
 50
90.0
 72
     5
 11
86.9
 21
67.88125
  0
ENDBLK
  0
BLOCK
  2
*DIM_0011
 70
    65
 10
0.0
 20
0.0
  0
LINE
  8
寸法
  6
BYBLOCK
 62
     0
 10
145.638853
 20
11.119045
 11
87.302595
 21
11.119045
  0
LINE
  8
寸法
  6
BYBLOCK
 62
     0
 10
87.302595
 20
13.399048
 11
87.302595
 21
11.119045
  0
POINT
  8
寸法
 62
     0
 10
87.302595
 20
13.399048
  0
POINT
  8
寸法
 62
     0
 10
87.302595
 20
11.119045
  0
TEXT
  7
TextStyle03
  8
寸法
  6
CONTINUOUS
 62
     0
 10
86.9
 20
2.21875
  1
68.4
 40
3.0
 50
90.0
 72
     5
 11
86.9
 21
8.78125
  0
ENDBLK
  0
BLOCK
  2
*DIM_0012
 70
    65
 10
0.0
 20
0.0
  0
LINE
  8
寸法
  6
BYBLOCK
 62
     0
 10
55.562947
 20
-82.44724
 11
55.562947
 21
-22.536362
  0
LINE
  8
寸法
  6
BYBLOCK
 62
     0
 10
53.282945
 20
-22.536362
 11
55.562947
 21
-22.536362
  0
POINT
  8
寸法
 62
     0
 10
53.282945
 20
-22.536362
  0
POINT
  8
寸法
 62
     0
 10
55.562947
 20
-22.536362
  0
TEXT
  7
TextStyle03
  8
寸法
  6
CONTINUOUS
 62
     0
 10
57.84375
 20
-22.175
  1
68.4
 40
3.0
 72
     5
 11
64.40625
 21
-22.175
  0
ENDBLK
  0
BLOCK
  2
*DIM_0013
 70
    65
 10
0.0
 20
0.0
  0
LINE
  8
寸法
  6
BYBLOCK
 62
     0
 10
-98.997058
 20
-82.44724
 11
-98.997058
 21
-22.536362
  0
LINE
  8
寸法
  6
BYBLOCK
 62
     0
 10
-96.717055
 20
-22.536362
 11
-98.997058
 21
-22.536362
  0
POINT
  8
寸法
 62
     0
 10
-96.717055
 20
-22.536362
  0
POINT
  8
寸法
 62
     0
 10
-98.997058
 20
-22.536362
  0
TEXT
  7
TextStyle03
  8
寸法
  6
CONTINUOUS
 62
     0
 10
-107.90625
 20
-22.175
  1
68.4
 40
3.0
 72
     5
 11
-101.34375
 21
-22.175
  0
ENDBLK
  0
BLOCK
  2
*DIM_0014
 70
    65
 10
0.0
 20
0.0
  0
LINE
  8
寸法
  6
BYBLOCK
 62
     0
 10
111.836168
 20
-48.867045
 11
111.836168
 21
-35.520172
  0
LINE
  8
寸法
  6
BYBLOCK
 62
     0
 10
148.1695
 20
-48.867045
 11
148.1695
 21
-35.520172
  0
LINE
  8
寸法
  6
BYBLOCK
 62
     0
 10
111.836168
 20
-35.520172
 11
148.1695
 21
-35.520172
  0
POINT
  8
寸法
 62
     0
 10
111.836168
 20
-35.520172
  0
POINT
  8
寸法
 62
     0
 10
148.1695
 20
-35.520172
  0
TEXT
  7
TextStyle03
  8
寸法
  6
CONTINUOUS
 62
     0
 10
126.71875
 20
-35.15
  1
1090
 40
3.0
 72
     5
 11
133.28125
 21
-35.15
  0
ENDBLK
  0
BLOCK
  2
*DIM_0015
 70
    65
 10
0.0
 20
0.0
  0
LINE
  8
寸法
  6
BYBLOCK
 62
     0
 10
149.1695
 20
-49.867045
 11
159.34856
 21
-49.867045
  0
LINE
  8
寸法
  6
BYBLOCK
 62
     0
 10
149.1695
 20
-92.533713
 11
159.34856
 21
-92.533713
  0
LINE
  8
寸法
  6
BYBLOCK
 62
     0
 10
159.34856
 20
-49.867045
 11
159.34856
 21
-92.533713
  0
POINT
  8
寸法
 62
     0
 10
159.34856
 20
-49.867045
  0
POINT
  8
寸法
 62
     0
 10
159.34856
 20
-92.533713
  0
TEXT
  7
TextStyle03
  8
寸法
  6
CONTINUOUS
 62
     0
 10
158.95
 20
-74.50625
  1
1280
 40
3.0
 50
90.0
 72
     5
 11
158.95
 21
-67.94375
  0
ENDBLK
  0
BLOCK
  2
*DIM_0016
 70
    65
 10
0.0
 20
0.0
  0
LINE
  8
寸法
  6
BYBLOCK
 62
     0
 10
56.913073
 20
52.83238
 11
63.690365
 21
52.83238
  0
LINE
  8
寸法
  6
BYBLOCK
 62
     0
 10
63.690365
 20
56.73238
 11
63.690365
 21
52.83238
  0
POINT
  8
寸法
 62
     0
 10
63.690365
 20
56.73238
  0
POINT
  8
寸法
 62
     0
 10
63.690365
 20
52.83238
  0
TEXT
  7
TextStyle03
  8
寸法
  6
CONTINUOUS
 62
     0
 10
63.35
 20
57.4125
  1
117
 40
3.0
 50
90.0
 72
     5
 11
63.35
 21
62.2875
  0
ENDBLK
  0
BLOCK
  2
*DIM_0017
 70
    65
 10
0.0
 20
0.0
  0
LINE
  8
寸法
  6
BYBLOCK
 62
     0
 10
56.913073
 20
17.29905
 11
63.690365
 21
17.29905
  0
LINE
  8
寸法
  6
BYBLOCK
 62
     0
 10
63.690365
 20
13.39905
 11
63.690365
 21
17.29905
  0
POINT
  8
寸法
 62
     0
 10
63.690365
 20
13.39905
  0
POINT
  8
寸法
 62
     0
 10
63.690365
 20
17.29905
  0
TEXT
  7
TextStyle03
  8
寸法
  6
CONTINUOUS
 62
     0
 10
63.775
 20
7.4625
  1
117
 40
3.0
 50
90.0
 72
     5
 11
63.775
 21
12.3375
  0
ENDBLK
  0
BLOCK
  2
*GRP_0018
 70
    65
 10
0.0
 20
0.0
  0
LINE
  8
別途部材
  6
CONTINUOUS
 62
    96
 10
-98.38372
 20
-79.624597
 11
-98.78372
 21
-80.624597
  0
ARC
  8
別途部材
  6
CONTINUOUS
 10
-75.050386
 20
-93.910312
 40
25.952382
 50
90.0
 51
146.601512
  0
LINE
  8
別途部材
  6
CONTINUOUS
 62
    96
 10
-98.38372
 20
-79.624597
 11
-21.717055
 21
-79.624597
  0
LINE
  8
別途部材
  6
CONTINUOUS
 10
-98.78372
 20
-80.624597
 11
-21.717055
 21
-80.624597
  0
LINE
  8
別途部材
  6
CONTINUOUS
 10
-22.217055
 20
-66.95793
 11
-23.217055
 21
-67.95793
  0
LINE
  8
別途部材
  6
CONTINUOUS
 10
-24.217055
 20
-67.95793
 11
-25.217055
 21
-66.95793
  0
LINE
  8
別途部材
  6
CONTINUOUS
 10
-26.217055
 20
-66.95793
 11
-27.217055
 21
-67.95793
  0
LINE
  8
別途部材
  6
CONTINUOUS
 10
-25.217055
 20
-66.95793
 11
-26.217055
 21
-66.95793
  0
LINE
  8
別途部材
  6
CONTINUOUS
 10
-22.217055
 20
-66.95793
 11
-21.717055
 21
-66.95793
  0
LINE
  8
別途部材
  6
CONTINUOUS
 10
-28.217055
 20
-67.95793
 11
-29.217055
 21
-66.95793
  0
LINE
  8
別途部材
  6
CONTINUOUS
 10
-30.217055
 20
-66.95793
 11
-31.217055
 21
-67.95793
  0
LINE
  8
別途部材
  6
CONTINUOUS
 10
-29.217055
 20
-66.95793
 11
-30.217055
 21
-66.95793
  0
LINE
  8
別途部材
  6
CONTINUOUS
 10
-32.217055
 20
-67.95793
 11
-33.217055
 21
-66.95793
  0
LINE
  8
別途部材
  6
CONTINUOUS
 10
-34.217055
 20
-66.95793
 11
-35.217055
 21
-67.95793
  0
LINE
  8
別途部材
  6
CONTINUOUS
 10
-33.217055
 20
-66.95793
 11
-34.217055
 21
-66.95793
  0
LINE
  8
別途部材
  6
CONTINUOUS
 10
-36.217055
 20
-67.95793
 11
-37.217055
 21
-66.95793
  0
LINE
  8
別途部材
  6
CONTINUOUS
 10
-38.217055
 20
-66.95793
 11
-39.217055
 21
-67.95793
  0
LINE
  8
別途部材
  6
CONTINUOUS
 10
-37.217055
 20
-66.95793
 11
-38.217055
 21
-66.95793
  0
LINE
  8
別途部材
  6
CONTINUOUS
 10
-40.217055
 20
-67.95793
 11
-41.217055
 21
-66.95793
  0
LINE
  8
別途部材
  6
CONTINUOUS
 10
-42.217055
 20
-66.95793
 11
-43.217055
 21
-67.95793
  0
LINE
  8
別途部材
  6
CONTINUOUS
 10
-41.217055
 20
-66.95793
 11
-42.217055
 21
-66.95793
  0
LINE
  8
別途部材
  6
CONTINUOUS
 10
-44.217055
 20
-67.95793
 11
-45.217055
 21
-66.95793
  0
LINE
  8
別途部材
  6
CONTINUOUS
 10
-46.217055
 20
-66.95793
 11
-47.217055
 21
-67.95793
  0
LINE
  8
別途部材
  6
CONTINUOUS
 10
-45.217055
 20
-66.95793
 11
-46.217055
 21
-66.95793
  0
LINE
  8
別途部材
  6
CONTINUOUS
 10
-48.217055
 20
-67.95793
 11
-49.217055
 21
-66.95793
  0
LINE
  8
別途部材
  6
CONTINUOUS
 10
-50.217055
 20
-66.95793
 11
-51.217055
 21
-67.95793
  0
LINE
  8
別途部材
  6
CONTINUOUS
 10
-49.217055
 20
-66.95793
 11
-50.217055
 21
-66.95793
  0
LINE
  8
別途部材
  6
CONTINUOUS
 10
-52.217055
 20
-67.95793
 11
-53.217055
 21
-66.95793
  0
LINE
  8
別途部材
  6
CONTINUOUS
 10
-54.217055
 20
-66.95793
 11
-55.217055
 21
-67.95793
  0
LINE
  8
別途部材
  6
CONTINUOUS
 10
-53.217055
 20
-66.95793
 11
-54.217055
 21
-66.95793
  0
LINE
  8
別途部材
  6
CONTINUOUS
 10
-56.217055
 20
-67.95793
 11
-57.217055
 21
-66.95793
  0
LINE
  8
別途部材
  6
CONTINUOUS
 10
-58.217055
 20
-66.95793
 11
-59.217055
 21
-67.95793
  0
LINE
  8
別途部材
  6
CONTINUOUS
 10
-57.217055
 20
-66.95793
 11
-58.217055
 21
-66.95793
  0
LINE
  8
別途部材
  6
CONTINUOUS
 10
-60.217055
 20
-67.95793
 11
-61.217055
 21
-66.95793
  0
LINE
  8
別途部材
  6
CONTINUOUS
 10
-62.217055
 20
-66.95793
 11
-63.217055
 21
-67.95793
  0
LINE
  8
別途部材
  6
CONTINUOUS
 10
-61.217055
 20
-66.95793
 11
-62.217055
 21
-66.95793
  0
LINE
  8
別途部材
  6
CONTINUOUS
 10
-64.217055
 20
-67.95793
 11
-65.217055
 21
-66.95793
  0
LINE
  8
別途部材
  6
CONTINUOUS
 10
-66.217055
 20
-66.95793
 11
-67.217055
 21
-67.95793
  0
LINE
  8
別途部材
  6
CONTINUOUS
 10
-65.217055
 20
-66.95793
 11
-66.217055
 21
-66.95793
  0
LINE
  8
別途部材
  6
CONTINUOUS
 10
-63.217055
 20
-67.95793
 11
-64.217055
 21
-67.95793
  0
LINE
  8
別途部材
  6
CONTINUOUS
 10
-59.217055
 20
-67.95793
 11
-60.217055
 21
-67.95793
  0
LINE
  8
別途部材
  6
CONTINUOUS
 10
-55.217055
 20
-67.95793
 11
-56.217055
 21
-67.95793
  0
LINE
  8
別途部材
  6
CONTINUOUS
 10
-51.217055
 20
-67.95793
 11
-52.217055
 21
-67.95793
  0
LINE
  8
別途部材
  6
CONTINUOUS
 10
-47.217055
 20
-67.95793
 11
-48.217055
 21
-67.95793
  0
LINE
  8
別途部材
  6
CONTINUOUS
 10
-43.217055
 20
-67.95793
 11
-44.217055
 21
-67.95793
  0
LINE
  8
別途部材
  6
CONTINUOUS
 10
-39.217055
 20
-67.95793
 11
-40.217055
 21
-67.95793
  0
LINE
  8
別途部材
  6
CONTINUOUS
 10
-35.217055
 20
-67.95793
 11
-36.217055
 21
-67.95793
  0
LINE
  8
別途部材
  6
CONTINUOUS
 10
-31.217055
 20
-67.95793
 11
-32.217055
 21
-67.95793
  0
LINE
  8
別途部材
  6
CONTINUOUS
 10
-27.217055
 20
-67.95793
 11
-28.217055
 21
-67.95793
  0
LINE
  8
別途部材
  6
CONTINUOUS
 10
-24.217055
 20
-67.95793
 11
-23.217055
 21
-67.95793
  0
LINE
  8
別途部材
  6
CONTINUOUS
 10
-64.217055
 20
-67.95793
 11
-64.217055
 21
-79.624597
  0
LINE
  8
別途部材
  6
CONTINUOUS
 10
-63.217055
 20
-67.95793
 11
-63.217055
 21
-79.624597
  0
LINE
  8
別途部材
  6
CONTINUOUS
 10
-65.217055
 20
-66.95793
 11
-65.217055
 21
-79.624597
  0
LINE
  8
別途部材
  6
CONTINUOUS
 10
-67.217055
 20
-67.95793
 11
-67.217055
 21
-79.624597
  0
LINE
  8
別途部材
  6
CONTINUOUS
 10
-66.217055
 20
-66.95793
 11
-66.217055
 21
-79.624597
  0
LINE
  8
別途部材
  6
CONTINUOUS
 10
-56.217055
 20
-67.95793
 11
-56.217055
 21
-79.624597
  0
LINE
  8
別途部材
  6
CONTINUOUS
 10
-58.217055
 20
-66.95793
 11
-58.217055
 21
-79.624597
  0
LINE
  8
別途部材
  6
CONTINUOUS
 10
-59.217055
 20
-67.95793
 11
-59.217055
 21
-79.624597
  0
LINE
  8
別途部材
  6
CONTINUOUS
 10
-61.217055
 20
-66.95793
 11
-61.217055
 21
-79.624597
  0
LINE
  8
別途部材
  6
CONTINUOUS
 10
-62.217055
 20
-66.95793
 11
-62.217055
 21
-79.624597
  0
LINE
  8
別途部材
  6
CONTINUOUS
 10
-60.217055
 20
-67.95793
 11
-60.217055
 21
-79.624597
  0
LINE
  8
別途部材
  6
CONTINUOUS
 10
-57.217055
 20
-66.95793
 11
-57.217055
 21
-79.624597
  0
LINE
  8
別途部材
  6
CONTINUOUS
 10
-55.217055
 20
-67.95793
 11
-55.217055
 21
-79.624597
  0
LINE
  8
別途部材
  6
CONTINUOUS
 10
-54.217055
 20
-66.95793
 11
-54.217055
 21
-79.624597
  0
LINE
  8
別途部材
  6
CONTINUOUS
 10
-44.217055
 20
-67.95793
 11
-44.217055
 21
-79.624597
  0
LINE
  8
別途部材
  6
CONTINUOUS
 10
-38.217055
 20
-66.95793
 11
-38.217055
 21
-79.624597
  0
LINE
  8
別途部材
  6
CONTINUOUS
 10
-37.217055
 20
-66.95793
 11
-37.217055
 21
-79.624597
  0
LINE
  8
別途部材
  6
CONTINUOUS
 10
-27.217055
 20
-67.95793
 11
-27.217055
 21
-79.624597
  0
LINE
  8
別途部材
  6
CONTINUOUS
 10
-22.217055
 20
-66.95793
 11
-22.217055
 21
-79.624597
  0
LINE
  8
別途部材
  6
CONTINUOUS
 10
-23.217055
 20
-67.95793
 11
-23.217055
 21
-79.624597
  0
LINE
  8
別途部材
  6
CONTINUOUS
 10
-25.217055
 20
-66.95793
 11
-25.217055
 21
-79.624597
  0
LINE
  8
別途部材
  6
CONTINUOUS
 10
-26.217055
 20
-66.95793
 11
-26.217055
 21
-79.624597
  0
LINE
  8
別途部材
  6
CONTINUOUS
 10
-28.217055
 20
-67.95793
 11
-28.217055
 21
-79.624597
  0
LINE
  8
別途部材
  6
CONTINUOUS
 10
-39.217055
 20
-67.95793
 11
-39.217055
 21
-79.624597
  0
LINE
  8
別途部材
  6
CONTINUOUS
 10
-40.217055
 20
-67.95793
 11
-40.217055
 21
-79.624597
  0
LINE
  8
別途部材
  6
CONTINUOUS
 10
-45.217055
 20
-66.95793
 11
-45.217055
 21
-79.624597
  0
LINE
  8
別途部材
  6
CONTINUOUS
 10
-47.217055
 20
-67.95793
 11
-47.217055
 21
-79.624597
  0
LINE
  8
別途部材
  6
CONTINUOUS
 10
-50.217055
 20
-66.95793
 11
-50.217055
 21
-79.624597
  0
LINE
  8
別途部材
  6
CONTINUOUS
 10
-53.217055
 20
-66.95793
 11
-53.217055
 21
-79.624597
  0
LINE
  8
別途部材
  6
CONTINUOUS
 10
-46.217055
 20
-66.95793
 11
-46.217055
 21
-79.624597
  0
LINE
  8
別途部材
  6
CONTINUOUS
 10
-48.217055
 20
-67.95793
 11
-48.217055
 21
-79.624597
  0
LINE
  8
別途部材
  6
CONTINUOUS
 10
-51.217055
 20
-67.95793
 11
-51.217055
 21
-79.624597
  0
LINE
  8
別途部材
  6
CONTINUOUS
 10
-52.217055
 20
-67.95793
 11
-52.217055
 21
-79.624597
  0
LINE
  8
別途部材
  6
CONTINUOUS
 10
-42.217055
 20
-66.95793
 11
-42.217055
 21
-79.624597
  0
LINE
  8
別途部材
  6
CONTINUOUS
 10
-41.217055
 20
-66.95793
 11
-41.217055
 21
-79.624597
  0
LINE
  8
別途部材
  6
CONTINUOUS
 10
-43.217055
 20
-67.95793
 11
-43.217055
 21
-79.624597
  0
LINE
  8
別途部材
  6
CONTINUOUS
 10
-49.217055
 20
-66.95793
 11
-49.217055
 21
-79.624597
  0
LINE
  8
別途部材
  6
CONTINUOUS
 10
-35.217055
 20
-67.95793
 11
-35.217055
 21
-79.624597
  0
LINE
  8
別途部材
  6
CONTINUOUS
 10
-36.217055
 20
-67.95793
 11
-36.217055
 21
-79.624597
  0
LINE
  8
別途部材
  6
CONTINUOUS
 10
-34.217055
 20
-66.95793
 11
-34.217055
 21
-79.624597
  0
LINE
  8
別途部材
  6
CONTINUOUS
 10
-32.217055
 20
-67.95793
 11
-32.217055
 21
-79.624597
  0
LINE
  8
別途部材
  6
CONTINUOUS
 10
-33.217055
 20
-66.95793
 11
-33.217055
 21
-79.624597
  0
LINE
  8
別途部材
  6
CONTINUOUS
 10
-31.217055
 20
-67.95793
 11
-31.217055
 21
-79.624597
  0
LINE
  8
別途部材
  6
CONTINUOUS
 10
-29.217055
 20
-66.95793
 11
-29.217055
 21
-79.624597
  0
LINE
  8
別途部材
  6
CONTINUOUS
 10
-30.217055
 20
-66.95793
 11
-30.217055
 21
-79.624597
  0
LINE
  8
別途部材
  6
CONTINUOUS
 10
-24.217055
 20
-67.95793
 11
-24.217055
 21
-79.624597
  0
LINE
  8
別途部材
  6
CONTINUOUS
 10
-68.217055
 20
-67.95793
 11
-69.217055
 21
-66.95793
  0
LINE
  8
別途部材
  6
CONTINUOUS
 10
-70.217055
 20
-66.95793
 11
-71.217055
 21
-67.95793
  0
LINE
  8
別途部材
  6
CONTINUOUS
 10
-69.217055
 20
-66.95793
 11
-70.217055
 21
-66.95793
  0
LINE
  8
別途部材
  6
CONTINUOUS
 10
-72.217055
 20
-67.95793
 11
-73.217055
 21
-66.95793
  0
LINE
  8
別途部材
  6
CONTINUOUS
 10
-74.217055
 20
-66.95793
 11
-75.217055
 21
-67.95793
  0
LINE
  8
別途部材
  6
CONTINUOUS
 10
-73.217055
 20
-66.95793
 11
-74.217055
 21
-66.95793
  0
LINE
  8
別途部材
  6
CONTINUOUS
 10
-71.217055
 20
-67.95793
 11
-72.217055
 21
-67.95793
  0
LINE
  8
別途部材
  6
CONTINUOUS
 10
-67.217055
 20
-67.95793
 11
-68.217055
 21
-67.95793
  0
LINE
  8
別途部材
  6
CONTINUOUS
 10
-74.217055
 20
-66.95793
 11
-74.217055
 21
-79.624597
  0
LINE
  8
別途部材
  6
CONTINUOUS
 10
-73.217055
 20
-66.95793
 11
-73.217055
 21
-79.624597
  0
LINE
  8
別途部材
  6
CONTINUOUS
 10
-75.217055
 20
-67.95793
 11
-75.217055
 21
-79.624597
  0
LINE
  8
別途部材
  6
CONTINUOUS
 10
-71.217055
 20
-67.95793
 11
-71.217055
 21
-79.624597
  0
LINE
  8
別途部材
  6
CONTINUOUS
 10
-72.217055
 20
-67.95793
 11
-72.217055
 21
-79.624597
  0
LINE
  8
別途部材
  6
CONTINUOUS
 10
-70.217055
 20
-66.95793
 11
-70.217055
 21
-79.624597
  0
LINE
  8
別途部材
  6
CONTINUOUS
 10
-68.217055
 20
-67.95793
 11
-68.217055
 21
-79.624597
  0
LINE
  8
別途部材
  6
CONTINUOUS
 10
-69.217055
 20
-66.95793
 11
-69.217055
 21
-79.624597
  0
LINE
  8
別途部材
  6
CONTINUOUS
 62
    96
 10
54.949612
 20
-79.624597
 11
55.349612
 21
-80.624597
  0
ARC
  8
別途部材
  6
CONTINUOUS
 10
31.616277
 20
-93.910312
 40
25.952382
 50
33.398488
 51
90.0
  0
LINE
  8
別途部材
  6
CONTINUOUS
 62
    96
 10
54.949612
 20
-79.624597
 11
-21.717055
 21
-79.624597
  0
LINE
  8
別途部材
  6
CONTINUOUS
 10
55.349612
 20
-80.624597
 11
-21.717055
 21
-80.624597
  0
LINE
  8
別途部材
  6
CONTINUOUS
 10
-21.217055
 20
-66.95793
 11
-20.217055
 21
-67.95793
  0
LINE
  8
別途部材
  6
CONTINUOUS
 10
-19.217055
 20
-67.95793
 11
-18.217055
 21
-66.95793
  0
LINE
  8
別途部材
  6
CONTINUOUS
 10
-17.217055
 20
-66.95793
 11
-16.217055
 21
-67.95793
  0
LINE
  8
別途部材
  6
CONTINUOUS
 10
-18.217055
 20
-66.95793
 11
-17.217055
 21
-66.95793
  0
LINE
  8
別途部材
  6
CONTINUOUS
 10
-21.217055
 20
-66.95793
 11
-21.717055
 21
-66.95793
  0
LINE
  8
別途部材
  6
CONTINUOUS
 10
-15.217055
 20
-67.95793
 11
-14.217055
 21
-66.95793
  0
LINE
  8
別途部材
  6
CONTINUOUS
 10
-13.217055
 20
-66.95793
 11
-12.217055
 21
-67.95793
  0
LINE
  8
別途部材
  6
CONTINUOUS
 10
-14.217055
 20
-66.95793
 11
-13.217055
 21
-66.95793
  0
LINE
  8
別途部材
  6
CONTINUOUS
 10
-11.217055
 20
-67.95793
 11
-10.217055
 21
-66.95793
  0
LINE
  8
別途部材
  6
CONTINUOUS
 10
-9.217055
 20
-66.95793
 11
-8.217055
 21
-67.95793
  0
LINE
  8
別途部材
  6
CONTINUOUS
 10
-10.217055
 20
-66.95793
 11
-9.217055
 21
-66.95793
  0
LINE
  8
別途部材
  6
CONTINUOUS
 10
-7.217055
 20
-67.95793
 11
-6.217055
 21
-66.95793
  0
LINE
  8
別途部材
  6
CONTINUOUS
 10
-5.217055
 20
-66.95793
 11
-4.217055
 21
-67.95793
  0
LINE
  8
別途部材
  6
CONTINUOUS
 10
-6.217055
 20
-66.95793
 11
-5.217055
 21
-66.95793
  0
LINE
  8
別途部材
  6
CONTINUOUS
 10
-3.217055
 20
-67.95793
 11
-2.217055
 21
-66.95793
  0
LINE
  8
別途部材
  6
CONTINUOUS
 10
-1.217055
 20
-66.95793
 11
-0.217055
 21
-67.95793
  0
LINE
  8
別途部材
  6
CONTINUOUS
 10
-2.217055
 20
-66.95793
 11
-1.217055
 21
-66.95793
  0
LINE
  8
別途部材
  6
CONTINUOUS
 10
0.782945
 20
-67.95793
 11
1.782945
 21
-66.95793
  0
LINE
  8
別途部材
  6
CONTINUOUS
 10
2.782945
 20
-66.95793
 11
3.782945
 21
-67.95793
  0
LINE
  8
別途部材
  6
CONTINUOUS
 10
1.782945
 20
-66.95793
 11
2.782945
 21
-66.95793
  0
LINE
  8
別途部材
  6
CONTINUOUS
 10
4.782945
 20
-67.95793
 11
5.782945
 21
-66.95793
  0
LINE
  8
別途部材
  6
CONTINUOUS
 10
6.782945
 20
-66.95793
 11
7.782945
 21
-67.95793
  0
LINE
  8
別途部材
  6
CONTINUOUS
 10
5.782945
 20
-66.95793
 11
6.782945
 21
-66.95793
  0
LINE
  8
別途部材
  6
CONTINUOUS
 10
8.782945
 20
-67.95793
 11
9.782945
 21
-66.95793
  0
LINE
  8
別途部材
  6
CONTINUOUS
 10
10.782945
 20
-66.95793
 11
11.782945
 21
-67.95793
  0
LINE
  8
別途部材
  6
CONTINUOUS
 10
9.782945
 20
-66.95793
 11
10.782945
 21
-66.95793
  0
LINE
  8
別途部材
  6
CONTINUOUS
 10
12.782945
 20
-67.95793
 11
13.782945
 21
-66.95793
  0
LINE
  8
別途部材
  6
CONTINUOUS
 10
14.782945
 20
-66.95793
 11
15.782945
 21
-67.95793
  0
LINE
  8
別途部材
  6
CONTINUOUS
 10
13.782945
 20
-66.95793
 11
14.782945
 21
-66.95793
  0
LINE
  8
別途部材
  6
CONTINUOUS
 10
16.782945
 20
-67.95793
 11
17.782945
 21
-66.95793
  0
LINE
  8
別途部材
  6
CONTINUOUS
 10
18.782945
 20
-66.95793
 11
19.782945
 21
-67.95793
  0
LINE
  8
別途部材
  6
CONTINUOUS
 10
17.782945
 20
-66.95793
 11
18.782945
 21
-66.95793
  0
LINE
  8
別途部材
  6
CONTINUOUS
 10
20.782945
 20
-67.95793
 11
21.782945
 21
-66.95793
  0
LINE
  8
別途部材
  6
CONTINUOUS
 10
22.782945
 20
-66.95793
 11
23.782945
 21
-67.95793
  0
LINE
  8
別途部材
  6
CONTINUOUS
 10
21.782945
 20
-66.95793
 11
22.782945
 21
-66.95793
  0
LINE
  8
別途部材
  6
CONTINUOUS
 10
19.782945
 20
-67.95793
 11
20.782945
 21
-67.95793
  0
LINE
  8
別途部材
  6
CONTINUOUS
 10
15.782945
 20
-67.95793
 11
16.782945
 21
-67.95793
  0
LINE
  8
別途部材
  6
CONTINUOUS
 10
11.782945
 20
-67.95793
 11
12.782945
 21
-67.95793
  0
LINE
  8
別途部材
  6
CONTINUOUS
 10
7.782945
 20
-67.95793
 11
8.782945
 21
-67.95793
  0
LINE
  8
別途部材
  6
CONTINUOUS
 10
3.782945
 20
-67.95793
 11
4.782945
 21
-67.95793
  0
LINE
  8
別途部材
  6
CONTINUOUS
 10
-0.217055
 20
-67.95793
 11
0.782945
 21
-67.95793
  0
LINE
  8
別途部材
  6
CONTINUOUS
 10
-4.217055
 20
-67.95793
 11
-3.217055
 21
-67.95793
  0
LINE
  8
別途部材
  6
CONTINUOUS
 10
-8.217055
 20
-67.95793
 11
-7.217055
 21
-67.95793
  0
LINE
  8
別途部材
  6
CONTINUOUS
 10
-12.217055
 20
-67.95793
 11
-11.217055
 21
-67.95793
  0
LINE
  8
別途部材
  6
CONTINUOUS
 10
-16.217055
 20
-67.95793
 11
-15.217055
 21
-67.95793
  0
LINE
  8
別途部材
  6
CONTINUOUS
 10
-19.217055
 20
-67.95793
 11
-20.217055
 21
-67.95793
  0
LINE
  8
別途部材
  6
CONTINUOUS
 10
20.782945
 20
-67.95793
 11
20.782945
 21
-79.624597
  0
LINE
  8
別途部材
  6
CONTINUOUS
 10
19.782945
 20
-67.95793
 11
19.782945
 21
-79.624597
  0
LINE
  8
別途部材
  6
CONTINUOUS
 10
21.782945
 20
-66.95793
 11
21.782945
 21
-79.624597
  0
LINE
  8
別途部材
  6
CONTINUOUS
 10
23.782945
 20
-67.95793
 11
23.782945
 21
-79.624597
  0
LINE
  8
別途部材
  6
CONTINUOUS
 10
22.782945
 20
-66.95793
 11
22.782945
 21
-79.624597
  0
LINE
  8
別途部材
  6
CONTINUOUS
 10
12.782945
 20
-67.95793
 11
12.782945
 21
-79.624597
  0
LINE
  8
別途部材
  6
CONTINUOUS
 10
14.782945
 20
-66.95793
 11
14.782945
 21
-79.624597
  0
LINE
  8
別途部材
  6
CONTINUOUS
 10
15.782945
 20
-67.95793
 11
15.782945
 21
-79.624597
  0
LINE
  8
別途部材
  6
CONTINUOUS
 10
17.782945
 20
-66.95793
 11
17.782945
 21
-79.624597
  0
LINE
  8
別途部材
  6
CONTINUOUS
 10
18.782945
 20
-66.95793
 11
18.782945
 21
-79.624597
  0
LINE
  8
別途部材
  6
CONTINUOUS
 10
16.782945
 20
-67.95793
 11
16.782945
 21
-79.624597
  0
LINE
  8
別途部材
  6
CONTINUOUS
 10
13.782945
 20
-66.95793
 11
13.782945
 21
-79.624597
  0
LINE
  8
別途部材
  6
CONTINUOUS
 10
11.782945
 20
-67.95793
 11
11.782945
 21
-79.624597
  0
LINE
  8
別途部材
  6
CONTINUOUS
 10
10.782945
 20
-66.95793
 11
10.782945
 21
-79.624597
  0
LINE
  8
別途部材
  6
CONTINUOUS
 10
0.782945
 20
-67.95793
 11
0.782945
 21
-79.624597
  0
LINE
  8
別途部材
  6
CONTINUOUS
 10
-5.217055
 20
-66.95793
 11
-5.217055
 21
-79.624597
  0
LINE
  8
別途部材
  6
CONTINUOUS
 10
-6.217055
 20
-66.95793
 11
-6.217055
 21
-79.624597
  0
LINE
  8
別途部材
  6
CONTINUOUS
 10
-16.217055
 20
-67.95793
 11
-16.217055
 21
-79.624597
  0
LINE
  8
別途部材
  6
CONTINUOUS
 10
-21.217055
 20
-66.95793
 11
-21.217055
 21
-79.624597
  0
LINE
  8
別途部材
  6
CONTINUOUS
 10
-20.217055
 20
-67.95793
 11
-20.217055
 21
-79.624597
  0
LINE
  8
別途部材
  6
CONTINUOUS
 10
-18.217055
 20
-66.95793
 11
-18.217055
 21
-79.624597
  0
LINE
  8
別途部材
  6
CONTINUOUS
 10
-17.217055
 20
-66.95793
 11
-17.217055
 21
-79.624597
  0
LINE
  8
別途部材
  6
CONTINUOUS
 10
-15.217055
 20
-67.95793
 11
-15.217055
 21
-79.624597
  0
LINE
  8
別途部材
  6
CONTINUOUS
 10
-4.217055
 20
-67.95793
 11
-4.217055
 21
-79.624597
  0
LINE
  8
別途部材
  6
CONTINUOUS
 10
-3.217055
 20
-67.95793
 11
-3.217055
 21
-79.624597
  0
LINE
  8
別途部材
  6
CONTINUOUS
 10
1.782945
 20
-66.95793
 11
1.782945
 21
-79.624597
  0
LINE
  8
別途部材
  6
CONTINUOUS
 10
3.782945
 20
-67.95793
 11
3.782945
 21
-79.624597
  0
LINE
  8
別途部材
  6
CONTINUOUS
 10
6.782945
 20
-66.95793
 11
6.782945
 21
-79.624597
  0
LINE
  8
別途部材
  6
CONTINUOUS
 10
9.782945
 20
-66.95793
 11
9.782945
 21
-79.624597
  0
LINE
  8
別途部材
  6
CONTINUOUS
 10
2.782945
 20
-66.95793
 11
2.782945
 21
-79.624597
  0
LINE
  8
別途部材
  6
CONTINUOUS
 10
4.782945
 20
-67.95793
 11
4.782945
 21
-79.624597
  0
LINE
  8
別途部材
  6
CONTINUOUS
 10
7.782945
 20
-67.95793
 11
7.782945
 21
-79.624597
  0
LINE
  8
別途部材
  6
CONTINUOUS
 10
8.782945
 20
-67.95793
 11
8.782945
 21
-79.624597
  0
LINE
  8
別途部材
  6
CONTINUOUS
 10
-1.217055
 20
-66.95793
 11
-1.217055
 21
-79.624597
  0
LINE
  8
別途部材
  6
CONTINUOUS
 10
-2.217055
 20
-66.95793
 11
-2.217055
 21
-79.624597
  0
LINE
  8
別途部材
  6
CONTINUOUS
 10
-0.217055
 20
-67.95793
 11
-0.217055
 21
-79.624597
  0
LINE
  8
別途部材
  6
CONTINUOUS
 10
5.782945
 20
-66.95793
 11
5.782945
 21
-79.624597
  0
LINE
  8
別途部材
  6
CONTINUOUS
 10
-8.217055
 20
-67.95793
 11
-8.217055
 21
-79.624597
  0
LINE
  8
別途部材
  6
CONTINUOUS
 10
-7.217055
 20
-67.95793
 11
-7.217055
 21
-79.624597
  0
LINE
  8
別途部材
  6
CONTINUOUS
 10
-9.217055
 20
-66.95793
 11
-9.217055
 21
-79.624597
  0
LINE
  8
別途部材
  6
CONTINUOUS
 10
-11.217055
 20
-67.95793
 11
-11.217055
 21
-79.624597
  0
LINE
  8
別途部材
  6
CONTINUOUS
 10
-10.217055
 20
-66.95793
 11
-10.217055
 21
-79.624597
  0
LINE
  8
別途部材
  6
CONTINUOUS
 10
-12.217055
 20
-67.95793
 11
-12.217055
 21
-79.624597
  0
LINE
  8
別途部材
  6
CONTINUOUS
 10
-14.217055
 20
-66.95793
 11
-14.217055
 21
-79.624597
  0
LINE
  8
別途部材
  6
CONTINUOUS
 10
-13.217055
 20
-66.95793
 11
-13.217055
 21
-79.624597
  0
LINE
  8
別途部材
  6
CONTINUOUS
 10
-19.217055
 20
-67.95793
 11
-19.217055
 21
-79.624597
  0
LINE
  8
別途部材
  6
CONTINUOUS
 10
24.782945
 20
-67.95793
 11
25.782945
 21
-66.95793
  0
LINE
  8
別途部材
  6
CONTINUOUS
 10
26.782945
 20
-66.95793
 11
27.782945
 21
-67.95793
  0
LINE
  8
別途部材
  6
CONTINUOUS
 10
25.782945
 20
-66.95793
 11
26.782945
 21
-66.95793
  0
LINE
  8
別途部材
  6
CONTINUOUS
 10
28.782945
 20
-67.95793
 11
29.782945
 21
-66.95793
  0
LINE
  8
別途部材
  6
CONTINUOUS
 10
30.782945
 20
-66.95793
 11
31.782945
 21
-67.95793
  0
LINE
  8
別途部材
  6
CONTINUOUS
 10
29.782945
 20
-66.95793
 11
30.782945
 21
-66.95793
  0
LINE
  8
別途部材
  6
CONTINUOUS
 10
27.782945
 20
-67.95793
 11
28.782945
 21
-67.95793
  0
LINE
  8
別途部材
  6
CONTINUOUS
 10
23.782945
 20
-67.95793
 11
24.782945
 21
-67.95793
  0
LINE
  8
別途部材
  6
CONTINUOUS
 10
30.782945
 20
-66.95793
 11
30.782945
 21
-79.624597
  0
LINE
  8
別途部材
  6
CONTINUOUS
 10
29.782945
 20
-66.95793
 11
29.782945
 21
-79.624597
  0
LINE
  8
別途部材
  6
CONTINUOUS
 10
31.782945
 20
-67.95793
 11
31.782945
 21
-79.624597
  0
LINE
  8
別途部材
  6
CONTINUOUS
 10
27.782945
 20
-67.95793
 11
27.782945
 21
-79.624597
  0
LINE
  8
別途部材
  6
CONTINUOUS
 10
28.782945
 20
-67.95793
 11
28.782945
 21
-79.624597
  0
LINE
  8
別途部材
  6
CONTINUOUS
 10
26.782945
 20
-66.95793
 11
26.782945
 21
-79.624597
  0
LINE
  8
別途部材
  6
CONTINUOUS
 10
24.782945
 20
-67.95793
 11
24.782945
 21
-79.624597
  0
LINE
  8
別途部材
  6
CONTINUOUS
 10
25.782945
 20
-66.95793
 11
25.782945
 21
-79.624597
  0
ENDBLK
  0
BLOCK
  2
*GRP_0019
 70
    65
 10
0.0
 20
0.0
  0
LINE
  8
補助線
  6
BYBLOCK
 62
    64
 10
-76.655133
 20
-84.528995
 11
-76.778978
 21
-84.64053
  0
LINE
  8
補助線
  6
BYBLOCK
 62
    64
 10
-76.772825
 20
-84.522837
 11
-76.661287
 21
-84.646685
  0
LINE
  8
補助線
  6
BYBLOCK
 62
    64
 10
-65.94003
 20
-74.87897
 11
-66.063875
 21
-74.990505
  0
LINE
  8
補助線
  6
BYBLOCK
 62
    64
 10
-66.05772
 20
-74.872812
 11
-65.946185
 21
-74.99666
  0
LINE
  8
補助線
  6
BYBLOCK
 62
    64
 10
-55.348772
 20
-65.34048
 11
-55.22493
 21
-65.228945
  0
LINE
  8
補助線
  6
BYBLOCK
 62
    64
 10
-55.34262
 20
-65.222787
 11
-55.231082
 21
-65.346635
  0
LINE
  8
型材断面
  6
CONTINUOUS
 10
-77.522422
 20
-84.188608
 11
-77.55935
 21
-84.894747
  0
LINE
  8
型材断面
  6
CONTINUOUS
 10
-77.55935
 20
-84.894747
 11
-77.11321
 21
-85.39013
  0
LINE
  8
型材断面
  6
CONTINUOUS
 10
-77.11321
 20
-85.39013
 11
-76.407067
 21
-85.42706
  0
LINE
  8
型材断面
  6
CONTINUOUS
 10
-55.596835
 20
-64.442418
 11
-54.890695
 21
-64.479348
  0
LINE
  8
型材断面
  6
CONTINUOUS
 10
-54.890695
 20
-64.479348
 11
-54.444553
 21
-64.974727
  0
LINE
  8
型材断面
  6
CONTINUOUS
 10
-54.444553
 20
-64.974727
 11
-54.481483
 21
-65.680872
  0
LINE
  8
型材断面
  6
CONTINUOUS
 10
-76.407067
 20
-85.42706
 11
-54.481483
 21
-65.680872
  0
LINE
  8
型材断面
  6
CONTINUOUS
 10
-77.522422
 20
-84.188608
 11
-55.596835
 21
-64.442418
  0
CIRCLE
  8
ボルト／ビス
  6
CONTINUOUS
 10
-76.717055
 20
-84.584763
 40
0.250185
  0
CIRCLE
  8
ボルト／ビス
  6
CONTINUOUS
 10
-76.717055
 20
-84.584763
 40
0.301025
  0
LINE
  8
ボルト／ビス
  6
CONTINUOUS
 62
    64
 10
-76.961768
 20
-84.636808
 11
-76.884483
 21
-84.398858
  0
LINE
  8
ボルト／ビス
  6
CONTINUOUS
 62
    64
 10
-76.63977
 20
-84.346813
 11
-76.884483
 21
-84.398858
  0
LINE
  8
ボルト／ビス
  6
CONTINUOUS
 62
    64
 10
-76.79434
 20
-84.822713
 11
-76.549628
 21
-84.770668
  0
LINE
  8
ボルト／ビス
  6
CONTINUOUS
 62
    64
 10
-76.472343
 20
-84.532718
 11
-76.549628
 21
-84.770668
  0
LINE
  8
ボルト／ビス
  6
CONTINUOUS
 62
    64
 10
-76.961768
 20
-84.636808
 11
-76.79434
 21
-84.822713
  0
LINE
  8
ボルト／ビス
  6
CONTINUOUS
 62
    64
 10
-76.63977
 20
-84.346813
 11
-76.472343
 21
-84.532718
  0
CIRCLE
  8
ボルト／ビス
  6
CONTINUOUS
 62
    64
 10
-76.717055
 20
-84.584763
 40
0.216668
  0
CIRCLE
  8
ボルト／ビス
  6
CONTINUOUS
 10
-66.001952
 20
-74.93474
 40
0.250185
  0
CIRCLE
  8
ボルト／ビス
  6
CONTINUOUS
 10
-66.001952
 20
-74.93474
 40
0.301025
  0
LINE
  8
ボルト／ビス
  6
CONTINUOUS
 62
    64
 10
-66.246667
 20
-74.986783
 11
-66.16938
 21
-74.748833
  0
LINE
  8
ボルト／ビス
  6
CONTINUOUS
 62
    64
 10
-65.924668
 20
-74.69679
 11
-66.16938
 21
-74.748833
  0
LINE
  8
ボルト／ビス
  6
CONTINUOUS
 62
    64
 10
-66.07924
 20
-75.172688
 11
-65.834527
 21
-75.120643
  0
LINE
  8
ボルト／ビス
  6
CONTINUOUS
 62
    64
 10
-65.75724
 20
-74.882695
 11
-65.834527
 21
-75.120643
  0
LINE
  8
ボルト／ビス
  6
CONTINUOUS
 62
    64
 10
-66.246667
 20
-74.986783
 11
-66.07924
 21
-75.172688
  0
LINE
  8
ボルト／ビス
  6
CONTINUOUS
 62
    64
 10
-65.924668
 20
-74.69679
 11
-65.75724
 21
-74.882695
  0
CIRCLE
  8
ボルト／ビス
  6
CONTINUOUS
 62
    64
 10
-66.001952
 20
-74.93474
 40
0.216668
  0
CIRCLE
  8
ボルト／ビス
  6
CONTINUOUS
 10
-55.286852
 20
-65.284713
 40
0.250185
  0
CIRCLE
  8
ボルト／ビス
  6
CONTINUOUS
 10
-55.286852
 20
-65.284713
 40
0.301025
  0
LINE
  8
ボルト／ビス
  6
CONTINUOUS
 62
    64
 10
-55.209565
 20
-65.046763
 11
-55.454277
 21
-65.098808
  0
LINE
  8
ボルト／ビス
  6
CONTINUOUS
 62
    64
 10
-55.531563
 20
-65.336758
 11
-55.454277
 21
-65.098808
  0
LINE
  8
ボルト／ビス
  6
CONTINUOUS
 62
    64
 10
-55.042137
 20
-65.232668
 11
-55.119425
 21
-65.470618
  0
LINE
  8
ボルト／ビス
  6
CONTINUOUS
 62
    64
 10
-55.364138
 20
-65.522663
 11
-55.119425
 21
-65.470618
  0
LINE
  8
ボルト／ビス
  6
CONTINUOUS
 62
    64
 10
-55.209565
 20
-65.046763
 11
-55.042137
 21
-65.232668
  0
LINE
  8
ボルト／ビス
  6
CONTINUOUS
 62
    64
 10
-55.531563
 20
-65.336758
 11
-55.364138
 21
-65.522663
  0
CIRCLE
  8
ボルト／ビス
  6
CONTINUOUS
 62
    64
 10
-55.286852
 20
-65.284713
 40
0.216668
  0
ENDBLK
  0
BLOCK
  2
*GRP_0020
 70
    65
 10
0.0
 20
0.0
  0
LINE
  8
補助線
  6
BYBLOCK
 62
    64
 10
-55.348772
 20
-84.528995
 11
-55.224928
 21
-84.64053
  0
LINE
  8
補助線
  6
BYBLOCK
 62
    64
 10
-55.23108
 20
-84.522837
 11
-55.342617
 21
-84.646685
  0
LINE
  8
補助線
  6
BYBLOCK
 62
    64
 10
-66.063875
 20
-74.87897
 11
-65.94003
 21
-74.990505
  0
LINE
  8
補助線
  6
BYBLOCK
 62
    64
 10
-65.946185
 20
-74.872812
 11
-66.05772
 21
-74.99666
  0
LINE
  8
補助線
  6
BYBLOCK
 62
    64
 10
-76.655133
 20
-65.34048
 11
-76.778975
 21
-65.228945
  0
LINE
  8
補助線
  6
BYBLOCK
 62
    64
 10
-76.661285
 20
-65.222787
 11
-76.772822
 21
-65.346635
  0
LINE
  8
型材断面
  6
CONTINUOUS
 10
-54.481483
 20
-84.188608
 11
-54.444555
 21
-84.894747
  0
LINE
  8
型材断面
  6
CONTINUOUS
 10
-54.444555
 20
-84.894747
 11
-54.890695
 21
-85.39013
  0
LINE
  8
型材断面
  6
CONTINUOUS
 10
-54.890695
 20
-85.39013
 11
-55.596838
 21
-85.42706
  0
LINE
  8
型材断面
  6
CONTINUOUS
 10
-76.40707
 20
-64.442418
 11
-77.11321
 21
-64.479348
  0
LINE
  8
型材断面
  6
CONTINUOUS
 10
-77.11321
 20
-64.479348
 11
-77.559353
 21
-64.974727
  0
LINE
  8
型材断面
  6
CONTINUOUS
 10
-77.559353
 20
-64.974727
 11
-77.522422
 21
-65.680872
  0
LINE
  8
型材断面
  6
CONTINUOUS
 10
-55.596838
 20
-85.42706
 11
-77.522422
 21
-65.680872
  0
LINE
  8
型材断面
  6
CONTINUOUS
 10
-54.481483
 20
-84.188608
 11
-76.40707
 21
-64.442418
  0
CIRCLE
  8
ボルト／ビス
  6
CONTINUOUS
 10
-55.28685
 20
-84.584763
 40
0.250185
  0
CIRCLE
  8
ボルト／ビス
  6
CONTINUOUS
 10
-55.28685
 20
-84.584763
 40
0.301025
  0
LINE
  8
ボルト／ビス
  6
CONTINUOUS
 62
    64
 10
-55.042137
 20
-84.636808
 11
-55.119423
 21
-84.398858
  0
LINE
  8
ボルト／ビス
  6
CONTINUOUS
 62
    64
 10
-55.364135
 20
-84.346813
 11
-55.119423
 21
-84.398858
  0
LINE
  8
ボルト／ビス
  6
CONTINUOUS
 62
    64
 10
-55.209565
 20
-84.822713
 11
-55.454277
 21
-84.770668
  0
LINE
  8
ボルト／ビス
  6
CONTINUOUS
 62
    64
 10
-55.531563
 20
-84.532718
 11
-55.454277
 21
-84.770668
  0
LINE
  8
ボルト／ビス
  6
CONTINUOUS
 62
    64
 10
-55.042137
 20
-84.636808
 11
-55.209565
 21
-84.822713
  0
LINE
  8
ボルト／ビス
  6
CONTINUOUS
 62
    64
 10
-55.364135
 20
-84.346813
 11
-55.531563
 21
-84.532718
  0
CIRCLE
  8
ボルト／ビス
  6
CONTINUOUS
 62
    64
 10
-55.28685
 20
-84.584763
 40
0.216668
  0
CIRCLE
  8
ボルト／ビス
  6
CONTINUOUS
 10
-66.001952
 20
-74.93474
 40
0.250185
  0
CIRCLE
  8
ボルト／ビス
  6
CONTINUOUS
 10
-66.001952
 20
-74.93474
 40
0.301025
  0
LINE
  8
ボルト／ビス
  6
CONTINUOUS
 62
    64
 10
-65.757237
 20
-74.986783
 11
-65.834525
 21
-74.748833
  0
LINE
  8
ボルト／ビス
  6
CONTINUOUS
 62
    64
 10
-66.079238
 20
-74.69679
 11
-65.834525
 21
-74.748833
  0
LINE
  8
ボルト／ビス
  6
CONTINUOUS
 62
    64
 10
-65.924665
 20
-75.172688
 11
-66.169377
 21
-75.120643
  0
LINE
  8
ボルト／ビス
  6
CONTINUOUS
 62
    64
 10
-66.246665
 20
-74.882695
 11
-66.169377
 21
-75.120643
  0
LINE
  8
ボルト／ビス
  6
CONTINUOUS
 62
    64
 10
-65.757237
 20
-74.986783
 11
-65.924665
 21
-75.172688
  0
LINE
  8
ボルト／ビス
  6
CONTINUOUS
 62
    64
 10
-66.079238
 20
-74.69679
 11
-66.246665
 21
-74.882695
  0
CIRCLE
  8
ボルト／ビス
  6
CONTINUOUS
 62
    64
 10
-66.001952
 20
-74.93474
 40
0.216668
  0
CIRCLE
  8
ボルト／ビス
  6
CONTINUOUS
 10
-76.717053
 20
-65.284713
 40
0.250185
  0
CIRCLE
  8
ボルト／ビス
  6
CONTINUOUS
 10
-76.717053
 20
-65.284713
 40
0.301025
  0
LINE
  8
ボルト／ビス
  6
CONTINUOUS
 62
    64
 10
-76.79434
 20
-65.046763
 11
-76.549628
 21
-65.098808
  0
LINE
  8
ボルト／ビス
  6
CONTINUOUS
 62
    64
 10
-76.472343
 20
-65.336758
 11
-76.549628
 21
-65.098808
  0
LINE
  8
ボルト／ビス
  6
CONTINUOUS
 62
    64
 10
-76.961768
 20
-65.232668
 11
-76.88448
 21
-65.470618
  0
LINE
  8
ボルト／ビス
  6
CONTINUOUS
 62
    64
 10
-76.639768
 20
-65.522663
 11
-76.88448
 21
-65.470618
  0
LINE
  8
ボルト／ビス
  6
CONTINUOUS
 62
    64
 10
-76.79434
 20
-65.046763
 11
-76.961768
 21
-65.232668
  0
LINE
  8
ボルト／ビス
  6
CONTINUOUS
 62
    64
 10
-76.472343
 20
-65.336758
 11
-76.639768
 21
-65.522663
  0
CIRCLE
  8
ボルト／ビス
  6
CONTINUOUS
 62
    64
 10
-76.717053
 20
-65.284713
 40
0.216668
  0
ENDBLK
  0
BLOCK
  2
*GRP_0021
 70
    65
 10
0.0
 20
0.0
  0
LINE
  8
補助線
  6
BYBLOCK
 62
    64
 10
33.221023
 20
-84.528995
 11
33.344867
 21
-84.64053
  0
LINE
  8
補助線
  6
BYBLOCK
 62
    64
 10
33.338715
 20
-84.522837
 11
33.227177
 21
-84.646685
  0
LINE
  8
補助線
  6
BYBLOCK
 62
    64
 10
22.50592
 20
-74.87897
 11
22.629765
 21
-74.990505
  0
LINE
  8
補助線
  6
BYBLOCK
 62
    64
 10
22.62361
 20
-74.872812
 11
22.512075
 21
-74.99666
  0
LINE
  8
補助線
  6
BYBLOCK
 62
    64
 10
11.914662
 20
-65.34048
 11
11.79082
 21
-65.228945
  0
LINE
  8
補助線
  6
BYBLOCK
 62
    64
 10
11.90851
 20
-65.222787
 11
11.796973
 21
-65.346635
  0
LINE
  8
型材断面
  6
CONTINUOUS
 10
34.088313
 20
-84.188608
 11
34.12524
 21
-84.894747
  0
LINE
  8
型材断面
  6
CONTINUOUS
 10
34.12524
 20
-84.894747
 11
33.6791
 21
-85.39013
  0
LINE
  8
型材断面
  6
CONTINUOUS
 10
33.6791
 20
-85.39013
 11
32.972957
 21
-85.42706
  0
LINE
  8
型材断面
  6
CONTINUOUS
 10
12.162725
 20
-64.442418
 11
11.456585
 21
-64.479348
  0
LINE
  8
型材断面
  6
CONTINUOUS
 10
11.456585
 20
-64.479348
 11
11.010442
 21
-64.974727
  0
LINE
  8
型材断面
  6
CONTINUOUS
 10
11.010442
 20
-64.974727
 11
11.047372
 21
-65.680872
  0
LINE
  8
型材断面
  6
CONTINUOUS
 10
32.972957
 20
-85.42706
 11
11.047372
 21
-65.680872
  0
LINE
  8
型材断面
  6
CONTINUOUS
 10
34.088313
 20
-84.188608
 11
12.162725
 21
-64.442418
  0
CIRCLE
  8
ボルト／ビス
  6
CONTINUOUS
 10
33.282945
 20
-84.584763
 40
0.250185
  0
CIRCLE
  8
ボルト／ビス
  6
CONTINUOUS
 10
33.282945
 20
-84.584763
 40
0.301025
  0
LINE
  8
ボルト／ビス
  6
CONTINUOUS
 62
    64
 10
33.527657
 20
-84.636808
 11
33.450373
 21
-84.398858
  0
LINE
  8
ボルト／ビス
  6
CONTINUOUS
 62
    64
 10
33.20566
 20
-84.346813
 11
33.450373
 21
-84.398858
  0
LINE
  8
ボルト／ビス
  6
CONTINUOUS
 62
    64
 10
33.36023
 20
-84.822713
 11
33.115517
 21
-84.770668
  0
LINE
  8
ボルト／ビス
  6
CONTINUOUS
 62
    64
 10
33.038233
 20
-84.532718
 11
33.115517
 21
-84.770668
  0
LINE
  8
ボルト／ビス
  6
CONTINUOUS
 62
    64
 10
33.527657
 20
-84.636808
 11
33.36023
 21
-84.822713
  0
LINE
  8
ボルト／ビス
  6
CONTINUOUS
 62
    64
 10
33.20566
 20
-84.346813
 11
33.038233
 21
-84.532718
  0
CIRCLE
  8
ボルト／ビス
  6
CONTINUOUS
 62
    64
 10
33.282945
 20
-84.584763
 40
0.216668
  0
CIRCLE
  8
ボルト／ビス
  6
CONTINUOUS
 10
22.567843
 20
-74.93474
 40
0.250185
  0
CIRCLE
  8
ボルト／ビス
  6
CONTINUOUS
 10
22.567843
 20
-74.93474
 40
0.301025
  0
LINE
  8
ボルト／ビス
  6
CONTINUOUS
 62
    64
 10
22.812558
 20
-74.986783
 11
22.73527
 21
-74.748833
  0
LINE
  8
ボルト／ビス
  6
CONTINUOUS
 62
    64
 10
22.490558
 20
-74.69679
 11
22.73527
 21
-74.748833
  0
LINE
  8
ボルト／ビス
  6
CONTINUOUS
 62
    64
 10
22.64513
 20
-75.172688
 11
22.400418
 21
-75.120643
  0
LINE
  8
ボルト／ビス
  6
CONTINUOUS
 62
    64
 10
22.32313
 20
-74.882695
 11
22.400418
 21
-75.120643
  0
LINE
  8
ボルト／ビス
  6
CONTINUOUS
 62
    64
 10
22.812558
 20
-74.986783
 11
22.64513
 21
-75.172688
  0
LINE
  8
ボルト／ビス
  6
CONTINUOUS
 62
    64
 10
22.490558
 20
-74.69679
 11
22.32313
 21
-74.882695
  0
CIRCLE
  8
ボルト／ビス
  6
CONTINUOUS
 62
    64
 10
22.567843
 20
-74.93474
 40
0.216668
  0
CIRCLE
  8
ボルト／ビス
  6
CONTINUOUS
 10
11.852743
 20
-65.284713
 40
0.250185
  0
CIRCLE
  8
ボルト／ビス
  6
CONTINUOUS
 10
11.852743
 20
-65.284713
 40
0.301025
  0
LINE
  8
ボルト／ビス
  6
CONTINUOUS
 62
    64
 10
11.775455
 20
-65.046763
 11
12.020168
 21
-65.098808
  0
LINE
  8
ボルト／ビス
  6
CONTINUOUS
 62
    64
 10
12.097452
 20
-65.336758
 11
12.020168
 21
-65.098808
  0
LINE
  8
ボルト／ビス
  6
CONTINUOUS
 62
    64
 10
11.608028
 20
-65.232668
 11
11.685315
 21
-65.470618
  0
LINE
  8
ボルト／ビス
  6
CONTINUOUS
 62
    64
 10
11.930027
 20
-65.522663
 11
11.685315
 21
-65.470618
  0
LINE
  8
ボルト／ビス
  6
CONTINUOUS
 62
    64
 10
11.775455
 20
-65.046763
 11
11.608028
 21
-65.232668
  0
LINE
  8
ボルト／ビス
  6
CONTINUOUS
 62
    64
 10
12.097452
 20
-65.336758
 11
11.930027
 21
-65.522663
  0
CIRCLE
  8
ボルト／ビス
  6
CONTINUOUS
 62
    64
 10
11.852743
 20
-65.284713
 40
0.216668
  0
ENDBLK
  0
BLOCK
  2
*GRP_0022
 70
    65
 10
0.0
 20
0.0
  0
LINE
  8
補助線
  6
BYBLOCK
 62
    64
 10
11.914662
 20
-84.528995
 11
11.790818
 21
-84.64053
  0
LINE
  8
補助線
  6
BYBLOCK
 62
    64
 10
11.79697
 20
-84.522837
 11
11.908508
 21
-84.646685
  0
LINE
  8
補助線
  6
BYBLOCK
 62
    64
 10
22.629765
 20
-74.87897
 11
22.50592
 21
-74.990505
  0
LINE
  8
補助線
  6
BYBLOCK
 62
    64
 10
22.512075
 20
-74.872812
 11
22.62361
 21
-74.99666
  0
LINE
  8
補助線
  6
BYBLOCK
 62
    64
 10
33.221023
 20
-65.34048
 11
33.344865
 21
-65.228945
  0
LINE
  8
補助線
  6
BYBLOCK
 62
    64
 10
33.227175
 20
-65.222787
 11
33.338712
 21
-65.346635
  0
LINE
  8
型材断面
  6
CONTINUOUS
 10
11.047372
 20
-84.188608
 11
11.010445
 21
-84.894747
  0
LINE
  8
型材断面
  6
CONTINUOUS
 10
11.010445
 20
-84.894747
 11
11.456585
 21
-85.39013
  0
LINE
  8
型材断面
  6
CONTINUOUS
 10
11.456585
 20
-85.39013
 11
12.162728
 21
-85.42706
  0
LINE
  8
型材断面
  6
CONTINUOUS
 10
32.97296
 20
-64.442418
 11
33.6791
 21
-64.479348
  0
LINE
  8
型材断面
  6
CONTINUOUS
 10
33.6791
 20
-64.479348
 11
34.125243
 21
-64.974727
  0
LINE
  8
型材断面
  6
CONTINUOUS
 10
34.125243
 20
-64.974727
 11
34.088313
 21
-65.680872
  0
LINE
  8
型材断面
  6
CONTINUOUS
 10
12.162728
 20
-85.42706
 11
34.088313
 21
-65.680872
  0
LINE
  8
型材断面
  6
CONTINUOUS
 10
11.047372
 20
-84.188608
 11
32.97296
 21
-64.442418
  0
CIRCLE
  8
ボルト／ビス
  6
CONTINUOUS
 10
11.85274
 20
-84.584763
 40
0.250185
  0
CIRCLE
  8
ボルト／ビス
  6
CONTINUOUS
 10
11.85274
 20
-84.584763
 40
0.301025
  0
LINE
  8
ボルト／ビス
  6
CONTINUOUS
 62
    64
 10
11.608028
 20
-84.636808
 11
11.685312
 21
-84.398858
  0
LINE
  8
ボルト／ビス
  6
CONTINUOUS
 62
    64
 10
11.930025
 20
-84.346813
 11
11.685312
 21
-84.398858
  0
LINE
  8
ボルト／ビス
  6
CONTINUOUS
 62
    64
 10
11.775455
 20
-84.822713
 11
12.020168
 21
-84.770668
  0
LINE
  8
ボルト／ビス
  6
CONTINUOUS
 62
    64
 10
12.097452
 20
-84.532718
 11
12.020168
 21
-84.770668
  0
LINE
  8
ボルト／ビス
  6
CONTINUOUS
 62
    64
 10
11.608028
 20
-84.636808
 11
11.775455
 21
-84.822713
  0
LINE
  8
ボルト／ビス
  6
CONTINUOUS
 62
    64
 10
11.930025
 20
-84.346813
 11
12.097452
 21
-84.532718
  0
CIRCLE
  8
ボルト／ビス
  6
CONTINUOUS
 62
    64
 10
11.85274
 20
-84.584763
 40
0.216668
  0
CIRCLE
  8
ボルト／ビス
  6
CONTINUOUS
 10
22.567843
 20
-74.93474
 40
0.250185
  0
CIRCLE
  8
ボルト／ビス
  6
CONTINUOUS
 10
22.567843
 20
-74.93474
 40
0.301025
  0
LINE
  8
ボルト／ビス
  6
CONTINUOUS
 62
    64
 10
22.323128
 20
-74.986783
 11
22.400415
 21
-74.748833
  0
LINE
  8
ボルト／ビス
  6
CONTINUOUS
 62
    64
 10
22.645127
 20
-74.69679
 11
22.400415
 21
-74.748833
  0
LINE
  8
ボルト／ビス
  6
CONTINUOUS
 62
    64
 10
22.490555
 20
-75.172688
 11
22.735268
 21
-75.120643
  0
LINE
  8
ボルト／ビス
  6
CONTINUOUS
 62
    64
 10
22.812555
 20
-74.882695
 11
22.735268
 21
-75.120643
  0
LINE
  8
ボルト／ビス
  6
CONTINUOUS
 62
    64
 10
22.323128
 20
-74.986783
 11
22.490555
 21
-75.172688
  0
LINE
  8
ボルト／ビス
  6
CONTINUOUS
 62
    64
 10
22.645127
 20
-74.69679
 11
22.812555
 21
-74.882695
  0
CIRCLE
  8
ボルト／ビス
  6
CONTINUOUS
 62
    64
 10
22.567843
 20
-74.93474
 40
0.216668
  0
CIRCLE
  8
ボルト／ビス
  6
CONTINUOUS
 10
33.282942
 20
-65.284713
 40
0.250185
  0
CIRCLE
  8
ボルト／ビス
  6
CONTINUOUS
 10
33.282942
 20
-65.284713
 40
0.301025
  0
LINE
  8
ボルト／ビス
  6
CONTINUOUS
 62
    64
 10
33.36023
 20
-65.046763
 11
33.115517
 21
-65.098808
  0
LINE
  8
ボルト／ビス
  6
CONTINUOUS
 62
    64
 10
33.038233
 20
-65.336758
 11
33.115517
 21
-65.098808
  0
LINE
  8
ボルト／ビス
  6
CONTINUOUS
 62
    64
 10
33.527657
 20
-65.232668
 11
33.45037
 21
-65.470618
  0
LINE
  8
ボルト／ビス
  6
CONTINUOUS
 62
    64
 10
33.205658
 20
-65.522663
 11
33.45037
 21
-65.470618
  0
LINE
  8
ボルト／ビス
  6
CONTINUOUS
 62
    64
 10
33.36023
 20
-65.046763
 11
33.527657
 21
-65.232668
  0
LINE
  8
ボルト／ビス
  6
CONTINUOUS
 62
    64
 10
33.038233
 20
-65.336758
 11
33.205658
 21
-65.522663
  0
CIRCLE
  8
ボルト／ビス
  6
CONTINUOUS
 62
    64
 10
33.282942
 20
-65.284713
 40
0.216668
  0
ENDBLK
  0
BLOCK
  2
*DIM_0023
 70
    65
 10
0.0
 20
0.0
  0
LINE
  8
寸法
  6
BYBLOCK
 62
     0
 10
-99.717055
 20
23.399048
 11
-128.66222
 21
23.399048
  0
LINE
  8
寸法
  6
BYBLOCK
 62
     0
 10
-99.717055
 20
46.732382
 11
-128.66222
 21
46.732382
  0
LINE
  8
寸法
  6
BYBLOCK
 62
     0
 10
-128.66222
 20
23.399048
 11
-128.66222
 21
46.732382
  0
POINT
  8
寸法
 62
     0
 10
-128.66222
 20
23.399048
  0
POINT
  8
寸法
 62
     0
 10
-128.66222
 20
46.732382
  0
TEXT
  7
TextStyle03
  8
寸法
  6
CONTINUOUS
 62
     0
 10
-129.0
 20
32.6125
  1
700
 40
3.0
 50
90.0
 72
     5
 11
-129.0
 21
37.4875
  0
ENDBLK
  0
BLOCK
  2
*DIM_0024
 70
    65
 10
0.0
 20
0.0
  0
LINE
  8
寸法
  6
BYBLOCK
 62
     0
 10
-88.383723
 20
59.73238
 11
-88.383723
 21
88.840452
  0
LINE
  8
寸法
  6
BYBLOCK
 62
     0
 10
-61.717055
 20
59.73238
 11
-61.717055
 21
88.840452
  0
LINE
  8
寸法
  6
BYBLOCK
 62
     0
 10
-88.383723
 20
88.840452
 11
-61.717055
 21
88.840452
  0
POINT
  8
寸法
 62
     0
 10
-88.383723
 20
88.840452
  0
POINT
  8
寸法
 62
     0
 10
-61.717055
 20
88.840452
  0
TEXT
  7
TextStyle03
  8
寸法
  6
CONTINUOUS
 62
     0
 10
-77.5125
 20
89.2
  1
800
 40
3.0
 72
     5
 11
-72.6375
 21
89.2
  0
ENDBLK
  0
BLOCK
  2
*DIM_0025
 70
    65
 10
0.0
 20
0.0
  0
LINE
  8
寸法
  6
BYBLOCK
 62
     0
 10
-35.050388
 20
59.73238
 11
-35.050388
 21
88.840452
  0
LINE
  8
寸法
  6
BYBLOCK
 62
     0
 10
-61.717055
 20
88.840452
 11
-35.050388
 21
88.840452
  0
POINT
  8
寸法
 62
     0
 10
-35.050388
 20
88.840452
  0
TEXT
  7
TextStyle03
  8
寸法
  6
CONTINUOUS
 62
     0
 10
-50.8375
 20
89.2
  1
800
 40
3.0
 72
     5
 11
-45.9625
 21
89.2
  0
ENDBLK
  0
BLOCK
  2
*DIM_0026
 70
    65
 10
0.0
 20
0.0
  0
LINE
  8
寸法
  6
BYBLOCK
 62
     0
 10
-8.383723
 20
59.73238
 11
-8.383723
 21
88.840452
  0
LINE
  8
寸法
  6
BYBLOCK
 62
     0
 10
-35.050388
 20
88.840452
 11
-8.383723
 21
88.840452
  0
POINT
  8
寸法
 62
     0
 10
-8.383723
 20
88.840452
  0
TEXT
  7
TextStyle03
  8
寸法
  6
CONTINUOUS
 62
     0
 10
-24.1625
 20
89.2
  1
800
 40
3.0
 72
     5
 11
-19.2875
 21
89.2
  0
ENDBLK
  0
BLOCK
  2
*DIM_0027
 70
    65
 10
0.0
 20
0.0
  0
LINE
  8
寸法
  6
BYBLOCK
 62
     0
 10
18.282945
 20
59.73238
 11
18.282945
 21
88.840452
  0
LINE
  8
寸法
  6
BYBLOCK
 62
     0
 10
-8.383723
 20
88.840452
 11
18.282945
 21
88.840452
  0
POINT
  8
寸法
 62
     0
 10
18.282945
 20
88.840452
  0
TEXT
  7
TextStyle03
  8
寸法
  6
CONTINUOUS
 62
     0
 10
2.4875
 20
89.2
  1
800
 40
3.0
 72
     5
 11
7.3625
 21
89.2
  0
ENDBLK
  0
BLOCK
  2
*DIM_0028
 70
    65
 10
0.0
 20
0.0
  0
LINE
  8
寸法
  6
BYBLOCK
 62
     0
 10
44.949612
 20
59.73238
 11
44.949612
 21
88.840452
  0
LINE
  8
寸法
  6
BYBLOCK
 62
     0
 10
18.282945
 20
88.840452
 11
44.949612
 21
88.840452
  0
POINT
  8
寸法
 62
     0
 10
44.949612
 20
88.840452
  0
TEXT
  7
TextStyle03
  8
寸法
  6
CONTINUOUS
 62
     0
 10
29.1625
 20
89.2
  1
800
 40
3.0
 72
     5
 11
34.0375
 21
89.2
  0
ENDBLK
  0
BLOCK
  2
*DIM_0029
 70
    65
 10
0.0
 20
0.0
  0
LINE
  8
寸法
  6
BYBLOCK
 62
     0
 10
34.616278
 20
-51.291262
 11
69.252595
 21
-51.291262
  0
LINE
  8
寸法
  6
BYBLOCK
 62
     0
 10
69.252595
 20
-67.95793
 11
69.252595
 21
-51.291262
  0
POINT
  8
寸法
 62
     0
 10
69.252595
 20
-67.95793
  0
POINT
  8
寸法
 62
     0
 10
69.252595
 20
-51.291262
  0
TEXT
  7
TextStyle03
  8
寸法
  6
CONTINUOUS
 62
     0
 10
74.1
 20
-68.51875
  1
上昇440以上
 40
3.0
 50
90.0
 72
     5
 11
74.1
 21
-50.33125
  0
ENDBLK
  0
BLOCK
  2
*GRP_0030
 70
    65
 10
0.0
 20
0.0
  0
LINE
  8
ボルト／ビス
  6
CONTINUOUS
 10
142.81621
 20
57.39905
 11
142.349545
 21
57.39905
  0
LINE
  8
ボルト／ビス
  6
CONTINUOUS
 10
142.81621
 20
57.032385
 11
142.749545
 21
57.032385
  0
LINE
  8
ボルト／ビス
  6
CONTINUOUS
 10
142.749545
 20
57.032385
 11
142.749545
 21
57.765718
  0
LINE
  8
ボルト／ビス
  6
CONTINUOUS
 10
142.749545
 20
57.765718
 11
142.81621
 21
57.765718
  0
LINE
  8
ボルト／ビス
  6
CONTINUOUS
 10
142.81621
 20
57.032385
 11
142.81621
 21
57.765718
  0
LINE
  8
ボルト／ビス
  6
CONTINUOUS
 10
142.71621
 20
57.09905
 11
142.749545
 21
57.09905
  0
LINE
  8
ボルト／ビス
  6
CONTINUOUS
 10
142.71621
 20
57.09905
 11
142.71621
 21
57.69905
  0
LINE
  8
ボルト／ビス
  6
CONTINUOUS
 10
142.71621
 20
57.69905
 11
142.749545
 21
57.69905
  0
LINE
  8
ボルト／ビス
  6
CONTINUOUS
 62
    64
 10
142.51621
 20
57.238675
 11
142.527885
 21
57.2066
  0
ARC
  8
ボルト／ビス
  6
CONTINUOUS
 62
    64
 10
142.621187
 20
57.254715
 40
0.104978
 50
152.721967
 51
180.0
  0
ARC
  8
ボルト／ビス
  6
CONTINUOUS
 62
    64
 10
142.918611
 20
57.399052
 40
0.402402
 50
166.165002
 51
193.834985
  0
LINE
  8
ボルト／ビス
  6
CONTINUOUS
 62
    64
 10
142.51621
 20
57.559425
 11
142.527885
 21
57.5915
  0
ARC
  8
ボルト／ビス
  6
CONTINUOUS
 62
    64
 10
142.621187
 20
57.54339
 40
0.104978
 50
180.0
 51
207.278033
  0
LINE
  8
ボルト／ビス
  6
CONTINUOUS
 62
    64
 10
142.51621
 20
57.238675
 11
142.51621
 21
57.559425
  0
LINE
  8
ボルト／ビス
  6
CONTINUOUS
 62
    64
 10
142.527885
 20
57.5915
 11
142.649545
 21
57.5915
  0
LINE
  8
ボルト／ビス
  6
CONTINUOUS
 62
    64
 10
142.527885
 20
57.495275
 11
142.649545
 21
57.495275
  0
LINE
  8
ボルト／ビス
  6
CONTINUOUS
 62
    64
 10
142.527885
 20
57.2066
 11
142.649545
 21
57.2066
  0
LINE
  8
ボルト／ビス
  6
CONTINUOUS
 62
    64
 10
142.527885
 20
57.302825
 11
142.649545
 21
57.302825
  0
LINE
  8
ボルト／ビス
  6
CONTINUOUS
 10
142.649545
 20
57.2066
 11
142.649545
 21
57.5915
  0
LINE
  8
ボルト／ビス
  6
CONTINUOUS
 10
142.649545
 20
57.19905
 11
142.71621
 21
57.19905
  0
LINE
  8
ボルト／ビス
  6
CONTINUOUS
 10
142.649545
 20
57.19905
 11
142.649545
 21
57.59905
  0
LINE
  8
ボルト／ビス
  6
CONTINUOUS
 10
142.649545
 20
57.59905
 11
142.71621
 21
57.59905
  0
ENDBLK
  0
BLOCK
  2
*GRP_0031
 70
    65
 10
0.0
 20
0.0
  0
LINE
  8
ボルト／ビス
  6
CONTINUOUS
 10
142.81621
 20
12.73238
 11
142.349545
 21
12.73238
  0
LINE
  8
ボルト／ビス
  6
CONTINUOUS
 10
142.81621
 20
12.365715
 11
142.749545
 21
12.365715
  0
LINE
  8
ボルト／ビス
  6
CONTINUOUS
 10
142.749545
 20
12.365715
 11
142.749545
 21
13.099048
  0
LINE
  8
ボルト／ビス
  6
CONTINUOUS
 10
142.749545
 20
13.099048
 11
142.81621
 21
13.099048
  0
LINE
  8
ボルト／ビス
  6
CONTINUOUS
 10
142.81621
 20
12.365715
 11
142.81621
 21
13.099048
  0
LINE
  8
ボルト／ビス
  6
CONTINUOUS
 10
142.71621
 20
12.43238
 11
142.749545
 21
12.43238
  0
LINE
  8
ボルト／ビス
  6
CONTINUOUS
 10
142.71621
 20
12.43238
 11
142.71621
 21
13.03238
  0
LINE
  8
ボルト／ビス
  6
CONTINUOUS
 10
142.71621
 20
13.03238
 11
142.749545
 21
13.03238
  0
LINE
  8
ボルト／ビス
  6
CONTINUOUS
 62
    64
 10
142.51621
 20
12.572005
 11
142.527885
 21
12.53993
  0
ARC
  8
ボルト／ビス
  6
CONTINUOUS
 62
    64
 10
142.621187
 20
12.588045
 40
0.104978
 50
152.721967
 51
180.0
  0
ARC
  8
ボルト／ビス
  6
CONTINUOUS
 62
    64
 10
142.918611
 20
12.732382
 40
0.402402
 50
166.165002
 51
193.834985
  0
LINE
  8
ボルト／ビス
  6
CONTINUOUS
 62
    64
 10
142.51621
 20
12.892755
 11
142.527885
 21
12.92483
  0
ARC
  8
ボルト／ビス
  6
CONTINUOUS
 62
    64
 10
142.621187
 20
12.87672
 40
0.104978
 50
180.0
 51
207.278033
  0
LINE
  8
ボルト／ビス
  6
CONTINUOUS
 62
    64
 10
142.51621
 20
12.572005
 11
142.51621
 21
12.892755
  0
LINE
  8
ボルト／ビス
  6
CONTINUOUS
 62
    64
 10
142.527885
 20
12.92483
 11
142.649545
 21
12.92483
  0
LINE
  8
ボルト／ビス
  6
CONTINUOUS
 62
    64
 10
142.527885
 20
12.828605
 11
142.649545
 21
12.828605
  0
LINE
  8
ボルト／ビス
  6
CONTINUOUS
 62
    64
 10
142.527885
 20
12.53993
 11
142.649545
 21
12.53993
  0
LINE
  8
ボルト／ビス
  6
CONTINUOUS
 62
    64
 10
142.527885
 20
12.636155
 11
142.649545
 21
12.636155
  0
LINE
  8
ボルト／ビス
  6
CONTINUOUS
 10
142.649545
 20
12.53993
 11
142.649545
 21
12.92483
  0
LINE
  8
ボルト／ビス
  6
CONTINUOUS
 10
142.649545
 20
12.53238
 11
142.71621
 21
12.53238
  0
LINE
  8
ボルト／ビス
  6
CONTINUOUS
 10
142.649545
 20
12.53238
 11
142.649545
 21
12.93238
  0
LINE
  8
ボルト／ビス
  6
CONTINUOUS
 10
142.649545
 20
12.93238
 11
142.71621
 21
12.93238
  0
ENDBLK
  0
BLOCK
  2
*GRP_0032
 70
    65
 10
0.0
 20
0.0
  0
LINE
  8
ボルト／ビス
  6
CONTINUOUS
 10
53.949612
 20
-79.624597
 11
53.949612
 21
-79.157932
  0
LINE
  8
ボルト／ビス
  6
CONTINUOUS
 10
53.582948
 20
-79.624597
 11
53.582948
 21
-79.557932
  0
LINE
  8
ボルト／ビス
  6
CONTINUOUS
 10
53.582948
 20
-79.557932
 11
54.31628
 21
-79.557932
  0
LINE
  8
ボルト／ビス
  6
CONTINUOUS
 10
54.31628
 20
-79.557932
 11
54.31628
 21
-79.624597
  0
LINE
  8
ボルト／ビス
  6
CONTINUOUS
 10
53.582948
 20
-79.624597
 11
54.31628
 21
-79.624597
  0
LINE
  8
ボルト／ビス
  6
CONTINUOUS
 10
53.649612
 20
-79.524597
 11
53.649612
 21
-79.557932
  0
LINE
  8
ボルト／ビス
  6
CONTINUOUS
 10
53.649612
 20
-79.524597
 11
54.249612
 21
-79.524597
  0
LINE
  8
ボルト／ビス
  6
CONTINUOUS
 10
54.249612
 20
-79.524597
 11
54.249612
 21
-79.557932
  0
LINE
  8
ボルト／ビス
  6
CONTINUOUS
 62
    64
 10
53.789237
 20
-79.324597
 11
53.757163
 21
-79.336272
  0
ARC
  8
ボルト／ビス
  6
CONTINUOUS
 62
    64
 10
53.805277
 20
-79.429573
 40
0.104978
 50
62.721967
 51
90.0
  0
ARC
  8
ボルト／ビス
  6
CONTINUOUS
 62
    64
 10
53.949615
 20
-79.726997
 40
0.402402
 50
76.165002
 51
103.834985
  0
LINE
  8
ボルト／ビス
  6
CONTINUOUS
 62
    64
 10
54.109987
 20
-79.324597
 11
54.142063
 21
-79.336272
  0
ARC
  8
ボルト／ビス
  6
CONTINUOUS
 62
    64
 10
54.093952
 20
-79.429573
 40
0.104978
 50
90.0
 51
117.278033
  0
LINE
  8
ボルト／ビス
  6
CONTINUOUS
 62
    64
 10
53.789237
 20
-79.324597
 11
54.109987
 21
-79.324597
  0
LINE
  8
ボルト／ビス
  6
CONTINUOUS
 62
    64
 10
54.142063
 20
-79.336272
 11
54.142063
 21
-79.457932
  0
LINE
  8
ボルト／ビス
  6
CONTINUOUS
 62
    64
 10
54.045838
 20
-79.336272
 11
54.045838
 21
-79.457932
  0
LINE
  8
ボルト／ビス
  6
CONTINUOUS
 62
    64
 10
53.757163
 20
-79.336272
 11
53.757163
 21
-79.457932
  0
LINE
  8
ボルト／ビス
  6
CONTINUOUS
 62
    64
 10
53.853387
 20
-79.336272
 11
53.853387
 21
-79.457932
  0
LINE
  8
ボルト／ビス
  6
CONTINUOUS
 10
53.757163
 20
-79.457932
 11
54.142063
 21
-79.457932
  0
LINE
  8
ボルト／ビス
  6
CONTINUOUS
 10
53.749612
 20
-79.457932
 11
53.749612
 21
-79.524597
  0
LINE
  8
ボルト／ビス
  6
CONTINUOUS
 10
53.749612
 20
-79.457932
 11
54.149612
 21
-79.457932
  0
LINE
  8
ボルト／ビス
  6
CONTINUOUS
 10
54.149612
 20
-79.457932
 11
54.149612
 21
-79.524597
  0
ENDBLK
  0
BLOCK
  2
*GRP_0033
 70
    65
 10
0.0
 20
0.0
  0
LINE
  8
ボルト／ビス
  6
DOT
 10
53.949612
 20
-62.95793
 11
53.949612
 21
-62.491265
  0
LINE
  8
ボルト／ビス
  6
DOT
 10
53.582948
 20
-62.95793
 11
53.582948
 21
-62.891265
  0
LINE
  8
ボルト／ビス
  6
DOT
 10
53.582948
 20
-62.891265
 11
54.31628
 21
-62.891265
  0
LINE
  8
ボルト／ビス
  6
DOT
 10
54.31628
 20
-62.891265
 11
54.31628
 21
-62.95793
  0
LINE
  8
ボルト／ビス
  6
DOT
 10
53.582948
 20
-62.95793
 11
54.31628
 21
-62.95793
  0
LINE
  8
ボルト／ビス
  6
DOT
 10
53.649612
 20
-62.85793
 11
53.649612
 21
-62.891265
  0
LINE
  8
ボルト／ビス
  6
DOT
 10
53.649612
 20
-62.85793
 11
54.249612
 21
-62.85793
  0
LINE
  8
ボルト／ビス
  6
DOT
 10
54.249612
 20
-62.85793
 11
54.249612
 21
-62.891265
  0
LINE
  8
ボルト／ビス
  6
DOT
 62
    64
 10
53.789237
 20
-62.65793
 11
53.757163
 21
-62.669605
  0
ARC
  8
ボルト／ビス
  6
DOT
 62
    64
 10
53.805275
 20
-62.762907
 40
0.104978
 50
62.721967
 51
90.0
  0
ARC
  8
ボルト／ビス
  6
DOT
 62
    64
 10
53.949613
 20
-63.060331
 40
0.402402
 50
76.165002
 51
103.834985
  0
LINE
  8
ボルト／ビス
  6
DOT
 62
    64
 10
54.109987
 20
-62.65793
 11
54.142063
 21
-62.669605
  0
ARC
  8
ボルト／ビス
  6
DOT
 62
    64
 10
54.09395
 20
-62.762907
 40
0.104978
 50
90.0
 51
117.278033
  0
LINE
  8
ボルト／ビス
  6
DOT
 62
    64
 10
53.789237
 20
-62.65793
 11
54.109987
 21
-62.65793
  0
LINE
  8
ボルト／ビス
  6
DOT
 62
    64
 10
54.142063
 20
-62.669605
 11
54.142063
 21
-62.791265
  0
LINE
  8
ボルト／ビス
  6
DOT
 62
    64
 10
54.045838
 20
-62.669605
 11
54.045838
 21
-62.791265
  0
LINE
  8
ボルト／ビス
  6
DOT
 62
    64
 10
53.757163
 20
-62.669605
 11
53.757163
 21
-62.791265
  0
LINE
  8
ボルト／ビス
  6
DOT
 62
    64
 10
53.853387
 20
-62.669605
 11
53.853387
 21
-62.791265
  0
LINE
  8
ボルト／ビス
  6
DOT
 10
53.757163
 20
-62.791265
 11
54.142063
 21
-62.791265
  0
LINE
  8
ボルト／ビス
  6
DOT
 10
53.749612
 20
-62.791265
 11
53.749612
 21
-62.85793
  0
LINE
  8
ボルト／ビス
  6
DOT
 10
53.749612
 20
-62.791265
 11
54.149612
 21
-62.791265
  0
LINE
  8
ボルト／ビス
  6
DOT
 10
54.149612
 20
-62.791265
 11
54.149612
 21
-62.85793
  0
ENDBLK
  0
BLOCK
  2
*GRP_0034
 70
    65
 10
0.0
 20
0.0
  0
LINE
  8
ボルト／ビス
  6
CONTINUOUS
 10
-97.383723
 20
-79.624597
 11
-97.383723
 21
-79.157932
  0
LINE
  8
ボルト／ビス
  6
CONTINUOUS
 10
-97.750388
 20
-79.624597
 11
-97.750388
 21
-79.557932
  0
LINE
  8
ボルト／ビス
  6
CONTINUOUS
 10
-97.750388
 20
-79.557932
 11
-97.017055
 21
-79.557932
  0
LINE
  8
ボルト／ビス
  6
CONTINUOUS
 10
-97.017055
 20
-79.557932
 11
-97.017055
 21
-79.624597
  0
LINE
  8
ボルト／ビス
  6
CONTINUOUS
 10
-97.750388
 20
-79.624597
 11
-97.017055
 21
-79.624597
  0
LINE
  8
ボルト／ビス
  6
CONTINUOUS
 10
-97.683723
 20
-79.524597
 11
-97.683723
 21
-79.557932
  0
LINE
  8
ボルト／ビス
  6
CONTINUOUS
 10
-97.683723
 20
-79.524597
 11
-97.083723
 21
-79.524597
  0
LINE
  8
ボルト／ビス
  6
CONTINUOUS
 10
-97.083723
 20
-79.524597
 11
-97.083723
 21
-79.557932
  0
LINE
  8
ボルト／ビス
  6
CONTINUOUS
 62
    64
 10
-97.544098
 20
-79.324597
 11
-97.576173
 21
-79.336272
  0
ARC
  8
ボルト／ビス
  6
CONTINUOUS
 62
    64
 10
-97.528058
 20
-79.429573
 40
0.104978
 50
62.721967
 51
90.0
  0
ARC
  8
ボルト／ビス
  6
CONTINUOUS
 62
    64
 10
-97.38372
 20
-79.726997
 40
0.402402
 50
76.165002
 51
103.834985
  0
LINE
  8
ボルト／ビス
  6
CONTINUOUS
 62
    64
 10
-97.223348
 20
-79.324597
 11
-97.191273
 21
-79.336272
  0
ARC
  8
ボルト／ビス
  6
CONTINUOUS
 62
    64
 10
-97.239383
 20
-79.429573
 40
0.104978
 50
90.0
 51
117.278033
  0
LINE
  8
ボルト／ビス
  6
CONTINUOUS
 62
    64
 10
-97.544098
 20
-79.324597
 11
-97.223348
 21
-79.324597
  0
LINE
  8
ボルト／ビス
  6
CONTINUOUS
 62
    64
 10
-97.191273
 20
-79.336272
 11
-97.191273
 21
-79.457932
  0
LINE
  8
ボルト／ビス
  6
CONTINUOUS
 62
    64
 10
-97.287497
 20
-79.336272
 11
-97.287497
 21
-79.457932
  0
LINE
  8
ボルト／ビス
  6
CONTINUOUS
 62
    64
 10
-97.576173
 20
-79.336272
 11
-97.576173
 21
-79.457932
  0
LINE
  8
ボルト／ビス
  6
CONTINUOUS
 62
    64
 10
-97.479947
 20
-79.336272
 11
-97.479947
 21
-79.457932
  0
LINE
  8
ボルト／ビス
  6
CONTINUOUS
 10
-97.576173
 20
-79.457932
 11
-97.191273
 21
-79.457932
  0
LINE
  8
ボルト／ビス
  6
CONTINUOUS
 10
-97.583723
 20
-79.457932
 11
-97.583723
 21
-79.524597
  0
LINE
  8
ボルト／ビス
  6
CONTINUOUS
 10
-97.583723
 20
-79.457932
 11
-97.183723
 21
-79.457932
  0
LINE
  8
ボルト／ビス
  6
CONTINUOUS
 10
-97.183723
 20
-79.457932
 11
-97.183723
 21
-79.524597
  0
ENDBLK
  0
BLOCK
  2
*GRP_0035
 70
    65
 10
0.0
 20
0.0
  0
LINE
  8
ボルト／ビス
  6
DOT
 10
-97.383723
 20
-62.95793
 11
-97.383723
 21
-62.491265
  0
LINE
  8
ボルト／ビス
  6
DOT
 10
-97.750388
 20
-62.95793
 11
-97.750388
 21
-62.891265
  0
LINE
  8
ボルト／ビス
  6
DOT
 10
-97.750388
 20
-62.891265
 11
-97.017055
 21
-62.891265
  0
LINE
  8
ボルト／ビス
  6
DOT
 10
-97.017055
 20
-62.891265
 11
-97.017055
 21
-62.95793
  0
LINE
  8
ボルト／ビス
  6
DOT
 10
-97.750388
 20
-62.95793
 11
-97.017055
 21
-62.95793
  0
LINE
  8
ボルト／ビス
  6
DOT
 10
-97.683723
 20
-62.85793
 11
-97.683723
 21
-62.891265
  0
LINE
  8
ボルト／ビス
  6
DOT
 10
-97.683723
 20
-62.85793
 11
-97.083723
 21
-62.85793
  0
LINE
  8
ボルト／ビス
  6
DOT
 10
-97.083723
 20
-62.85793
 11
-97.083723
 21
-62.891265
  0
LINE
  8
ボルト／ビス
  6
DOT
 62
    64
 10
-97.544098
 20
-62.65793
 11
-97.576173
 21
-62.669605
  0
ARC
  8
ボルト／ビス
  6
DOT
 62
    64
 10
-97.52806
 20
-62.762907
 40
0.104978
 50
62.721967
 51
90.0
  0
ARC
  8
ボルト／ビス
  6
DOT
 62
    64
 10
-97.383722
 20
-63.060331
 40
0.402402
 50
76.165002
 51
103.834985
  0
LINE
  8
ボルト／ビス
  6
DOT
 62
    64
 10
-97.223348
 20
-62.65793
 11
-97.191273
 21
-62.669605
  0
ARC
  8
ボルト／ビス
  6
DOT
 62
    64
 10
-97.239385
 20
-62.762907
 40
0.104978
 50
90.0
 51
117.278033
  0
LINE
  8
ボルト／ビス
  6
DOT
 62
    64
 10
-97.544098
 20
-62.65793
 11
-97.223348
 21
-62.65793
  0
LINE
  8
ボルト／ビス
  6
DOT
 62
    64
 10
-97.191273
 20
-62.669605
 11
-97.191273
 21
-62.791265
  0
LINE
  8
ボルト／ビス
  6
DOT
 62
    64
 10
-97.287497
 20
-62.669605
 11
-97.287497
 21
-62.791265
  0
LINE
  8
ボルト／ビス
  6
DOT
 62
    64
 10
-97.576173
 20
-62.669605
 11
-97.576173
 21
-62.791265
  0
LINE
  8
ボルト／ビス
  6
DOT
 62
    64
 10
-97.479947
 20
-62.669605
 11
-97.479947
 21
-62.791265
  0
LINE
  8
ボルト／ビス
  6
DOT
 10
-97.576173
 20
-62.791265
 11
-97.191273
 21
-62.791265
  0
LINE
  8
ボルト／ビス
  6
DOT
 10
-97.583723
 20
-62.791265
 11
-97.583723
 21
-62.85793
  0
LINE
  8
ボルト／ビス
  6
DOT
 10
-97.583723
 20
-62.791265
 11
-97.183723
 21
-62.791265
  0
LINE
  8
ボルト／ビス
  6
DOT
 10
-97.183723
 20
-62.791265
 11
-97.183723
 21
-62.85793
  0
ENDBLK
  0
ENDSEC
  0
SECTION
  2
ENTITIES
  0
POLYLINE
  8
通り芯
  6
CONTINUOUS
 66
     1
 70
     1
  0
VERTEX
  8
通り芯
 10
-210.0
 20
-148.5
  0
VERTEX
  8
通り芯
 10
210.0
 20
-148.5
  0
VERTEX
  8
通り芯
 10
210.0
 20
148.5
  0
VERTEX
  8
通り芯
 10
-210.0
 20
148.5
  0
SEQEND
  0
INSERT
  2
*GRP_0001
  8
型材断面
  6
CONTINUOUS
 10
0.0
 20
0.0
  0
LINE
  8
型材断面
  6
DASHDOT
 10
53.282945
 20
-87.251428
 11
53.282945
 21
56.73238
  0
LINE
  8
型材断面
  6
DASHDOT
 10
-21.717055
 20
-87.251428
 11
-21.717055
 21
56.73238
  0
LINE
  8
型材断面
  6
DASHDOT
 10
-96.717055
 20
-87.251428
 11
-96.717055
 21
56.73238
  0
POLYLINE
  8
型材断面
  6
CONTINUOUS
 66
     1
 70
     1
  0
VERTEX
  8
型材断面
 10
-12.226177
 20
66.508305
  0
VERTEX
  8
型材断面
 10
-30.998107
 20
66.508305
  0
VERTEX
  8
型材断面
 10
-30.998107
 20
71.245147
  0
VERTEX
  8
型材断面
 10
-12.226177
 20
71.245147
  0
SEQEND
  0
POLYLINE
  8
型材断面
  6
CONTINUOUS
 66
     1
 70
     1
  0
VERTEX
  8
型材断面
 10
-12.226177
 20
3.623125
  0
VERTEX
  8
型材断面
 10
-30.998107
 20
3.623125
  0
VERTEX
  8
型材断面
 10
-30.998107
 20
-1.113717
  0
VERTEX
  8
型材断面
 10
-12.226177
 20
-1.113717
  0
SEQEND
  0
LINE
  8
型材断面
  6
DASHDOT
 10
150.959707
 20
13.399048
 11
-96.717055
 21
13.399048
  0
LINE
  8
型材断面
  6
DASHDOT
 10
150.959707
 20
35.065715
 11
-96.717055
 21
35.065715
  0
LINE
  8
型材断面
  6
DASHDOT
 10
150.959707
 20
56.73238
 11
-96.717055
 21
56.73238
  0
LINE
  8
型材断面
  6
DASHDOT
 10
-21.717055
 20
13.399048
 11
-21.717055
 21
56.73238
  0
LINE
  8
型材断面
  6
DOT
 10
-20.467055
 20
13.399048
 11
-20.467055
 21
56.73238
  0
LINE
  8
型材断面
  6
DOT
 10
-22.967055
 20
13.399048
 11
-22.967055
 21
56.73238
  0
LINE
  8
型材断面
  6
CONTINUOUS
 10
-99.347185
 20
35.065715
 11
-101.937692
 21
36.561345
  0
LINE
  8
型材断面
  6
CONTINUOUS
 10
-99.347185
 20
35.065715
 11
-101.937692
 21
33.570085
  0
LINE
  8
型材断面
  6
CONTINUOUS
 10
-101.937692
 20
33.570085
 11
-101.937692
 21
36.561345
  0
LINE
  8
型材断面
  6
CONTINUOUS
 10
-80.050388
 20
59.36251
 11
-81.546018
 21
61.953017
  0
LINE
  8
型材断面
  6
CONTINUOUS
 10
-80.050388
 20
59.36251
 11
-78.554757
 21
61.953017
  0
LINE
  8
型材断面
  6
CONTINUOUS
 10
-78.554757
 20
61.953017
 11
-81.546018
 21
61.953017
  0
LINE
  8
型材断面
  6
CONTINUOUS
 10
-137.569262
 20
94.709852
 11
-136.973208
 21
92.119345
  0
LINE
  8
型材断面
  6
CONTINUOUS
 10
-137.569262
 20
94.709852
 11
-138.16532
 21
92.119345
  0
LINE
  8
型材断面
  6
CONTINUOUS
 10
-138.16532
 20
92.119345
 11
-136.973208
 21
92.119345
  0
LINE
  8
型材断面
  6
CONTINUOUS
 10
-143.59185
 20
88.840452
 11
-97.350072
 21
88.840452
  0
LINE
  8
型材断面
  6
CONTINUOUS
 10
-137.569262
 20
101.239727
 11
-139.064893
 21
98.64922
  0
LINE
  8
型材断面
  6
CONTINUOUS
 10
-137.569262
 20
101.239727
 11
-136.073632
 21
98.64922
  0
LINE
  8
型材断面
  6
CONTINUOUS
 10
-136.073632
 20
98.64922
 11
-139.064893
 21
98.64922
  0
LINE
  8
型材断面
  6
CONTINUOUS
 10
-143.59185
 20
97.710625
 11
-97.350072
 21
97.710625
  0
LINE
  8
型材断面
  6
CONTINUOUS
 10
-143.59185
 20
83.05242
 11
-97.350072
 21
83.05242
  0
LINE
  8
型材断面
  6
CONTINUOUS
 10
-80.050388
 20
10.76892
 11
-81.546018
 21
8.178413
  0
LINE
  8
型材断面
  6
CONTINUOUS
 10
-80.050388
 20
10.76892
 11
-78.554757
 21
8.178413
  0
LINE
  8
型材断面
  6
CONTINUOUS
 10
-78.554757
 20
8.178413
 11
-81.546018
 21
8.178413
  0
LINE
  8
型材断面
  6
CONTINUOUS
 10
55.913075
 20
35.065715
 11
58.503583
 21
36.561345
  0
LINE
  8
型材断面
  6
CONTINUOUS
 10
55.913075
 20
35.065715
 11
58.503583
 21
33.570085
  0
LINE
  8
型材断面
  6
CONTINUOUS
 10
58.503583
 20
33.570085
 11
58.503583
 21
36.561345
  0
LINE
  8
型材断面
  6
CONTINUOUS
 10
36.616278
 20
59.36251
 11
38.111908
 21
61.953017
  0
LINE
  8
型材断面
  6
CONTINUOUS
 10
36.616278
 20
59.36251
 11
35.120648
 21
61.953017
  0
LINE
  8
型材断面
  6
CONTINUOUS
 10
35.120648
 20
61.953017
 11
38.111908
 21
61.953017
  0
LINE
  8
型材断面
  6
CONTINUOUS
 10
36.616278
 20
10.76892
 11
38.111908
 21
8.178413
  0
LINE
  8
型材断面
  6
CONTINUOUS
 10
36.616278
 20
10.76892
 11
35.120648
 21
8.178413
  0
LINE
  8
型材断面
  6
CONTINUOUS
 10
35.120648
 20
8.178413
 11
38.111908
 21
8.178413
  0
LINE
  8
型材断面
  6
CONTINUOUS
 10
-21.717055
 20
59.36251
 11
-20.221425
 21
61.953017
  0
LINE
  8
型材断面
  6
CONTINUOUS
 10
-21.717055
 20
59.36251
 11
-23.212685
 21
61.953017
  0
LINE
  8
型材断面
  6
CONTINUOUS
 10
-23.212685
 20
61.953017
 11
-20.221425
 21
61.953017
  0
LINE
  8
型材断面
  6
CONTINUOUS
 10
-21.717055
 20
10.76892
 11
-20.221425
 21
8.178413
  0
LINE
  8
型材断面
  6
CONTINUOUS
 10
-21.717055
 20
10.76892
 11
-23.212685
 21
8.178413
  0
LINE
  8
型材断面
  6
CONTINUOUS
 10
-23.212685
 20
8.178413
 11
-20.221425
 21
8.178413
  0
LINE
  8
型材断面
  6
DASHDOT
 10
143.849495
 20
13.399045
 11
149.86956
 21
13.399045
  0
LINE
  8
型材断面
  6
CONTINUOUS
 62
    47
 10
146.132827
 20
12.00238
 11
146.132827
 21
12.78238
  0
LINE
  8
型材断面
  6
CONTINUOUS
 10
144.299495
 20
11.90238
 11
143.849495
 21
11.90238
  0
LINE
  8
型材断面
  6
CONTINUOUS
 62
    47
 10
146.972187
 20
11.119045
 11
146.638853
 21
11.119045
  0
LINE
  8
型材断面
  6
CONTINUOUS
 62
    47
 10
146.638853
 20
11.119045
 11
146.538853
 21
11.90238
  0
LINE
  8
型材断面
  6
CONTINUOUS
 62
    47
 10
146.132827
 20
11.90238
 11
146.538853
 21
11.90238
  0
LINE
  8
型材断面
  6
CONTINUOUS
 62
    47
 10
146.132827
 20
11.43238
 11
144.299495
 21
11.43238
  0
LINE
  8
型材断面
  6
CONTINUOUS
 62
    47
 10
150.099495
 20
11.999045
 11
149.599495
 21
11.999045
  0
LINE
  8
型材断面
  6
CONTINUOUS
 62
    47
 10
149.599495
 20
11.43238
 11
146.972187
 21
11.43238
  0
LINE
  8
型材断面
  6
CONTINUOUS
 10
144.299495
 20
11.43238
 11
144.299495
 21
35.065715
  0
LINE
  8
型材断面
  6
CONTINUOUS
 62
    47
 10
146.132827
 20
11.43238
 11
146.132827
 21
35.065715
  0
LINE
  8
型材断面
  6
CONTINUOUS
 10
146.538853
 20
11.90238
 11
146.538853
 21
35.065715
  0
LINE
  8
型材断面
  6
CONTINUOUS
 10
146.638853
 20
11.119045
 11
146.638853
 21
35.065715
  0
LINE
  8
型材断面
  6
CONTINUOUS
 62
    47
 10
146.972187
 20
11.119045
 11
146.972187
 21
35.065715
  0
LINE
  8
型材断面
  6
CONTINUOUS
 62
    47
 10
149.599495
 20
11.43238
 11
149.599495
 21
35.065715
  0
LINE
  8
型材断面
  6
CONTINUOUS
 62
    47
 10
150.099495
 20
11.999045
 11
150.099495
 21
35.065715
  0
LINE
  8
型材断面
  6
CONTINUOUS
 10
144.299495
 20
58.22905
 11
143.849495
 21
58.22905
  0
LINE
  8
型材断面
  6
CONTINUOUS
 62
    47
 10
146.972187
 20
59.012385
 11
146.638853
 21
59.012385
  0
LINE
  8
型材断面
  6
CONTINUOUS
 62
    47
 10
146.638853
 20
59.012385
 11
146.538853
 21
58.22905
  0
LINE
  8
型材断面
  6
CONTINUOUS
 62
    47
 10
146.132827
 20
58.22905
 11
146.538853
 21
58.22905
  0
LINE
  8
型材断面
  6
CONTINUOUS
 62
    47
 10
146.132827
 20
58.69905
 11
144.299495
 21
58.69905
  0
LINE
  8
型材断面
  6
CONTINUOUS
 62
    47
 10
150.099495
 20
58.132385
 11
149.599495
 21
58.132385
  0
LINE
  8
型材断面
  6
CONTINUOUS
 62
    47
 10
149.599495
 20
58.69905
 11
146.972187
 21
58.69905
  0
LINE
  8
型材断面
  6
CONTINUOUS
 10
144.299495
 20
58.69905
 11
144.299495
 21
35.065715
  0
LINE
  8
型材断面
  6
CONTINUOUS
 62
    47
 10
146.132827
 20
58.69905
 11
146.132827
 21
35.065715
  0
LINE
  8
型材断面
  6
CONTINUOUS
 10
146.538853
 20
58.22905
 11
146.538853
 21
35.065715
  0
LINE
  8
型材断面
  6
CONTINUOUS
 10
146.638853
 20
59.012385
 11
146.638853
 21
35.065715
  0
LINE
  8
型材断面
  6
CONTINUOUS
 62
    47
 10
146.972187
 20
59.012385
 11
146.972187
 21
35.065715
  0
LINE
  8
型材断面
  6
CONTINUOUS
 62
    47
 10
149.599495
 20
58.69905
 11
149.599495
 21
35.065715
  0
LINE
  8
型材断面
  6
CONTINUOUS
 62
    47
 10
150.099495
 20
58.132385
 11
150.099495
 21
35.065715
  0
LINE
  8
型材断面
  6
CONTINUOUS
 62
    47
 10
54.679613
 20
-82.941215
 11
53.899612
 21
-82.941215
  0
LINE
  8
型材断面
  6
CONTINUOUS
 10
54.779613
 20
-81.107882
 11
54.779613
 21
-80.657882
  0
LINE
  8
型材断面
  6
CONTINUOUS
 62
    47
 10
55.562947
 20
-83.780575
 11
55.562947
 21
-83.44724
  0
LINE
  8
型材断面
  6
CONTINUOUS
 62
    47
 10
55.562947
 20
-83.44724
 11
54.779613
 21
-83.34724
  0
LINE
  8
型材断面
  6
CONTINUOUS
 62
    47
 10
54.779613
 20
-82.941215
 11
54.779613
 21
-83.34724
  0
LINE
  8
型材断面
  6
CONTINUOUS
 62
    47
 10
55.249612
 20
-82.941215
 11
55.249612
 21
-81.107882
  0
LINE
  8
型材断面
  6
CONTINUOUS
 62
    47
 10
54.682948
 20
-86.907882
 11
54.682948
 21
-86.407882
  0
LINE
  8
型材断面
  6
CONTINUOUS
 62
    47
 10
55.249612
 20
-86.407882
 11
55.249612
 21
-83.780575
  0
LINE
  8
型材断面
  6
CONTINUOUS
 10
55.349612
 20
11.33238
 11
55.562947
 21
11.119045
  0
LINE
  8
型材断面
  6
CONTINUOUS
 10
55.562947
 20
11.119045
 11
55.562947
 21
35.065715
  0
LINE
  8
型材断面
  6
CONTINUOUS
 10
55.249612
 20
-81.107882
 11
-21.717055
 21
-81.107882
  0
LINE
  8
型材断面
  6
CONTINUOUS
 62
    47
 10
55.249612
 20
-82.941215
 11
-21.717055
 21
-82.941215
  0
LINE
  8
型材断面
  6
CONTINUOUS
 62
    47
 10
55.562947
 20
-83.780575
 11
-21.717055
 21
-83.780575
  0
LINE
  8
型材断面
  6
CONTINUOUS
 10
54.779613
 20
-83.34724
 11
-21.717055
 21
-83.34724
  0
LINE
  8
型材断面
  6
CONTINUOUS
 10
55.562947
 20
-83.44724
 11
-21.717055
 21
-83.44724
  0
LINE
  8
型材断面
  6
CONTINUOUS
 62
    47
 10
55.249612
 20
-86.407882
 11
-21.717055
 21
-86.407882
  0
LINE
  8
型材断面
  6
CONTINUOUS
 62
    47
 10
54.682948
 20
-86.907882
 11
-21.717055
 21
-86.907882
  0
LINE
  8
型材断面
  6
CONTINUOUS
 62
    47
 10
-98.113723
 20
-82.941215
 11
-97.333723
 21
-82.941215
  0
LINE
  8
型材断面
  6
CONTINUOUS
 10
-98.213723
 20
-81.107882
 11
-98.213723
 21
-80.657882
  0
LINE
  8
型材断面
  6
CONTINUOUS
 62
    47
 10
-98.997058
 20
-83.780575
 11
-98.997058
 21
-83.44724
  0
LINE
  8
型材断面
  6
CONTINUOUS
 62
    47
 10
-98.997058
 20
-83.44724
 11
-98.213723
 21
-83.34724
  0
LINE
  8
型材断面
  6
CONTINUOUS
 62
    47
 10
-98.213723
 20
-82.941215
 11
-98.213723
 21
-83.34724
  0
LINE
  8
型材断面
  6
CONTINUOUS
 62
    47
 10
-98.683723
 20
-82.941215
 11
-98.683723
 21
-81.107882
  0
LINE
  8
型材断面
  6
CONTINUOUS
 62
    47
 10
-98.117058
 20
-86.907882
 11
-98.117058
 21
-86.407882
  0
LINE
  8
型材断面
  6
CONTINUOUS
 62
    47
 10
-98.683723
 20
-86.407882
 11
-98.683723
 21
-83.780575
  0
LINE
  8
型材断面
  6
CONTINUOUS
 10
-98.683723
 20
-81.107882
 11
-21.717055
 21
-81.107882
  0
LINE
  8
型材断面
  6
CONTINUOUS
 62
    47
 10
-98.683723
 20
-82.941215
 11
-21.717055
 21
-82.941215
  0
LINE
  8
型材断面
  6
CONTINUOUS
 62
    47
 10
-98.997058
 20
-83.780575
 11
-21.717055
 21
-83.780575
  0
LINE
  8
型材断面
  6
CONTINUOUS
 10
-98.213723
 20
-83.34724
 11
-21.717055
 21
-83.34724
  0
LINE
  8
型材断面
  6
CONTINUOUS
 10
-98.997058
 20
-83.44724
 11
-21.717055
 21
-83.44724
  0
LINE
  8
型材断面
  6
CONTINUOUS
 62
    47
 10
-98.683723
 20
-86.407882
 11
-21.717055
 21
-86.407882
  0
LINE
  8
型材断面
  6
CONTINUOUS
 62
    47
 10
-98.117058
 20
-86.907882
 11
-21.717055
 21
-86.907882
  0
LINE
  8
型材断面
  6
DOT
 62
    47
 10
54.679613
 20
-66.274547
 11
53.899612
 21
-66.274547
  0
LINE
  8
型材断面
  6
DOT
 10
54.779613
 20
-64.441215
 11
54.779613
 21
-63.991215
  0
LINE
  8
型材断面
  6
DOT
 62
    47
 10
55.562947
 20
-67.113908
 11
55.562947
 21
-66.780573
  0
LINE
  8
型材断面
  6
DOT
 62
    47
 10
55.562947
 20
-66.780573
 11
54.779613
 21
-66.680573
  0
LINE
  8
型材断面
  6
DOT
 62
    47
 10
54.779613
 20
-66.274547
 11
54.779613
 21
-66.680573
  0
LINE
  8
型材断面
  6
DOT
 62
    47
 10
55.249612
 20
-66.274547
 11
55.249612
 21
-64.441215
  0
LINE
  8
型材断面
  6
DOT
 10
55.249612
 20
-64.441215
 11
-21.717055
 21
-64.441215
  0
LINE
  8
型材断面
  6
DOT
 62
    47
 10
55.249612
 20
-66.274547
 11
-21.717055
 21
-66.274547
  0
LINE
  8
型材断面
  6
DOT
 62
    47
 10
55.562947
 20
-67.113908
 11
-21.717055
 21
-67.113908
  0
LINE
  8
型材断面
  6
DOT
 10
54.779613
 20
-66.680573
 11
-21.717055
 21
-66.680573
  0
LINE
  8
型材断面
  6
DOT
 10
55.562947
 20
-66.780573
 11
-21.717055
 21
-66.780573
  0
LINE
  8
型材断面
  6
DOT
 62
    47
 10
-98.113723
 20
-66.274547
 11
-97.333723
 21
-66.274547
  0
LINE
  8
型材断面
  6
DOT
 10
-98.213723
 20
-64.441215
 11
-98.213723
 21
-63.991215
  0
LINE
  8
型材断面
  6
DOT
 62
    47
 10
-98.997058
 20
-67.113908
 11
-98.997058
 21
-66.780573
  0
LINE
  8
型材断面
  6
DOT
 62
    47
 10
-98.997058
 20
-66.780573
 11
-98.213723
 21
-66.680573
  0
LINE
  8
型材断面
  6
DOT
 62
    47
 10
-98.213723
 20
-66.274547
 11
-98.213723
 21
-66.680573
  0
LINE
  8
型材断面
  6
DOT
 62
    47
 10
-98.683723
 20
-66.274547
 11
-98.683723
 21
-64.441215
  0
LINE
  8
型材断面
  6
DOT
 10
-98.683723
 20
-64.441215
 11
-21.717055
 21
-64.441215
  0
LINE
  8
型材断面
  6
DOT
 62
    47
 10
-98.683723
 20
-66.274547
 11
-21.717055
 21
-66.274547
  0
LINE
  8
型材断面
  6
DOT
 62
    47
 10
-98.997058
 20
-67.113908
 11
-21.717055
 21
-67.113908
  0
LINE
  8
型材断面
  6
DOT
 10
-98.213723
 20
-66.680573
 11
-21.717055
 21
-66.680573
  0
LINE
  8
型材断面
  6
DOT
 10
-98.997058
 20
-66.780573
 11
-21.717055
 21
-66.780573
  0
LINE
  8
型材断面
  6
CONTINUOUS
 10
55.562947
 20
11.119045
 11
-21.717055
 21
11.119045
  0
LINE
  8
型材断面
  6
CONTINUOUS
 10
55.349612
 20
58.79905
 11
55.562947
 21
59.012385
  0
LINE
  8
型材断面
  6
CONTINUOUS
 10
55.562947
 20
59.012385
 11
55.562947
 21
35.065715
  0
LINE
  8
型材断面
  6
CONTINUOUS
 10
55.562947
 20
59.012385
 11
-21.717055
 21
59.012385
  0
LINE
  8
型材断面
  6
CONTINUOUS
 10
-98.783723
 20
58.79905
 11
-98.997058
 21
59.012385
  0
LINE
  8
型材断面
  6
CONTINUOUS
 10
-98.997058
 20
59.012385
 11
-98.997058
 21
35.065715
  0
LINE
  8
型材断面
  6
CONTINUOUS
 10
-98.997058
 20
59.012385
 11
-21.717055
 21
59.012385
  0
LINE
  8
型材断面
  6
CONTINUOUS
 10
-98.783723
 20
11.33238
 11
-98.997058
 21
11.119045
  0
LINE
  8
型材断面
  6
CONTINUOUS
 10
-98.997058
 20
11.119045
 11
-98.997058
 21
35.065715
  0
LINE
  8
型材断面
  6
CONTINUOUS
 10
-98.997058
 20
11.119045
 11
-21.717055
 21
11.119045
  0
LINE
  8
型材断面
  6
CONTINUOUS
 10
55.913073
 20
52.83238
 11
58.50358
 21
52.236322
  0
LINE
  8
型材断面
  6
CONTINUOUS
 10
55.913073
 20
52.83238
 11
58.50358
 21
53.428437
  0
LINE
  8
型材断面
  6
CONTINUOUS
 10
58.50358
 20
53.428437
 11
58.50358
 21
52.236322
  0
LINE
  8
型材断面
  6
CONTINUOUS
 10
55.913073
 20
17.29905
 11
58.50358
 21
17.895108
  0
LINE
  8
型材断面
  6
CONTINUOUS
 10
55.913073
 20
17.29905
 11
58.50358
 21
16.702993
  0
LINE
  8
型材断面
  6
CONTINUOUS
 10
58.50358
 20
16.702993
 11
58.50358
 21
17.895108
  0
LINE
  8
型材断面
  6
CONTINUOUS
 10
-99.347182
 20
52.83238
 11
-101.93769
 21
52.236322
  0
LINE
  8
型材断面
  6
CONTINUOUS
 10
-99.347182
 20
52.83238
 11
-101.93769
 21
53.428437
  0
LINE
  8
型材断面
  6
CONTINUOUS
 10
-101.93769
 20
53.428437
 11
-101.93769
 21
52.236322
  0
LINE
  8
型材断面
  6
CONTINUOUS
 10
-99.347182
 20
17.29905
 11
-101.93769
 21
17.895108
  0
LINE
  8
型材断面
  6
CONTINUOUS
 10
-99.347182
 20
17.29905
 11
-101.93769
 21
16.702993
  0
LINE
  8
型材断面
  6
CONTINUOUS
 10
-101.93769
 20
16.702993
 11
-101.93769
 21
17.895108
  0
INSERT
  2
*GRP_0019
  8
型材断面
  6
CONTINUOUS
 10
0.0
 20
0.0
  0
INSERT
  2
*GRP_0020
  8
型材断面
  6
CONTINUOUS
 10
0.0
 20
0.0
  0
INSERT
  2
*GRP_0021
  8
型材断面
  6
CONTINUOUS
 10
0.0
 20
0.0
  0
INSERT
  2
*GRP_0022
  8
型材断面
  6
CONTINUOUS
 10
0.0
 20
0.0
  0
LINE
  8
型材断面
  6
CONTINUOUS
 10
-143.59185
 20
77.264387
 11
-97.350072
 21
77.264387
  0
LINE
  8
型材断面
  6
DASHDOT
 10
-59.387057
 20
13.399048
 11
-59.387057
 21
56.73238
  0
LINE
  8
型材断面
  6
DOT
 10
-58.137057
 20
13.399048
 11
-58.137057
 21
56.73238
  0
LINE
  8
型材断面
  6
DOT
 10
-60.637057
 20
13.399048
 11
-60.637057
 21
56.73238
  0
LINE
  8
型材断面
  6
DASHDOT
 10
15.952947
 20
13.399048
 11
15.952947
 21
56.73238
  0
LINE
  8
型材断面
  6
DOT
 10
14.702947
 20
13.399048
 11
14.702947
 21
56.73238
  0
LINE
  8
型材断面
  6
DOT
 10
17.202947
 20
13.399048
 11
17.202947
 21
56.73238
  0
TEXT
  7
TextStyle03
  8
文字
  6
CONTINUOUS
 10
129.825
 20
-86.1
  1
網入り6.8t
 40
3.0
 72
     5
 11
146.5125
 21
-86.1
  0
TEXT
  7
TextStyle03
  8
文字
  6
CONTINUOUS
 10
-29.925
 20
67.2
  1
可動装置側
 40
3.0
 72
     5
 11
-13.425
 21
67.2
  0
TEXT
  7
TextStyle03
  8
文字
  6
CONTINUOUS
 10
-29.925
 20
-0.075
  1
可動装置側
 40
3.0
 72
     5
 11
-13.425
 21
-0.075
  0
TEXT
  7
TextStyle03
  8
文字
  6
CONTINUOUS
 10
136.5
 20
-90.775
  1
×４枚
 40
3.0
 72
     5
 11
146.25
 21
-90.775
  0
TEXT
  7
TextStyle03
  8
文字
  6
CONTINUOUS
 10
-134.2
 20
23.975
  1
アンカーピッチ
 40
3.0
 50
90.0
 72
     5
 11
-134.2
 21
47.225
  0
TEXT
  7
TextStyle03
  8
文字
  6
CONTINUOUS
 10
-134.775
 20
93.325
  1
はケーシング位置を示す
 40
3.0
 72
     5
 11
-98.025
 21
93.325
  0
TEXT
  7
TextStyle03
  8
文字
  6
CONTINUOUS
 10
-134.775
 20
89.95
  1
４ヶ所中1ヶ所に設定
 40
3.0
 72
     5
 11
-103.0875
 21
89.95
  0
TEXT
  7
TextStyle03
  8
文字
  6
CONTINUOUS
 10
-134.775
 20
98.85
  1
は排水穴位置を示す
 40
3.0
 72
     5
 11
-104.775
 21
98.85
  0
TEXT
  7
TextStyle03
  8
文字
  6
CONTINUOUS
 10
-81.775
 20
93.8
  1
アンカーピッチ
 40
3.0
 72
     5
 11
-58.525
 21
93.8
  0
TEXT
  7
TextStyle03
  8
文字
  6
CONTINUOUS
 10
-138.5
 20
83.975
  1
アンカー数量　１６ヶ所
 40
3.0
 72
     5
 11
-101.75
 21
83.975
  0
TEXT
  7
TextStyle03
  8
文字
  6
CONTINUOUS
 10
-143.5
 20
78.2
  1
アームユニット数　※４～６ヶ所
 40
3.0
 72
     5
 11
-93.25
 21
78.2
  0
TEXT
  7
TextStyle03
  8
文字
  6
CONTINUOUS
 10
-143.5
 20
73.25
  1
※重量に依るのでご相談ください
 40
3.0
 72
     5
 11
-93.25
 21
73.25
  0
TEXT
  7
TextStyle03
  8
文字
  6
CONTINUOUS
 10
78.1
 20
125.25
  1
シリーズ：ＳＴＤＬ
 40
5.0
 72
     5
 11
128.1
 21
125.25
  0
TEXT
  7
TextStyle03
  8
文字
  6
CONTINUOUS
 10
78.1
 20
119.625
  1
　　　　　（上下可動）1300×4500タイプ
 40
5.0
 72
     5
 11
184.35
 21
119.625
  0
TEXT
  7
TextStyle03
  8
文字
  6
CONTINUOUS
 10
78.1
 20
114.0
  1
図面名　：外観姿図
 40
5.0
 72
     5
 11
128.1
 21
114.0
  0
TEXT
  7
TextStyle03
  8
文字
  6
CONTINUOUS
 10
78.1
 20
108.375
  1
　　　　　　
 40
5.0
 72
     5
 11
111.225
 21
108.375
  0
TEXT
  7
TextStyle03
  8
文字
  6
CONTINUOUS
 10
77.425
 20
103.975
  1
ＮＳコード：ＮＳＤＳＬ
 40
5.0
 72
     5
 11
138.675
 21
103.975
  0
INSERT
  2
*DIM_0002
  8
寸法
  6
CONTINUOUS
 10
0.0
 20
0.0
  0
INSERT
  2
*DIM_0003
  8
寸法
  6
CONTINUOUS
 10
0.0
 20
0.0
  0
INSERT
  2
*DIM_0004
  8
寸法
  6
CONTINUOUS
 10
0.0
 20
0.0
  0
INSERT
  2
*DIM_0005
  8
寸法
  6
CONTINUOUS
 10
0.0
 20
0.0
  0
INSERT
  2
*DIM_0006
  8
寸法
  6
CONTINUOUS
 10
0.0
 20
0.0
  0
INSERT
  2
*DIM_0007
  8
寸法
  6
CONTINUOUS
 10
0.0
 20
0.0
  0
INSERT
  2
*DIM_0008
  8
寸法
  6
CONTINUOUS
 10
0.0
 20
0.0
  0
INSERT
  2
*DIM_0009
  8
寸法
  6
CONTINUOUS
 10
0.0
 20
0.0
  0
INSERT
  2
*DIM_0010
  8
寸法
  6
CONTINUOUS
 10
0.0
 20
0.0
  0
INSERT
  2
*DIM_0011
  8
寸法
  6
CONTINUOUS
 10
0.0
 20
0.0
  0
INSERT
  2
*DIM_0012
  8
寸法
  6
CONTINUOUS
 10
0.0
 20
0.0
  0
INSERT
  2
*DIM_0013
  8
寸法
  6
CONTINUOUS
 10
0.0
 20
0.0
  0
INSERT
  2
*DIM_0014
  8
寸法
  6
CONTINUOUS
 10
0.0
 20
0.0
  0
INSERT
  2
*DIM_0015
  8
寸法
  6
CONTINUOUS
 10
0.0
 20
0.0
  0
INSERT
  2
*DIM_0016
  8
寸法
  6
CONTINUOUS
 10
0.0
 20
0.0
  0
INSERT
  2
*DIM_0017
  8
寸法
  6
CONTINUOUS
 10
0.0
 20
0.0
  0
INSERT
  2
*DIM_0023
  8
寸法
  6
CONTINUOUS
 10
0.0
 20
0.0
  0
INSERT
  2
*DIM_0024
  8
寸法
  6
CONTINUOUS
 10
0.0
 20
0.0
  0
INSERT
  2
*DIM_0025
  8
寸法
  6
CONTINUOUS
 10
0.0
 20
0.0
  0
INSERT
  2
*DIM_0026
  8
寸法
  6
CONTINUOUS
 10
0.0
 20
0.0
  0
INSERT
  2
*DIM_0027
  8
寸法
  6
CONTINUOUS
 10
0.0
 20
0.0
  0
INSERT
  2
*DIM_0028
  8
寸法
  6
CONTINUOUS
 10
0.0
 20
0.0
  0
INSERT
  2
*DIM_0029
  8
寸法
  6
CONTINUOUS
 10
0.0
 20
0.0
  0
LINE
  8
別途部材
  6
CONTINUOUS
 10
55.349612
 20
11.33238
 11
54.949612
 21
11.73238
  0
LINE
  8
別途部材
  6
CONTINUOUS
 10
53.282945
 20
13.399048
 11
45.22369
 21
21.458305
  0
LINE
  8
別途部材
  6
CONTINUOUS
 10
54.949612
 20
11.73238
 11
54.949612
 21
35.065715
  0
LINE
  8
別途部材
  6
CONTINUOUS
 10
55.349612
 20
11.33238
 11
55.349612
 21
35.065715
  0
LINE
  8
別途部材
  6
CONTINUOUS
 10
55.349612
 20
58.79905
 11
54.949612
 21
58.39905
  0
LINE
  8
別途部材
  6
CONTINUOUS
 10
53.282945
 20
56.732382
 11
45.22369
 21
48.673125
  0
LINE
  8
別途部材
  6
CONTINUOUS
 10
54.949612
 20
58.39905
 11
54.949612
 21
35.065715
  0
LINE
  8
別途部材
  6
CONTINUOUS
 10
55.349612
 20
58.79905
 11
55.349612
 21
35.065715
  0
LINE
  8
別途部材
  6
CONTINUOUS
 10
55.349612
 20
58.79905
 11
-21.717055
 21
58.79905
  0
LINE
  8
別途部材
  6
CONTINUOUS
 10
54.949612
 20
58.39905
 11
-21.717055
 21
58.39905
  0
LINE
  8
別途部材
  6
CONTINUOUS
 10
54.949612
 20
11.73238
 11
-21.717055
 21
11.73238
  0
LINE
  8
別途部材
  6
CONTINUOUS
 10
55.349612
 20
11.33238
 11
-21.717055
 21
11.33238
  0
LINE
  8
別途部材
  6
CONTINUOUS
 10
-98.783723
 20
11.33238
 11
-98.383723
 21
11.73238
  0
LINE
  8
別途部材
  6
CONTINUOUS
 10
-96.717055
 20
13.399048
 11
-88.6578
 21
21.458305
  0
LINE
  8
別途部材
  6
CONTINUOUS
 10
-98.383723
 20
11.73238
 11
-98.383723
 21
35.065715
  0
LINE
  8
別途部材
  6
CONTINUOUS
 10
-98.783723
 20
11.33238
 11
-98.783723
 21
35.065715
  0
LINE
  8
別途部材
  6
CONTINUOUS
 10
-98.783723
 20
58.79905
 11
-98.383723
 21
58.39905
  0
LINE
  8
別途部材
  6
CONTINUOUS
 10
-96.717055
 20
56.732382
 11
-88.6578
 21
48.673125
  0
LINE
  8
別途部材
  6
CONTINUOUS
 10
-98.383723
 20
58.39905
 11
-98.383723
 21
35.065715
  0
LINE
  8
別途部材
  6
CONTINUOUS
 10
-98.783723
 20
58.79905
 11
-98.783723
 21
35.065715
  0
LINE
  8
別途部材
  6
CONTINUOUS
 10
-98.783723
 20
58.79905
 11
-21.717055
 21
58.79905
  0
LINE
  8
別途部材
  6
CONTINUOUS
 10
-98.383723
 20
58.39905
 11
-21.717055
 21
58.39905
  0
LINE
  8
別途部材
  6
CONTINUOUS
 10
-98.383723
 20
11.73238
 11
-21.717055
 21
11.73238
  0
LINE
  8
別途部材
  6
CONTINUOUS
 10
-98.783723
 20
11.33238
 11
-21.717055
 21
11.33238
  0
LINE
  8
別途部材
  6
CONTINUOUS
 62
    96
 10
142.81621
 20
11.73238
 11
143.81621
 21
11.33238
  0
LINE
  8
別途部材
  6
CONTINUOUS
 10
143.81621
 20
11.33238
 11
143.81621
 21
35.065715
  0
LINE
  8
別途部材
  6
CONTINUOUS
 62
    96
 10
142.81621
 20
11.73238
 11
142.81621
 21
35.065715
  0
LINE
  8
別途部材
  6
CONTINUOUS
 62
    96
 10
142.81621
 20
58.39905
 11
143.81621
 21
58.79905
  0
LINE
  8
別途部材
  6
CONTINUOUS
 10
143.81621
 20
58.79905
 11
143.81621
 21
35.065715
  0
LINE
  8
別途部材
  6
CONTINUOUS
 62
    96
 10
142.81621
 20
58.39905
 11
142.81621
 21
35.065715
  0
ARC
  8
別途部材
  6
CONTINUOUS
 10
157.101922
 20
35.065713
 40
25.95238
 50
123.398485
 51
236.601515
  0
LINE
  8
別途部材
  6
DOT
 62
    96
 10
54.949612
 20
-62.95793
 11
55.349612
 21
-63.95793
  0
ARC
  8
別途部材
  6
DOT
 10
31.616277
 20
-77.243645
 40
25.952382
 50
33.398488
 51
90.0
  0
LINE
  8
別途部材
  6
DOT
 10
31.616278
 20
-51.291262
 11
-21.717055
 21
-51.291262
  0
LINE
  8
別途部材
  6
DOT
 62
    96
 10
54.949612
 20
-62.95793
 11
-21.717055
 21
-62.95793
  0
LINE
  8
別途部材
  6
DOT
 10
55.349612
 20
-63.95793
 11
-21.717055
 21
-63.95793
  0
LINE
  8
別途部材
  6
DOT
 62
    96
 10
-98.383723
 20
-62.95793
 11
-98.783723
 21
-63.95793
  0
ARC
  8
別途部材
  6
DOT
 10
-75.050387
 20
-77.243645
 40
25.952382
 50
90.0
 51
146.601512
  0
LINE
  8
別途部材
  6
DOT
 10
-75.050388
 20
-51.291262
 11
-21.717055
 21
-51.291262
  0
LINE
  8
別途部材
  6
DOT
 62
    96
 10
-98.383723
 20
-62.95793
 11
-21.717055
 21
-62.95793
  0
LINE
  8
別途部材
  6
DOT
 10
-98.783723
 20
-63.95793
 11
-21.717055
 21
-63.95793
  0
INSERT
  2
*GRP_0018
  8
別途部材
  6
CONTINUOUS
 10
0.0
 20
0.0
  0
INSERT
  2
*GRP_0030
  8
別途部材
  6
DOT
 10
0.0
 20
0.0
  0
INSERT
  2
*GRP_0031
  8
別途部材
  6
DOT
 10
0.0
 20
0.0
  0
INSERT
  2
*GRP_0032
  8
別途部材
  6
DOT
 10
0.0
 20
0.0
  0
INSERT
  2
*GRP_0033
  8
別途部材
  6
DOT
 10
0.0
 20
0.0
  0
INSERT
  2
*GRP_0034
  8
別途部材
  6
DOT
 10
0.0
 20
0.0
  0
INSERT
  2
*GRP_0035
  8
別途部材
  6
DOT
 10
0.0
 20
0.0
  0
LINE
  8
曲げ物
  6
CONTINUOUS
 10
111.836168
 20
-49.867045
 11
148.1695
 21
-49.867045
  0
LINE
  8
曲げ物
  6
CONTINUOUS
 10
148.1695
 20
-49.867045
 11
148.1695
 21
-92.533713
  0
LINE
  8
曲げ物
  6
CONTINUOUS
 10
148.1695
 20
-92.533713
 11
111.836168
 21
-92.533713
  0
LINE
  8
曲げ物
  6
CONTINUOUS
 10
111.836168
 20
-49.867045
 11
111.836168
 21
-92.533713
  0
ENDSEC
  0
EOF
