  0
SECTION
  2
HEADER
  9
$EXTMIN
 10
-210.0
 20
-148.5
  9
$EXTMAX
 10
210.0
 20
148.5
  9
$PDMODE
 70
    32
  9
$PDSIZE
 40
1.5
  9
$LTSCALE
 40
10.0
  0
ENDSEC
  0
SECTION
  2
TABLES
  0
TABLE
  2
LTYPE
 70
    15
  0
LTYPE
  2
CONTINUOUS
 70
    64
  3
実線
 72
    65
 73
     0
 40
0.0
  0
LTYPE
  2
DASHED
 70
    64
  3
破線A
 72
    65
 73
     2
 40
0.6
 49
0.4
 49
-0.2
  0
LTYPE
  2
DASHEDX2
 70
    64
  3
破線B
 72
    65
 73
     2
 40
1.3
 49
0.9
 49
-0.4
  0
LTYPE
  2
DASHDOT
 70
    64
  3
１点鎖線A
 72
    65
 73
     4
 40
0.5375
 49
0.375
 49
-0.05
 49
0.0625
 49
-0.05
  0
LTYPE
  2
DASHDOTX2
 70
    64
  3
１点鎖線B
 72
    65
 73
     4
 40
1.075
 49
0.75
 49
-0.1
 49
0.125
 49
-0.1
  0
LTYPE
  2
DIVIDE2
 70
    64
  3
２点鎖線A
 72
    65
 73
     6
 40
0.5125
 49
0.3
 49
-0.0375
 49
0.05
 49
-0.0375
 49
0.05
 49
-0.0375
  0
LTYPE
  2
DIVIDE
 70
    64
  3
２点鎖線B
 72
    65
 73
     6
 40
1.05
 49
0.55
 49
-0.1
 49
0.1
 49
-0.1
 49
0.1
 49
-0.1
  0
LTYPE
  2
DOT
 70
    64
  3
点線A
 72
    65
 73
     2
 40
0.1125
 49
0.0625
 49
-0.05
  0
LTYPE
  2
DOTX2
 70
    64
  3
点線B
 72
    65
 73
     2
 40
0.275
 49
0.15
 49
-0.125
  0
LTYPE
  2
CONTINUOUS
 70
    64
  3
実線
 72
    65
 73
     0
 40
0.0
  0
LTYPE
  2
CONTINUOUS
 70
    64
  3
実線
 72
    65
 73
     0
 40
0.0
  0
LTYPE
  2
CONTINUOUS
 70
    64
  3
実線
 72
    65
 73
     0
 40
0.0
  0
LTYPE
  2
CONTINUOUS
 70
    64
  3
実線
 72
    65
 73
     0
 40
0.0
  0
LTYPE
  2
CONTINUOUS
 70
    64
  3
実線
 72
    65
 73
     0
 40
0.0
  0
LTYPE
  2
CONTINUOUS
 70
    64
  3
実線
 72
    65
 73
     0
 40
0.0
  0
ENDTAB
  0
TABLE
  2
LAYER
 70
    34
  0
LAYER
  2
通り芯
 70
     0
 62
    15
  6
CONTINUOUS
  0
LAYER
  2
補助線
 70
     0
 62
    16
  6
DOT
  0
LAYER
  2
躯体
 70
     0
 62
    31
  6
CONTINUOUS
  0
LAYER
  2
型材
 70
     0
 62
    32
  6
CONTINUOUS
  0
LAYER
  2
型材断面
 70
     0
 62
    47
  6
CONTINUOUS
  0
LAYER
  2
ガラス
 70
     0
 62
    48
  6
CONTINUOUS
  0
LAYER
  2
ゴム等
 70
     0
 62
    63
  6
CONTINUOUS
  0
LAYER
  2
ボルト／ビス
 70
     0
 62
    64
  6
CONTINUOUS
  0
LAYER
  2
文字
 70
     0
 62
    79
  6
CONTINUOUS
  0
LAYER
  2
寸法
 70
     0
 62
    80
  6
CONTINUOUS
  0
LAYER
  2
ﾊｯﾁﾝｸﾞ
 70
     0
 62
    95
  6
CONTINUOUS
  0
LAYER
  2
別途部材
 70
     0
 62
    96
  6
CONTINUOUS
  0
LAYER
  2
曲げ物
 70
     0
 62
   111
  6
CONTINUOUS
  0
LAYER
  2
鉄骨等
 70
     0
 62
   112
  6
CONTINUOUS
  0
LAYER
  2
St
 70
     0
 62
   127
  6
CONTINUOUS
  0
LAYER
  2
その他部品等
 70
     0
 62
   128
  6
CONTINUOUS
  0
LAYER
  2
ｶﾞｽｹｯﾄ
 70
     0
 62
   143
  6
CONTINUOUS
  0
LAYER
  2
ｽｹｯﾁ
 70
     0
 62
    14
  6
CONTINUOUS
  0
LAYER
  2
0
 70
     0
 62
    17
  6
CONTINUOUS
  0
LAYER
  2
1
 70
     0
 62
    30
  6
CONTINUOUS
  0
LAYER
  2
4
 70
     0
 62
    33
  6
CONTINUOUS
  0
LAYER
  2
ﾚｲﾔ3
 70
     0
 62
    46
  6
CONTINUOUS
  0
LAYER
  2
外形線
 70
     0
 62
    49
  6
CONTINUOUS
  0
LAYER
  2
部品
 70
     0
 62
    14
  6
CONTINUOUS
  0
LAYER
  2
サッシ芯
 70
     0
 62
    17
  6
DASHDOTX2
  0
LAYER
  2
寸法線
 70
     0
 62
    62
  6
CONTINUOUS
  0
LAYER
  2
姿図外形線
 70
     0
 62
    65
  6
CONTINUOUS
  0
LAYER
  2
姿補助線
 70
     0
 62
    30
  6
CONTINUOUS
  0
LAYER
  2
透視線
 70
     0
 62
    78
  6
DOT
  0
LAYER
  2
用紙
 70
     0
 62
    81
  6
CONTINUOUS
  0
LAYER
  2
実線図枠
 70
     0
 62
    94
  6
CONTINUOUS
  0
LAYER
  2
補助図枠
 70
     0
 62
    97
  6
CONTINUOUS
  0
LAYER
  2
建具記号
 70
     0
 62
   110
  6
CONTINUOUS
  0
LAYER
  2
補助文字
 70
     0
 62
   113
  6
CONTINUOUS
  0
ENDTAB
  0
TABLE
  2
STYLE
 70
    10
  0
STYLE
  2
STANDARD
 70
     0
 40
1.0
 41
1.0
 42
1.0
 50
0.0
 71
     0
  3
TXT
  4
BIGFONT
  0
STYLE
  2
TATE
 70
     4
 40
1.0
 41
1.0
 42
1.0
 50
0.0
 71
     0
  3
TXT
  4
BIGFONT
  0
STYLE
  2
TextStyle03
 70
     0
 40
1.0
 41
1.0
 42
1.0
 50
0.0
 71
     0
  3
MONOTXT
  4
BIGFONT
  0
STYLE
  2
TextStyle04
 70
     0
 40
1.0
 41
1.0
 42
1.0
 50
0.0
 71
     0
  3
MONOTXT
  4
BIGFONT
  0
STYLE
  2
TextStyle05
 70
     0
 40
1.0
 41
1.0
 42
1.0
 50
0.0
 71
     0
  3
MONOTXT
  4
BIGFONT
  0
STYLE
  2
TextStyle06
 70
     0
 40
1.0
 41
1.0
 42
1.0
 50
0.0
 71
     0
  3
MONOTXT
  4
BIGFONT
  0
STYLE
  2
TextStyle07
 70
     0
 40
1.0
 41
1.0
 42
1.0
 50
0.0
 71
     0
  3
MONOTXT
  4
BIGFONT
  0
STYLE
  2
TextStyle08
 70
     0
 40
1.0
 41
1.0
 42
1.0
 50
0.0
 71
     0
  3
MONOTXT
  4
BIGFONT
  0
STYLE
  2
TextStyle09
 70
     0
 40
1.0
 41
1.0
 42
1.0
 50
0.0
 71
     0
  3
MONOTXT
  4
BIGFONT
  0
STYLE
  2
TextStyle10
 70
     0
 40
1.0
 41
1.0
 42
1.0
 50
0.0
 71
     0
  3
MONOTXT
  4
BIGFONT
  0
ENDTAB
  0
ENDSEC
  0
SECTION
  2
BLOCKS
  0
BLOCK
  2
*GRP_0001
 70
    65
 10
0.0
 20
0.0
  0
LINE
  8
型材断面
  6
CONTINUOUS
 10
195.0
 20
133.5
 11
195.0
 21
-133.5
  0
LINE
  8
型材断面
  6
CONTINUOUS
 10
195.0
 20
-133.5
 11
-185.0
 21
-133.5
  0
LINE
  8
型材断面
  6
CONTINUOUS
 10
-185.0
 20
-133.5
 11
-185.0
 21
133.5
  0
LINE
  8
型材断面
  6
CONTINUOUS
 10
195.0
 20
133.5
 11
-185.0
 21
133.5
  0
LINE
  8
型材断面
  6
CONTINUOUS
 10
145.0
 20
-133.5
 11
145.0
 21
-118.5
  0
LINE
  8
型材断面
  6
CONTINUOUS
 10
195.0
 20
-118.5
 11
145.0
 21
-118.5
  0
ENDBLK
  0
BLOCK
  2
*DIM_0002
 70
    65
 10
0.0
 20
0.0
  0
LINE
  8
寸法
  6
BYBLOCK
 62
     0
 10
50.59034
 20
-67.95793
 11
87.226657
 21
-67.95793
  0
LINE
  8
寸法
  6
BYBLOCK
 62
     0
 10
87.226657
 20
-79.624597
 11
87.226657
 21
-67.95793
  0
POINT
  8
寸法
 62
     0
 10
87.226657
 20
-79.624597
  0
POINT
  8
寸法
 62
     0
 10
87.226657
 20
-67.95793
  0
TEXT
  7
TextStyle03
  8
寸法
  6
CONTINUOUS
 62
     0
 10
86.85
 20
-76.2375
  1
350
 40
3.0
 50
90.0
 72
     5
 11
86.85
 21
-71.3625
  0
ENDBLK
  0
BLOCK
  2
*DIM_0003
 70
    65
 10
0.0
 20
0.0
  0
LINE
  8
寸法
  6
BYBLOCK
 62
     0
 10
71.257007
 20
-22.536362
 11
-112.076325
 21
-22.536362
  0
POINT
  8
寸法
 62
     0
 10
71.257007
 20
-22.536362
  0
POINT
  8
寸法
 62
     0
 10
-112.076325
 20
-22.536362
  0
TEXT
  7
TextStyle03
  8
寸法
  6
CONTINUOUS
 62
     0
 10
-32.14375
 20
-22.175
  1
呼称寸法　5500
 40
3.0
 72
     5
 11
-8.70625
 21
-22.175
  0
ENDBLK
  0
BLOCK
  2
*DIM_0004
 70
    65
 10
0.0
 20
0.0
  0
LINE
  8
寸法
  6
BYBLOCK
 62
     0
 10
-95.409657
 20
9.76892
 11
-95.409657
 21
4.438815
  0
LINE
  8
寸法
  6
BYBLOCK
 62
     0
 10
-20.40966
 20
9.76892
 11
-20.40966
 21
4.438815
  0
LINE
  8
寸法
  6
BYBLOCK
 62
     0
 10
-95.409657
 20
4.438815
 11
-20.40966
 21
4.438815
  0
POINT
  8
寸法
 62
     0
 10
-95.409657
 20
4.438815
  0
POINT
  8
寸法
 62
     0
 10
-20.40966
 20
4.438815
  0
TEXT
  7
TextStyle03
  8
寸法
  6
CONTINUOUS
 62
     0
 10
-61.20625
 20
4.8
  1
2250
 40
3.0
 72
     5
 11
-54.64375
 21
4.8
  0
ENDBLK
  0
BLOCK
  2
*DIM_0005
 70
    65
 10
0.0
 20
0.0
  0
LINE
  8
寸法
  6
BYBLOCK
 62
     0
 10
54.590337
 20
9.76892
 11
54.590337
 21
4.438815
  0
LINE
  8
寸法
  6
BYBLOCK
 62
     0
 10
-20.40966
 20
4.438815
 11
54.590337
 21
4.438815
  0
POINT
  8
寸法
 62
     0
 10
54.590337
 20
4.438815
  0
TEXT
  7
TextStyle03
  8
寸法
  6
CONTINUOUS
 62
     0
 10
13.79375
 20
4.8
  1
2250
 40
3.0
 72
     5
 11
20.35625
 21
4.8
  0
ENDBLK
  0
BLOCK
  2
*DIM_0006
 70
    65
 10
0.0
 20
0.0
  0
LINE
  8
寸法
  6
BYBLOCK
 62
     0
 10
105.276657
 20
13.399048
 11
105.276657
 21
56.73238
  0
POINT
  8
寸法
 62
     0
 10
105.276657
 20
13.399048
  0
POINT
  8
寸法
 62
     0
 10
105.276657
 20
56.73238
  0
TEXT
  7
TextStyle03
  8
寸法
  6
CONTINUOUS
 62
     0
 10
104.9
 20
23.33125
  1
呼称寸法　1300
 40
3.0
 50
90.0
 72
     5
 11
104.9
 21
46.76875
  0
ENDBLK
  0
BLOCK
  2
*DIM_0007
 70
    65
 10
0.0
 20
0.0
  0
LINE
  8
寸法
  6
BYBLOCK
 62
     0
 10
149.123605
 20
36.065715
 11
149.123605
 21
72.668433
  0
LINE
  8
寸法
  6
BYBLOCK
 62
     0
 10
160.790272
 20
72.668433
 11
149.123605
 21
72.668433
  0
POINT
  8
寸法
 62
     0
 10
149.123605
 20
72.668433
  0
TEXT
  7
TextStyle03
  8
寸法
  6
CONTINUOUS
 62
     0
 10
152.5125
 20
73.025
  1
350
 40
3.0
 72
     5
 11
157.3875
 21
73.025
  0
ENDBLK
  0
BLOCK
  2
*DIM_0008
 70
    65
 10
0.0
 20
0.0
  0
LINE
  8
寸法
  6
BYBLOCK
 62
     0
 10
160.790272
 20
59.39905
 11
160.790272
 21
72.668433
  0
LINE
  8
寸法
  6
BYBLOCK
 62
     0
 10
167.573558
 20
59.69905
 11
167.573558
 21
72.668433
  0
LINE
  8
寸法
  6
BYBLOCK
 62
     0
 10
160.790272
 20
72.668433
 11
167.573558
 21
72.668433
  0
POINT
  8
寸法
 62
     0
 10
160.790272
 20
72.668433
  0
POINT
  8
寸法
 62
     0
 10
167.573558
 20
72.668433
  0
TEXT
  7
TextStyle03
  8
寸法
  6
CONTINUOUS
 62
     0
 10
168.425
 20
73.025
  1
203.5
 40
3.0
 72
     5
 11
176.675
 21
73.025
  0
ENDBLK
  0
BLOCK
  2
*DIM_0009
 70
    65
 10
0.0
 20
0.0
  0
LINE
  8
寸法
  6
BYBLOCK
 62
     0
 10
73.923675
 20
-79.624597
 11
87.226657
 21
-79.624597
  0
LINE
  8
寸法
  6
BYBLOCK
 62
     0
 10
74.223675
 20
-86.407882
 11
87.226657
 21
-86.407882
  0
LINE
  8
寸法
  6
BYBLOCK
 62
     0
 10
87.226657
 20
-79.624597
 11
87.226657
 21
-86.407882
  0
POINT
  8
寸法
 62
     0
 10
87.226657
 20
-79.624597
  0
POINT
  8
寸法
 62
     0
 10
87.226657
 20
-86.407882
  0
TEXT
  7
TextStyle03
  8
寸法
  6
CONTINUOUS
 62
     0
 10
86.8
 20
-95.575
  1
203.5
 40
3.0
 50
90.0
 72
     5
 11
86.8
 21
-87.325
  0
ENDBLK
  0
BLOCK
  2
*DIM_0010
 70
    65
 10
0.0
 20
0.0
  0
LINE
  8
寸法
  6
BYBLOCK
 62
     0
 10
163.612915
 20
59.012385
 11
105.276657
 21
59.012385
  0
LINE
  8
寸法
  6
BYBLOCK
 62
     0
 10
105.276657
 20
56.73238
 11
105.276657
 21
59.012385
  0
POINT
  8
寸法
 62
     0
 10
105.276657
 20
56.73238
  0
POINT
  8
寸法
 62
     0
 10
105.276657
 20
59.012385
  0
TEXT
  7
TextStyle03
  8
寸法
  6
CONTINUOUS
 62
     0
 10
104.85
 20
61.31875
  1
68.4
 40
3.0
 50
90.0
 72
     5
 11
104.85
 21
67.88125
  0
ENDBLK
  0
BLOCK
  2
*DIM_0011
 70
    65
 10
0.0
 20
0.0
  0
LINE
  8
寸法
  6
BYBLOCK
 62
     0
 10
163.612915
 20
11.119045
 11
105.276657
 21
11.119045
  0
LINE
  8
寸法
  6
BYBLOCK
 62
     0
 10
105.276657
 20
13.399048
 11
105.276657
 21
11.119045
  0
POINT
  8
寸法
 62
     0
 10
105.276657
 20
13.399048
  0
POINT
  8
寸法
 62
     0
 10
105.276657
 20
11.119045
  0
TEXT
  7
TextStyle03
  8
寸法
  6
CONTINUOUS
 62
     0
 10
104.85
 20
2.21875
  1
68.4
 40
3.0
 50
90.0
 72
     5
 11
104.85
 21
8.78125
  0
ENDBLK
  0
BLOCK
  2
*DIM_0012
 70
    65
 10
0.0
 20
0.0
  0
LINE
  8
寸法
  6
BYBLOCK
 62
     0
 10
73.53701
 20
-82.44724
 11
73.53701
 21
-22.536362
  0
LINE
  8
寸法
  6
BYBLOCK
 62
     0
 10
71.257007
 20
-22.536362
 11
73.53701
 21
-22.536362
  0
POINT
  8
寸法
 62
     0
 10
71.257007
 20
-22.536362
  0
POINT
  8
寸法
 62
     0
 10
73.53701
 20
-22.536362
  0
TEXT
  7
TextStyle03
  8
寸法
  6
CONTINUOUS
 62
     0
 10
75.79375
 20
-22.175
  1
68.4
 40
3.0
 72
     5
 11
82.35625
 21
-22.175
  0
ENDBLK
  0
BLOCK
  2
*DIM_0013
 70
    65
 10
0.0
 20
0.0
  0
LINE
  8
寸法
  6
BYBLOCK
 62
     0
 10
-114.35633
 20
-82.44724
 11
-114.35633
 21
-22.536362
  0
LINE
  8
寸法
  6
BYBLOCK
 62
     0
 10
-112.076325
 20
-22.536362
 11
-114.35633
 21
-22.536362
  0
POINT
  8
寸法
 62
     0
 10
-112.076325
 20
-22.536362
  0
POINT
  8
寸法
 62
     0
 10
-114.35633
 20
-22.536362
  0
TEXT
  7
TextStyle03
  8
寸法
  6
CONTINUOUS
 62
     0
 10
-123.25625
 20
-22.175
  1
68.4
 40
3.0
 72
     5
 11
-116.69375
 21
-22.175
  0
ENDBLK
  0
BLOCK
  2
*DIM_0014
 70
    65
 10
0.0
 20
0.0
  0
LINE
  8
寸法
  6
BYBLOCK
 62
     0
 10
119.536763
 20
-48.867045
 11
119.536763
 21
-40.66023
  0
LINE
  8
寸法
  6
BYBLOCK
 62
     0
 10
155.00343
 20
-48.867045
 11
155.00343
 21
-40.66023
  0
LINE
  8
寸法
  6
BYBLOCK
 62
     0
 10
119.536763
 20
-40.66023
 11
155.00343
 21
-40.66023
  0
POINT
  8
寸法
 62
     0
 10
119.536763
 20
-40.66023
  0
POINT
  8
寸法
 62
     0
 10
155.00343
 20
-40.66023
  0
TEXT
  7
TextStyle03
  8
寸法
  6
CONTINUOUS
 62
     0
 10
133.96875
 20
-40.3
  1
1064
 40
3.0
 72
     5
 11
140.53125
 21
-40.3
  0
ENDBLK
  0
BLOCK
  2
*DIM_0015
 70
    65
 10
0.0
 20
0.0
  0
LINE
  8
寸法
  6
BYBLOCK
 62
     0
 10
156.00343
 20
-49.867045
 11
163.184728
 21
-49.867045
  0
LINE
  8
寸法
  6
BYBLOCK
 62
     0
 10
156.00343
 20
-92.533713
 11
163.184728
 21
-92.533713
  0
LINE
  8
寸法
  6
BYBLOCK
 62
     0
 10
163.184728
 20
-49.867045
 11
163.184728
 21
-92.533713
  0
POINT
  8
寸法
 62
     0
 10
163.184728
 20
-49.867045
  0
POINT
  8
寸法
 62
     0
 10
163.184728
 20
-92.533713
  0
TEXT
  7
TextStyle03
  8
寸法
  6
CONTINUOUS
 62
     0
 10
162.8
 20
-74.50625
  1
1280
 40
3.0
 50
90.0
 72
     5
 11
162.8
 21
-67.94375
  0
ENDBLK
  0
BLOCK
  2
*DIM_0016
 70
    65
 10
0.0
 20
0.0
  0
LINE
  8
寸法
  6
BYBLOCK
 62
     0
 10
74.887135
 20
52.83238
 11
81.664428
 21
52.83238
  0
LINE
  8
寸法
  6
BYBLOCK
 62
     0
 10
81.664428
 20
56.73238
 11
81.664428
 21
52.83238
  0
POINT
  8
寸法
 62
     0
 10
81.664428
 20
56.73238
  0
POINT
  8
寸法
 62
     0
 10
81.664428
 20
52.83238
  0
TEXT
  7
TextStyle03
  8
寸法
  6
CONTINUOUS
 62
     0
 10
81.3
 20
57.4125
  1
117
 40
3.0
 50
90.0
 72
     5
 11
81.3
 21
62.2875
  0
ENDBLK
  0
BLOCK
  2
*DIM_0017
 70
    65
 10
0.0
 20
0.0
  0
LINE
  8
寸法
  6
BYBLOCK
 62
     0
 10
74.887135
 20
17.29905
 11
81.664428
 21
17.29905
  0
LINE
  8
寸法
  6
BYBLOCK
 62
     0
 10
81.664428
 20
13.39905
 11
81.664428
 21
17.29905
  0
POINT
  8
寸法
 62
     0
 10
81.664428
 20
13.39905
  0
POINT
  8
寸法
 62
     0
 10
81.664428
 20
17.29905
  0
TEXT
  7
TextStyle03
  8
寸法
  6
CONTINUOUS
 62
     0
 10
81.725
 20
7.4625
  1
117
 40
3.0
 50
90.0
 72
     5
 11
81.725
 21
12.3375
  0
ENDBLK
  0
BLOCK
  2
*GRP_0018
 70
    65
 10
0.0
 20
0.0
  0
LINE
  8
別途部材
  6
CONTINUOUS
 62
    96
 10
-113.742993
 20
-79.624597
 11
-114.142993
 21
-80.624597
  0
ARC
  8
別途部材
  6
CONTINUOUS
 10
-90.409658
 20
-93.910314
 40
25.952382
 50
90.0
 51
146.601512
  0
LINE
  8
別途部材
  6
CONTINUOUS
 10
-114.142993
 20
-80.624597
 11
-20.409657
 21
-80.624597
  0
LINE
  8
別途部材
  6
CONTINUOUS
 62
    96
 10
-113.742993
 20
-79.624597
 11
-20.409657
 21
-79.624597
  0
LINE
  8
別途部材
  6
CONTINUOUS
 10
-20.909657
 20
-66.95793
 11
-21.909657
 21
-67.95793
  0
LINE
  8
別途部材
  6
CONTINUOUS
 10
-22.909657
 20
-67.95793
 11
-23.909657
 21
-66.95793
  0
LINE
  8
別途部材
  6
CONTINUOUS
 10
-24.909657
 20
-66.95793
 11
-25.909657
 21
-67.95793
  0
LINE
  8
別途部材
  6
CONTINUOUS
 10
-23.909657
 20
-66.95793
 11
-24.909657
 21
-66.95793
  0
LINE
  8
別途部材
  6
CONTINUOUS
 10
-20.909657
 20
-66.95793
 11
-20.409657
 21
-66.95793
  0
LINE
  8
別途部材
  6
CONTINUOUS
 10
-26.909657
 20
-67.95793
 11
-27.909657
 21
-66.95793
  0
LINE
  8
別途部材
  6
CONTINUOUS
 10
-28.909657
 20
-66.95793
 11
-29.909657
 21
-67.95793
  0
LINE
  8
別途部材
  6
CONTINUOUS
 10
-27.909657
 20
-66.95793
 11
-28.909657
 21
-66.95793
  0
LINE
  8
別途部材
  6
CONTINUOUS
 10
-30.909657
 20
-67.95793
 11
-31.909657
 21
-66.95793
  0
LINE
  8
別途部材
  6
CONTINUOUS
 10
-32.909657
 20
-66.95793
 11
-33.909657
 21
-67.95793
  0
LINE
  8
別途部材
  6
CONTINUOUS
 10
-31.909657
 20
-66.95793
 11
-32.909657
 21
-66.95793
  0
LINE
  8
別途部材
  6
CONTINUOUS
 10
-34.909657
 20
-67.95793
 11
-35.909657
 21
-66.95793
  0
LINE
  8
別途部材
  6
CONTINUOUS
 10
-36.909657
 20
-66.95793
 11
-37.909657
 21
-67.95793
  0
LINE
  8
別途部材
  6
CONTINUOUS
 10
-35.909657
 20
-66.95793
 11
-36.909657
 21
-66.95793
  0
LINE
  8
別途部材
  6
CONTINUOUS
 10
-38.909657
 20
-67.95793
 11
-39.909657
 21
-66.95793
  0
LINE
  8
別途部材
  6
CONTINUOUS
 10
-40.909657
 20
-66.95793
 11
-41.909657
 21
-67.95793
  0
LINE
  8
別途部材
  6
CONTINUOUS
 10
-39.909657
 20
-66.95793
 11
-40.909657
 21
-66.95793
  0
LINE
  8
別途部材
  6
CONTINUOUS
 10
-42.909657
 20
-67.95793
 11
-43.909657
 21
-66.95793
  0
LINE
  8
別途部材
  6
CONTINUOUS
 10
-44.909657
 20
-66.95793
 11
-45.909657
 21
-67.95793
  0
LINE
  8
別途部材
  6
CONTINUOUS
 10
-43.909657
 20
-66.95793
 11
-44.909657
 21
-66.95793
  0
LINE
  8
別途部材
  6
CONTINUOUS
 10
-46.909657
 20
-67.95793
 11
-47.909657
 21
-66.95793
  0
LINE
  8
別途部材
  6
CONTINUOUS
 10
-48.909657
 20
-66.95793
 11
-49.909657
 21
-67.95793
  0
LINE
  8
別途部材
  6
CONTINUOUS
 10
-47.909657
 20
-66.95793
 11
-48.909657
 21
-66.95793
  0
LINE
  8
別途部材
  6
CONTINUOUS
 10
-50.909657
 20
-67.95793
 11
-51.909657
 21
-66.95793
  0
LINE
  8
別途部材
  6
CONTINUOUS
 10
-52.909657
 20
-66.95793
 11
-53.909657
 21
-67.95793
  0
LINE
  8
別途部材
  6
CONTINUOUS
 10
-51.909657
 20
-66.95793
 11
-52.909657
 21
-66.95793
  0
LINE
  8
別途部材
  6
CONTINUOUS
 10
-54.909657
 20
-67.95793
 11
-55.909657
 21
-66.95793
  0
LINE
  8
別途部材
  6
CONTINUOUS
 10
-56.909657
 20
-66.95793
 11
-57.909657
 21
-67.95793
  0
LINE
  8
別途部材
  6
CONTINUOUS
 10
-55.909657
 20
-66.95793
 11
-56.909657
 21
-66.95793
  0
LINE
  8
別途部材
  6
CONTINUOUS
 10
-58.909657
 20
-67.95793
 11
-59.909657
 21
-66.95793
  0
LINE
  8
別途部材
  6
CONTINUOUS
 10
-60.909657
 20
-66.95793
 11
-61.909657
 21
-67.95793
  0
LINE
  8
別途部材
  6
CONTINUOUS
 10
-59.909657
 20
-66.95793
 11
-60.909657
 21
-66.95793
  0
LINE
  8
別途部材
  6
CONTINUOUS
 10
-62.909657
 20
-67.95793
 11
-63.909657
 21
-66.95793
  0
LINE
  8
別途部材
  6
CONTINUOUS
 10
-64.909657
 20
-66.95793
 11
-65.909657
 21
-67.95793
  0
LINE
  8
別途部材
  6
CONTINUOUS
 10
-63.909657
 20
-66.95793
 11
-64.909657
 21
-66.95793
  0
LINE
  8
別途部材
  6
CONTINUOUS
 10
-61.909657
 20
-67.95793
 11
-62.909657
 21
-67.95793
  0
LINE
  8
別途部材
  6
CONTINUOUS
 10
-57.909657
 20
-67.95793
 11
-58.909657
 21
-67.95793
  0
LINE
  8
別途部材
  6
CONTINUOUS
 10
-53.909657
 20
-67.95793
 11
-54.909657
 21
-67.95793
  0
LINE
  8
別途部材
  6
CONTINUOUS
 10
-49.909657
 20
-67.95793
 11
-50.909657
 21
-67.95793
  0
LINE
  8
別途部材
  6
CONTINUOUS
 10
-45.909657
 20
-67.95793
 11
-46.909657
 21
-67.95793
  0
LINE
  8
別途部材
  6
CONTINUOUS
 10
-41.909657
 20
-67.95793
 11
-42.909657
 21
-67.95793
  0
LINE
  8
別途部材
  6
CONTINUOUS
 10
-37.909657
 20
-67.95793
 11
-38.909657
 21
-67.95793
  0
LINE
  8
別途部材
  6
CONTINUOUS
 10
-33.909657
 20
-67.95793
 11
-34.909657
 21
-67.95793
  0
LINE
  8
別途部材
  6
CONTINUOUS
 10
-29.909657
 20
-67.95793
 11
-30.909657
 21
-67.95793
  0
LINE
  8
別途部材
  6
CONTINUOUS
 10
-25.909657
 20
-67.95793
 11
-26.909657
 21
-67.95793
  0
LINE
  8
別途部材
  6
CONTINUOUS
 10
-22.909657
 20
-67.95793
 11
-21.909657
 21
-67.95793
  0
LINE
  8
別途部材
  6
CONTINUOUS
 10
-62.909657
 20
-67.95793
 11
-62.909657
 21
-79.624597
  0
LINE
  8
別途部材
  6
CONTINUOUS
 10
-61.909657
 20
-67.95793
 11
-61.909657
 21
-79.624597
  0
LINE
  8
別途部材
  6
CONTINUOUS
 10
-63.909657
 20
-66.95793
 11
-63.909657
 21
-79.624597
  0
LINE
  8
別途部材
  6
CONTINUOUS
 10
-65.909657
 20
-67.95793
 11
-65.909657
 21
-79.624597
  0
LINE
  8
別途部材
  6
CONTINUOUS
 10
-64.909657
 20
-66.95793
 11
-64.909657
 21
-79.624597
  0
LINE
  8
別途部材
  6
CONTINUOUS
 10
-54.909657
 20
-67.95793
 11
-54.909657
 21
-79.624597
  0
LINE
  8
別途部材
  6
CONTINUOUS
 10
-56.909657
 20
-66.95793
 11
-56.909657
 21
-79.624597
  0
LINE
  8
別途部材
  6
CONTINUOUS
 10
-57.909657
 20
-67.95793
 11
-57.909657
 21
-79.624597
  0
LINE
  8
別途部材
  6
CONTINUOUS
 10
-59.909657
 20
-66.95793
 11
-59.909657
 21
-79.624597
  0
LINE
  8
別途部材
  6
CONTINUOUS
 10
-60.909657
 20
-66.95793
 11
-60.909657
 21
-79.624597
  0
LINE
  8
別途部材
  6
CONTINUOUS
 10
-58.909657
 20
-67.95793
 11
-58.909657
 21
-79.624597
  0
LINE
  8
別途部材
  6
CONTINUOUS
 10
-55.909657
 20
-66.95793
 11
-55.909657
 21
-79.624597
  0
LINE
  8
別途部材
  6
CONTINUOUS
 10
-53.909657
 20
-67.95793
 11
-53.909657
 21
-79.624597
  0
LINE
  8
別途部材
  6
CONTINUOUS
 10
-52.909657
 20
-66.95793
 11
-52.909657
 21
-79.624597
  0
LINE
  8
別途部材
  6
CONTINUOUS
 10
-42.909657
 20
-67.95793
 11
-42.909657
 21
-79.624597
  0
LINE
  8
別途部材
  6
CONTINUOUS
 10
-36.909657
 20
-66.95793
 11
-36.909657
 21
-79.624597
  0
LINE
  8
別途部材
  6
CONTINUOUS
 10
-35.909657
 20
-66.95793
 11
-35.909657
 21
-79.624597
  0
LINE
  8
別途部材
  6
CONTINUOUS
 10
-25.909657
 20
-67.95793
 11
-25.909657
 21
-79.624597
  0
LINE
  8
別途部材
  6
CONTINUOUS
 10
-20.909657
 20
-66.95793
 11
-20.909657
 21
-79.624597
  0
LINE
  8
別途部材
  6
CONTINUOUS
 10
-21.909657
 20
-67.95793
 11
-21.909657
 21
-79.624597
  0
LINE
  8
別途部材
  6
CONTINUOUS
 10
-23.909657
 20
-66.95793
 11
-23.909657
 21
-79.624597
  0
LINE
  8
別途部材
  6
CONTINUOUS
 10
-24.909657
 20
-66.95793
 11
-24.909657
 21
-79.624597
  0
LINE
  8
別途部材
  6
CONTINUOUS
 10
-26.909657
 20
-67.95793
 11
-26.909657
 21
-79.624597
  0
LINE
  8
別途部材
  6
CONTINUOUS
 10
-37.909657
 20
-67.95793
 11
-37.909657
 21
-79.624597
  0
LINE
  8
別途部材
  6
CONTINUOUS
 10
-38.909657
 20
-67.95793
 11
-38.909657
 21
-79.624597
  0
LINE
  8
別途部材
  6
CONTINUOUS
 10
-43.909657
 20
-66.95793
 11
-43.909657
 21
-79.624597
  0
LINE
  8
別途部材
  6
CONTINUOUS
 10
-45.909657
 20
-67.95793
 11
-45.909657
 21
-79.624597
  0
LINE
  8
別途部材
  6
CONTINUOUS
 10
-48.909657
 20
-66.95793
 11
-48.909657
 21
-79.624597
  0
LINE
  8
別途部材
  6
CONTINUOUS
 10
-51.909657
 20
-66.95793
 11
-51.909657
 21
-79.624597
  0
LINE
  8
別途部材
  6
CONTINUOUS
 10
-44.909657
 20
-66.95793
 11
-44.909657
 21
-79.624597
  0
LINE
  8
別途部材
  6
CONTINUOUS
 10
-46.909657
 20
-67.95793
 11
-46.909657
 21
-79.624597
  0
LINE
  8
別途部材
  6
CONTINUOUS
 10
-49.909657
 20
-67.95793
 11
-49.909657
 21
-79.624597
  0
LINE
  8
別途部材
  6
CONTINUOUS
 10
-50.909657
 20
-67.95793
 11
-50.909657
 21
-79.624597
  0
LINE
  8
別途部材
  6
CONTINUOUS
 10
-40.909657
 20
-66.95793
 11
-40.909657
 21
-79.624597
  0
LINE
  8
別途部材
  6
CONTINUOUS
 10
-39.909657
 20
-66.95793
 11
-39.909657
 21
-79.624597
  0
LINE
  8
別途部材
  6
CONTINUOUS
 10
-41.909657
 20
-67.95793
 11
-41.909657
 21
-79.624597
  0
LINE
  8
別途部材
  6
CONTINUOUS
 10
-47.909657
 20
-66.95793
 11
-47.909657
 21
-79.624597
  0
LINE
  8
別途部材
  6
CONTINUOUS
 10
-33.909657
 20
-67.95793
 11
-33.909657
 21
-79.624597
  0
LINE
  8
別途部材
  6
CONTINUOUS
 10
-34.909657
 20
-67.95793
 11
-34.909657
 21
-79.624597
  0
LINE
  8
別途部材
  6
CONTINUOUS
 10
-32.909657
 20
-66.95793
 11
-32.909657
 21
-79.624597
  0
LINE
  8
別途部材
  6
CONTINUOUS
 10
-30.909657
 20
-67.95793
 11
-30.909657
 21
-79.624597
  0
LINE
  8
別途部材
  6
CONTINUOUS
 10
-31.909657
 20
-66.95793
 11
-31.909657
 21
-79.624597
  0
LINE
  8
別途部材
  6
CONTINUOUS
 10
-29.909657
 20
-67.95793
 11
-29.909657
 21
-79.624597
  0
LINE
  8
別途部材
  6
CONTINUOUS
 10
-27.909657
 20
-66.95793
 11
-27.909657
 21
-79.624597
  0
LINE
  8
別途部材
  6
CONTINUOUS
 10
-28.909657
 20
-66.95793
 11
-28.909657
 21
-79.624597
  0
LINE
  8
別途部材
  6
CONTINUOUS
 10
-22.909657
 20
-67.95793
 11
-22.909657
 21
-79.624597
  0
LINE
  8
別途部材
  6
CONTINUOUS
 10
-66.909657
 20
-67.95793
 11
-67.909657
 21
-66.95793
  0
LINE
  8
別途部材
  6
CONTINUOUS
 10
-68.909657
 20
-66.95793
 11
-69.909657
 21
-67.95793
  0
LINE
  8
別途部材
  6
CONTINUOUS
 10
-67.909657
 20
-66.95793
 11
-68.909657
 21
-66.95793
  0
LINE
  8
別途部材
  6
CONTINUOUS
 10
-70.909657
 20
-67.95793
 11
-71.909657
 21
-66.95793
  0
LINE
  8
別途部材
  6
CONTINUOUS
 10
-72.909657
 20
-66.95793
 11
-73.909657
 21
-67.95793
  0
LINE
  8
別途部材
  6
CONTINUOUS
 10
-71.909657
 20
-66.95793
 11
-72.909657
 21
-66.95793
  0
LINE
  8
別途部材
  6
CONTINUOUS
 10
-74.909657
 20
-67.95793
 11
-75.909657
 21
-66.95793
  0
LINE
  8
別途部材
  6
CONTINUOUS
 10
-76.909657
 20
-66.95793
 11
-77.909657
 21
-67.95793
  0
LINE
  8
別途部材
  6
CONTINUOUS
 10
-75.909657
 20
-66.95793
 11
-76.909657
 21
-66.95793
  0
LINE
  8
別途部材
  6
CONTINUOUS
 10
-78.909657
 20
-67.95793
 11
-79.909657
 21
-66.95793
  0
LINE
  8
別途部材
  6
CONTINUOUS
 10
-80.909657
 20
-66.95793
 11
-81.909657
 21
-67.95793
  0
LINE
  8
別途部材
  6
CONTINUOUS
 10
-79.909657
 20
-66.95793
 11
-80.909657
 21
-66.95793
  0
LINE
  8
別途部材
  6
CONTINUOUS
 10
-82.909657
 20
-67.95793
 11
-83.909657
 21
-66.95793
  0
LINE
  8
別途部材
  6
CONTINUOUS
 10
-84.909657
 20
-66.95793
 11
-85.909657
 21
-67.95793
  0
LINE
  8
別途部材
  6
CONTINUOUS
 10
-83.909657
 20
-66.95793
 11
-84.909657
 21
-66.95793
  0
LINE
  8
別途部材
  6
CONTINUOUS
 10
-86.909657
 20
-67.95793
 11
-87.909657
 21
-66.95793
  0
LINE
  8
別途部材
  6
CONTINUOUS
 10
-88.909657
 20
-66.95793
 11
-89.909657
 21
-67.95793
  0
LINE
  8
別途部材
  6
CONTINUOUS
 10
-87.909657
 20
-66.95793
 11
-88.909657
 21
-66.95793
  0
LINE
  8
別途部材
  6
CONTINUOUS
 10
-85.909657
 20
-67.95793
 11
-86.909657
 21
-67.95793
  0
LINE
  8
別途部材
  6
CONTINUOUS
 10
-81.909657
 20
-67.95793
 11
-82.909657
 21
-67.95793
  0
LINE
  8
別途部材
  6
CONTINUOUS
 10
-77.909657
 20
-67.95793
 11
-78.909657
 21
-67.95793
  0
LINE
  8
別途部材
  6
CONTINUOUS
 10
-73.909657
 20
-67.95793
 11
-74.909657
 21
-67.95793
  0
LINE
  8
別途部材
  6
CONTINUOUS
 10
-69.909657
 20
-67.95793
 11
-70.909657
 21
-67.95793
  0
LINE
  8
別途部材
  6
CONTINUOUS
 10
-65.909657
 20
-67.95793
 11
-66.909657
 21
-67.95793
  0
LINE
  8
別途部材
  6
CONTINUOUS
 10
-89.909657
 20
-67.95793
 11
-89.909657
 21
-79.624597
  0
LINE
  8
別途部材
  6
CONTINUOUS
 10
-88.909657
 20
-66.95793
 11
-88.909657
 21
-79.624597
  0
LINE
  8
別途部材
  6
CONTINUOUS
 10
-78.909657
 20
-67.95793
 11
-78.909657
 21
-79.624597
  0
LINE
  8
別途部材
  6
CONTINUOUS
 10
-72.909657
 20
-66.95793
 11
-72.909657
 21
-79.624597
  0
LINE
  8
別途部材
  6
CONTINUOUS
 10
-71.909657
 20
-66.95793
 11
-71.909657
 21
-79.624597
  0
LINE
  8
別途部材
  6
CONTINUOUS
 10
-73.909657
 20
-67.95793
 11
-73.909657
 21
-79.624597
  0
LINE
  8
別途部材
  6
CONTINUOUS
 10
-74.909657
 20
-67.95793
 11
-74.909657
 21
-79.624597
  0
LINE
  8
別途部材
  6
CONTINUOUS
 10
-79.909657
 20
-66.95793
 11
-79.909657
 21
-79.624597
  0
LINE
  8
別途部材
  6
CONTINUOUS
 10
-81.909657
 20
-67.95793
 11
-81.909657
 21
-79.624597
  0
LINE
  8
別途部材
  6
CONTINUOUS
 10
-84.909657
 20
-66.95793
 11
-84.909657
 21
-79.624597
  0
LINE
  8
別途部材
  6
CONTINUOUS
 10
-87.909657
 20
-66.95793
 11
-87.909657
 21
-79.624597
  0
LINE
  8
別途部材
  6
CONTINUOUS
 10
-80.909657
 20
-66.95793
 11
-80.909657
 21
-79.624597
  0
LINE
  8
別途部材
  6
CONTINUOUS
 10
-82.909657
 20
-67.95793
 11
-82.909657
 21
-79.624597
  0
LINE
  8
別途部材
  6
CONTINUOUS
 10
-85.909657
 20
-67.95793
 11
-85.909657
 21
-79.624597
  0
LINE
  8
別途部材
  6
CONTINUOUS
 10
-86.909657
 20
-67.95793
 11
-86.909657
 21
-79.624597
  0
LINE
  8
別途部材
  6
CONTINUOUS
 10
-76.909657
 20
-66.95793
 11
-76.909657
 21
-79.624597
  0
LINE
  8
別途部材
  6
CONTINUOUS
 10
-75.909657
 20
-66.95793
 11
-75.909657
 21
-79.624597
  0
LINE
  8
別途部材
  6
CONTINUOUS
 10
-77.909657
 20
-67.95793
 11
-77.909657
 21
-79.624597
  0
LINE
  8
別途部材
  6
CONTINUOUS
 10
-83.909657
 20
-66.95793
 11
-83.909657
 21
-79.624597
  0
LINE
  8
別途部材
  6
CONTINUOUS
 10
-69.909657
 20
-67.95793
 11
-69.909657
 21
-79.624597
  0
LINE
  8
別途部材
  6
CONTINUOUS
 10
-70.909657
 20
-67.95793
 11
-70.909657
 21
-79.624597
  0
LINE
  8
別途部材
  6
CONTINUOUS
 10
-68.909657
 20
-66.95793
 11
-68.909657
 21
-79.624597
  0
LINE
  8
別途部材
  6
CONTINUOUS
 10
-66.909657
 20
-67.95793
 11
-66.909657
 21
-79.624597
  0
LINE
  8
別途部材
  6
CONTINUOUS
 10
-67.909657
 20
-66.95793
 11
-67.909657
 21
-79.624597
  0
LINE
  8
別途部材
  6
CONTINUOUS
 62
    96
 10
72.923675
 20
-79.624597
 11
73.323675
 21
-80.624597
  0
ARC
  8
別途部材
  6
CONTINUOUS
 10
49.590342
 20
-93.910314
 40
25.952382
 50
33.398488
 51
90.0
  0
LINE
  8
別途部材
  6
CONTINUOUS
 10
73.323675
 20
-80.624597
 11
-20.409657
 21
-80.624597
  0
LINE
  8
別途部材
  6
CONTINUOUS
 62
    96
 10
72.923675
 20
-79.624597
 11
-20.409657
 21
-79.624597
  0
LINE
  8
別途部材
  6
CONTINUOUS
 10
-19.909657
 20
-66.95793
 11
-18.909657
 21
-67.95793
  0
LINE
  8
別途部材
  6
CONTINUOUS
 10
-17.909657
 20
-67.95793
 11
-16.909657
 21
-66.95793
  0
LINE
  8
別途部材
  6
CONTINUOUS
 10
-15.909657
 20
-66.95793
 11
-14.909657
 21
-67.95793
  0
LINE
  8
別途部材
  6
CONTINUOUS
 10
-16.909657
 20
-66.95793
 11
-15.909657
 21
-66.95793
  0
LINE
  8
別途部材
  6
CONTINUOUS
 10
-19.909657
 20
-66.95793
 11
-20.409657
 21
-66.95793
  0
LINE
  8
別途部材
  6
CONTINUOUS
 10
-13.909657
 20
-67.95793
 11
-12.909657
 21
-66.95793
  0
LINE
  8
別途部材
  6
CONTINUOUS
 10
-11.909657
 20
-66.95793
 11
-10.909657
 21
-67.95793
  0
LINE
  8
別途部材
  6
CONTINUOUS
 10
-12.909657
 20
-66.95793
 11
-11.909657
 21
-66.95793
  0
LINE
  8
別途部材
  6
CONTINUOUS
 10
-9.909657
 20
-67.95793
 11
-8.909657
 21
-66.95793
  0
LINE
  8
別途部材
  6
CONTINUOUS
 10
-7.909657
 20
-66.95793
 11
-6.909657
 21
-67.95793
  0
LINE
  8
別途部材
  6
CONTINUOUS
 10
-8.909657
 20
-66.95793
 11
-7.909657
 21
-66.95793
  0
LINE
  8
別途部材
  6
CONTINUOUS
 10
-5.909657
 20
-67.95793
 11
-4.909657
 21
-66.95793
  0
LINE
  8
別途部材
  6
CONTINUOUS
 10
-3.909657
 20
-66.95793
 11
-2.909657
 21
-67.95793
  0
LINE
  8
別途部材
  6
CONTINUOUS
 10
-4.909657
 20
-66.95793
 11
-3.909657
 21
-66.95793
  0
LINE
  8
別途部材
  6
CONTINUOUS
 10
-1.909657
 20
-67.95793
 11
-0.909657
 21
-66.95793
  0
LINE
  8
別途部材
  6
CONTINUOUS
 10
0.090343
 20
-66.95793
 11
1.090343
 21
-67.95793
  0
LINE
  8
別途部材
  6
CONTINUOUS
 10
-0.909657
 20
-66.95793
 11
0.090343
 21
-66.95793
  0
LINE
  8
別途部材
  6
CONTINUOUS
 10
2.090343
 20
-67.95793
 11
3.090343
 21
-66.95793
  0
LINE
  8
別途部材
  6
CONTINUOUS
 10
4.090343
 20
-66.95793
 11
5.090343
 21
-67.95793
  0
LINE
  8
別途部材
  6
CONTINUOUS
 10
3.090343
 20
-66.95793
 11
4.090343
 21
-66.95793
  0
LINE
  8
別途部材
  6
CONTINUOUS
 10
6.090343
 20
-67.95793
 11
7.090343
 21
-66.95793
  0
LINE
  8
別途部材
  6
CONTINUOUS
 10
8.090343
 20
-66.95793
 11
9.090343
 21
-67.95793
  0
LINE
  8
別途部材
  6
CONTINUOUS
 10
7.090343
 20
-66.95793
 11
8.090343
 21
-66.95793
  0
LINE
  8
別途部材
  6
CONTINUOUS
 10
10.090343
 20
-67.95793
 11
11.090343
 21
-66.95793
  0
LINE
  8
別途部材
  6
CONTINUOUS
 10
12.090343
 20
-66.95793
 11
13.090343
 21
-67.95793
  0
LINE
  8
別途部材
  6
CONTINUOUS
 10
11.090343
 20
-66.95793
 11
12.090343
 21
-66.95793
  0
LINE
  8
別途部材
  6
CONTINUOUS
 10
14.090343
 20
-67.95793
 11
15.090343
 21
-66.95793
  0
LINE
  8
別途部材
  6
CONTINUOUS
 10
16.090343
 20
-66.95793
 11
17.090343
 21
-67.95793
  0
LINE
  8
別途部材
  6
CONTINUOUS
 10
15.090343
 20
-66.95793
 11
16.090343
 21
-66.95793
  0
LINE
  8
別途部材
  6
CONTINUOUS
 10
18.090343
 20
-67.95793
 11
19.090343
 21
-66.95793
  0
LINE
  8
別途部材
  6
CONTINUOUS
 10
20.090343
 20
-66.95793
 11
21.090343
 21
-67.95793
  0
LINE
  8
別途部材
  6
CONTINUOUS
 10
19.090343
 20
-66.95793
 11
20.090343
 21
-66.95793
  0
LINE
  8
別途部材
  6
CONTINUOUS
 10
22.090343
 20
-67.95793
 11
23.090343
 21
-66.95793
  0
LINE
  8
別途部材
  6
CONTINUOUS
 10
24.090343
 20
-66.95793
 11
25.090343
 21
-67.95793
  0
LINE
  8
別途部材
  6
CONTINUOUS
 10
23.090343
 20
-66.95793
 11
24.090343
 21
-66.95793
  0
LINE
  8
別途部材
  6
CONTINUOUS
 10
21.090343
 20
-67.95793
 11
22.090343
 21
-67.95793
  0
LINE
  8
別途部材
  6
CONTINUOUS
 10
17.090343
 20
-67.95793
 11
18.090343
 21
-67.95793
  0
LINE
  8
別途部材
  6
CONTINUOUS
 10
13.090343
 20
-67.95793
 11
14.090343
 21
-67.95793
  0
LINE
  8
別途部材
  6
CONTINUOUS
 10
9.090343
 20
-67.95793
 11
10.090343
 21
-67.95793
  0
LINE
  8
別途部材
  6
CONTINUOUS
 10
5.090343
 20
-67.95793
 11
6.090343
 21
-67.95793
  0
LINE
  8
別途部材
  6
CONTINUOUS
 10
1.090343
 20
-67.95793
 11
2.090343
 21
-67.95793
  0
LINE
  8
別途部材
  6
CONTINUOUS
 10
-2.909657
 20
-67.95793
 11
-1.909657
 21
-67.95793
  0
LINE
  8
別途部材
  6
CONTINUOUS
 10
-6.909657
 20
-67.95793
 11
-5.909657
 21
-67.95793
  0
LINE
  8
別途部材
  6
CONTINUOUS
 10
-10.909657
 20
-67.95793
 11
-9.909657
 21
-67.95793
  0
LINE
  8
別途部材
  6
CONTINUOUS
 10
-14.909657
 20
-67.95793
 11
-13.909657
 21
-67.95793
  0
LINE
  8
別途部材
  6
CONTINUOUS
 10
-17.909657
 20
-67.95793
 11
-18.909657
 21
-67.95793
  0
LINE
  8
別途部材
  6
CONTINUOUS
 10
22.090343
 20
-67.95793
 11
22.090343
 21
-79.624597
  0
LINE
  8
別途部材
  6
CONTINUOUS
 10
21.090343
 20
-67.95793
 11
21.090343
 21
-79.624597
  0
LINE
  8
別途部材
  6
CONTINUOUS
 10
23.090343
 20
-66.95793
 11
23.090343
 21
-79.624597
  0
LINE
  8
別途部材
  6
CONTINUOUS
 10
25.090343
 20
-67.95793
 11
25.090343
 21
-79.624597
  0
LINE
  8
別途部材
  6
CONTINUOUS
 10
24.090343
 20
-66.95793
 11
24.090343
 21
-79.624597
  0
LINE
  8
別途部材
  6
CONTINUOUS
 10
14.090343
 20
-67.95793
 11
14.090343
 21
-79.624597
  0
LINE
  8
別途部材
  6
CONTINUOUS
 10
16.090343
 20
-66.95793
 11
16.090343
 21
-79.624597
  0
LINE
  8
別途部材
  6
CONTINUOUS
 10
17.090343
 20
-67.95793
 11
17.090343
 21
-79.624597
  0
LINE
  8
別途部材
  6
CONTINUOUS
 10
19.090343
 20
-66.95793
 11
19.090343
 21
-79.624597
  0
LINE
  8
別途部材
  6
CONTINUOUS
 10
20.090343
 20
-66.95793
 11
20.090343
 21
-79.624597
  0
LINE
  8
別途部材
  6
CONTINUOUS
 10
18.090343
 20
-67.95793
 11
18.090343
 21
-79.624597
  0
LINE
  8
別途部材
  6
CONTINUOUS
 10
15.090343
 20
-66.95793
 11
15.090343
 21
-79.624597
  0
LINE
  8
別途部材
  6
CONTINUOUS
 10
13.090343
 20
-67.95793
 11
13.090343
 21
-79.624597
  0
LINE
  8
別途部材
  6
CONTINUOUS
 10
12.090343
 20
-66.95793
 11
12.090343
 21
-79.624597
  0
LINE
  8
別途部材
  6
CONTINUOUS
 10
2.090343
 20
-67.95793
 11
2.090343
 21
-79.624597
  0
LINE
  8
別途部材
  6
CONTINUOUS
 10
-3.909657
 20
-66.95793
 11
-3.909657
 21
-79.624597
  0
LINE
  8
別途部材
  6
CONTINUOUS
 10
-4.909657
 20
-66.95793
 11
-4.909657
 21
-79.624597
  0
LINE
  8
別途部材
  6
CONTINUOUS
 10
-14.909657
 20
-67.95793
 11
-14.909657
 21
-79.624597
  0
LINE
  8
別途部材
  6
CONTINUOUS
 10
-19.909657
 20
-66.95793
 11
-19.909657
 21
-79.624597
  0
LINE
  8
別途部材
  6
CONTINUOUS
 10
-18.909657
 20
-67.95793
 11
-18.909657
 21
-79.624597
  0
LINE
  8
別途部材
  6
CONTINUOUS
 10
-16.909657
 20
-66.95793
 11
-16.909657
 21
-79.624597
  0
LINE
  8
別途部材
  6
CONTINUOUS
 10
-15.909657
 20
-66.95793
 11
-15.909657
 21
-79.624597
  0
LINE
  8
別途部材
  6
CONTINUOUS
 10
-13.909657
 20
-67.95793
 11
-13.909657
 21
-79.624597
  0
LINE
  8
別途部材
  6
CONTINUOUS
 10
-2.909657
 20
-67.95793
 11
-2.909657
 21
-79.624597
  0
LINE
  8
別途部材
  6
CONTINUOUS
 10
-1.909657
 20
-67.95793
 11
-1.909657
 21
-79.624597
  0
LINE
  8
別途部材
  6
CONTINUOUS
 10
3.090343
 20
-66.95793
 11
3.090343
 21
-79.624597
  0
LINE
  8
別途部材
  6
CONTINUOUS
 10
5.090343
 20
-67.95793
 11
5.090343
 21
-79.624597
  0
LINE
  8
別途部材
  6
CONTINUOUS
 10
8.090343
 20
-66.95793
 11
8.090343
 21
-79.624597
  0
LINE
  8
別途部材
  6
CONTINUOUS
 10
11.090343
 20
-66.95793
 11
11.090343
 21
-79.624597
  0
LINE
  8
別途部材
  6
CONTINUOUS
 10
4.090343
 20
-66.95793
 11
4.090343
 21
-79.624597
  0
LINE
  8
別途部材
  6
CONTINUOUS
 10
6.090343
 20
-67.95793
 11
6.090343
 21
-79.624597
  0
LINE
  8
別途部材
  6
CONTINUOUS
 10
9.090343
 20
-67.95793
 11
9.090343
 21
-79.624597
  0
LINE
  8
別途部材
  6
CONTINUOUS
 10
10.090343
 20
-67.95793
 11
10.090343
 21
-79.624597
  0
LINE
  8
別途部材
  6
CONTINUOUS
 10
0.090343
 20
-66.95793
 11
0.090343
 21
-79.624597
  0
LINE
  8
別途部材
  6
CONTINUOUS
 10
-0.909657
 20
-66.95793
 11
-0.909657
 21
-79.624597
  0
LINE
  8
別途部材
  6
CONTINUOUS
 10
1.090343
 20
-67.95793
 11
1.090343
 21
-79.624597
  0
LINE
  8
別途部材
  6
CONTINUOUS
 10
7.090343
 20
-66.95793
 11
7.090343
 21
-79.624597
  0
LINE
  8
別途部材
  6
CONTINUOUS
 10
-6.909657
 20
-67.95793
 11
-6.909657
 21
-79.624597
  0
LINE
  8
別途部材
  6
CONTINUOUS
 10
-5.909657
 20
-67.95793
 11
-5.909657
 21
-79.624597
  0
LINE
  8
別途部材
  6
CONTINUOUS
 10
-7.909657
 20
-66.95793
 11
-7.909657
 21
-79.624597
  0
LINE
  8
別途部材
  6
CONTINUOUS
 10
-9.909657
 20
-67.95793
 11
-9.909657
 21
-79.624597
  0
LINE
  8
別途部材
  6
CONTINUOUS
 10
-8.909657
 20
-66.95793
 11
-8.909657
 21
-79.624597
  0
LINE
  8
別途部材
  6
CONTINUOUS
 10
-10.909657
 20
-67.95793
 11
-10.909657
 21
-79.624597
  0
LINE
  8
別途部材
  6
CONTINUOUS
 10
-12.909657
 20
-66.95793
 11
-12.909657
 21
-79.624597
  0
LINE
  8
別途部材
  6
CONTINUOUS
 10
-11.909657
 20
-66.95793
 11
-11.909657
 21
-79.624597
  0
LINE
  8
別途部材
  6
CONTINUOUS
 10
-17.909657
 20
-67.95793
 11
-17.909657
 21
-79.624597
  0
LINE
  8
別途部材
  6
CONTINUOUS
 10
26.090343
 20
-67.95793
 11
27.090343
 21
-66.95793
  0
LINE
  8
別途部材
  6
CONTINUOUS
 10
28.090343
 20
-66.95793
 11
29.090343
 21
-67.95793
  0
LINE
  8
別途部材
  6
CONTINUOUS
 10
27.090343
 20
-66.95793
 11
28.090343
 21
-66.95793
  0
LINE
  8
別途部材
  6
CONTINUOUS
 10
30.090343
 20
-67.95793
 11
31.090343
 21
-66.95793
  0
LINE
  8
別途部材
  6
CONTINUOUS
 10
32.090343
 20
-66.95793
 11
33.090343
 21
-67.95793
  0
LINE
  8
別途部材
  6
CONTINUOUS
 10
31.090343
 20
-66.95793
 11
32.090343
 21
-66.95793
  0
LINE
  8
別途部材
  6
CONTINUOUS
 10
34.090343
 20
-67.95793
 11
35.090343
 21
-66.95793
  0
LINE
  8
別途部材
  6
CONTINUOUS
 10
36.090343
 20
-66.95793
 11
37.090343
 21
-67.95793
  0
LINE
  8
別途部材
  6
CONTINUOUS
 10
35.090343
 20
-66.95793
 11
36.090343
 21
-66.95793
  0
LINE
  8
別途部材
  6
CONTINUOUS
 10
38.090343
 20
-67.95793
 11
39.090343
 21
-66.95793
  0
LINE
  8
別途部材
  6
CONTINUOUS
 10
40.090343
 20
-66.95793
 11
41.090343
 21
-67.95793
  0
LINE
  8
別途部材
  6
CONTINUOUS
 10
39.090343
 20
-66.95793
 11
40.090343
 21
-66.95793
  0
LINE
  8
別途部材
  6
CONTINUOUS
 10
42.090343
 20
-67.95793
 11
43.090343
 21
-66.95793
  0
LINE
  8
別途部材
  6
CONTINUOUS
 10
44.090343
 20
-66.95793
 11
45.090343
 21
-67.95793
  0
LINE
  8
別途部材
  6
CONTINUOUS
 10
43.090343
 20
-66.95793
 11
44.090343
 21
-66.95793
  0
LINE
  8
別途部材
  6
CONTINUOUS
 10
46.090343
 20
-67.95793
 11
47.090343
 21
-66.95793
  0
LINE
  8
別途部材
  6
CONTINUOUS
 10
48.090343
 20
-66.95793
 11
49.090343
 21
-67.95793
  0
LINE
  8
別途部材
  6
CONTINUOUS
 10
47.090343
 20
-66.95793
 11
48.090343
 21
-66.95793
  0
LINE
  8
別途部材
  6
CONTINUOUS
 10
45.090343
 20
-67.95793
 11
46.090343
 21
-67.95793
  0
LINE
  8
別途部材
  6
CONTINUOUS
 10
41.090343
 20
-67.95793
 11
42.090343
 21
-67.95793
  0
LINE
  8
別途部材
  6
CONTINUOUS
 10
37.090343
 20
-67.95793
 11
38.090343
 21
-67.95793
  0
LINE
  8
別途部材
  6
CONTINUOUS
 10
33.090343
 20
-67.95793
 11
34.090343
 21
-67.95793
  0
LINE
  8
別途部材
  6
CONTINUOUS
 10
29.090343
 20
-67.95793
 11
30.090343
 21
-67.95793
  0
LINE
  8
別途部材
  6
CONTINUOUS
 10
25.090343
 20
-67.95793
 11
26.090343
 21
-67.95793
  0
LINE
  8
別途部材
  6
CONTINUOUS
 10
49.090343
 20
-67.95793
 11
49.090343
 21
-79.624597
  0
LINE
  8
別途部材
  6
CONTINUOUS
 10
48.090343
 20
-66.95793
 11
48.090343
 21
-79.624597
  0
LINE
  8
別途部材
  6
CONTINUOUS
 10
38.090343
 20
-67.95793
 11
38.090343
 21
-79.624597
  0
LINE
  8
別途部材
  6
CONTINUOUS
 10
32.090343
 20
-66.95793
 11
32.090343
 21
-79.624597
  0
LINE
  8
別途部材
  6
CONTINUOUS
 10
31.090343
 20
-66.95793
 11
31.090343
 21
-79.624597
  0
LINE
  8
別途部材
  6
CONTINUOUS
 10
33.090343
 20
-67.95793
 11
33.090343
 21
-79.624597
  0
LINE
  8
別途部材
  6
CONTINUOUS
 10
34.090343
 20
-67.95793
 11
34.090343
 21
-79.624597
  0
LINE
  8
別途部材
  6
CONTINUOUS
 10
39.090343
 20
-66.95793
 11
39.090343
 21
-79.624597
  0
LINE
  8
別途部材
  6
CONTINUOUS
 10
41.090343
 20
-67.95793
 11
41.090343
 21
-79.624597
  0
LINE
  8
別途部材
  6
CONTINUOUS
 10
44.090343
 20
-66.95793
 11
44.090343
 21
-79.624597
  0
LINE
  8
別途部材
  6
CONTINUOUS
 10
47.090343
 20
-66.95793
 11
47.090343
 21
-79.624597
  0
LINE
  8
別途部材
  6
CONTINUOUS
 10
40.090343
 20
-66.95793
 11
40.090343
 21
-79.624597
  0
LINE
  8
別途部材
  6
CONTINUOUS
 10
42.090343
 20
-67.95793
 11
42.090343
 21
-79.624597
  0
LINE
  8
別途部材
  6
CONTINUOUS
 10
45.090343
 20
-67.95793
 11
45.090343
 21
-79.624597
  0
LINE
  8
別途部材
  6
CONTINUOUS
 10
46.090343
 20
-67.95793
 11
46.090343
 21
-79.624597
  0
LINE
  8
別途部材
  6
CONTINUOUS
 10
36.090343
 20
-66.95793
 11
36.090343
 21
-79.624597
  0
LINE
  8
別途部材
  6
CONTINUOUS
 10
35.090343
 20
-66.95793
 11
35.090343
 21
-79.624597
  0
LINE
  8
別途部材
  6
CONTINUOUS
 10
37.090343
 20
-67.95793
 11
37.090343
 21
-79.624597
  0
LINE
  8
別途部材
  6
CONTINUOUS
 10
43.090343
 20
-66.95793
 11
43.090343
 21
-79.624597
  0
LINE
  8
別途部材
  6
CONTINUOUS
 10
29.090343
 20
-67.95793
 11
29.090343
 21
-79.624597
  0
LINE
  8
別途部材
  6
CONTINUOUS
 10
30.090343
 20
-67.95793
 11
30.090343
 21
-79.624597
  0
LINE
  8
別途部材
  6
CONTINUOUS
 10
28.090343
 20
-66.95793
 11
28.090343
 21
-79.624597
  0
LINE
  8
別途部材
  6
CONTINUOUS
 10
26.090343
 20
-67.95793
 11
26.090343
 21
-79.624597
  0
LINE
  8
別途部材
  6
CONTINUOUS
 10
27.090343
 20
-66.95793
 11
27.090343
 21
-79.624597
  0
ENDBLK
  0
BLOCK
  2
*GRP_0019
 70
    65
 10
0.0
 20
0.0
  0
LINE
  8
補助線
  6
BYBLOCK
 62
    64
 10
-108.681073
 20
-84.528995
 11
-108.804918
 21
-84.64053
  0
LINE
  8
補助線
  6
BYBLOCK
 62
    64
 10
-108.798765
 20
-84.522837
 11
-108.687227
 21
-84.646685
  0
LINE
  8
補助線
  6
BYBLOCK
 62
    64
 10
-97.96597
 20
-74.87897
 11
-98.089815
 21
-74.990505
  0
LINE
  8
補助線
  6
BYBLOCK
 62
    64
 10
-98.08366
 20
-74.872812
 11
-97.972125
 21
-74.99666
  0
LINE
  8
補助線
  6
BYBLOCK
 62
    64
 10
-87.374712
 20
-65.34048
 11
-87.25087
 21
-65.228945
  0
LINE
  8
補助線
  6
BYBLOCK
 62
    64
 10
-87.36856
 20
-65.222787
 11
-87.257023
 21
-65.346635
  0
LINE
  8
型材断面
  6
CONTINUOUS
 10
-109.548362
 20
-84.188608
 11
-109.58529
 21
-84.894747
  0
LINE
  8
型材断面
  6
CONTINUOUS
 10
-109.58529
 20
-84.894747
 11
-109.13915
 21
-85.39013
  0
LINE
  8
型材断面
  6
CONTINUOUS
 10
-109.13915
 20
-85.39013
 11
-108.433007
 21
-85.42706
  0
LINE
  8
型材断面
  6
CONTINUOUS
 10
-87.622775
 20
-64.442418
 11
-86.916635
 21
-64.479348
  0
LINE
  8
型材断面
  6
CONTINUOUS
 10
-86.916635
 20
-64.479348
 11
-86.470493
 21
-64.974727
  0
LINE
  8
型材断面
  6
CONTINUOUS
 10
-86.470493
 20
-64.974727
 11
-86.507423
 21
-65.680872
  0
LINE
  8
型材断面
  6
CONTINUOUS
 10
-108.433007
 20
-85.42706
 11
-86.507423
 21
-65.680872
  0
LINE
  8
型材断面
  6
CONTINUOUS
 10
-109.548362
 20
-84.188608
 11
-87.622775
 21
-64.442418
  0
CIRCLE
  8
ボルト／ビス
  6
CONTINUOUS
 10
-108.742995
 20
-84.584763
 40
0.250185
  0
CIRCLE
  8
ボルト／ビス
  6
CONTINUOUS
 10
-108.742995
 20
-84.584763
 40
0.301025
  0
LINE
  8
ボルト／ビス
  6
CONTINUOUS
 62
    64
 10
-108.987708
 20
-84.636808
 11
-108.910423
 21
-84.398858
  0
LINE
  8
ボルト／ビス
  6
CONTINUOUS
 62
    64
 10
-108.66571
 20
-84.346813
 11
-108.910423
 21
-84.398858
  0
LINE
  8
ボルト／ビス
  6
CONTINUOUS
 62
    64
 10
-108.82028
 20
-84.822713
 11
-108.575568
 21
-84.770668
  0
LINE
  8
ボルト／ビス
  6
CONTINUOUS
 62
    64
 10
-108.498283
 20
-84.532718
 11
-108.575568
 21
-84.770668
  0
LINE
  8
ボルト／ビス
  6
CONTINUOUS
 62
    64
 10
-108.987708
 20
-84.636808
 11
-108.82028
 21
-84.822713
  0
LINE
  8
ボルト／ビス
  6
CONTINUOUS
 62
    64
 10
-108.66571
 20
-84.346813
 11
-108.498283
 21
-84.532718
  0
CIRCLE
  8
ボルト／ビス
  6
CONTINUOUS
 62
    64
 10
-108.742995
 20
-84.584763
 40
0.216668
  0
CIRCLE
  8
ボルト／ビス
  6
CONTINUOUS
 10
-98.027892
 20
-74.93474
 40
0.250185
  0
CIRCLE
  8
ボルト／ビス
  6
CONTINUOUS
 10
-98.027892
 20
-74.93474
 40
0.301025
  0
LINE
  8
ボルト／ビス
  6
CONTINUOUS
 62
    64
 10
-98.272607
 20
-74.986783
 11
-98.19532
 21
-74.748833
  0
LINE
  8
ボルト／ビス
  6
CONTINUOUS
 62
    64
 10
-97.950608
 20
-74.69679
 11
-98.19532
 21
-74.748833
  0
LINE
  8
ボルト／ビス
  6
CONTINUOUS
 62
    64
 10
-98.10518
 20
-75.172688
 11
-97.860467
 21
-75.120643
  0
LINE
  8
ボルト／ビス
  6
CONTINUOUS
 62
    64
 10
-97.78318
 20
-74.882695
 11
-97.860467
 21
-75.120643
  0
LINE
  8
ボルト／ビス
  6
CONTINUOUS
 62
    64
 10
-98.272607
 20
-74.986783
 11
-98.10518
 21
-75.172688
  0
LINE
  8
ボルト／ビス
  6
CONTINUOUS
 62
    64
 10
-97.950608
 20
-74.69679
 11
-97.78318
 21
-74.882695
  0
CIRCLE
  8
ボルト／ビス
  6
CONTINUOUS
 62
    64
 10
-98.027892
 20
-74.93474
 40
0.216668
  0
CIRCLE
  8
ボルト／ビス
  6
CONTINUOUS
 10
-87.312792
 20
-65.284713
 40
0.250185
  0
CIRCLE
  8
ボルト／ビス
  6
CONTINUOUS
 10
-87.312792
 20
-65.284713
 40
0.301025
  0
LINE
  8
ボルト／ビス
  6
CONTINUOUS
 62
    64
 10
-87.235505
 20
-65.046763
 11
-87.480217
 21
-65.098808
  0
LINE
  8
ボルト／ビス
  6
CONTINUOUS
 62
    64
 10
-87.557503
 20
-65.336758
 11
-87.480217
 21
-65.098808
  0
LINE
  8
ボルト／ビス
  6
CONTINUOUS
 62
    64
 10
-87.068077
 20
-65.232668
 11
-87.145365
 21
-65.470618
  0
LINE
  8
ボルト／ビス
  6
CONTINUOUS
 62
    64
 10
-87.390078
 20
-65.522663
 11
-87.145365
 21
-65.470618
  0
LINE
  8
ボルト／ビス
  6
CONTINUOUS
 62
    64
 10
-87.235505
 20
-65.046763
 11
-87.068077
 21
-65.232668
  0
LINE
  8
ボルト／ビス
  6
CONTINUOUS
 62
    64
 10
-87.557503
 20
-65.336758
 11
-87.390078
 21
-65.522663
  0
CIRCLE
  8
ボルト／ビス
  6
CONTINUOUS
 62
    64
 10
-87.312792
 20
-65.284713
 40
0.216668
  0
ENDBLK
  0
BLOCK
  2
*GRP_0020
 70
    65
 10
0.0
 20
0.0
  0
LINE
  8
補助線
  6
BYBLOCK
 62
    64
 10
-87.374712
 20
-84.528995
 11
-87.250867
 21
-84.64053
  0
LINE
  8
補助線
  6
BYBLOCK
 62
    64
 10
-87.25702
 20
-84.522837
 11
-87.368558
 21
-84.646685
  0
LINE
  8
補助線
  6
BYBLOCK
 62
    64
 10
-98.089815
 20
-74.87897
 11
-97.96597
 21
-74.990505
  0
LINE
  8
補助線
  6
BYBLOCK
 62
    64
 10
-97.972125
 20
-74.872812
 11
-98.08366
 21
-74.99666
  0
LINE
  8
補助線
  6
BYBLOCK
 62
    64
 10
-108.681073
 20
-65.34048
 11
-108.804915
 21
-65.228945
  0
LINE
  8
補助線
  6
BYBLOCK
 62
    64
 10
-108.687225
 20
-65.222787
 11
-108.798762
 21
-65.346635
  0
LINE
  8
型材断面
  6
CONTINUOUS
 10
-86.507423
 20
-84.188608
 11
-86.470495
 21
-84.894747
  0
LINE
  8
型材断面
  6
CONTINUOUS
 10
-86.470495
 20
-84.894747
 11
-86.916635
 21
-85.39013
  0
LINE
  8
型材断面
  6
CONTINUOUS
 10
-86.916635
 20
-85.39013
 11
-87.622778
 21
-85.42706
  0
LINE
  8
型材断面
  6
CONTINUOUS
 10
-108.43301
 20
-64.442418
 11
-109.13915
 21
-64.479348
  0
LINE
  8
型材断面
  6
CONTINUOUS
 10
-109.13915
 20
-64.479348
 11
-109.585293
 21
-64.974727
  0
LINE
  8
型材断面
  6
CONTINUOUS
 10
-109.585293
 20
-64.974727
 11
-109.548362
 21
-65.680872
  0
LINE
  8
型材断面
  6
CONTINUOUS
 10
-87.622778
 20
-85.42706
 11
-109.548362
 21
-65.680872
  0
LINE
  8
型材断面
  6
CONTINUOUS
 10
-86.507423
 20
-84.188608
 11
-108.43301
 21
-64.442418
  0
CIRCLE
  8
ボルト／ビス
  6
CONTINUOUS
 10
-87.31279
 20
-84.584763
 40
0.250185
  0
CIRCLE
  8
ボルト／ビス
  6
CONTINUOUS
 10
-87.31279
 20
-84.584763
 40
0.301025
  0
LINE
  8
ボルト／ビス
  6
CONTINUOUS
 62
    64
 10
-87.068077
 20
-84.636808
 11
-87.145363
 21
-84.398858
  0
LINE
  8
ボルト／ビス
  6
CONTINUOUS
 62
    64
 10
-87.390075
 20
-84.346813
 11
-87.145363
 21
-84.398858
  0
LINE
  8
ボルト／ビス
  6
CONTINUOUS
 62
    64
 10
-87.235505
 20
-84.822713
 11
-87.480217
 21
-84.770668
  0
LINE
  8
ボルト／ビス
  6
CONTINUOUS
 62
    64
 10
-87.557503
 20
-84.532718
 11
-87.480217
 21
-84.770668
  0
LINE
  8
ボルト／ビス
  6
CONTINUOUS
 62
    64
 10
-87.068077
 20
-84.636808
 11
-87.235505
 21
-84.822713
  0
LINE
  8
ボルト／ビス
  6
CONTINUOUS
 62
    64
 10
-87.390075
 20
-84.346813
 11
-87.557503
 21
-84.532718
  0
CIRCLE
  8
ボルト／ビス
  6
CONTINUOUS
 62
    64
 10
-87.31279
 20
-84.584763
 40
0.216668
  0
CIRCLE
  8
ボルト／ビス
  6
CONTINUOUS
 10
-98.027892
 20
-74.93474
 40
0.250185
  0
CIRCLE
  8
ボルト／ビス
  6
CONTINUOUS
 10
-98.027892
 20
-74.93474
 40
0.301025
  0
LINE
  8
ボルト／ビス
  6
CONTINUOUS
 62
    64
 10
-97.783177
 20
-74.986783
 11
-97.860465
 21
-74.748833
  0
LINE
  8
ボルト／ビス
  6
CONTINUOUS
 62
    64
 10
-98.105177
 20
-74.69679
 11
-97.860465
 21
-74.748833
  0
LINE
  8
ボルト／ビス
  6
CONTINUOUS
 62
    64
 10
-97.950605
 20
-75.172688
 11
-98.195317
 21
-75.120643
  0
LINE
  8
ボルト／ビス
  6
CONTINUOUS
 62
    64
 10
-98.272605
 20
-74.882695
 11
-98.195317
 21
-75.120643
  0
LINE
  8
ボルト／ビス
  6
CONTINUOUS
 62
    64
 10
-97.783177
 20
-74.986783
 11
-97.950605
 21
-75.172688
  0
LINE
  8
ボルト／ビス
  6
CONTINUOUS
 62
    64
 10
-98.105177
 20
-74.69679
 11
-98.272605
 21
-74.882695
  0
CIRCLE
  8
ボルト／ビス
  6
CONTINUOUS
 62
    64
 10
-98.027892
 20
-74.93474
 40
0.216668
  0
CIRCLE
  8
ボルト／ビス
  6
CONTINUOUS
 10
-108.742993
 20
-65.284713
 40
0.250185
  0
CIRCLE
  8
ボルト／ビス
  6
CONTINUOUS
 10
-108.742993
 20
-65.284713
 40
0.301025
  0
LINE
  8
ボルト／ビス
  6
CONTINUOUS
 62
    64
 10
-108.82028
 20
-65.046763
 11
-108.575568
 21
-65.098808
  0
LINE
  8
ボルト／ビス
  6
CONTINUOUS
 62
    64
 10
-108.498283
 20
-65.336758
 11
-108.575568
 21
-65.098808
  0
LINE
  8
ボルト／ビス
  6
CONTINUOUS
 62
    64
 10
-108.987708
 20
-65.232668
 11
-108.91042
 21
-65.470618
  0
LINE
  8
ボルト／ビス
  6
CONTINUOUS
 62
    64
 10
-108.665708
 20
-65.522663
 11
-108.91042
 21
-65.470618
  0
LINE
  8
ボルト／ビス
  6
CONTINUOUS
 62
    64
 10
-108.82028
 20
-65.046763
 11
-108.987708
 21
-65.232668
  0
LINE
  8
ボルト／ビス
  6
CONTINUOUS
 62
    64
 10
-108.498283
 20
-65.336758
 11
-108.665708
 21
-65.522663
  0
CIRCLE
  8
ボルト／ビス
  6
CONTINUOUS
 62
    64
 10
-108.742993
 20
-65.284713
 40
0.216668
  0
ENDBLK
  0
BLOCK
  2
*GRP_0021
 70
    65
 10
0.0
 20
0.0
  0
LINE
  8
補助線
  6
BYBLOCK
 62
    64
 10
67.861752
 20
-84.528995
 11
67.985598
 21
-84.64053
  0
LINE
  8
補助線
  6
BYBLOCK
 62
    64
 10
67.979445
 20
-84.522837
 11
67.867908
 21
-84.646685
  0
LINE
  8
補助線
  6
BYBLOCK
 62
    64
 10
57.14665
 20
-74.87897
 11
57.270495
 21
-74.990505
  0
LINE
  8
補助線
  6
BYBLOCK
 62
    64
 10
57.26434
 20
-74.872812
 11
57.152805
 21
-74.99666
  0
LINE
  8
補助線
  6
BYBLOCK
 62
    64
 10
46.555393
 20
-65.34048
 11
46.43155
 21
-65.228945
  0
LINE
  8
補助線
  6
BYBLOCK
 62
    64
 10
46.54924
 20
-65.222787
 11
46.437702
 21
-65.346635
  0
LINE
  8
型材断面
  6
CONTINUOUS
 10
68.729042
 20
-84.188608
 11
68.76597
 21
-84.894747
  0
LINE
  8
型材断面
  6
CONTINUOUS
 10
68.76597
 20
-84.894747
 11
68.31983
 21
-85.39013
  0
LINE
  8
型材断面
  6
CONTINUOUS
 10
68.31983
 20
-85.39013
 11
67.613688
 21
-85.42706
  0
LINE
  8
型材断面
  6
CONTINUOUS
 10
46.803455
 20
-64.442418
 11
46.097315
 21
-64.479348
  0
LINE
  8
型材断面
  6
CONTINUOUS
 10
46.097315
 20
-64.479348
 11
45.651173
 21
-64.974727
  0
LINE
  8
型材断面
  6
CONTINUOUS
 10
45.651173
 20
-64.974727
 11
45.688103
 21
-65.680872
  0
LINE
  8
型材断面
  6
CONTINUOUS
 10
67.613688
 20
-85.42706
 11
45.688103
 21
-65.680872
  0
LINE
  8
型材断面
  6
CONTINUOUS
 10
68.729042
 20
-84.188608
 11
46.803455
 21
-64.442418
  0
CIRCLE
  8
ボルト／ビス
  6
CONTINUOUS
 10
67.923675
 20
-84.584763
 40
0.250185
  0
CIRCLE
  8
ボルト／ビス
  6
CONTINUOUS
 10
67.923675
 20
-84.584763
 40
0.301025
  0
LINE
  8
ボルト／ビス
  6
CONTINUOUS
 62
    64
 10
68.168388
 20
-84.636808
 11
68.091102
 21
-84.398858
  0
LINE
  8
ボルト／ビス
  6
CONTINUOUS
 62
    64
 10
67.84639
 20
-84.346813
 11
68.091102
 21
-84.398858
  0
LINE
  8
ボルト／ビス
  6
CONTINUOUS
 62
    64
 10
68.00096
 20
-84.822713
 11
67.756248
 21
-84.770668
  0
LINE
  8
ボルト／ビス
  6
CONTINUOUS
 62
    64
 10
67.678962
 20
-84.532718
 11
67.756248
 21
-84.770668
  0
LINE
  8
ボルト／ビス
  6
CONTINUOUS
 62
    64
 10
68.168388
 20
-84.636808
 11
68.00096
 21
-84.822713
  0
LINE
  8
ボルト／ビス
  6
CONTINUOUS
 62
    64
 10
67.84639
 20
-84.346813
 11
67.678962
 21
-84.532718
  0
CIRCLE
  8
ボルト／ビス
  6
CONTINUOUS
 62
    64
 10
67.923675
 20
-84.584763
 40
0.216668
  0
CIRCLE
  8
ボルト／ビス
  6
CONTINUOUS
 10
57.208573
 20
-74.93474
 40
0.250185
  0
CIRCLE
  8
ボルト／ビス
  6
CONTINUOUS
 10
57.208573
 20
-74.93474
 40
0.301025
  0
LINE
  8
ボルト／ビス
  6
CONTINUOUS
 62
    64
 10
57.453288
 20
-74.986783
 11
57.376
 21
-74.748833
  0
LINE
  8
ボルト／ビス
  6
CONTINUOUS
 62
    64
 10
57.131287
 20
-74.69679
 11
57.376
 21
-74.748833
  0
LINE
  8
ボルト／ビス
  6
CONTINUOUS
 62
    64
 10
57.28586
 20
-75.172688
 11
57.041148
 21
-75.120643
  0
LINE
  8
ボルト／ビス
  6
CONTINUOUS
 62
    64
 10
56.96386
 20
-74.882695
 11
57.041148
 21
-75.120643
  0
LINE
  8
ボルト／ビス
  6
CONTINUOUS
 62
    64
 10
57.453288
 20
-74.986783
 11
57.28586
 21
-75.172688
  0
LINE
  8
ボルト／ビス
  6
CONTINUOUS
 62
    64
 10
57.131287
 20
-74.69679
 11
56.96386
 21
-74.882695
  0
CIRCLE
  8
ボルト／ビス
  6
CONTINUOUS
 62
    64
 10
57.208573
 20
-74.93474
 40
0.216668
  0
CIRCLE
  8
ボルト／ビス
  6
CONTINUOUS
 10
46.493472
 20
-65.284713
 40
0.250185
  0
CIRCLE
  8
ボルト／ビス
  6
CONTINUOUS
 10
46.493472
 20
-65.284713
 40
0.301025
  0
LINE
  8
ボルト／ビス
  6
CONTINUOUS
 62
    64
 10
46.416185
 20
-65.046763
 11
46.660897
 21
-65.098808
  0
LINE
  8
ボルト／ビス
  6
CONTINUOUS
 62
    64
 10
46.738183
 20
-65.336758
 11
46.660897
 21
-65.098808
  0
LINE
  8
ボルト／ビス
  6
CONTINUOUS
 62
    64
 10
46.248757
 20
-65.232668
 11
46.326045
 21
-65.470618
  0
LINE
  8
ボルト／ビス
  6
CONTINUOUS
 62
    64
 10
46.570758
 20
-65.522663
 11
46.326045
 21
-65.470618
  0
LINE
  8
ボルト／ビス
  6
CONTINUOUS
 62
    64
 10
46.416185
 20
-65.046763
 11
46.248757
 21
-65.232668
  0
LINE
  8
ボルト／ビス
  6
CONTINUOUS
 62
    64
 10
46.738183
 20
-65.336758
 11
46.570758
 21
-65.522663
  0
CIRCLE
  8
ボルト／ビス
  6
CONTINUOUS
 62
    64
 10
46.493472
 20
-65.284713
 40
0.216668
  0
ENDBLK
  0
BLOCK
  2
*GRP_0022
 70
    65
 10
0.0
 20
0.0
  0
LINE
  8
補助線
  6
BYBLOCK
 62
    64
 10
46.555393
 20
-84.528995
 11
46.431547
 21
-84.64053
  0
LINE
  8
補助線
  6
BYBLOCK
 62
    64
 10
46.4377
 20
-84.522837
 11
46.549237
 21
-84.646685
  0
LINE
  8
補助線
  6
BYBLOCK
 62
    64
 10
57.270495
 20
-74.87897
 11
57.14665
 21
-74.990505
  0
LINE
  8
補助線
  6
BYBLOCK
 62
    64
 10
57.152805
 20
-74.872812
 11
57.26434
 21
-74.99666
  0
LINE
  8
補助線
  6
BYBLOCK
 62
    64
 10
67.861752
 20
-65.34048
 11
67.985595
 21
-65.228945
  0
LINE
  8
補助線
  6
BYBLOCK
 62
    64
 10
67.867905
 20
-65.222787
 11
67.979443
 21
-65.346635
  0
LINE
  8
型材断面
  6
CONTINUOUS
 10
45.688103
 20
-84.188608
 11
45.651175
 21
-84.894747
  0
LINE
  8
型材断面
  6
CONTINUOUS
 10
45.651175
 20
-84.894747
 11
46.097315
 21
-85.39013
  0
LINE
  8
型材断面
  6
CONTINUOUS
 10
46.097315
 20
-85.39013
 11
46.803457
 21
-85.42706
  0
LINE
  8
型材断面
  6
CONTINUOUS
 10
67.61369
 20
-64.442418
 11
68.31983
 21
-64.479348
  0
LINE
  8
型材断面
  6
CONTINUOUS
 10
68.31983
 20
-64.479348
 11
68.765972
 21
-64.974727
  0
LINE
  8
型材断面
  6
CONTINUOUS
 10
68.765972
 20
-64.974727
 11
68.729042
 21
-65.680872
  0
LINE
  8
型材断面
  6
CONTINUOUS
 10
46.803457
 20
-85.42706
 11
68.729042
 21
-65.680872
  0
LINE
  8
型材断面
  6
CONTINUOUS
 10
45.688103
 20
-84.188608
 11
67.61369
 21
-64.442418
  0
CIRCLE
  8
ボルト／ビス
  6
CONTINUOUS
 10
46.49347
 20
-84.584763
 40
0.250185
  0
CIRCLE
  8
ボルト／ビス
  6
CONTINUOUS
 10
46.49347
 20
-84.584763
 40
0.301025
  0
LINE
  8
ボルト／ビス
  6
CONTINUOUS
 62
    64
 10
46.248757
 20
-84.636808
 11
46.326043
 21
-84.398858
  0
LINE
  8
ボルト／ビス
  6
CONTINUOUS
 62
    64
 10
46.570755
 20
-84.346813
 11
46.326043
 21
-84.398858
  0
LINE
  8
ボルト／ビス
  6
CONTINUOUS
 62
    64
 10
46.416185
 20
-84.822713
 11
46.660897
 21
-84.770668
  0
LINE
  8
ボルト／ビス
  6
CONTINUOUS
 62
    64
 10
46.738183
 20
-84.532718
 11
46.660897
 21
-84.770668
  0
LINE
  8
ボルト／ビス
  6
CONTINUOUS
 62
    64
 10
46.248757
 20
-84.636808
 11
46.416185
 21
-84.822713
  0
LINE
  8
ボルト／ビス
  6
CONTINUOUS
 62
    64
 10
46.570755
 20
-84.346813
 11
46.738183
 21
-84.532718
  0
CIRCLE
  8
ボルト／ビス
  6
CONTINUOUS
 62
    64
 10
46.49347
 20
-84.584763
 40
0.216668
  0
CIRCLE
  8
ボルト／ビス
  6
CONTINUOUS
 10
57.208573
 20
-74.93474
 40
0.250185
  0
CIRCLE
  8
ボルト／ビス
  6
CONTINUOUS
 10
57.208573
 20
-74.93474
 40
0.301025
  0
LINE
  8
ボルト／ビス
  6
CONTINUOUS
 62
    64
 10
56.963858
 20
-74.986783
 11
57.041145
 21
-74.748833
  0
LINE
  8
ボルト／ビス
  6
CONTINUOUS
 62
    64
 10
57.285858
 20
-74.69679
 11
57.041145
 21
-74.748833
  0
LINE
  8
ボルト／ビス
  6
CONTINUOUS
 62
    64
 10
57.131285
 20
-75.172688
 11
57.375998
 21
-75.120643
  0
LINE
  8
ボルト／ビス
  6
CONTINUOUS
 62
    64
 10
57.453285
 20
-74.882695
 11
57.375998
 21
-75.120643
  0
LINE
  8
ボルト／ビス
  6
CONTINUOUS
 62
    64
 10
56.963858
 20
-74.986783
 11
57.131285
 21
-75.172688
  0
LINE
  8
ボルト／ビス
  6
CONTINUOUS
 62
    64
 10
57.285858
 20
-74.69679
 11
57.453285
 21
-74.882695
  0
CIRCLE
  8
ボルト／ビス
  6
CONTINUOUS
 62
    64
 10
57.208573
 20
-74.93474
 40
0.216668
  0
CIRCLE
  8
ボルト／ビス
  6
CONTINUOUS
 10
67.923673
 20
-65.284713
 40
0.250185
  0
CIRCLE
  8
ボルト／ビス
  6
CONTINUOUS
 10
67.923673
 20
-65.284713
 40
0.301025
  0
LINE
  8
ボルト／ビス
  6
CONTINUOUS
 62
    64
 10
68.00096
 20
-65.046763
 11
67.756248
 21
-65.098808
  0
LINE
  8
ボルト／ビス
  6
CONTINUOUS
 62
    64
 10
67.678962
 20
-65.336758
 11
67.756248
 21
-65.098808
  0
LINE
  8
ボルト／ビス
  6
CONTINUOUS
 62
    64
 10
68.168388
 20
-65.232668
 11
68.0911
 21
-65.470618
  0
LINE
  8
ボルト／ビス
  6
CONTINUOUS
 62
    64
 10
67.846387
 20
-65.522663
 11
68.0911
 21
-65.470618
  0
LINE
  8
ボルト／ビス
  6
CONTINUOUS
 62
    64
 10
68.00096
 20
-65.046763
 11
68.168388
 21
-65.232668
  0
LINE
  8
ボルト／ビス
  6
CONTINUOUS
 62
    64
 10
67.678962
 20
-65.336758
 11
67.846387
 21
-65.522663
  0
CIRCLE
  8
ボルト／ビス
  6
CONTINUOUS
 62
    64
 10
67.923673
 20
-65.284713
 40
0.216668
  0
ENDBLK
  0
BLOCK
  2
*GRP_0023
 70
    65
 10
0.0
 20
0.0
  0
LINE
  8
補助線
  6
BYBLOCK
 62
    64
 10
-9.75648
 20
-84.528995
 11
-9.632635
 21
-84.64053
  0
LINE
  8
補助線
  6
BYBLOCK
 62
    64
 10
-9.638788
 20
-84.522837
 11
-9.750325
 21
-84.646685
  0
LINE
  8
補助線
  6
BYBLOCK
 62
    64
 10
-20.471583
 20
-74.87897
 11
-20.347738
 21
-74.990505
  0
LINE
  8
補助線
  6
BYBLOCK
 62
    64
 10
-20.353892
 20
-74.872812
 11
-20.465427
 21
-74.99666
  0
LINE
  8
補助線
  6
BYBLOCK
 62
    64
 10
-31.06284
 20
-65.34048
 11
-31.186683
 21
-65.228945
  0
LINE
  8
補助線
  6
BYBLOCK
 62
    64
 10
-31.068992
 20
-65.222787
 11
-31.18053
 21
-65.346635
  0
LINE
  8
型材断面
  6
CONTINUOUS
 10
-8.88919
 20
-84.188608
 11
-8.852262
 21
-84.894747
  0
LINE
  8
型材断面
  6
CONTINUOUS
 10
-8.852262
 20
-84.894747
 11
-9.298402
 21
-85.39013
  0
LINE
  8
型材断面
  6
CONTINUOUS
 10
-9.298402
 20
-85.39013
 11
-10.004545
 21
-85.42706
  0
LINE
  8
型材断面
  6
CONTINUOUS
 10
-30.814778
 20
-64.442418
 11
-31.520917
 21
-64.479348
  0
LINE
  8
型材断面
  6
CONTINUOUS
 10
-31.520917
 20
-64.479348
 11
-31.96706
 21
-64.974727
  0
LINE
  8
型材断面
  6
CONTINUOUS
 10
-31.96706
 20
-64.974727
 11
-31.93013
 21
-65.680872
  0
LINE
  8
型材断面
  6
CONTINUOUS
 10
-10.004545
 20
-85.42706
 11
-31.93013
 21
-65.680872
  0
LINE
  8
型材断面
  6
CONTINUOUS
 10
-8.88919
 20
-84.188608
 11
-30.814778
 21
-64.442418
  0
CIRCLE
  8
ボルト／ビス
  6
CONTINUOUS
 10
-9.694557
 20
-84.584763
 40
0.250185
  0
CIRCLE
  8
ボルト／ビス
  6
CONTINUOUS
 10
-9.694557
 20
-84.584763
 40
0.301025
  0
LINE
  8
ボルト／ビス
  6
CONTINUOUS
 62
    64
 10
-9.449845
 20
-84.636808
 11
-9.52713
 21
-84.398858
  0
LINE
  8
ボルト／ビス
  6
CONTINUOUS
 62
    64
 10
-9.771843
 20
-84.346813
 11
-9.52713
 21
-84.398858
  0
LINE
  8
ボルト／ビス
  6
CONTINUOUS
 62
    64
 10
-9.617273
 20
-84.822713
 11
-9.861985
 21
-84.770668
  0
LINE
  8
ボルト／ビス
  6
CONTINUOUS
 62
    64
 10
-9.93927
 20
-84.532718
 11
-9.861985
 21
-84.770668
  0
LINE
  8
ボルト／ビス
  6
CONTINUOUS
 62
    64
 10
-9.449845
 20
-84.636808
 11
-9.617273
 21
-84.822713
  0
LINE
  8
ボルト／ビス
  6
CONTINUOUS
 62
    64
 10
-9.771843
 20
-84.346813
 11
-9.93927
 21
-84.532718
  0
CIRCLE
  8
ボルト／ビス
  6
CONTINUOUS
 62
    64
 10
-9.694557
 20
-84.584763
 40
0.216668
  0
CIRCLE
  8
ボルト／ビス
  6
CONTINUOUS
 10
-20.40966
 20
-74.93474
 40
0.250185
  0
CIRCLE
  8
ボルト／ビス
  6
CONTINUOUS
 10
-20.40966
 20
-74.93474
 40
0.301025
  0
LINE
  8
ボルト／ビス
  6
CONTINUOUS
 62
    64
 10
-20.164945
 20
-74.986783
 11
-20.242232
 21
-74.748833
  0
LINE
  8
ボルト／ビス
  6
CONTINUOUS
 62
    64
 10
-20.486945
 20
-74.69679
 11
-20.242232
 21
-74.748833
  0
LINE
  8
ボルト／ビス
  6
CONTINUOUS
 62
    64
 10
-20.332373
 20
-75.172688
 11
-20.577085
 21
-75.120643
  0
LINE
  8
ボルト／ビス
  6
CONTINUOUS
 62
    64
 10
-20.654373
 20
-74.882695
 11
-20.577085
 21
-75.120643
  0
LINE
  8
ボルト／ビス
  6
CONTINUOUS
 62
    64
 10
-20.164945
 20
-74.986783
 11
-20.332373
 21
-75.172688
  0
LINE
  8
ボルト／ビス
  6
CONTINUOUS
 62
    64
 10
-20.486945
 20
-74.69679
 11
-20.654373
 21
-74.882695
  0
CIRCLE
  8
ボルト／ビス
  6
CONTINUOUS
 62
    64
 10
-20.40966
 20
-74.93474
 40
0.216668
  0
CIRCLE
  8
ボルト／ビス
  6
CONTINUOUS
 10
-31.12476
 20
-65.284713
 40
0.250185
  0
CIRCLE
  8
ボルト／ビス
  6
CONTINUOUS
 10
-31.12476
 20
-65.284713
 40
0.301025
  0
LINE
  8
ボルト／ビス
  6
CONTINUOUS
 62
    64
 10
-31.202048
 20
-65.046763
 11
-30.957335
 21
-65.098808
  0
LINE
  8
ボルト／ビス
  6
CONTINUOUS
 62
    64
 10
-30.88005
 20
-65.336758
 11
-30.957335
 21
-65.098808
  0
LINE
  8
ボルト／ビス
  6
CONTINUOUS
 62
    64
 10
-31.369475
 20
-65.232668
 11
-31.292188
 21
-65.470618
  0
LINE
  8
ボルト／ビス
  6
CONTINUOUS
 62
    64
 10
-31.047475
 20
-65.522663
 11
-31.292188
 21
-65.470618
  0
LINE
  8
ボルト／ビス
  6
CONTINUOUS
 62
    64
 10
-31.202048
 20
-65.046763
 11
-31.369475
 21
-65.232668
  0
LINE
  8
ボルト／ビス
  6
CONTINUOUS
 62
    64
 10
-30.88005
 20
-65.336758
 11
-31.047475
 21
-65.522663
  0
CIRCLE
  8
ボルト／ビス
  6
CONTINUOUS
 62
    64
 10
-31.12476
 20
-65.284713
 40
0.216668
  0
ENDBLK
  0
BLOCK
  2
*GRP_0024
 70
    65
 10
0.0
 20
0.0
  0
LINE
  8
補助線
  6
BYBLOCK
 62
    64
 10
-31.06284
 20
-84.528995
 11
-31.186685
 21
-84.64053
  0
LINE
  8
補助線
  6
BYBLOCK
 62
    64
 10
-31.180533
 20
-84.522837
 11
-31.068995
 21
-84.646685
  0
LINE
  8
補助線
  6
BYBLOCK
 62
    64
 10
-20.347738
 20
-74.87897
 11
-20.471583
 21
-74.990505
  0
LINE
  8
補助線
  6
BYBLOCK
 62
    64
 10
-20.465427
 20
-74.872812
 11
-20.353892
 21
-74.99666
  0
LINE
  8
補助線
  6
BYBLOCK
 62
    64
 10
-9.75648
 20
-65.34048
 11
-9.632637
 21
-65.228945
  0
LINE
  8
補助線
  6
BYBLOCK
 62
    64
 10
-9.750328
 20
-65.222787
 11
-9.63879
 21
-65.346635
  0
LINE
  8
型材断面
  6
CONTINUOUS
 10
-31.93013
 20
-84.188608
 11
-31.967058
 21
-84.894747
  0
LINE
  8
型材断面
  6
CONTINUOUS
 10
-31.967058
 20
-84.894747
 11
-31.520917
 21
-85.39013
  0
LINE
  8
型材断面
  6
CONTINUOUS
 10
-31.520917
 20
-85.39013
 11
-30.814775
 21
-85.42706
  0
LINE
  8
型材断面
  6
CONTINUOUS
 10
-10.004543
 20
-64.442418
 11
-9.298402
 21
-64.479348
  0
LINE
  8
型材断面
  6
CONTINUOUS
 10
-9.298402
 20
-64.479348
 11
-8.85226
 21
-64.974727
  0
LINE
  8
型材断面
  6
CONTINUOUS
 10
-8.85226
 20
-64.974727
 11
-8.88919
 21
-65.680872
  0
LINE
  8
型材断面
  6
CONTINUOUS
 10
-30.814775
 20
-85.42706
 11
-8.88919
 21
-65.680872
  0
LINE
  8
型材断面
  6
CONTINUOUS
 10
-31.93013
 20
-84.188608
 11
-10.004543
 21
-64.442418
  0
CIRCLE
  8
ボルト／ビス
  6
CONTINUOUS
 10
-31.124762
 20
-84.584763
 40
0.250185
  0
CIRCLE
  8
ボルト／ビス
  6
CONTINUOUS
 10
-31.124762
 20
-84.584763
 40
0.301025
  0
LINE
  8
ボルト／ビス
  6
CONTINUOUS
 62
    64
 10
-31.369475
 20
-84.636808
 11
-31.29219
 21
-84.398858
  0
LINE
  8
ボルト／ビス
  6
CONTINUOUS
 62
    64
 10
-31.047477
 20
-84.346813
 11
-31.29219
 21
-84.398858
  0
LINE
  8
ボルト／ビス
  6
CONTINUOUS
 62
    64
 10
-31.202048
 20
-84.822713
 11
-30.957335
 21
-84.770668
  0
LINE
  8
ボルト／ビス
  6
CONTINUOUS
 62
    64
 10
-30.88005
 20
-84.532718
 11
-30.957335
 21
-84.770668
  0
LINE
  8
ボルト／ビス
  6
CONTINUOUS
 62
    64
 10
-31.369475
 20
-84.636808
 11
-31.202048
 21
-84.822713
  0
LINE
  8
ボルト／ビス
  6
CONTINUOUS
 62
    64
 10
-31.047477
 20
-84.346813
 11
-30.88005
 21
-84.532718
  0
CIRCLE
  8
ボルト／ビス
  6
CONTINUOUS
 62
    64
 10
-31.124762
 20
-84.584763
 40
0.216668
  0
CIRCLE
  8
ボルト／ビス
  6
CONTINUOUS
 10
-20.40966
 20
-74.93474
 40
0.250185
  0
CIRCLE
  8
ボルト／ビス
  6
CONTINUOUS
 10
-20.40966
 20
-74.93474
 40
0.301025
  0
LINE
  8
ボルト／ビス
  6
CONTINUOUS
 62
    64
 10
-20.654375
 20
-74.986783
 11
-20.577088
 21
-74.748833
  0
LINE
  8
ボルト／ビス
  6
CONTINUOUS
 62
    64
 10
-20.332375
 20
-74.69679
 11
-20.577088
 21
-74.748833
  0
LINE
  8
ボルト／ビス
  6
CONTINUOUS
 62
    64
 10
-20.486948
 20
-75.172688
 11
-20.242235
 21
-75.120643
  0
LINE
  8
ボルト／ビス
  6
CONTINUOUS
 62
    64
 10
-20.164948
 20
-74.882695
 11
-20.242235
 21
-75.120643
  0
LINE
  8
ボルト／ビス
  6
CONTINUOUS
 62
    64
 10
-20.654375
 20
-74.986783
 11
-20.486948
 21
-75.172688
  0
LINE
  8
ボルト／ビス
  6
CONTINUOUS
 62
    64
 10
-20.332375
 20
-74.69679
 11
-20.164948
 21
-74.882695
  0
CIRCLE
  8
ボルト／ビス
  6
CONTINUOUS
 62
    64
 10
-20.40966
 20
-74.93474
 40
0.216668
  0
CIRCLE
  8
ボルト／ビス
  6
CONTINUOUS
 10
-9.69456
 20
-65.284713
 40
0.250185
  0
CIRCLE
  8
ボルト／ビス
  6
CONTINUOUS
 10
-9.69456
 20
-65.284713
 40
0.301025
  0
LINE
  8
ボルト／ビス
  6
CONTINUOUS
 62
    64
 10
-9.617273
 20
-65.046763
 11
-9.861985
 21
-65.098808
  0
LINE
  8
ボルト／ビス
  6
CONTINUOUS
 62
    64
 10
-9.93927
 20
-65.336758
 11
-9.861985
 21
-65.098808
  0
LINE
  8
ボルト／ビス
  6
CONTINUOUS
 62
    64
 10
-9.449845
 20
-65.232668
 11
-9.527132
 21
-65.470618
  0
LINE
  8
ボルト／ビス
  6
CONTINUOUS
 62
    64
 10
-9.771845
 20
-65.522663
 11
-9.527132
 21
-65.470618
  0
LINE
  8
ボルト／ビス
  6
CONTINUOUS
 62
    64
 10
-9.617273
 20
-65.046763
 11
-9.449845
 21
-65.232668
  0
LINE
  8
ボルト／ビス
  6
CONTINUOUS
 62
    64
 10
-9.93927
 20
-65.336758
 11
-9.771845
 21
-65.522663
  0
CIRCLE
  8
ボルト／ビス
  6
CONTINUOUS
 62
    64
 10
-9.69456
 20
-65.284713
 40
0.216668
  0
ENDBLK
  0
BLOCK
  2
*DIM_0025
 70
    65
 10
0.0
 20
0.0
  0
LINE
  8
寸法
  6
BYBLOCK
 62
     0
 10
-115.076325
 20
23.399048
 11
-144.02149
 21
23.399048
  0
LINE
  8
寸法
  6
BYBLOCK
 62
     0
 10
-115.076325
 20
46.732382
 11
-144.02149
 21
46.732382
  0
LINE
  8
寸法
  6
BYBLOCK
 62
     0
 10
-144.02149
 20
23.399048
 11
-144.02149
 21
46.732382
  0
POINT
  8
寸法
 62
     0
 10
-144.02149
 20
23.399048
  0
POINT
  8
寸法
 62
     0
 10
-144.02149
 20
46.732382
  0
TEXT
  7
TextStyle03
  8
寸法
  6
CONTINUOUS
 62
     0
 10
-144.35
 20
32.6125
  1
700
 40
3.0
 50
90.0
 72
     5
 11
-144.35
 21
37.4875
  0
ENDBLK
  0
BLOCK
  2
*DIM_0026
 70
    65
 10
0.0
 20
0.0
  0
LINE
  8
寸法
  6
BYBLOCK
 62
     0
 10
-100.40966
 20
59.73238
 11
-100.40966
 21
88.840452
  0
LINE
  8
寸法
  6
BYBLOCK
 62
     0
 10
-73.742993
 20
59.73238
 11
-73.742993
 21
88.840452
  0
LINE
  8
寸法
  6
BYBLOCK
 62
     0
 10
-100.40966
 20
88.840452
 11
-73.742993
 21
88.840452
  0
POINT
  8
寸法
 62
     0
 10
-100.40966
 20
88.840452
  0
POINT
  8
寸法
 62
     0
 10
-73.742993
 20
88.840452
  0
TEXT
  7
TextStyle03
  8
寸法
  6
CONTINUOUS
 62
     0
 10
-89.5375
 20
89.2
  1
800
 40
3.0
 72
     5
 11
-84.6625
 21
89.2
  0
ENDBLK
  0
BLOCK
  2
*DIM_0027
 70
    65
 10
0.0
 20
0.0
  0
LINE
  8
寸法
  6
BYBLOCK
 62
     0
 10
-47.076328
 20
59.73238
 11
-47.076328
 21
88.840452
  0
LINE
  8
寸法
  6
BYBLOCK
 62
     0
 10
-73.742993
 20
88.840452
 11
-47.076328
 21
88.840452
  0
POINT
  8
寸法
 62
     0
 10
-47.076328
 20
88.840452
  0
TEXT
  7
TextStyle03
  8
寸法
  6
CONTINUOUS
 62
     0
 10
-62.8625
 20
89.2
  1
800
 40
3.0
 72
     5
 11
-57.9875
 21
89.2
  0
ENDBLK
  0
BLOCK
  2
*DIM_0028
 70
    65
 10
0.0
 20
0.0
  0
LINE
  8
寸法
  6
BYBLOCK
 62
     0
 10
-20.40966
 20
59.73238
 11
-20.40966
 21
88.840452
  0
LINE
  8
寸法
  6
BYBLOCK
 62
     0
 10
-47.076328
 20
88.840452
 11
-20.40966
 21
88.840452
  0
POINT
  8
寸法
 62
     0
 10
-20.40966
 20
88.840452
  0
TEXT
  7
TextStyle03
  8
寸法
  6
CONTINUOUS
 62
     0
 10
-36.1875
 20
89.2
  1
800
 40
3.0
 72
     5
 11
-31.3125
 21
89.2
  0
ENDBLK
  0
BLOCK
  2
*DIM_0029
 70
    65
 10
0.0
 20
0.0
  0
LINE
  8
寸法
  6
BYBLOCK
 62
     0
 10
6.257007
 20
59.73238
 11
6.257007
 21
88.840452
  0
LINE
  8
寸法
  6
BYBLOCK
 62
     0
 10
-20.40966
 20
88.840452
 11
6.257007
 21
88.840452
  0
POINT
  8
寸法
 62
     0
 10
6.257007
 20
88.840452
  0
TEXT
  7
TextStyle03
  8
寸法
  6
CONTINUOUS
 62
     0
 10
-9.5375
 20
89.2
  1
800
 40
3.0
 72
     5
 11
-4.6625
 21
89.2
  0
ENDBLK
  0
BLOCK
  2
*DIM_0030
 70
    65
 10
0.0
 20
0.0
  0
LINE
  8
寸法
  6
BYBLOCK
 62
     0
 10
32.923673
 20
59.73238
 11
32.923673
 21
88.840452
  0
LINE
  8
寸法
  6
BYBLOCK
 62
     0
 10
6.257007
 20
88.840452
 11
32.923673
 21
88.840452
  0
POINT
  8
寸法
 62
     0
 10
32.923673
 20
88.840452
  0
TEXT
  7
TextStyle03
  8
寸法
  6
CONTINUOUS
 62
     0
 10
17.1375
 20
89.2
  1
800
 40
3.0
 72
     5
 11
22.0125
 21
89.2
  0
ENDBLK
  0
BLOCK
  2
*DIM_0031
 70
    65
 10
0.0
 20
0.0
  0
LINE
  8
寸法
  6
BYBLOCK
 62
     0
 10
59.59034
 20
59.73238
 11
59.59034
 21
88.840452
  0
LINE
  8
寸法
  6
BYBLOCK
 62
     0
 10
32.923673
 20
88.840452
 11
59.59034
 21
88.840452
  0
POINT
  8
寸法
 62
     0
 10
59.59034
 20
88.840452
  0
TEXT
  7
TextStyle03
  8
寸法
  6
CONTINUOUS
 62
     0
 10
43.8125
 20
89.2
  1
800
 40
3.0
 72
     5
 11
48.6875
 21
89.2
  0
ENDBLK
  0
BLOCK
  2
*DIM_0032
 70
    65
 10
0.0
 20
0.0
  0
LINE
  8
寸法
  6
BYBLOCK
 62
     0
 10
52.59034
 20
-51.291262
 11
87.226657
 21
-51.291262
  0
LINE
  8
寸法
  6
BYBLOCK
 62
     0
 10
87.226657
 20
-67.95793
 11
87.226657
 21
-51.291262
  0
POINT
  8
寸法
 62
     0
 10
87.226657
 20
-67.95793
  0
POINT
  8
寸法
 62
     0
 10
87.226657
 20
-51.291262
  0
TEXT
  7
TextStyle03
  8
寸法
  6
CONTINUOUS
 62
     0
 10
91.975
 20
-69.06875
  1
上昇463以上
 40
3.0
 50
90.0
 72
     5
 11
91.975
 21
-50.88125
  0
ENDBLK
  0
BLOCK
  2
*GRP_0033
 70
    65
 10
0.0
 20
0.0
  0
LINE
  8
ボルト／ビス
  6
CONTINUOUS
 10
160.790272
 20
57.39905
 11
160.323608
 21
57.39905
  0
LINE
  8
ボルト／ビス
  6
CONTINUOUS
 10
160.790272
 20
57.032385
 11
160.723608
 21
57.032385
  0
LINE
  8
ボルト／ビス
  6
CONTINUOUS
 10
160.723608
 20
57.032385
 11
160.723608
 21
57.765718
  0
LINE
  8
ボルト／ビス
  6
CONTINUOUS
 10
160.723608
 20
57.765718
 11
160.790272
 21
57.765718
  0
LINE
  8
ボルト／ビス
  6
CONTINUOUS
 10
160.790272
 20
57.032385
 11
160.790272
 21
57.765718
  0
LINE
  8
ボルト／ビス
  6
CONTINUOUS
 10
160.690272
 20
57.09905
 11
160.723608
 21
57.09905
  0
LINE
  8
ボルト／ビス
  6
CONTINUOUS
 10
160.690272
 20
57.09905
 11
160.690272
 21
57.69905
  0
LINE
  8
ボルト／ビス
  6
CONTINUOUS
 10
160.690272
 20
57.69905
 11
160.723608
 21
57.69905
  0
LINE
  8
ボルト／ビス
  6
CONTINUOUS
 62
    64
 10
160.490273
 20
57.238675
 11
160.501947
 21
57.2066
  0
ARC
  8
ボルト／ビス
  6
CONTINUOUS
 62
    64
 10
160.59525
 20
57.254715
 40
0.104978
 50
152.721967
 51
180.0
  0
ARC
  8
ボルト／ビス
  6
CONTINUOUS
 62
    64
 10
160.892674
 20
57.399052
 40
0.402402
 50
166.165002
 51
193.834985
  0
LINE
  8
ボルト／ビス
  6
CONTINUOUS
 62
    64
 10
160.490273
 20
57.559425
 11
160.501947
 21
57.5915
  0
ARC
  8
ボルト／ビス
  6
CONTINUOUS
 62
    64
 10
160.59525
 20
57.54339
 40
0.104978
 50
180.0
 51
207.278033
  0
LINE
  8
ボルト／ビス
  6
CONTINUOUS
 62
    64
 10
160.490273
 20
57.238675
 11
160.490273
 21
57.559425
  0
LINE
  8
ボルト／ビス
  6
CONTINUOUS
 62
    64
 10
160.501947
 20
57.5915
 11
160.623608
 21
57.5915
  0
LINE
  8
ボルト／ビス
  6
CONTINUOUS
 62
    64
 10
160.501947
 20
57.495275
 11
160.623608
 21
57.495275
  0
LINE
  8
ボルト／ビス
  6
CONTINUOUS
 62
    64
 10
160.501947
 20
57.2066
 11
160.623608
 21
57.2066
  0
LINE
  8
ボルト／ビス
  6
CONTINUOUS
 62
    64
 10
160.501947
 20
57.302825
 11
160.623608
 21
57.302825
  0
LINE
  8
ボルト／ビス
  6
CONTINUOUS
 10
160.623608
 20
57.2066
 11
160.623608
 21
57.5915
  0
LINE
  8
ボルト／ビス
  6
CONTINUOUS
 10
160.623608
 20
57.19905
 11
160.690272
 21
57.19905
  0
LINE
  8
ボルト／ビス
  6
CONTINUOUS
 10
160.623608
 20
57.19905
 11
160.623608
 21
57.59905
  0
LINE
  8
ボルト／ビス
  6
CONTINUOUS
 10
160.623608
 20
57.59905
 11
160.690272
 21
57.59905
  0
ENDBLK
  0
BLOCK
  2
*GRP_0034
 70
    65
 10
0.0
 20
0.0
  0
LINE
  8
ボルト／ビス
  6
CONTINUOUS
 10
160.790272
 20
12.73238
 11
160.323608
 21
12.73238
  0
LINE
  8
ボルト／ビス
  6
CONTINUOUS
 10
160.790272
 20
12.365715
 11
160.723608
 21
12.365715
  0
LINE
  8
ボルト／ビス
  6
CONTINUOUS
 10
160.723608
 20
12.365715
 11
160.723608
 21
13.099048
  0
LINE
  8
ボルト／ビス
  6
CONTINUOUS
 10
160.723608
 20
13.099048
 11
160.790272
 21
13.099048
  0
LINE
  8
ボルト／ビス
  6
CONTINUOUS
 10
160.790272
 20
12.365715
 11
160.790272
 21
13.099048
  0
LINE
  8
ボルト／ビス
  6
CONTINUOUS
 10
160.690272
 20
12.43238
 11
160.723608
 21
12.43238
  0
LINE
  8
ボルト／ビス
  6
CONTINUOUS
 10
160.690272
 20
12.43238
 11
160.690272
 21
13.03238
  0
LINE
  8
ボルト／ビス
  6
CONTINUOUS
 10
160.690272
 20
13.03238
 11
160.723608
 21
13.03238
  0
LINE
  8
ボルト／ビス
  6
CONTINUOUS
 62
    64
 10
160.490273
 20
12.572005
 11
160.501947
 21
12.53993
  0
ARC
  8
ボルト／ビス
  6
CONTINUOUS
 62
    64
 10
160.59525
 20
12.588045
 40
0.104978
 50
152.721967
 51
180.0
  0
ARC
  8
ボルト／ビス
  6
CONTINUOUS
 62
    64
 10
160.892674
 20
12.732382
 40
0.402402
 50
166.165002
 51
193.834985
  0
LINE
  8
ボルト／ビス
  6
CONTINUOUS
 62
    64
 10
160.490273
 20
12.892755
 11
160.501947
 21
12.92483
  0
ARC
  8
ボルト／ビス
  6
CONTINUOUS
 62
    64
 10
160.59525
 20
12.87672
 40
0.104978
 50
180.0
 51
207.278033
  0
LINE
  8
ボルト／ビス
  6
CONTINUOUS
 62
    64
 10
160.490273
 20
12.572005
 11
160.490273
 21
12.892755
  0
LINE
  8
ボルト／ビス
  6
CONTINUOUS
 62
    64
 10
160.501947
 20
12.92483
 11
160.623608
 21
12.92483
  0
LINE
  8
ボルト／ビス
  6
CONTINUOUS
 62
    64
 10
160.501947
 20
12.828605
 11
160.623608
 21
12.828605
  0
LINE
  8
ボルト／ビス
  6
CONTINUOUS
 62
    64
 10
160.501947
 20
12.53993
 11
160.623608
 21
12.53993
  0
LINE
  8
ボルト／ビス
  6
CONTINUOUS
 62
    64
 10
160.501947
 20
12.636155
 11
160.623608
 21
12.636155
  0
LINE
  8
ボルト／ビス
  6
CONTINUOUS
 10
160.623608
 20
12.53993
 11
160.623608
 21
12.92483
  0
LINE
  8
ボルト／ビス
  6
CONTINUOUS
 10
160.623608
 20
12.53238
 11
160.690272
 21
12.53238
  0
LINE
  8
ボルト／ビス
  6
CONTINUOUS
 10
160.623608
 20
12.53238
 11
160.623608
 21
12.93238
  0
LINE
  8
ボルト／ビス
  6
CONTINUOUS
 10
160.623608
 20
12.93238
 11
160.690272
 21
12.93238
  0
ENDBLK
  0
BLOCK
  2
*GRP_0035
 70
    65
 10
0.0
 20
0.0
  0
LINE
  8
ボルト／ビス
  6
CONTINUOUS
 10
71.923675
 20
-79.624597
 11
71.923675
 21
-79.157932
  0
LINE
  8
ボルト／ビス
  6
CONTINUOUS
 10
71.55701
 20
-79.624597
 11
71.55701
 21
-79.557932
  0
LINE
  8
ボルト／ビス
  6
CONTINUOUS
 10
71.55701
 20
-79.557932
 11
72.290343
 21
-79.557932
  0
LINE
  8
ボルト／ビス
  6
CONTINUOUS
 10
72.290343
 20
-79.557932
 11
72.290343
 21
-79.624597
  0
LINE
  8
ボルト／ビス
  6
CONTINUOUS
 10
71.55701
 20
-79.624597
 11
72.290343
 21
-79.624597
  0
LINE
  8
ボルト／ビス
  6
CONTINUOUS
 10
71.623675
 20
-79.524597
 11
71.623675
 21
-79.557932
  0
LINE
  8
ボルト／ビス
  6
CONTINUOUS
 10
71.623675
 20
-79.524597
 11
72.223675
 21
-79.524597
  0
LINE
  8
ボルト／ビス
  6
CONTINUOUS
 10
72.223675
 20
-79.524597
 11
72.223675
 21
-79.557932
  0
LINE
  8
ボルト／ビス
  6
CONTINUOUS
 62
    64
 10
71.7633
 20
-79.324597
 11
71.731225
 21
-79.336272
  0
ARC
  8
ボルト／ビス
  6
CONTINUOUS
 62
    64
 10
71.77934
 20
-79.429573
 40
0.104978
 50
62.721967
 51
90.0
  0
ARC
  8
ボルト／ビス
  6
CONTINUOUS
 62
    64
 10
71.923678
 20
-79.726996
 40
0.402402
 50
76.165002
 51
103.834985
  0
LINE
  8
ボルト／ビス
  6
CONTINUOUS
 62
    64
 10
72.08405
 20
-79.324597
 11
72.116125
 21
-79.336272
  0
ARC
  8
ボルト／ビス
  6
CONTINUOUS
 62
    64
 10
72.068016
 20
-79.429573
 40
0.104978
 50
90.0
 51
117.278033
  0
LINE
  8
ボルト／ビス
  6
CONTINUOUS
 62
    64
 10
71.7633
 20
-79.324597
 11
72.08405
 21
-79.324597
  0
LINE
  8
ボルト／ビス
  6
CONTINUOUS
 62
    64
 10
72.116125
 20
-79.336272
 11
72.116125
 21
-79.457932
  0
LINE
  8
ボルト／ビス
  6
CONTINUOUS
 62
    64
 10
72.0199
 20
-79.336272
 11
72.0199
 21
-79.457932
  0
LINE
  8
ボルト／ビス
  6
CONTINUOUS
 62
    64
 10
71.731225
 20
-79.336272
 11
71.731225
 21
-79.457932
  0
LINE
  8
ボルト／ビス
  6
CONTINUOUS
 62
    64
 10
71.82745
 20
-79.336272
 11
71.82745
 21
-79.457932
  0
LINE
  8
ボルト／ビス
  6
CONTINUOUS
 10
71.731225
 20
-79.457932
 11
72.116125
 21
-79.457932
  0
LINE
  8
ボルト／ビス
  6
CONTINUOUS
 10
71.723675
 20
-79.457932
 11
71.723675
 21
-79.524597
  0
LINE
  8
ボルト／ビス
  6
CONTINUOUS
 10
71.723675
 20
-79.457932
 11
72.123675
 21
-79.457932
  0
LINE
  8
ボルト／ビス
  6
CONTINUOUS
 10
72.123675
 20
-79.457932
 11
72.123675
 21
-79.524597
  0
ENDBLK
  0
BLOCK
  2
*GRP_0036
 70
    65
 10
0.0
 20
0.0
  0
LINE
  8
ボルト／ビス
  6
DOT
 10
71.923675
 20
-62.95793
 11
71.923675
 21
-62.491265
  0
LINE
  8
ボルト／ビス
  6
DOT
 10
71.55701
 20
-62.95793
 11
71.55701
 21
-62.891265
  0
LINE
  8
ボルト／ビス
  6
DOT
 10
71.55701
 20
-62.891265
 11
72.290343
 21
-62.891265
  0
LINE
  8
ボルト／ビス
  6
DOT
 10
72.290343
 20
-62.891265
 11
72.290343
 21
-62.95793
  0
LINE
  8
ボルト／ビス
  6
DOT
 10
71.55701
 20
-62.95793
 11
72.290343
 21
-62.95793
  0
LINE
  8
ボルト／ビス
  6
DOT
 10
71.623675
 20
-62.85793
 11
71.623675
 21
-62.891265
  0
LINE
  8
ボルト／ビス
  6
DOT
 10
71.623675
 20
-62.85793
 11
72.223675
 21
-62.85793
  0
LINE
  8
ボルト／ビス
  6
DOT
 10
72.223675
 20
-62.85793
 11
72.223675
 21
-62.891265
  0
LINE
  8
ボルト／ビス
  6
DOT
 62
    64
 10
71.7633
 20
-62.65793
 11
71.731225
 21
-62.669605
  0
ARC
  8
ボルト／ビス
  6
DOT
 62
    64
 10
71.779339
 20
-62.762906
 40
0.104978
 50
62.721967
 51
90.0
  0
ARC
  8
ボルト／ビス
  6
DOT
 62
    64
 10
71.923676
 20
-63.06033
 40
0.402402
 50
76.165002
 51
103.834985
  0
LINE
  8
ボルト／ビス
  6
DOT
 62
    64
 10
72.08405
 20
-62.65793
 11
72.116125
 21
-62.669605
  0
ARC
  8
ボルト／ビス
  6
DOT
 62
    64
 10
72.068014
 20
-62.762906
 40
0.104978
 50
90.0
 51
117.278033
  0
LINE
  8
ボルト／ビス
  6
DOT
 62
    64
 10
71.7633
 20
-62.65793
 11
72.08405
 21
-62.65793
  0
LINE
  8
ボルト／ビス
  6
DOT
 62
    64
 10
72.116125
 20
-62.669605
 11
72.116125
 21
-62.791265
  0
LINE
  8
ボルト／ビス
  6
DOT
 62
    64
 10
72.0199
 20
-62.669605
 11
72.0199
 21
-62.791265
  0
LINE
  8
ボルト／ビス
  6
DOT
 62
    64
 10
71.731225
 20
-62.669605
 11
71.731225
 21
-62.791265
  0
LINE
  8
ボルト／ビス
  6
DOT
 62
    64
 10
71.82745
 20
-62.669605
 11
71.82745
 21
-62.791265
  0
LINE
  8
ボルト／ビス
  6
DOT
 10
71.731225
 20
-62.791265
 11
72.116125
 21
-62.791265
  0
LINE
  8
ボルト／ビス
  6
DOT
 10
71.723675
 20
-62.791265
 11
71.723675
 21
-62.85793
  0
LINE
  8
ボルト／ビス
  6
DOT
 10
71.723675
 20
-62.791265
 11
72.123675
 21
-62.791265
  0
LINE
  8
ボルト／ビス
  6
DOT
 10
72.123675
 20
-62.791265
 11
72.123675
 21
-62.85793
  0
ENDBLK
  0
BLOCK
  2
*GRP_0037
 70
    65
 10
0.0
 20
0.0
  0
LINE
  8
ボルト／ビス
  6
CONTINUOUS
 10
-112.742995
 20
-79.624597
 11
-112.742995
 21
-79.157932
  0
LINE
  8
ボルト／ビス
  6
CONTINUOUS
 10
-113.10966
 20
-79.624597
 11
-113.10966
 21
-79.557932
  0
LINE
  8
ボルト／ビス
  6
CONTINUOUS
 10
-113.10966
 20
-79.557932
 11
-112.376328
 21
-79.557932
  0
LINE
  8
ボルト／ビス
  6
CONTINUOUS
 10
-112.376328
 20
-79.557932
 11
-112.376328
 21
-79.624597
  0
LINE
  8
ボルト／ビス
  6
CONTINUOUS
 10
-113.10966
 20
-79.624597
 11
-112.376328
 21
-79.624597
  0
LINE
  8
ボルト／ビス
  6
CONTINUOUS
 10
-113.042995
 20
-79.524597
 11
-113.042995
 21
-79.557932
  0
LINE
  8
ボルト／ビス
  6
CONTINUOUS
 10
-113.042995
 20
-79.524597
 11
-112.442995
 21
-79.524597
  0
LINE
  8
ボルト／ビス
  6
CONTINUOUS
 10
-112.442995
 20
-79.524597
 11
-112.442995
 21
-79.557932
  0
LINE
  8
ボルト／ビス
  6
CONTINUOUS
 62
    64
 10
-112.90337
 20
-79.324597
 11
-112.935445
 21
-79.336272
  0
ARC
  8
ボルト／ビス
  6
CONTINUOUS
 62
    64
 10
-112.88733
 20
-79.429573
 40
0.104978
 50
62.721967
 51
90.0
  0
ARC
  8
ボルト／ビス
  6
CONTINUOUS
 62
    64
 10
-112.742992
 20
-79.726996
 40
0.402402
 50
76.165002
 51
103.834985
  0
LINE
  8
ボルト／ビス
  6
CONTINUOUS
 62
    64
 10
-112.58262
 20
-79.324597
 11
-112.550545
 21
-79.336272
  0
ARC
  8
ボルト／ビス
  6
CONTINUOUS
 62
    64
 10
-112.598654
 20
-79.429573
 40
0.104978
 50
90.0
 51
117.278033
  0
LINE
  8
ボルト／ビス
  6
CONTINUOUS
 62
    64
 10
-112.90337
 20
-79.324597
 11
-112.58262
 21
-79.324597
  0
LINE
  8
ボルト／ビス
  6
CONTINUOUS
 62
    64
 10
-112.550545
 20
-79.336272
 11
-112.550545
 21
-79.457932
  0
LINE
  8
ボルト／ビス
  6
CONTINUOUS
 62
    64
 10
-112.64677
 20
-79.336272
 11
-112.64677
 21
-79.457932
  0
LINE
  8
ボルト／ビス
  6
CONTINUOUS
 62
    64
 10
-112.935445
 20
-79.336272
 11
-112.935445
 21
-79.457932
  0
LINE
  8
ボルト／ビス
  6
CONTINUOUS
 62
    64
 10
-112.83922
 20
-79.336272
 11
-112.83922
 21
-79.457932
  0
LINE
  8
ボルト／ビス
  6
CONTINUOUS
 10
-112.935445
 20
-79.457932
 11
-112.550545
 21
-79.457932
  0
LINE
  8
ボルト／ビス
  6
CONTINUOUS
 10
-112.942995
 20
-79.457932
 11
-112.942995
 21
-79.524597
  0
LINE
  8
ボルト／ビス
  6
CONTINUOUS
 10
-112.942995
 20
-79.457932
 11
-112.542995
 21
-79.457932
  0
LINE
  8
ボルト／ビス
  6
CONTINUOUS
 10
-112.542995
 20
-79.457932
 11
-112.542995
 21
-79.524597
  0
ENDBLK
  0
BLOCK
  2
*GRP_0038
 70
    65
 10
0.0
 20
0.0
  0
LINE
  8
ボルト／ビス
  6
DOT
 10
-112.742995
 20
-62.95793
 11
-112.742995
 21
-62.491265
  0
LINE
  8
ボルト／ビス
  6
DOT
 10
-113.10966
 20
-62.95793
 11
-113.10966
 21
-62.891265
  0
LINE
  8
ボルト／ビス
  6
DOT
 10
-113.10966
 20
-62.891265
 11
-112.376328
 21
-62.891265
  0
LINE
  8
ボルト／ビス
  6
DOT
 10
-112.376328
 20
-62.891265
 11
-112.376328
 21
-62.95793
  0
LINE
  8
ボルト／ビス
  6
DOT
 10
-113.10966
 20
-62.95793
 11
-112.376328
 21
-62.95793
  0
LINE
  8
ボルト／ビス
  6
DOT
 10
-113.042995
 20
-62.85793
 11
-113.042995
 21
-62.891265
  0
LINE
  8
ボルト／ビス
  6
DOT
 10
-113.042995
 20
-62.85793
 11
-112.442995
 21
-62.85793
  0
LINE
  8
ボルト／ビス
  6
DOT
 10
-112.442995
 20
-62.85793
 11
-112.442995
 21
-62.891265
  0
LINE
  8
ボルト／ビス
  6
DOT
 62
    64
 10
-112.90337
 20
-62.65793
 11
-112.935445
 21
-62.669605
  0
ARC
  8
ボルト／ビス
  6
DOT
 62
    64
 10
-112.887331
 20
-62.762906
 40
0.104978
 50
62.721967
 51
90.0
  0
ARC
  8
ボルト／ビス
  6
DOT
 62
    64
 10
-112.742994
 20
-63.06033
 40
0.402402
 50
76.165002
 51
103.834985
  0
LINE
  8
ボルト／ビス
  6
DOT
 62
    64
 10
-112.58262
 20
-62.65793
 11
-112.550545
 21
-62.669605
  0
ARC
  8
ボルト／ビス
  6
DOT
 62
    64
 10
-112.598656
 20
-62.762906
 40
0.104978
 50
90.0
 51
117.278033
  0
LINE
  8
ボルト／ビス
  6
DOT
 62
    64
 10
-112.90337
 20
-62.65793
 11
-112.58262
 21
-62.65793
  0
LINE
  8
ボルト／ビス
  6
DOT
 62
    64
 10
-112.550545
 20
-62.669605
 11
-112.550545
 21
-62.791265
  0
LINE
  8
ボルト／ビス
  6
DOT
 62
    64
 10
-112.64677
 20
-62.669605
 11
-112.64677
 21
-62.791265
  0
LINE
  8
ボルト／ビス
  6
DOT
 62
    64
 10
-112.935445
 20
-62.669605
 11
-112.935445
 21
-62.791265
  0
LINE
  8
ボルト／ビス
  6
DOT
 62
    64
 10
-112.83922
 20
-62.669605
 11
-112.83922
 21
-62.791265
  0
LINE
  8
ボルト／ビス
  6
DOT
 10
-112.935445
 20
-62.791265
 11
-112.550545
 21
-62.791265
  0
LINE
  8
ボルト／ビス
  6
DOT
 10
-112.942995
 20
-62.791265
 11
-112.942995
 21
-62.85793
  0
LINE
  8
ボルト／ビス
  6
DOT
 10
-112.942995
 20
-62.791265
 11
-112.542995
 21
-62.791265
  0
LINE
  8
ボルト／ビス
  6
DOT
 10
-112.542995
 20
-62.791265
 11
-112.542995
 21
-62.85793
  0
ENDBLK
  0
ENDSEC
  0
SECTION
  2
ENTITIES
  0
POLYLINE
  8
通り芯
  6
CONTINUOUS
 66
     1
 70
     1
  0
VERTEX
  8
通り芯
 10
-210.0
 20
-148.5
  0
VERTEX
  8
通り芯
 10
210.0
 20
-148.5
  0
VERTEX
  8
通り芯
 10
210.0
 20
148.5
  0
VERTEX
  8
通り芯
 10
-210.0
 20
148.5
  0
SEQEND
  0
INSERT
  2
*GRP_0001
  8
型材断面
  6
CONTINUOUS
 10
0.0
 20
0.0
  0
LINE
  8
型材断面
  6
DASHDOT
 10
71.257007
 20
-87.251428
 11
71.257007
 21
56.73238
  0
LINE
  8
型材断面
  6
DASHDOT
 10
-112.076325
 20
-87.251428
 11
-112.076325
 21
56.73238
  0
LINE
  8
型材断面
  6
DASHDOT
 10
-20.40966
 20
-87.251428
 11
-20.40966
 21
56.73238
  0
POLYLINE
  8
型材断面
  6
CONTINUOUS
 66
     1
 70
     1
  0
VERTEX
  8
型材断面
 10
-10.935852
 20
66.508305
  0
VERTEX
  8
型材断面
 10
-29.707783
 20
66.508305
  0
VERTEX
  8
型材断面
 10
-29.707783
 20
71.245147
  0
VERTEX
  8
型材断面
 10
-10.935852
 20
71.245147
  0
SEQEND
  0
POLYLINE
  8
型材断面
  6
CONTINUOUS
 66
     1
 70
     1
  0
VERTEX
  8
型材断面
 10
-10.935852
 20
3.623125
  0
VERTEX
  8
型材断面
 10
-29.707783
 20
3.623125
  0
VERTEX
  8
型材断面
 10
-29.707783
 20
-1.113717
  0
VERTEX
  8
型材断面
 10
-10.935852
 20
-1.113717
  0
SEQEND
  0
LINE
  8
型材断面
  6
DASHDOT
 10
168.93377
 20
56.73238
 11
-112.076325
 21
56.73238
  0
LINE
  8
型材断面
  6
DASHDOT
 10
168.93377
 20
13.399048
 11
-112.076325
 21
13.399048
  0
LINE
  8
型材断面
  6
DASHDOT
 10
168.93377
 20
35.065715
 11
-112.076325
 21
35.065715
  0
LINE
  8
型材断面
  6
CONTINUOUS
 10
-114.706455
 20
35.065715
 11
-117.296962
 21
36.561345
  0
LINE
  8
型材断面
  6
CONTINUOUS
 10
-114.706455
 20
35.065715
 11
-117.296962
 21
33.570085
  0
LINE
  8
型材断面
  6
CONTINUOUS
 10
-117.296962
 20
33.570085
 11
-117.296962
 21
36.561345
  0
LINE
  8
型材断面
  6
CONTINUOUS
 10
-95.409657
 20
59.36251
 11
-96.905288
 21
61.953017
  0
LINE
  8
型材断面
  6
CONTINUOUS
 10
-95.409657
 20
59.36251
 11
-93.914027
 21
61.953017
  0
LINE
  8
型材断面
  6
CONTINUOUS
 10
-93.914027
 20
61.953017
 11
-96.905288
 21
61.953017
  0
LINE
  8
型材断面
  6
CONTINUOUS
 10
-152.928532
 20
94.709852
 11
-152.332478
 21
92.119345
  0
LINE
  8
型材断面
  6
CONTINUOUS
 10
-152.928532
 20
94.709852
 11
-153.52459
 21
92.119345
  0
LINE
  8
型材断面
  6
CONTINUOUS
 10
-153.52459
 20
92.119345
 11
-152.332478
 21
92.119345
  0
LINE
  8
型材断面
  6
CONTINUOUS
 10
-158.95112
 20
88.840452
 11
-112.709343
 21
88.840452
  0
LINE
  8
型材断面
  6
CONTINUOUS
 10
-152.928532
 20
101.239727
 11
-154.424162
 21
98.64922
  0
LINE
  8
型材断面
  6
CONTINUOUS
 10
-152.928532
 20
101.239727
 11
-151.432903
 21
98.64922
  0
LINE
  8
型材断面
  6
CONTINUOUS
 10
-151.432903
 20
98.64922
 11
-154.424162
 21
98.64922
  0
LINE
  8
型材断面
  6
CONTINUOUS
 10
-158.95112
 20
97.710625
 11
-112.709343
 21
97.710625
  0
LINE
  8
型材断面
  6
CONTINUOUS
 10
-158.95112
 20
83.05242
 11
-112.709343
 21
83.05242
  0
LINE
  8
型材断面
  6
CONTINUOUS
 10
-95.409657
 20
10.76892
 11
-96.905288
 21
8.178413
  0
LINE
  8
型材断面
  6
CONTINUOUS
 10
-95.409657
 20
10.76892
 11
-93.914027
 21
8.178413
  0
LINE
  8
型材断面
  6
CONTINUOUS
 10
-93.914027
 20
8.178413
 11
-96.905288
 21
8.178413
  0
LINE
  8
型材断面
  6
CONTINUOUS
 10
73.887135
 20
35.065715
 11
76.477643
 21
36.561345
  0
LINE
  8
型材断面
  6
CONTINUOUS
 10
73.887135
 20
35.065715
 11
76.477643
 21
33.570085
  0
LINE
  8
型材断面
  6
CONTINUOUS
 10
76.477643
 20
33.570085
 11
76.477643
 21
36.561345
  0
LINE
  8
型材断面
  6
CONTINUOUS
 10
54.590337
 20
59.36251
 11
56.085967
 21
61.953017
  0
LINE
  8
型材断面
  6
CONTINUOUS
 10
54.590337
 20
59.36251
 11
53.094708
 21
61.953017
  0
LINE
  8
型材断面
  6
CONTINUOUS
 10
53.094708
 20
61.953017
 11
56.085967
 21
61.953017
  0
LINE
  8
型材断面
  6
CONTINUOUS
 10
54.590337
 20
10.76892
 11
56.085967
 21
8.178413
  0
LINE
  8
型材断面
  6
CONTINUOUS
 10
54.590337
 20
10.76892
 11
53.094708
 21
8.178413
  0
LINE
  8
型材断面
  6
CONTINUOUS
 10
53.094708
 20
8.178413
 11
56.085967
 21
8.178413
  0
LINE
  8
型材断面
  6
CONTINUOUS
 10
-20.40966
 20
59.36251
 11
-21.90529
 21
61.953017
  0
LINE
  8
型材断面
  6
CONTINUOUS
 10
-20.40966
 20
59.36251
 11
-18.91403
 21
61.953017
  0
LINE
  8
型材断面
  6
CONTINUOUS
 10
-18.91403
 20
61.953017
 11
-21.90529
 21
61.953017
  0
LINE
  8
型材断面
  6
CONTINUOUS
 10
-20.40966
 20
10.76892
 11
-21.90529
 21
8.178413
  0
LINE
  8
型材断面
  6
CONTINUOUS
 10
-20.40966
 20
10.76892
 11
-18.91403
 21
8.178413
  0
LINE
  8
型材断面
  6
CONTINUOUS
 10
-18.91403
 20
8.178413
 11
-21.90529
 21
8.178413
  0
LINE
  8
型材断面
  6
DASHDOT
 10
161.823558
 20
13.399045
 11
167.843622
 21
13.399045
  0
LINE
  8
型材断面
  6
CONTINUOUS
 62
    47
 10
164.10689
 20
12.00238
 11
164.10689
 21
12.78238
  0
LINE
  8
型材断面
  6
CONTINUOUS
 10
162.273558
 20
11.90238
 11
161.823558
 21
11.90238
  0
LINE
  8
型材断面
  6
CONTINUOUS
 62
    47
 10
164.94625
 20
11.119045
 11
164.612915
 21
11.119045
  0
LINE
  8
型材断面
  6
CONTINUOUS
 62
    47
 10
164.612915
 20
11.119045
 11
164.512915
 21
11.90238
  0
LINE
  8
型材断面
  6
CONTINUOUS
 62
    47
 10
164.10689
 20
11.90238
 11
164.512915
 21
11.90238
  0
LINE
  8
型材断面
  6
CONTINUOUS
 62
    47
 10
164.10689
 20
11.43238
 11
162.273558
 21
11.43238
  0
LINE
  8
型材断面
  6
CONTINUOUS
 62
    47
 10
168.073558
 20
11.999045
 11
167.573558
 21
11.999045
  0
LINE
  8
型材断面
  6
CONTINUOUS
 62
    47
 10
167.573558
 20
11.43238
 11
164.94625
 21
11.43238
  0
LINE
  8
型材断面
  6
CONTINUOUS
 10
162.273558
 20
11.43238
 11
162.273558
 21
35.065715
  0
LINE
  8
型材断面
  6
CONTINUOUS
 62
    47
 10
164.10689
 20
11.43238
 11
164.10689
 21
35.065715
  0
LINE
  8
型材断面
  6
CONTINUOUS
 10
164.512915
 20
11.90238
 11
164.512915
 21
35.065715
  0
LINE
  8
型材断面
  6
CONTINUOUS
 10
164.612915
 20
11.119045
 11
164.612915
 21
35.065715
  0
LINE
  8
型材断面
  6
CONTINUOUS
 62
    47
 10
164.94625
 20
11.119045
 11
164.94625
 21
35.065715
  0
LINE
  8
型材断面
  6
CONTINUOUS
 62
    47
 10
167.573558
 20
11.43238
 11
167.573558
 21
35.065715
  0
LINE
  8
型材断面
  6
CONTINUOUS
 62
    47
 10
168.073558
 20
11.999045
 11
168.073558
 21
35.065715
  0
LINE
  8
型材断面
  6
CONTINUOUS
 10
162.273558
 20
58.22905
 11
161.823558
 21
58.22905
  0
LINE
  8
型材断面
  6
CONTINUOUS
 62
    47
 10
164.94625
 20
59.012385
 11
164.612915
 21
59.012385
  0
LINE
  8
型材断面
  6
CONTINUOUS
 62
    47
 10
164.612915
 20
59.012385
 11
164.512915
 21
58.22905
  0
LINE
  8
型材断面
  6
CONTINUOUS
 62
    47
 10
164.10689
 20
58.22905
 11
164.512915
 21
58.22905
  0
LINE
  8
型材断面
  6
CONTINUOUS
 62
    47
 10
164.10689
 20
58.69905
 11
162.273558
 21
58.69905
  0
LINE
  8
型材断面
  6
CONTINUOUS
 62
    47
 10
168.073558
 20
58.132385
 11
167.573558
 21
58.132385
  0
LINE
  8
型材断面
  6
CONTINUOUS
 62
    47
 10
167.573558
 20
58.69905
 11
164.94625
 21
58.69905
  0
LINE
  8
型材断面
  6
CONTINUOUS
 10
162.273558
 20
58.69905
 11
162.273558
 21
35.065715
  0
LINE
  8
型材断面
  6
CONTINUOUS
 62
    47
 10
164.10689
 20
58.69905
 11
164.10689
 21
35.065715
  0
LINE
  8
型材断面
  6
CONTINUOUS
 10
164.512915
 20
58.22905
 11
164.512915
 21
35.065715
  0
LINE
  8
型材断面
  6
CONTINUOUS
 10
164.612915
 20
59.012385
 11
164.612915
 21
35.065715
  0
LINE
  8
型材断面
  6
CONTINUOUS
 62
    47
 10
164.94625
 20
59.012385
 11
164.94625
 21
35.065715
  0
LINE
  8
型材断面
  6
CONTINUOUS
 62
    47
 10
167.573558
 20
58.69905
 11
167.573558
 21
35.065715
  0
LINE
  8
型材断面
  6
CONTINUOUS
 62
    47
 10
168.073558
 20
58.132385
 11
168.073558
 21
35.065715
  0
LINE
  8
型材断面
  6
CONTINUOUS
 62
    47
 10
72.653675
 20
-82.941215
 11
71.873675
 21
-82.941215
  0
LINE
  8
型材断面
  6
CONTINUOUS
 10
72.753675
 20
-81.107882
 11
72.753675
 21
-80.657882
  0
LINE
  8
型材断面
  6
CONTINUOUS
 62
    47
 10
73.53701
 20
-83.780575
 11
73.53701
 21
-83.44724
  0
LINE
  8
型材断面
  6
CONTINUOUS
 62
    47
 10
73.53701
 20
-83.44724
 11
72.753675
 21
-83.34724
  0
LINE
  8
型材断面
  6
CONTINUOUS
 62
    47
 10
72.753675
 20
-82.941215
 11
72.753675
 21
-83.34724
  0
LINE
  8
型材断面
  6
CONTINUOUS
 62
    47
 10
73.223675
 20
-82.941215
 11
73.223675
 21
-81.107882
  0
LINE
  8
型材断面
  6
CONTINUOUS
 62
    47
 10
72.65701
 20
-86.907882
 11
72.65701
 21
-86.407882
  0
LINE
  8
型材断面
  6
CONTINUOUS
 62
    47
 10
73.223675
 20
-86.407882
 11
73.223675
 21
-83.780575
  0
LINE
  8
型材断面
  6
CONTINUOUS
 10
73.223675
 20
-81.107882
 11
-20.40966
 21
-81.107882
  0
LINE
  8
型材断面
  6
CONTINUOUS
 62
    47
 10
73.53701
 20
-83.780575
 11
-20.40966
 21
-83.780575
  0
LINE
  8
型材断面
  6
CONTINUOUS
 62
    47
 10
73.223675
 20
-82.941215
 11
-20.40966
 21
-82.941215
  0
LINE
  8
型材断面
  6
CONTINUOUS
 10
72.753675
 20
-83.34724
 11
-20.40966
 21
-83.34724
  0
LINE
  8
型材断面
  6
CONTINUOUS
 10
73.53701
 20
-83.44724
 11
-20.40966
 21
-83.44724
  0
LINE
  8
型材断面
  6
CONTINUOUS
 62
    47
 10
72.65701
 20
-86.907882
 11
-20.40966
 21
-86.907882
  0
LINE
  8
型材断面
  6
CONTINUOUS
 62
    47
 10
73.223675
 20
-86.407882
 11
-20.40966
 21
-86.407882
  0
LINE
  8
型材断面
  6
CONTINUOUS
 62
    47
 10
-113.472995
 20
-82.941215
 11
-112.692995
 21
-82.941215
  0
LINE
  8
型材断面
  6
CONTINUOUS
 10
-113.572995
 20
-81.107882
 11
-113.572995
 21
-80.657882
  0
LINE
  8
型材断面
  6
CONTINUOUS
 62
    47
 10
-114.35633
 20
-83.780575
 11
-114.35633
 21
-83.44724
  0
LINE
  8
型材断面
  6
CONTINUOUS
 62
    47
 10
-114.35633
 20
-83.44724
 11
-113.572995
 21
-83.34724
  0
LINE
  8
型材断面
  6
CONTINUOUS
 62
    47
 10
-113.572995
 20
-82.941215
 11
-113.572995
 21
-83.34724
  0
LINE
  8
型材断面
  6
CONTINUOUS
 62
    47
 10
-114.042995
 20
-82.941215
 11
-114.042995
 21
-81.107882
  0
LINE
  8
型材断面
  6
CONTINUOUS
 62
    47
 10
-113.47633
 20
-86.907882
 11
-113.47633
 21
-86.407882
  0
LINE
  8
型材断面
  6
CONTINUOUS
 62
    47
 10
-114.042995
 20
-86.407882
 11
-114.042995
 21
-83.780575
  0
LINE
  8
型材断面
  6
CONTINUOUS
 10
-114.042995
 20
-81.107882
 11
-20.40966
 21
-81.107882
  0
LINE
  8
型材断面
  6
CONTINUOUS
 62
    47
 10
-114.35633
 20
-83.780575
 11
-20.40966
 21
-83.780575
  0
LINE
  8
型材断面
  6
CONTINUOUS
 62
    47
 10
-114.042995
 20
-82.941215
 11
-20.40966
 21
-82.941215
  0
LINE
  8
型材断面
  6
CONTINUOUS
 10
-113.572995
 20
-83.34724
 11
-20.40966
 21
-83.34724
  0
LINE
  8
型材断面
  6
CONTINUOUS
 10
-114.35633
 20
-83.44724
 11
-20.40966
 21
-83.44724
  0
LINE
  8
型材断面
  6
CONTINUOUS
 62
    47
 10
-113.47633
 20
-86.907882
 11
-20.40966
 21
-86.907882
  0
LINE
  8
型材断面
  6
CONTINUOUS
 62
    47
 10
-114.042995
 20
-86.407882
 11
-20.40966
 21
-86.407882
  0
LINE
  8
型材断面
  6
DOT
 62
    47
 10
72.653675
 20
-66.274547
 11
71.873675
 21
-66.274547
  0
LINE
  8
型材断面
  6
DOT
 10
72.753675
 20
-64.441215
 11
72.753675
 21
-63.991215
  0
LINE
  8
型材断面
  6
DOT
 62
    47
 10
73.53701
 20
-67.113908
 11
73.53701
 21
-66.780573
  0
LINE
  8
型材断面
  6
DOT
 62
    47
 10
73.53701
 20
-66.780573
 11
72.753675
 21
-66.680573
  0
LINE
  8
型材断面
  6
DOT
 62
    47
 10
72.753675
 20
-66.274547
 11
72.753675
 21
-66.680573
  0
LINE
  8
型材断面
  6
DOT
 62
    47
 10
73.223675
 20
-66.274547
 11
73.223675
 21
-64.441215
  0
LINE
  8
型材断面
  6
DOT
 10
73.223675
 20
-64.441215
 11
-20.40966
 21
-64.441215
  0
LINE
  8
型材断面
  6
DOT
 62
    47
 10
73.53701
 20
-67.113908
 11
-20.40966
 21
-67.113908
  0
LINE
  8
型材断面
  6
DOT
 62
    47
 10
73.223675
 20
-66.274547
 11
-20.40966
 21
-66.274547
  0
LINE
  8
型材断面
  6
DOT
 10
72.753675
 20
-66.680573
 11
-20.40966
 21
-66.680573
  0
LINE
  8
型材断面
  6
DOT
 10
73.53701
 20
-66.780573
 11
-20.40966
 21
-66.780573
  0
LINE
  8
型材断面
  6
DOT
 62
    47
 10
-113.472995
 20
-66.274547
 11
-112.692995
 21
-66.274547
  0
LINE
  8
型材断面
  6
DOT
 10
-113.572995
 20
-64.441215
 11
-113.572995
 21
-63.991215
  0
LINE
  8
型材断面
  6
DOT
 62
    47
 10
-114.35633
 20
-67.113908
 11
-114.35633
 21
-66.780573
  0
LINE
  8
型材断面
  6
DOT
 62
    47
 10
-114.35633
 20
-66.780573
 11
-113.572995
 21
-66.680573
  0
LINE
  8
型材断面
  6
DOT
 62
    47
 10
-113.572995
 20
-66.274547
 11
-113.572995
 21
-66.680573
  0
LINE
  8
型材断面
  6
DOT
 62
    47
 10
-114.042995
 20
-66.274547
 11
-114.042995
 21
-64.441215
  0
LINE
  8
型材断面
  6
DOT
 10
-114.042995
 20
-64.441215
 11
-20.40966
 21
-64.441215
  0
LINE
  8
型材断面
  6
DOT
 62
    47
 10
-114.35633
 20
-67.113908
 11
-20.40966
 21
-67.113908
  0
LINE
  8
型材断面
  6
DOT
 62
    47
 10
-114.042995
 20
-66.274547
 11
-20.40966
 21
-66.274547
  0
LINE
  8
型材断面
  6
DOT
 10
-113.572995
 20
-66.680573
 11
-20.40966
 21
-66.680573
  0
LINE
  8
型材断面
  6
DOT
 10
-114.35633
 20
-66.780573
 11
-20.40966
 21
-66.780573
  0
LINE
  8
型材断面
  6
CONTINUOUS
 10
73.323675
 20
58.79905
 11
73.53701
 21
59.012385
  0
LINE
  8
型材断面
  6
CONTINUOUS
 10
73.53701
 20
59.012385
 11
73.53701
 21
35.065715
  0
LINE
  8
型材断面
  6
CONTINUOUS
 10
73.53701
 20
59.012385
 11
-20.40966
 21
59.012385
  0
LINE
  8
型材断面
  6
CONTINUOUS
 10
-114.142995
 20
58.79905
 11
-114.35633
 21
59.012385
  0
LINE
  8
型材断面
  6
CONTINUOUS
 10
-114.35633
 20
59.012385
 11
-114.35633
 21
35.065715
  0
LINE
  8
型材断面
  6
CONTINUOUS
 10
-114.35633
 20
59.012385
 11
-20.40966
 21
59.012385
  0
LINE
  8
型材断面
  6
CONTINUOUS
 10
-114.142995
 20
11.33238
 11
-114.35633
 21
11.119045
  0
LINE
  8
型材断面
  6
CONTINUOUS
 10
-114.35633
 20
11.119045
 11
-114.35633
 21
35.065715
  0
LINE
  8
型材断面
  6
CONTINUOUS
 10
-114.35633
 20
11.119045
 11
-20.40966
 21
11.119045
  0
LINE
  8
型材断面
  6
CONTINUOUS
 10
73.323675
 20
11.33238
 11
73.53701
 21
11.119045
  0
LINE
  8
型材断面
  6
CONTINUOUS
 10
73.53701
 20
11.119045
 11
73.53701
 21
35.065715
  0
LINE
  8
型材断面
  6
CONTINUOUS
 10
73.53701
 20
11.119045
 11
-20.40966
 21
11.119045
  0
LINE
  8
型材断面
  6
CONTINUOUS
 10
73.887135
 20
52.83238
 11
76.477643
 21
52.236322
  0
LINE
  8
型材断面
  6
CONTINUOUS
 10
73.887135
 20
52.83238
 11
76.477643
 21
53.428437
  0
LINE
  8
型材断面
  6
CONTINUOUS
 10
76.477643
 20
53.428437
 11
76.477643
 21
52.236322
  0
LINE
  8
型材断面
  6
CONTINUOUS
 10
73.887135
 20
17.29905
 11
76.477643
 21
17.895108
  0
LINE
  8
型材断面
  6
CONTINUOUS
 10
73.887135
 20
17.29905
 11
76.477643
 21
16.702993
  0
LINE
  8
型材断面
  6
CONTINUOUS
 10
76.477643
 20
16.702993
 11
76.477643
 21
17.895108
  0
LINE
  8
型材断面
  6
CONTINUOUS
 10
-114.706455
 20
52.83238
 11
-117.296962
 21
52.236322
  0
LINE
  8
型材断面
  6
CONTINUOUS
 10
-114.706455
 20
52.83238
 11
-117.296962
 21
53.428437
  0
LINE
  8
型材断面
  6
CONTINUOUS
 10
-117.296962
 20
53.428437
 11
-117.296962
 21
52.236322
  0
LINE
  8
型材断面
  6
CONTINUOUS
 10
-114.706455
 20
17.29905
 11
-117.296962
 21
17.895108
  0
LINE
  8
型材断面
  6
CONTINUOUS
 10
-114.706455
 20
17.29905
 11
-117.296962
 21
16.702993
  0
LINE
  8
型材断面
  6
CONTINUOUS
 10
-117.296962
 20
16.702993
 11
-117.296962
 21
17.895108
  0
INSERT
  2
*GRP_0019
  8
型材断面
  6
CONTINUOUS
 10
0.0
 20
0.0
  0
INSERT
  2
*GRP_0020
  8
型材断面
  6
CONTINUOUS
 10
0.0
 20
0.0
  0
INSERT
  2
*GRP_0021
  8
型材断面
  6
CONTINUOUS
 10
0.0
 20
0.0
  0
INSERT
  2
*GRP_0022
  8
型材断面
  6
CONTINUOUS
 10
0.0
 20
0.0
  0
INSERT
  2
*GRP_0023
  8
型材断面
  6
CONTINUOUS
 10
0.0
 20
0.0
  0
INSERT
  2
*GRP_0024
  8
型材断面
  6
CONTINUOUS
 10
0.0
 20
0.0
  0
LINE
  8
型材断面
  6
CONTINUOUS
 10
-158.95112
 20
77.264387
 11
-112.709343
 21
77.264387
  0
LINE
  8
型材断面
  6
DASHDOT
 10
-75.61366
 20
13.399048
 11
-75.61366
 21
56.73238
  0
LINE
  8
型材断面
  6
DOT
 10
-74.36366
 20
13.399048
 11
-74.36366
 21
56.73238
  0
LINE
  8
型材断面
  6
DOT
 10
-76.86366
 20
13.399048
 11
-76.86366
 21
56.73238
  0
LINE
  8
型材断面
  6
DASHDOT
 10
-38.810995
 20
13.399048
 11
-38.810995
 21
56.73238
  0
LINE
  8
型材断面
  6
DOT
 10
-37.560995
 20
13.399048
 11
-37.560995
 21
56.73238
  0
LINE
  8
型材断面
  6
DOT
 10
-40.060995
 20
13.399048
 11
-40.060995
 21
56.73238
  0
LINE
  8
型材断面
  6
DASHDOT
 10
34.79434
 20
13.399048
 11
34.79434
 21
56.73238
  0
LINE
  8
型材断面
  6
DOT
 10
33.54434
 20
13.399048
 11
33.54434
 21
56.73238
  0
LINE
  8
型材断面
  6
DOT
 10
36.04434
 20
13.399048
 11
36.04434
 21
56.73238
  0
LINE
  8
型材断面
  6
DASHDOT
 10
-2.008325
 20
13.399048
 11
-2.008325
 21
56.73238
  0
LINE
  8
型材断面
  6
DOT
 10
-3.258325
 20
13.399048
 11
-3.258325
 21
56.73238
  0
LINE
  8
型材断面
  6
DOT
 10
-0.758325
 20
13.399048
 11
-0.758325
 21
56.73238
  0
TEXT
  7
TextStyle03
  8
文字
  6
CONTINUOUS
 10
-28.625
 20
67.2
  1
可動装置側
 40
3.0
 72
     5
 11
-12.125
 21
67.2
  0
TEXT
  7
TextStyle03
  8
文字
  6
CONTINUOUS
 10
-28.625
 20
-0.075
  1
可動装置側
 40
3.0
 72
     5
 11
-12.125
 21
-0.075
  0
TEXT
  7
TextStyle03
  8
文字
  6
CONTINUOUS
 10
-149.55
 20
23.975
  1
アンカーピッチ
 40
3.0
 50
90.0
 72
     5
 11
-149.55
 21
47.225
  0
TEXT
  7
TextStyle03
  8
文字
  6
CONTINUOUS
 10
-150.125
 20
93.325
  1
はケーシング位置を示す
 40
3.0
 72
     5
 11
-113.375
 21
93.325
  0
TEXT
  7
TextStyle03
  8
文字
  6
CONTINUOUS
 10
-150.125
 20
89.95
  1
４ヶ所中1ヶ所に設定
 40
3.0
 72
     5
 11
-118.4375
 21
89.95
  0
TEXT
  7
TextStyle03
  8
文字
  6
CONTINUOUS
 10
-150.125
 20
98.85
  1
は排水穴位置を示す
 40
3.0
 72
     5
 11
-120.125
 21
98.85
  0
TEXT
  7
TextStyle03
  8
文字
  6
CONTINUOUS
 10
-98.025
 20
93.125
  1
アンカーピッチ
 40
3.0
 72
     5
 11
-74.775
 21
93.125
  0
TEXT
  7
TextStyle03
  8
文字
  6
CONTINUOUS
 10
136.65
 20
-86.1
  1
網入り6.8t
 40
3.0
 72
     5
 11
153.3375
 21
-86.1
  0
TEXT
  7
TextStyle03
  8
文字
  6
CONTINUOUS
 10
143.325
 20
-90.775
  1
×５枚
 40
3.0
 72
     5
 11
153.075
 21
-90.775
  0
TEXT
  7
TextStyle03
  8
文字
  6
CONTINUOUS
 10
-153.85
 20
83.975
  1
アンカー数量　１８ヶ所
 40
3.0
 72
     5
 11
-117.1
 21
83.975
  0
TEXT
  7
TextStyle03
  8
文字
  6
CONTINUOUS
 10
-158.85
 20
73.25
  1
※重量に依るのでご相談ください
 40
3.0
 72
     5
 11
-108.6
 21
73.25
  0
TEXT
  7
TextStyle03
  8
文字
  6
CONTINUOUS
 10
-158.85
 20
78.2
  1
アームユニット数　※６～８ヶ所
 40
3.0
 72
     5
 11
-108.6
 21
78.2
  0
TEXT
  7
TextStyle03
  8
文字
  6
CONTINUOUS
 10
78.1
 20
125.25
  1
シリーズ：ＳＴＤＬ
 40
5.0
 72
     5
 11
128.1
 21
125.25
  0
TEXT
  7
TextStyle03
  8
文字
  6
CONTINUOUS
 10
78.1
 20
119.625
  1
　　　　　（上下可動）1300×5500タイプ
 40
5.0
 72
     5
 11
184.35
 21
119.625
  0
TEXT
  7
TextStyle03
  8
文字
  6
CONTINUOUS
 10
78.1
 20
114.0
  1
図面名　：外観姿図
 40
5.0
 72
     5
 11
128.1
 21
114.0
  0
TEXT
  7
TextStyle03
  8
文字
  6
CONTINUOUS
 10
78.1
 20
108.375
  1
　　　　　　
 40
5.0
 72
     5
 11
111.225
 21
108.375
  0
TEXT
  7
TextStyle03
  8
文字
  6
CONTINUOUS
 10
77.425
 20
103.975
  1
ＮＳコード：ＮＳＤＳＬ
 40
5.0
 72
     5
 11
138.675
 21
103.975
  0
INSERT
  2
*DIM_0002
  8
寸法
  6
CONTINUOUS
 10
0.0
 20
0.0
  0
INSERT
  2
*DIM_0003
  8
寸法
  6
CONTINUOUS
 10
0.0
 20
0.0
  0
INSERT
  2
*DIM_0004
  8
寸法
  6
CONTINUOUS
 10
0.0
 20
0.0
  0
INSERT
  2
*DIM_0005
  8
寸法
  6
CONTINUOUS
 10
0.0
 20
0.0
  0
INSERT
  2
*DIM_0006
  8
寸法
  6
CONTINUOUS
 10
0.0
 20
0.0
  0
INSERT
  2
*DIM_0007
  8
寸法
  6
CONTINUOUS
 10
0.0
 20
0.0
  0
INSERT
  2
*DIM_0008
  8
寸法
  6
CONTINUOUS
 10
0.0
 20
0.0
  0
INSERT
  2
*DIM_0009
  8
寸法
  6
CONTINUOUS
 10
0.0
 20
0.0
  0
INSERT
  2
*DIM_0010
  8
寸法
  6
CONTINUOUS
 10
0.0
 20
0.0
  0
INSERT
  2
*DIM_0011
  8
寸法
  6
CONTINUOUS
 10
0.0
 20
0.0
  0
INSERT
  2
*DIM_0012
  8
寸法
  6
CONTINUOUS
 10
0.0
 20
0.0
  0
INSERT
  2
*DIM_0013
  8
寸法
  6
CONTINUOUS
 10
0.0
 20
0.0
  0
INSERT
  2
*DIM_0014
  8
寸法
  6
CONTINUOUS
 10
0.0
 20
0.0
  0
INSERT
  2
*DIM_0015
  8
寸法
  6
CONTINUOUS
 10
0.0
 20
0.0
  0
INSERT
  2
*DIM_0016
  8
寸法
  6
CONTINUOUS
 10
0.0
 20
0.0
  0
INSERT
  2
*DIM_0017
  8
寸法
  6
CONTINUOUS
 10
0.0
 20
0.0
  0
INSERT
  2
*DIM_0025
  8
寸法
  6
CONTINUOUS
 10
0.0
 20
0.0
  0
INSERT
  2
*DIM_0026
  8
寸法
  6
CONTINUOUS
 10
0.0
 20
0.0
  0
INSERT
  2
*DIM_0027
  8
寸法
  6
CONTINUOUS
 10
0.0
 20
0.0
  0
INSERT
  2
*DIM_0028
  8
寸法
  6
CONTINUOUS
 10
0.0
 20
0.0
  0
INSERT
  2
*DIM_0029
  8
寸法
  6
CONTINUOUS
 10
0.0
 20
0.0
  0
INSERT
  2
*DIM_0030
  8
寸法
  6
CONTINUOUS
 10
0.0
 20
0.0
  0
INSERT
  2
*DIM_0031
  8
寸法
  6
CONTINUOUS
 10
0.0
 20
0.0
  0
INSERT
  2
*DIM_0032
  8
寸法
  6
CONTINUOUS
 10
0.0
 20
0.0
  0
LINE
  8
別途部材
  6
CONTINUOUS
 10
73.323675
 20
11.33238
 11
72.923675
 21
11.73238
  0
LINE
  8
別途部材
  6
CONTINUOUS
 10
71.257007
 20
13.399048
 11
63.197753
 21
21.458305
  0
LINE
  8
別途部材
  6
CONTINUOUS
 10
72.923675
 20
11.73238
 11
72.923675
 21
35.065715
  0
LINE
  8
別途部材
  6
CONTINUOUS
 10
73.323675
 20
11.33238
 11
73.323675
 21
35.065715
  0
LINE
  8
別途部材
  6
CONTINUOUS
 10
73.323675
 20
58.79905
 11
72.923675
 21
58.39905
  0
LINE
  8
別途部材
  6
CONTINUOUS
 10
71.257007
 20
56.732382
 11
63.197753
 21
48.673125
  0
LINE
  8
別途部材
  6
CONTINUOUS
 10
72.923675
 20
58.39905
 11
72.923675
 21
35.065715
  0
LINE
  8
別途部材
  6
CONTINUOUS
 10
73.323675
 20
58.79905
 11
73.323675
 21
35.065715
  0
LINE
  8
別途部材
  6
CONTINUOUS
 10
73.323675
 20
58.79905
 11
-20.40966
 21
58.79905
  0
LINE
  8
別途部材
  6
CONTINUOUS
 10
72.923675
 20
58.39905
 11
-20.40966
 21
58.39905
  0
LINE
  8
別途部材
  6
CONTINUOUS
 10
72.923675
 20
11.73238
 11
-20.40966
 21
11.73238
  0
LINE
  8
別途部材
  6
CONTINUOUS
 10
73.323675
 20
11.33238
 11
-20.40966
 21
11.33238
  0
LINE
  8
別途部材
  6
CONTINUOUS
 10
-114.142995
 20
11.33238
 11
-113.742995
 21
11.73238
  0
LINE
  8
別途部材
  6
CONTINUOUS
 10
-112.076328
 20
13.399048
 11
-104.017073
 21
21.458305
  0
LINE
  8
別途部材
  6
CONTINUOUS
 10
-113.742995
 20
11.73238
 11
-113.742995
 21
35.065715
  0
LINE
  8
別途部材
  6
CONTINUOUS
 10
-114.142995
 20
11.33238
 11
-114.142995
 21
35.065715
  0
LINE
  8
別途部材
  6
CONTINUOUS
 10
-114.142995
 20
58.79905
 11
-113.742995
 21
58.39905
  0
LINE
  8
別途部材
  6
CONTINUOUS
 10
-112.076328
 20
56.732382
 11
-104.017073
 21
48.673125
  0
LINE
  8
別途部材
  6
CONTINUOUS
 10
-113.742995
 20
58.39905
 11
-113.742995
 21
35.065715
  0
LINE
  8
別途部材
  6
CONTINUOUS
 10
-114.142995
 20
58.79905
 11
-114.142995
 21
35.065715
  0
LINE
  8
別途部材
  6
CONTINUOUS
 10
-114.142995
 20
58.79905
 11
-20.40966
 21
58.79905
  0
LINE
  8
別途部材
  6
CONTINUOUS
 10
-113.742995
 20
58.39905
 11
-20.40966
 21
58.39905
  0
LINE
  8
別途部材
  6
CONTINUOUS
 10
-113.742995
 20
11.73238
 11
-20.40966
 21
11.73238
  0
LINE
  8
別途部材
  6
CONTINUOUS
 10
-114.142995
 20
11.33238
 11
-20.40966
 21
11.33238
  0
LINE
  8
別途部材
  6
CONTINUOUS
 62
    96
 10
160.790272
 20
11.73238
 11
161.790272
 21
11.33238
  0
LINE
  8
別途部材
  6
CONTINUOUS
 10
161.790272
 20
11.33238
 11
161.790272
 21
35.065715
  0
LINE
  8
別途部材
  6
CONTINUOUS
 62
    96
 10
160.790272
 20
11.73238
 11
160.790272
 21
35.065715
  0
LINE
  8
別途部材
  6
CONTINUOUS
 62
    96
 10
160.790272
 20
58.39905
 11
161.790272
 21
58.79905
  0
LINE
  8
別途部材
  6
CONTINUOUS
 10
161.790272
 20
58.79905
 11
161.790272
 21
35.065715
  0
LINE
  8
別途部材
  6
CONTINUOUS
 62
    96
 10
160.790272
 20
58.39905
 11
160.790272
 21
35.065715
  0
ARC
  8
別途部材
  6
CONTINUOUS
 10
175.075984
 20
35.065713
 40
25.95238
 50
123.398485
 51
236.601515
  0
LINE
  8
別途部材
  6
DOT
 62
    96
 10
72.923675
 20
-62.95793
 11
73.323675
 21
-63.95793
  0
ARC
  8
別途部材
  6
DOT
 10
49.59034
 20
-77.243645
 40
25.952382
 50
33.398488
 51
90.0
  0
LINE
  8
別途部材
  6
DOT
 10
49.59034
 20
-51.291262
 11
-20.40966
 21
-51.291262
  0
LINE
  8
別途部材
  6
DOT
 10
73.323675
 20
-63.95793
 11
-20.40966
 21
-63.95793
  0
LINE
  8
別途部材
  6
DOT
 62
    96
 10
72.923675
 20
-62.95793
 11
-20.40966
 21
-62.95793
  0
LINE
  8
別途部材
  6
DOT
 62
    96
 10
-113.742995
 20
-62.95793
 11
-114.142995
 21
-63.95793
  0
ARC
  8
別途部材
  6
DOT
 10
-90.40966
 20
-77.243645
 40
25.952382
 50
90.0
 51
146.601512
  0
LINE
  8
別途部材
  6
DOT
 10
-90.40966
 20
-51.291262
 11
-20.40966
 21
-51.291262
  0
LINE
  8
別途部材
  6
DOT
 10
-114.142995
 20
-63.95793
 11
-20.40966
 21
-63.95793
  0
LINE
  8
別途部材
  6
DOT
 62
    96
 10
-113.742995
 20
-62.95793
 11
-20.40966
 21
-62.95793
  0
INSERT
  2
*GRP_0018
  8
別途部材
  6
CONTINUOUS
 10
0.0
 20
0.0
  0
INSERT
  2
*GRP_0033
  8
別途部材
  6
DOT
 10
0.0
 20
0.0
  0
INSERT
  2
*GRP_0034
  8
別途部材
  6
DOT
 10
0.0
 20
0.0
  0
INSERT
  2
*GRP_0035
  8
別途部材
  6
DOT
 10
0.0
 20
0.0
  0
INSERT
  2
*GRP_0036
  8
別途部材
  6
DOT
 10
0.0
 20
0.0
  0
INSERT
  2
*GRP_0037
  8
別途部材
  6
DOT
 10
0.0
 20
0.0
  0
INSERT
  2
*GRP_0038
  8
別途部材
  6
DOT
 10
0.0
 20
0.0
  0
LINE
  8
曲げ物
  6
CONTINUOUS
 10
119.536763
 20
-49.867045
 11
155.00343
 21
-49.867045
  0
LINE
  8
曲げ物
  6
CONTINUOUS
 10
155.00343
 20
-49.867045
 11
155.00343
 21
-92.533713
  0
LINE
  8
曲げ物
  6
CONTINUOUS
 10
155.00343
 20
-92.533713
 11
119.536763
 21
-92.533713
  0
LINE
  8
曲げ物
  6
CONTINUOUS
 10
119.536763
 20
-49.867045
 11
119.536763
 21
-92.533713
  0
ENDSEC
  0
EOF
