  0
SECTION
  2
HEADER
  9
$EXTMIN
 10
-210.0
 20
-148.5
  9
$EXTMAX
 10
210.0
 20
148.5
  9
$PDMODE
 70
    32
  9
$PDSIZE
 40
1.5
  9
$LTSCALE
 40
10.0
  0
ENDSEC
  0
SECTION
  2
TABLES
  0
TABLE
  2
LTYPE
 70
    15
  0
LTYPE
  2
CONTINUOUS
 70
    64
  3
実線
 72
    65
 73
     0
 40
0.0
  0
LTYPE
  2
DASHED
 70
    64
  3
破線A
 72
    65
 73
     2
 40
0.6
 49
0.4
 49
-0.2
  0
LTYPE
  2
DASHEDX2
 70
    64
  3
破線B
 72
    65
 73
     2
 40
1.3
 49
0.9
 49
-0.4
  0
LTYPE
  2
DASHDOT
 70
    64
  3
１点鎖線A
 72
    65
 73
     4
 40
0.5375
 49
0.375
 49
-0.05
 49
0.0625
 49
-0.05
  0
LTYPE
  2
DASHDOTX2
 70
    64
  3
１点鎖線B
 72
    65
 73
     4
 40
1.075
 49
0.75
 49
-0.1
 49
0.125
 49
-0.1
  0
LTYPE
  2
DIVIDE2
 70
    64
  3
２点鎖線A
 72
    65
 73
     6
 40
0.5125
 49
0.3
 49
-0.0375
 49
0.05
 49
-0.0375
 49
0.05
 49
-0.0375
  0
LTYPE
  2
DIVIDE
 70
    64
  3
２点鎖線B
 72
    65
 73
     6
 40
1.05
 49
0.55
 49
-0.1
 49
0.1
 49
-0.1
 49
0.1
 49
-0.1
  0
LTYPE
  2
DOT
 70
    64
  3
点線A
 72
    65
 73
     2
 40
0.1125
 49
0.0625
 49
-0.05
  0
LTYPE
  2
DOTX2
 70
    64
  3
点線B
 72
    65
 73
     2
 40
0.275
 49
0.15
 49
-0.125
  0
LTYPE
  2
CONTINUOUS
 70
    64
  3
実線
 72
    65
 73
     0
 40
0.0
  0
LTYPE
  2
CONTINUOUS
 70
    64
  3
実線
 72
    65
 73
     0
 40
0.0
  0
LTYPE
  2
CONTINUOUS
 70
    64
  3
実線
 72
    65
 73
     0
 40
0.0
  0
LTYPE
  2
CONTINUOUS
 70
    64
  3
実線
 72
    65
 73
     0
 40
0.0
  0
LTYPE
  2
CONTINUOUS
 70
    64
  3
実線
 72
    65
 73
     0
 40
0.0
  0
LTYPE
  2
CONTINUOUS
 70
    64
  3
実線
 72
    65
 73
     0
 40
0.0
  0
ENDTAB
  0
TABLE
  2
LAYER
 70
    34
  0
LAYER
  2
通り芯
 70
     0
 62
    15
  6
CONTINUOUS
  0
LAYER
  2
補助線
 70
     0
 62
    16
  6
DOT
  0
LAYER
  2
躯体
 70
     0
 62
    31
  6
CONTINUOUS
  0
LAYER
  2
型材
 70
     0
 62
    32
  6
CONTINUOUS
  0
LAYER
  2
型材断面
 70
     0
 62
    47
  6
CONTINUOUS
  0
LAYER
  2
ガラス
 70
     0
 62
    48
  6
CONTINUOUS
  0
LAYER
  2
ゴム等
 70
     0
 62
    63
  6
CONTINUOUS
  0
LAYER
  2
ボルト／ビス
 70
     0
 62
    64
  6
CONTINUOUS
  0
LAYER
  2
文字
 70
     0
 62
    79
  6
CONTINUOUS
  0
LAYER
  2
寸法
 70
     0
 62
    80
  6
CONTINUOUS
  0
LAYER
  2
ﾊｯﾁﾝｸﾞ
 70
     0
 62
    95
  6
CONTINUOUS
  0
LAYER
  2
別途部材
 70
     0
 62
    96
  6
CONTINUOUS
  0
LAYER
  2
曲げ物
 70
     0
 62
   111
  6
CONTINUOUS
  0
LAYER
  2
鉄骨等
 70
     0
 62
   112
  6
CONTINUOUS
  0
LAYER
  2
St
 70
     0
 62
   127
  6
CONTINUOUS
  0
LAYER
  2
その他部品等
 70
     0
 62
   128
  6
CONTINUOUS
  0
LAYER
  2
ｶﾞｽｹｯﾄ
 70
     0
 62
   143
  6
CONTINUOUS
  0
LAYER
  2
ｽｹｯﾁ
 70
     0
 62
    14
  6
CONTINUOUS
  0
LAYER
  2
0
 70
     0
 62
    17
  6
CONTINUOUS
  0
LAYER
  2
1
 70
     0
 62
    30
  6
CONTINUOUS
  0
LAYER
  2
4
 70
     0
 62
    33
  6
CONTINUOUS
  0
LAYER
  2
ﾚｲﾔ3
 70
     0
 62
    46
  6
CONTINUOUS
  0
LAYER
  2
外形線
 70
     0
 62
    49
  6
CONTINUOUS
  0
LAYER
  2
部品
 70
     0
 62
    14
  6
CONTINUOUS
  0
LAYER
  2
サッシ芯
 70
     0
 62
    17
  6
DASHDOTX2
  0
LAYER
  2
寸法線
 70
     0
 62
    62
  6
CONTINUOUS
  0
LAYER
  2
姿図外形線
 70
     0
 62
    65
  6
CONTINUOUS
  0
LAYER
  2
姿補助線
 70
     0
 62
    30
  6
CONTINUOUS
  0
LAYER
  2
透視線
 70
     0
 62
    78
  6
DOT
  0
LAYER
  2
用紙
 70
     0
 62
    81
  6
CONTINUOUS
  0
LAYER
  2
実線図枠
 70
     0
 62
    94
  6
CONTINUOUS
  0
LAYER
  2
補助図枠
 70
     0
 62
    97
  6
CONTINUOUS
  0
LAYER
  2
建具記号
 70
     0
 62
   110
  6
CONTINUOUS
  0
LAYER
  2
補助文字
 70
     0
 62
   113
  6
CONTINUOUS
  0
ENDTAB
  0
TABLE
  2
STYLE
 70
    10
  0
STYLE
  2
STANDARD
 70
     0
 40
1.0
 41
1.0
 42
1.0
 50
0.0
 71
     0
  3
TXT
  4
BIGFONT
  0
STYLE
  2
TATE
 70
     4
 40
1.0
 41
1.0
 42
1.0
 50
0.0
 71
     0
  3
TXT
  4
BIGFONT
  0
STYLE
  2
TextStyle03
 70
     0
 40
1.0
 41
1.0
 42
1.0
 50
0.0
 71
     0
  3
MONOTXT
  4
BIGFONT
  0
STYLE
  2
TextStyle04
 70
     0
 40
1.0
 41
1.0
 42
1.0
 50
0.0
 71
     0
  3
MONOTXT
  4
BIGFONT
  0
STYLE
  2
TextStyle05
 70
     0
 40
1.0
 41
1.0
 42
1.0
 50
0.0
 71
     0
  3
MONOTXT
  4
BIGFONT
  0
STYLE
  2
TextStyle06
 70
     0
 40
1.0
 41
1.0
 42
1.0
 50
0.0
 71
     0
  3
MONOTXT
  4
BIGFONT
  0
STYLE
  2
TextStyle07
 70
     0
 40
1.0
 41
1.0
 42
1.0
 50
0.0
 71
     0
  3
MONOTXT
  4
BIGFONT
  0
STYLE
  2
TextStyle08
 70
     0
 40
1.0
 41
1.0
 42
1.0
 50
0.0
 71
     0
  3
MONOTXT
  4
BIGFONT
  0
STYLE
  2
TextStyle09
 70
     0
 40
1.0
 41
1.0
 42
1.0
 50
0.0
 71
     0
  3
MONOTXT
  4
BIGFONT
  0
STYLE
  2
TextStyle10
 70
     0
 40
1.0
 41
1.0
 42
1.0
 50
0.0
 71
     0
  3
MONOTXT
  4
BIGFONT
  0
ENDTAB
  0
ENDSEC
  0
SECTION
  2
BLOCKS
  0
BLOCK
  2
*GRP_0001
 70
    65
 10
0.0
 20
0.0
  0
LINE
  8
型材断面
  6
CONTINUOUS
 10
195.0
 20
133.5
 11
195.0
 21
-133.5
  0
LINE
  8
型材断面
  6
CONTINUOUS
 10
195.0
 20
-133.5
 11
-185.0
 21
-133.5
  0
LINE
  8
型材断面
  6
CONTINUOUS
 10
-185.0
 20
-133.5
 11
-185.0
 21
133.5
  0
LINE
  8
型材断面
  6
CONTINUOUS
 10
195.0
 20
133.5
 11
-185.0
 21
133.5
  0
LINE
  8
型材断面
  6
CONTINUOUS
 10
145.0
 20
-133.5
 11
145.0
 21
-118.5
  0
LINE
  8
型材断面
  6
CONTINUOUS
 10
195.0
 20
-118.5
 11
145.0
 21
-118.5
  0
ENDBLK
  0
BLOCK
  2
*DIM_0002
 70
    65
 10
0.0
 20
0.0
  0
LINE
  8
寸法
  6
BYBLOCK
 62
     0
 10
13.246443
 20
-62.95793
 11
61.549425
 21
-62.95793
  0
LINE
  8
寸法
  6
BYBLOCK
 62
     0
 10
61.549425
 20
-79.624597
 11
61.549425
 21
-62.95793
  0
POINT
  8
寸法
 62
     0
 10
61.549425
 20
-62.95793
  0
TEXT
  7
TextStyle03
  8
寸法
  6
CONTINUOUS
 62
     0
 10
61.175
 20
-73.7375
  1
500
 40
3.0
 50
90.0
 72
     5
 11
61.175
 21
-68.8625
  0
ENDBLK
  0
BLOCK
  2
*DIM_0003
 70
    65
 10
0.0
 20
0.0
  0
LINE
  8
寸法
  6
BYBLOCK
 62
     0
 10
45.579775
 20
-29.63158
 11
-71.086892
 21
-29.63158
  0
POINT
  8
寸法
 62
     0
 10
45.579775
 20
-29.63158
  0
POINT
  8
寸法
 62
     0
 10
-71.086892
 20
-29.63158
  0
TEXT
  7
TextStyle03
  8
寸法
  6
CONTINUOUS
 62
     0
 10
-24.49375
 20
-29.275
  1
呼称寸法　3500
 40
3.0
 72
     5
 11
-1.05625
 21
-29.275
  0
ENDBLK
  0
BLOCK
  2
*DIM_0004
 70
    65
 10
0.0
 20
0.0
  0
LINE
  8
寸法
  6
BYBLOCK
 62
     0
 10
-54.420225
 20
-5.54017
 11
-54.420225
 21
-10.29437
  0
LINE
  8
寸法
  6
BYBLOCK
 62
     0
 10
28.91311
 20
-5.54017
 11
28.91311
 21
-10.29437
  0
LINE
  8
寸法
  6
BYBLOCK
 62
     0
 10
-54.420225
 20
-10.29437
 11
28.91311
 21
-10.29437
  0
POINT
  8
寸法
 62
     0
 10
-54.420225
 20
-10.29437
  0
POINT
  8
寸法
 62
     0
 10
28.91311
 20
-10.29437
  0
TEXT
  7
TextStyle03
  8
寸法
  6
CONTINUOUS
 62
     0
 10
-16.05625
 20
-9.925
  1
2500
 40
3.0
 72
     5
 11
-9.49375
 21
-9.925
  0
ENDBLK
  0
BLOCK
  2
*DIM_0005
 70
    65
 10
0.0
 20
0.0
  0
LINE
  8
寸法
  6
BYBLOCK
 62
     0
 10
82.949083
 20
64.756625
 11
82.21224
 21
64.756625
  0
LINE
  8
寸法
  6
BYBLOCK
 62
     0
 10
82.949083
 20
-1.910042
 11
82.21224
 21
-1.910042
  0
LINE
  8
寸法
  6
BYBLOCK
 62
     0
 10
82.21224
 20
64.756625
 11
82.21224
 21
-1.910042
  0
POINT
  8
寸法
 62
     0
 10
82.21224
 20
64.756625
  0
POINT
  8
寸法
 62
     0
 10
82.21224
 20
-1.910042
  0
TEXT
  7
TextStyle03
  8
寸法
  6
CONTINUOUS
 62
     0
 10
81.825
 20
19.68125
  1
呼称寸法　2000
 40
3.0
 50
90.0
 72
     5
 11
81.825
 21
43.11875
  0
ENDBLK
  0
BLOCK
  2
*DIM_0006
 70
    65
 10
0.0
 20
0.0
  0
LINE
  8
寸法
  6
BYBLOCK
 62
     0
 10
118.446372
 20
32.42329
 11
118.446372
 21
86.5884
  0
LINE
  8
寸法
  6
BYBLOCK
 62
     0
 10
135.11304
 20
86.5884
 11
118.446372
 21
86.5884
  0
POINT
  8
寸法
 62
     0
 10
135.11304
 20
86.5884
  0
POINT
  8
寸法
 62
     0
 10
118.446372
 20
86.5884
  0
TEXT
  7
TextStyle03
  8
寸法
  6
CONTINUOUS
 62
     0
 10
124.3375
 20
86.95
  1
500
 40
3.0
 72
     5
 11
129.2125
 21
86.95
  0
ENDBLK
  0
BLOCK
  2
*DIM_0007
 70
    65
 10
0.0
 20
0.0
  0
LINE
  8
寸法
  6
BYBLOCK
 62
     0
 10
137.93568
 20
67.036622
 11
82.21224
 21
67.036622
  0
LINE
  8
寸法
  6
BYBLOCK
 62
     0
 10
82.21224
 20
64.756625
 11
82.21224
 21
67.036622
  0
POINT
  8
寸法
 62
     0
 10
82.21224
 20
64.756625
  0
POINT
  8
寸法
 62
     0
 10
82.21224
 20
67.036622
  0
TEXT
  7
TextStyle03
  8
寸法
  6
CONTINUOUS
 62
     0
 10
81.8
 20
69.34375
  1
68.4
 40
3.0
 50
90.0
 72
     5
 11
81.8
 21
75.90625
  0
ENDBLK
  0
BLOCK
  2
*DIM_0008
 70
    65
 10
0.0
 20
0.0
  0
LINE
  8
寸法
  6
BYBLOCK
 62
     0
 10
137.93568
 20
-4.190045
 11
82.21224
 21
-4.190045
  0
LINE
  8
寸法
  6
BYBLOCK
 62
     0
 10
82.21224
 20
-1.910042
 11
82.21224
 21
-4.190045
  0
POINT
  8
寸法
 62
     0
 10
82.21224
 20
-1.910042
  0
POINT
  8
寸法
 62
     0
 10
82.21224
 20
-4.190045
  0
TEXT
  7
TextStyle03
  8
寸法
  6
CONTINUOUS
 62
     0
 10
81.8
 20
-13.10625
  1
68.4
 40
3.0
 50
90.0
 72
     5
 11
81.8
 21
-6.54375
  0
ENDBLK
  0
BLOCK
  2
*DIM_0009
 70
    65
 10
0.0
 20
0.0
  0
LINE
  8
寸法
  6
BYBLOCK
 62
     0
 10
135.11304
 20
67.42329
 11
135.11304
 21
86.5884
  0
LINE
  8
寸法
  6
BYBLOCK
 62
     0
 10
141.896322
 20
67.72329
 11
141.896322
 21
86.5884
  0
LINE
  8
寸法
  6
BYBLOCK
 62
     0
 10
135.11304
 20
86.5884
 11
141.896322
 21
86.5884
  0
POINT
  8
寸法
 62
     0
 10
135.11304
 20
86.5884
  0
POINT
  8
寸法
 62
     0
 10
141.896322
 20
86.5884
  0
TEXT
  7
TextStyle03
  8
寸法
  6
CONTINUOUS
 62
     0
 10
142.775
 20
86.95
  1
203.5
 40
3.0
 72
     5
 11
151.025
 21
86.95
  0
ENDBLK
  0
BLOCK
  2
*DIM_0010
 70
    65
 10
0.0
 20
0.0
  0
LINE
  8
寸法
  6
BYBLOCK
 62
     0
 10
48.246443
 20
-79.624597
 11
61.549425
 21
-79.624597
  0
LINE
  8
寸法
  6
BYBLOCK
 62
     0
 10
48.546443
 20
-86.407882
 11
61.549425
 21
-86.407882
  0
LINE
  8
寸法
  6
BYBLOCK
 62
     0
 10
61.549425
 20
-79.624597
 11
61.549425
 21
-86.407882
  0
POINT
  8
寸法
 62
     0
 10
61.549425
 20
-79.624597
  0
POINT
  8
寸法
 62
     0
 10
61.549425
 20
-86.407882
  0
TEXT
  7
TextStyle03
  8
寸法
  6
CONTINUOUS
 62
     0
 10
64.5
 20
-87.15
  1
203.5
 40
3.0
 50
90.0
 72
     5
 11
64.5
 21
-78.9
  0
ENDBLK
  0
BLOCK
  2
*DIM_0011
 70
    65
 10
0.0
 20
0.0
  0
LINE
  8
寸法
  6
BYBLOCK
 62
     0
 10
-73.366892
 20
-82.44724
 11
-73.366892
 21
-29.63158
  0
LINE
  8
寸法
  6
BYBLOCK
 62
     0
 10
-71.086892
 20
-29.63158
 11
-73.366892
 21
-29.63158
  0
POINT
  8
寸法
 62
     0
 10
-71.086892
 20
-29.63158
  0
POINT
  8
寸法
 62
     0
 10
-73.366892
 20
-29.63158
  0
TEXT
  7
TextStyle03
  8
寸法
  6
CONTINUOUS
 62
     0
 10
-82.28125
 20
-29.275
  1
68.4
 40
3.0
 72
     5
 11
-75.71875
 21
-29.275
  0
ENDBLK
  0
BLOCK
  2
*DIM_0012
 70
    65
 10
0.0
 20
0.0
  0
LINE
  8
寸法
  6
BYBLOCK
 62
     0
 10
47.859778
 20
-82.44724
 11
47.859778
 21
-29.63158
  0
LINE
  8
寸法
  6
BYBLOCK
 62
     0
 10
45.579775
 20
-29.63158
 11
47.859778
 21
-29.63158
  0
POINT
  8
寸法
 62
     0
 10
45.579775
 20
-29.63158
  0
POINT
  8
寸法
 62
     0
 10
47.859778
 20
-29.63158
  0
TEXT
  7
TextStyle03
  8
寸法
  6
CONTINUOUS
 62
     0
 10
50.16875
 20
-29.275
  1
68.4
 40
3.0
 72
     5
 11
56.73125
 21
-29.275
  0
ENDBLK
  0
BLOCK
  2
*DIM_0013
 70
    65
 10
0.0
 20
0.0
  0
LINE
  8
寸法
  6
BYBLOCK
 62
     0
 10
49.209902
 20
60.856625
 11
55.987195
 21
60.856625
  0
LINE
  8
寸法
  6
BYBLOCK
 62
     0
 10
55.987195
 20
64.756625
 11
55.987195
 21
60.856625
  0
POINT
  8
寸法
 62
     0
 10
55.987195
 20
64.756625
  0
POINT
  8
寸法
 62
     0
 10
55.987195
 20
60.856625
  0
TEXT
  7
TextStyle03
  8
寸法
  6
CONTINUOUS
 62
     0
 10
55.6
 20
65.4125
  1
117
 40
3.0
 50
90.0
 72
     5
 11
55.6
 21
70.2875
  0
ENDBLK
  0
BLOCK
  2
*DIM_0014
 70
    65
 10
0.0
 20
0.0
  0
LINE
  8
寸法
  6
BYBLOCK
 62
     0
 10
49.209902
 20
1.98996
 11
55.987195
 21
1.98996
  0
LINE
  8
寸法
  6
BYBLOCK
 62
     0
 10
55.987195
 20
-1.91004
 11
55.987195
 21
1.98996
  0
POINT
  8
寸法
 62
     0
 10
55.987195
 20
-1.91004
  0
POINT
  8
寸法
 62
     0
 10
55.987195
 20
1.98996
  0
TEXT
  7
TextStyle03
  8
寸法
  6
CONTINUOUS
 62
     0
 10
55.925
 20
-8.1875
  1
117
 40
3.0
 50
90.0
 72
     5
 11
55.925
 21
-3.3125
  0
ENDBLK
  0
BLOCK
  2
*GRP_0015
 70
    65
 10
0.0
 20
0.0
  0
LINE
  8
別途部材
  6
CONTINUOUS
 62
    96
 10
-72.753557
 20
-79.624597
 11
-73.153557
 21
-80.624597
  0
LINE
  8
別途部材
  6
CONTINUOUS
 62
    96
 10
-72.753557
 20
-79.624597
 11
-12.753557
 21
-79.624597
  0
LINE
  8
別途部材
  6
CONTINUOUS
 10
-73.153557
 20
-80.624597
 11
-12.753557
 21
-80.624597
  0
LINE
  8
別途部材
  6
CONTINUOUS
 10
-13.253557
 20
-79.624597
 11
-13.253557
 21
-61.95793
  0
LINE
  8
別途部材
  6
CONTINUOUS
 10
-16.253557
 20
-79.624597
 11
-16.253557
 21
-61.95793
  0
LINE
  8
別途部材
  6
CONTINUOUS
 10
-13.253557
 20
-61.95793
 11
-14.253557
 21
-62.95793
  0
LINE
  8
別途部材
  6
CONTINUOUS
 10
-17.253557
 20
-79.624597
 11
-17.253557
 21
-61.95793
  0
LINE
  8
別途部材
  6
CONTINUOUS
 10
-15.253557
 20
-62.95793
 11
-16.253557
 21
-61.95793
  0
LINE
  8
別途部材
  6
CONTINUOUS
 10
-17.253557
 20
-61.95793
 11
-18.253557
 21
-62.95793
  0
LINE
  8
別途部材
  6
CONTINUOUS
 10
-16.253557
 20
-61.95793
 11
-17.253557
 21
-61.95793
  0
LINE
  8
別途部材
  6
CONTINUOUS
 10
-13.253557
 20
-61.95793
 11
-12.753557
 21
-61.95793
  0
LINE
  8
別途部材
  6
CONTINUOUS
 10
-19.253557
 20
-62.95793
 11
-20.253557
 21
-61.95793
  0
LINE
  8
別途部材
  6
CONTINUOUS
 10
-21.253557
 20
-61.95793
 11
-22.253557
 21
-62.95793
  0
LINE
  8
別途部材
  6
CONTINUOUS
 10
-20.253557
 20
-61.95793
 11
-21.253557
 21
-61.95793
  0
LINE
  8
別途部材
  6
CONTINUOUS
 10
-15.253557
 20
-79.624597
 11
-15.253557
 21
-62.95793
  0
LINE
  8
別途部材
  6
CONTINUOUS
 10
-18.253557
 20
-79.624597
 11
-18.253557
 21
-62.95793
  0
LINE
  8
別途部材
  6
CONTINUOUS
 10
-19.253557
 20
-79.624597
 11
-19.253557
 21
-62.95793
  0
LINE
  8
別途部材
  6
CONTINUOUS
 10
-20.253557
 20
-79.624597
 11
-20.253557
 21
-61.95793
  0
LINE
  8
別途部材
  6
CONTINUOUS
 10
-21.253557
 20
-79.624597
 11
-21.253557
 21
-61.95793
  0
LINE
  8
別途部材
  6
CONTINUOUS
 10
-22.253557
 20
-79.624597
 11
-22.253557
 21
-62.95793
  0
LINE
  8
別途部材
  6
CONTINUOUS
 10
-23.253557
 20
-62.95793
 11
-24.253557
 21
-61.95793
  0
LINE
  8
別途部材
  6
CONTINUOUS
 10
-25.253557
 20
-61.95793
 11
-26.253557
 21
-62.95793
  0
LINE
  8
別途部材
  6
CONTINUOUS
 10
-24.253557
 20
-61.95793
 11
-25.253557
 21
-61.95793
  0
LINE
  8
別途部材
  6
CONTINUOUS
 10
-23.253557
 20
-79.624597
 11
-23.253557
 21
-62.95793
  0
LINE
  8
別途部材
  6
CONTINUOUS
 10
-24.253557
 20
-79.624597
 11
-24.253557
 21
-61.95793
  0
LINE
  8
別途部材
  6
CONTINUOUS
 10
-25.253557
 20
-79.624597
 11
-25.253557
 21
-61.95793
  0
LINE
  8
別途部材
  6
CONTINUOUS
 10
-26.253557
 20
-79.624597
 11
-26.253557
 21
-62.95793
  0
LINE
  8
別途部材
  6
CONTINUOUS
 10
-28.253557
 20
-79.624597
 11
-28.253557
 21
-61.95793
  0
LINE
  8
別途部材
  6
CONTINUOUS
 10
-29.253557
 20
-79.624597
 11
-29.253557
 21
-61.95793
  0
LINE
  8
別途部材
  6
CONTINUOUS
 10
-27.253557
 20
-62.95793
 11
-28.253557
 21
-61.95793
  0
LINE
  8
別途部材
  6
CONTINUOUS
 10
-29.253557
 20
-61.95793
 11
-30.253557
 21
-62.95793
  0
LINE
  8
別途部材
  6
CONTINUOUS
 10
-28.253557
 20
-61.95793
 11
-29.253557
 21
-61.95793
  0
LINE
  8
別途部材
  6
CONTINUOUS
 10
-31.253557
 20
-62.95793
 11
-32.253557
 21
-61.95793
  0
LINE
  8
別途部材
  6
CONTINUOUS
 10
-33.253557
 20
-61.95793
 11
-34.253557
 21
-62.95793
  0
LINE
  8
別途部材
  6
CONTINUOUS
 10
-32.253557
 20
-61.95793
 11
-33.253557
 21
-61.95793
  0
LINE
  8
別途部材
  6
CONTINUOUS
 10
-27.253557
 20
-79.624597
 11
-27.253557
 21
-62.95793
  0
LINE
  8
別途部材
  6
CONTINUOUS
 10
-30.253557
 20
-79.624597
 11
-30.253557
 21
-62.95793
  0
LINE
  8
別途部材
  6
CONTINUOUS
 10
-31.253557
 20
-79.624597
 11
-31.253557
 21
-62.95793
  0
LINE
  8
別途部材
  6
CONTINUOUS
 10
-32.253557
 20
-79.624597
 11
-32.253557
 21
-61.95793
  0
LINE
  8
別途部材
  6
CONTINUOUS
 10
-33.253557
 20
-79.624597
 11
-33.253557
 21
-61.95793
  0
LINE
  8
別途部材
  6
CONTINUOUS
 10
-34.253557
 20
-79.624597
 11
-34.253557
 21
-62.95793
  0
LINE
  8
別途部材
  6
CONTINUOUS
 10
-35.253557
 20
-62.95793
 11
-36.253557
 21
-61.95793
  0
LINE
  8
別途部材
  6
CONTINUOUS
 10
-37.253557
 20
-61.95793
 11
-38.253557
 21
-62.95793
  0
LINE
  8
別途部材
  6
CONTINUOUS
 10
-36.253557
 20
-61.95793
 11
-37.253557
 21
-61.95793
  0
LINE
  8
別途部材
  6
CONTINUOUS
 10
-35.253557
 20
-79.624597
 11
-35.253557
 21
-62.95793
  0
LINE
  8
別途部材
  6
CONTINUOUS
 10
-36.253557
 20
-79.624597
 11
-36.253557
 21
-61.95793
  0
LINE
  8
別途部材
  6
CONTINUOUS
 10
-37.253557
 20
-79.624597
 11
-37.253557
 21
-61.95793
  0
LINE
  8
別途部材
  6
CONTINUOUS
 10
-38.253557
 20
-79.624597
 11
-38.253557
 21
-62.95793
  0
LINE
  8
別途部材
  6
CONTINUOUS
 10
-34.253557
 20
-62.95793
 11
-35.253557
 21
-62.95793
  0
LINE
  8
別途部材
  6
CONTINUOUS
 10
-30.253557
 20
-62.95793
 11
-31.253557
 21
-62.95793
  0
LINE
  8
別途部材
  6
CONTINUOUS
 10
-26.253557
 20
-62.95793
 11
-27.253557
 21
-62.95793
  0
LINE
  8
別途部材
  6
CONTINUOUS
 10
-22.253557
 20
-62.95793
 11
-23.253557
 21
-62.95793
  0
LINE
  8
別途部材
  6
CONTINUOUS
 10
-18.253557
 20
-62.95793
 11
-19.253557
 21
-62.95793
  0
LINE
  8
別途部材
  6
CONTINUOUS
 10
-14.253557
 20
-79.624597
 11
-14.253557
 21
-62.95793
  0
LINE
  8
別途部材
  6
CONTINUOUS
 10
-15.253557
 20
-62.95793
 11
-14.253557
 21
-62.95793
  0
ARC
  8
別途部材
  6
CONTINUOUS
 10
-54.420224
 20
-79.624597
 40
16.666667
 50
90.0
 51
180.0
  0
LINE
  8
別途部材
  6
CONTINUOUS
 10
-40.253557
 20
-79.624597
 11
-40.253557
 21
-61.95793
  0
LINE
  8
別途部材
  6
CONTINUOUS
 10
-41.253557
 20
-79.624597
 11
-41.253557
 21
-61.95793
  0
LINE
  8
別途部材
  6
CONTINUOUS
 10
-39.253557
 20
-62.95793
 11
-40.253557
 21
-61.95793
  0
LINE
  8
別途部材
  6
CONTINUOUS
 10
-41.253557
 20
-61.95793
 11
-42.253557
 21
-62.95793
  0
LINE
  8
別途部材
  6
CONTINUOUS
 10
-40.253557
 20
-61.95793
 11
-41.253557
 21
-61.95793
  0
LINE
  8
別途部材
  6
CONTINUOUS
 10
-43.253557
 20
-62.95793
 11
-44.253557
 21
-61.95793
  0
LINE
  8
別途部材
  6
CONTINUOUS
 10
-45.253557
 20
-61.95793
 11
-46.253557
 21
-62.95793
  0
LINE
  8
別途部材
  6
CONTINUOUS
 10
-44.253557
 20
-61.95793
 11
-45.253557
 21
-61.95793
  0
LINE
  8
別途部材
  6
CONTINUOUS
 10
-39.253557
 20
-79.624597
 11
-39.253557
 21
-62.95793
  0
LINE
  8
別途部材
  6
CONTINUOUS
 10
-42.253557
 20
-79.624597
 11
-42.253557
 21
-62.95793
  0
LINE
  8
別途部材
  6
CONTINUOUS
 10
-43.253557
 20
-79.624597
 11
-43.253557
 21
-62.95793
  0
LINE
  8
別途部材
  6
CONTINUOUS
 10
-44.253557
 20
-79.624597
 11
-44.253557
 21
-61.95793
  0
LINE
  8
別途部材
  6
CONTINUOUS
 10
-45.253557
 20
-79.624597
 11
-45.253557
 21
-61.95793
  0
LINE
  8
別途部材
  6
CONTINUOUS
 10
-46.253557
 20
-79.624597
 11
-46.253557
 21
-62.95793
  0
LINE
  8
別途部材
  6
CONTINUOUS
 10
-47.253557
 20
-62.95793
 11
-48.253557
 21
-61.95793
  0
LINE
  8
別途部材
  6
CONTINUOUS
 10
-49.253557
 20
-61.95793
 11
-50.253557
 21
-62.95793
  0
LINE
  8
別途部材
  6
CONTINUOUS
 10
-48.253557
 20
-61.95793
 11
-49.253557
 21
-61.95793
  0
LINE
  8
別途部材
  6
CONTINUOUS
 10
-47.253557
 20
-79.624597
 11
-47.253557
 21
-62.95793
  0
LINE
  8
別途部材
  6
CONTINUOUS
 10
-48.253557
 20
-79.624597
 11
-48.253557
 21
-61.95793
  0
LINE
  8
別途部材
  6
CONTINUOUS
 10
-49.253557
 20
-79.624597
 11
-49.253557
 21
-61.95793
  0
LINE
  8
別途部材
  6
CONTINUOUS
 10
-50.253557
 20
-79.624597
 11
-50.253557
 21
-62.95793
  0
LINE
  8
別途部材
  6
CONTINUOUS
 10
-46.253557
 20
-62.95793
 11
-47.253557
 21
-62.95793
  0
LINE
  8
別途部材
  6
CONTINUOUS
 10
-42.253557
 20
-62.95793
 11
-43.253557
 21
-62.95793
  0
LINE
  8
別途部材
  6
CONTINUOUS
 10
-38.253557
 20
-62.95793
 11
-39.253557
 21
-62.95793
  0
LINE
  8
別途部材
  6
CONTINUOUS
 10
-51.253557
 20
-62.95793
 11
-52.253557
 21
-61.95793
  0
LINE
  8
別途部材
  6
CONTINUOUS
 10
-53.253557
 20
-61.95793
 11
-54.253557
 21
-62.95793
  0
LINE
  8
別途部材
  6
CONTINUOUS
 10
-52.253557
 20
-61.95793
 11
-53.253557
 21
-61.95793
  0
LINE
  8
別途部材
  6
CONTINUOUS
 10
-51.253557
 20
-79.624597
 11
-51.253557
 21
-62.95793
  0
LINE
  8
別途部材
  6
CONTINUOUS
 10
-52.253557
 20
-79.624597
 11
-52.253557
 21
-61.95793
  0
LINE
  8
別途部材
  6
CONTINUOUS
 10
-53.253557
 20
-79.624597
 11
-53.253557
 21
-61.95793
  0
LINE
  8
別途部材
  6
CONTINUOUS
 10
-54.253557
 20
-79.624597
 11
-54.253557
 21
-62.95793
  0
LINE
  8
別途部材
  6
CONTINUOUS
 10
-50.253557
 20
-62.95793
 11
-51.253557
 21
-62.95793
  0
LINE
  8
別途部材
  6
CONTINUOUS
 62
    96
 10
47.246443
 20
-79.624597
 11
47.646443
 21
-80.624597
  0
LINE
  8
別途部材
  6
CONTINUOUS
 62
    96
 10
47.246443
 20
-79.624597
 11
-12.753557
 21
-79.624597
  0
LINE
  8
別途部材
  6
CONTINUOUS
 10
47.646443
 20
-80.624597
 11
-12.753557
 21
-80.624597
  0
LINE
  8
別途部材
  6
CONTINUOUS
 10
-12.253557
 20
-79.624597
 11
-12.253557
 21
-61.95793
  0
LINE
  8
別途部材
  6
CONTINUOUS
 10
-9.253557
 20
-79.624597
 11
-9.253557
 21
-61.95793
  0
LINE
  8
別途部材
  6
CONTINUOUS
 10
-12.253557
 20
-61.95793
 11
-11.253557
 21
-62.95793
  0
LINE
  8
別途部材
  6
CONTINUOUS
 10
-8.253557
 20
-79.624597
 11
-8.253557
 21
-61.95793
  0
LINE
  8
別途部材
  6
CONTINUOUS
 10
-10.253557
 20
-62.95793
 11
-9.253557
 21
-61.95793
  0
LINE
  8
別途部材
  6
CONTINUOUS
 10
-8.253557
 20
-61.95793
 11
-7.253557
 21
-62.95793
  0
LINE
  8
別途部材
  6
CONTINUOUS
 10
-9.253557
 20
-61.95793
 11
-8.253557
 21
-61.95793
  0
LINE
  8
別途部材
  6
CONTINUOUS
 10
-12.253557
 20
-61.95793
 11
-12.753557
 21
-61.95793
  0
LINE
  8
別途部材
  6
CONTINUOUS
 10
-6.253557
 20
-62.95793
 11
-5.253557
 21
-61.95793
  0
LINE
  8
別途部材
  6
CONTINUOUS
 10
-4.253557
 20
-61.95793
 11
-3.253557
 21
-62.95793
  0
LINE
  8
別途部材
  6
CONTINUOUS
 10
-5.253557
 20
-61.95793
 11
-4.253557
 21
-61.95793
  0
LINE
  8
別途部材
  6
CONTINUOUS
 10
-10.253557
 20
-79.624597
 11
-10.253557
 21
-62.95793
  0
LINE
  8
別途部材
  6
CONTINUOUS
 10
-7.253557
 20
-79.624597
 11
-7.253557
 21
-62.95793
  0
LINE
  8
別途部材
  6
CONTINUOUS
 10
-6.253557
 20
-79.624597
 11
-6.253557
 21
-62.95793
  0
LINE
  8
別途部材
  6
CONTINUOUS
 10
-5.253557
 20
-79.624597
 11
-5.253557
 21
-61.95793
  0
LINE
  8
別途部材
  6
CONTINUOUS
 10
-4.253557
 20
-79.624597
 11
-4.253557
 21
-61.95793
  0
LINE
  8
別途部材
  6
CONTINUOUS
 10
-3.253557
 20
-79.624597
 11
-3.253557
 21
-62.95793
  0
LINE
  8
別途部材
  6
CONTINUOUS
 10
-2.253557
 20
-62.95793
 11
-1.253557
 21
-61.95793
  0
LINE
  8
別途部材
  6
CONTINUOUS
 10
-0.253557
 20
-61.95793
 11
0.746443
 21
-62.95793
  0
LINE
  8
別途部材
  6
CONTINUOUS
 10
-1.253557
 20
-61.95793
 11
-0.253557
 21
-61.95793
  0
LINE
  8
別途部材
  6
CONTINUOUS
 10
-2.253557
 20
-79.624597
 11
-2.253557
 21
-62.95793
  0
LINE
  8
別途部材
  6
CONTINUOUS
 10
-1.253557
 20
-79.624597
 11
-1.253557
 21
-61.95793
  0
LINE
  8
別途部材
  6
CONTINUOUS
 10
-0.253557
 20
-79.624597
 11
-0.253557
 21
-61.95793
  0
LINE
  8
別途部材
  6
CONTINUOUS
 10
0.746443
 20
-79.624597
 11
0.746443
 21
-62.95793
  0
LINE
  8
別途部材
  6
CONTINUOUS
 10
2.746443
 20
-79.624597
 11
2.746443
 21
-61.95793
  0
LINE
  8
別途部材
  6
CONTINUOUS
 10
3.746443
 20
-79.624597
 11
3.746443
 21
-61.95793
  0
LINE
  8
別途部材
  6
CONTINUOUS
 10
1.746443
 20
-62.95793
 11
2.746443
 21
-61.95793
  0
LINE
  8
別途部材
  6
CONTINUOUS
 10
3.746443
 20
-61.95793
 11
4.746443
 21
-62.95793
  0
LINE
  8
別途部材
  6
CONTINUOUS
 10
2.746443
 20
-61.95793
 11
3.746443
 21
-61.95793
  0
LINE
  8
別途部材
  6
CONTINUOUS
 10
5.746443
 20
-62.95793
 11
6.746443
 21
-61.95793
  0
LINE
  8
別途部材
  6
CONTINUOUS
 10
7.746443
 20
-61.95793
 11
8.746443
 21
-62.95793
  0
LINE
  8
別途部材
  6
CONTINUOUS
 10
6.746443
 20
-61.95793
 11
7.746443
 21
-61.95793
  0
LINE
  8
別途部材
  6
CONTINUOUS
 10
1.746443
 20
-79.624597
 11
1.746443
 21
-62.95793
  0
LINE
  8
別途部材
  6
CONTINUOUS
 10
4.746443
 20
-79.624597
 11
4.746443
 21
-62.95793
  0
LINE
  8
別途部材
  6
CONTINUOUS
 10
5.746443
 20
-79.624597
 11
5.746443
 21
-62.95793
  0
LINE
  8
別途部材
  6
CONTINUOUS
 10
6.746443
 20
-79.624597
 11
6.746443
 21
-61.95793
  0
LINE
  8
別途部材
  6
CONTINUOUS
 10
7.746443
 20
-79.624597
 11
7.746443
 21
-61.95793
  0
LINE
  8
別途部材
  6
CONTINUOUS
 10
8.746443
 20
-79.624597
 11
8.746443
 21
-62.95793
  0
LINE
  8
別途部材
  6
CONTINUOUS
 10
9.746443
 20
-62.95793
 11
10.746443
 21
-61.95793
  0
LINE
  8
別途部材
  6
CONTINUOUS
 10
11.746443
 20
-61.95793
 11
12.746443
 21
-62.95793
  0
LINE
  8
別途部材
  6
CONTINUOUS
 10
10.746443
 20
-61.95793
 11
11.746443
 21
-61.95793
  0
LINE
  8
別途部材
  6
CONTINUOUS
 10
9.746443
 20
-79.624597
 11
9.746443
 21
-62.95793
  0
LINE
  8
別途部材
  6
CONTINUOUS
 10
10.746443
 20
-79.624597
 11
10.746443
 21
-61.95793
  0
LINE
  8
別途部材
  6
CONTINUOUS
 10
11.746443
 20
-79.624597
 11
11.746443
 21
-61.95793
  0
LINE
  8
別途部材
  6
CONTINUOUS
 10
12.746443
 20
-79.624597
 11
12.746443
 21
-62.95793
  0
LINE
  8
別途部材
  6
CONTINUOUS
 10
8.746443
 20
-62.95793
 11
9.746443
 21
-62.95793
  0
LINE
  8
別途部材
  6
CONTINUOUS
 10
4.746443
 20
-62.95793
 11
5.746443
 21
-62.95793
  0
LINE
  8
別途部材
  6
CONTINUOUS
 10
0.746443
 20
-62.95793
 11
1.746443
 21
-62.95793
  0
LINE
  8
別途部材
  6
CONTINUOUS
 10
-3.253557
 20
-62.95793
 11
-2.253557
 21
-62.95793
  0
LINE
  8
別途部材
  6
CONTINUOUS
 10
-7.253557
 20
-62.95793
 11
-6.253557
 21
-62.95793
  0
LINE
  8
別途部材
  6
CONTINUOUS
 10
-11.253557
 20
-79.624597
 11
-11.253557
 21
-62.95793
  0
LINE
  8
別途部材
  6
CONTINUOUS
 10
-10.253557
 20
-62.95793
 11
-11.253557
 21
-62.95793
  0
ARC
  8
別途部材
  6
CONTINUOUS
 10
28.913109
 20
-79.624597
 40
16.666667
 50
0.0
 51
90.0
  0
LINE
  8
別途部材
  6
CONTINUOUS
 10
14.746443
 20
-79.624597
 11
14.746443
 21
-61.95793
  0
LINE
  8
別途部材
  6
CONTINUOUS
 10
15.746443
 20
-79.624597
 11
15.746443
 21
-61.95793
  0
LINE
  8
別途部材
  6
CONTINUOUS
 10
13.746443
 20
-62.95793
 11
14.746443
 21
-61.95793
  0
LINE
  8
別途部材
  6
CONTINUOUS
 10
15.746443
 20
-61.95793
 11
16.746443
 21
-62.95793
  0
LINE
  8
別途部材
  6
CONTINUOUS
 10
14.746443
 20
-61.95793
 11
15.746443
 21
-61.95793
  0
LINE
  8
別途部材
  6
CONTINUOUS
 10
17.746443
 20
-62.95793
 11
18.746443
 21
-61.95793
  0
LINE
  8
別途部材
  6
CONTINUOUS
 10
19.746443
 20
-61.95793
 11
20.746443
 21
-62.95793
  0
LINE
  8
別途部材
  6
CONTINUOUS
 10
18.746443
 20
-61.95793
 11
19.746443
 21
-61.95793
  0
LINE
  8
別途部材
  6
CONTINUOUS
 10
13.746443
 20
-79.624597
 11
13.746443
 21
-62.95793
  0
LINE
  8
別途部材
  6
CONTINUOUS
 10
16.746443
 20
-79.624597
 11
16.746443
 21
-62.95793
  0
LINE
  8
別途部材
  6
CONTINUOUS
 10
17.746443
 20
-79.624597
 11
17.746443
 21
-62.95793
  0
LINE
  8
別途部材
  6
CONTINUOUS
 10
18.746443
 20
-79.624597
 11
18.746443
 21
-61.95793
  0
LINE
  8
別途部材
  6
CONTINUOUS
 10
19.746443
 20
-79.624597
 11
19.746443
 21
-61.95793
  0
LINE
  8
別途部材
  6
CONTINUOUS
 10
20.746443
 20
-79.624597
 11
20.746443
 21
-62.95793
  0
LINE
  8
別途部材
  6
CONTINUOUS
 10
21.746443
 20
-62.95793
 11
22.746443
 21
-61.95793
  0
LINE
  8
別途部材
  6
CONTINUOUS
 10
23.746443
 20
-61.95793
 11
24.746443
 21
-62.95793
  0
LINE
  8
別途部材
  6
CONTINUOUS
 10
22.746443
 20
-61.95793
 11
23.746443
 21
-61.95793
  0
LINE
  8
別途部材
  6
CONTINUOUS
 10
21.746443
 20
-79.624597
 11
21.746443
 21
-62.95793
  0
LINE
  8
別途部材
  6
CONTINUOUS
 10
22.746443
 20
-79.624597
 11
22.746443
 21
-61.95793
  0
LINE
  8
別途部材
  6
CONTINUOUS
 10
23.746443
 20
-79.624597
 11
23.746443
 21
-61.95793
  0
LINE
  8
別途部材
  6
CONTINUOUS
 10
24.746443
 20
-79.624597
 11
24.746443
 21
-62.95793
  0
LINE
  8
別途部材
  6
CONTINUOUS
 10
20.746443
 20
-62.95793
 11
21.746443
 21
-62.95793
  0
LINE
  8
別途部材
  6
CONTINUOUS
 10
16.746443
 20
-62.95793
 11
17.746443
 21
-62.95793
  0
LINE
  8
別途部材
  6
CONTINUOUS
 10
12.746443
 20
-62.95793
 11
13.746443
 21
-62.95793
  0
LINE
  8
別途部材
  6
CONTINUOUS
 10
25.746443
 20
-62.95793
 11
26.746443
 21
-61.95793
  0
LINE
  8
別途部材
  6
CONTINUOUS
 10
27.746443
 20
-61.95793
 11
28.746443
 21
-62.95793
  0
LINE
  8
別途部材
  6
CONTINUOUS
 10
26.746443
 20
-61.95793
 11
27.746443
 21
-61.95793
  0
LINE
  8
別途部材
  6
CONTINUOUS
 10
25.746443
 20
-79.624597
 11
25.746443
 21
-62.95793
  0
LINE
  8
別途部材
  6
CONTINUOUS
 10
26.746443
 20
-79.624597
 11
26.746443
 21
-61.95793
  0
LINE
  8
別途部材
  6
CONTINUOUS
 10
27.746443
 20
-79.624597
 11
27.746443
 21
-61.95793
  0
LINE
  8
別途部材
  6
CONTINUOUS
 10
28.746443
 20
-79.624597
 11
28.746443
 21
-62.95793
  0
LINE
  8
別途部材
  6
CONTINUOUS
 10
24.746443
 20
-62.95793
 11
25.746443
 21
-62.95793
  0
ENDBLK
  0
BLOCK
  2
*GRP_0016
 70
    65
 10
0.0
 20
0.0
  0
LINE
  8
補助線
  6
BYBLOCK
 62
    64
 10
-59.36285
 20
-84.524323
 11
-59.477595
 21
-84.645202
  0
LINE
  8
補助線
  6
BYBLOCK
 62
    64
 10
-59.480663
 20
-84.527387
 11
-59.359782
 21
-84.642135
  0
LINE
  8
補助線
  6
BYBLOCK
 62
    64
 10
-48.46207
 20
-73.040967
 11
-48.576815
 21
-73.161842
  0
LINE
  8
補助線
  6
BYBLOCK
 62
    64
 10
-48.579882
 20
-73.044032
 11
-48.459005
 21
-73.158777
  0
LINE
  8
補助線
  6
BYBLOCK
 62
    64
 10
-37.676035
 20
-61.678488
 11
-37.561293
 21
-61.55761
  0
LINE
  8
補助線
  6
BYBLOCK
 62
    64
 10
-37.679103
 20
-61.560672
 11
-37.558225
 21
-61.67542
  0
LINE
  8
型材断面
  6
CONTINUOUS
 10
-60.2541
 20
-84.252793
 11
-60.2357
 21
-84.95966
  0
LINE
  8
型材断面
  6
CONTINUOUS
 10
-60.2357
 20
-84.95966
 11
-59.75219
 21
-85.41864
  0
LINE
  8
型材断面
  6
CONTINUOUS
 10
-59.75219
 20
-85.41864
 11
-59.045323
 21
-85.400242
  0
LINE
  8
型材断面
  6
CONTINUOUS
 10
-37.99356
 20
-60.80257
 11
-37.286693
 21
-60.784173
  0
LINE
  8
型材断面
  6
CONTINUOUS
 10
-37.286693
 20
-60.784173
 11
-36.803183
 21
-61.243152
  0
LINE
  8
型材断面
  6
CONTINUOUS
 10
-36.803183
 20
-61.243152
 11
-36.784785
 21
-61.95002
  0
LINE
  8
型材断面
  6
CONTINUOUS
 10
-60.2541
 20
-84.252793
 11
-37.99356
 21
-60.80257
  0
LINE
  8
型材断面
  6
CONTINUOUS
 10
-59.045323
 20
-85.400242
 11
-36.784785
 21
-61.95002
  0
CIRCLE
  8
ボルト／ビス
  6
CONTINUOUS
 10
-59.420223
 20
-84.584763
 40
0.250185
  0
CIRCLE
  8
ボルト／ビス
  6
CONTINUOUS
 10
-59.420223
 20
-84.584763
 40
0.301025
  0
LINE
  8
ボルト／ビス
  6
CONTINUOUS
 62
    64
 10
-59.660117
 20
-84.65578
 11
-59.601673
 21
-84.412518
  0
LINE
  8
ボルト／ビス
  6
CONTINUOUS
 62
    64
 10
-59.361777
 20
-84.341497
 11
-59.601673
 21
-84.412518
  0
LINE
  8
ボルト／ビス
  6
CONTINUOUS
 62
    64
 10
-59.478668
 20
-84.828028
 11
-59.238772
 21
-84.757007
  0
LINE
  8
ボルト／ビス
  6
CONTINUOUS
 62
    64
 10
-59.180328
 20
-84.513745
 11
-59.238772
 21
-84.757007
  0
LINE
  8
ボルト／ビス
  6
CONTINUOUS
 62
    64
 10
-59.660117
 20
-84.65578
 11
-59.478668
 21
-84.828028
  0
LINE
  8
ボルト／ビス
  6
CONTINUOUS
 62
    64
 10
-59.361777
 20
-84.341497
 11
-59.180328
 21
-84.513745
  0
CIRCLE
  8
ボルト／ビス
  6
CONTINUOUS
 62
    64
 10
-59.420223
 20
-84.584763
 40
0.216668
  0
CIRCLE
  8
ボルト／ビス
  6
CONTINUOUS
 10
-48.519442
 20
-73.101405
 40
0.250185
  0
CIRCLE
  8
ボルト／ビス
  6
CONTINUOUS
 10
-48.519442
 20
-73.101405
 40
0.301025
  0
LINE
  8
ボルト／ビス
  6
CONTINUOUS
 62
    64
 10
-48.759338
 20
-73.172425
 11
-48.700893
 21
-72.92916
  0
LINE
  8
ボルト／ビス
  6
CONTINUOUS
 62
    64
 10
-48.460998
 20
-72.858143
 11
-48.700893
 21
-72.92916
  0
LINE
  8
ボルト／ビス
  6
CONTINUOUS
 62
    64
 10
-48.577887
 20
-73.344668
 11
-48.337993
 21
-73.27365
  0
LINE
  8
ボルト／ビス
  6
CONTINUOUS
 62
    64
 10
-48.279547
 20
-73.030385
 11
-48.337993
 21
-73.27365
  0
LINE
  8
ボルト／ビス
  6
CONTINUOUS
 62
    64
 10
-48.759338
 20
-73.172425
 11
-48.577887
 21
-73.344668
  0
LINE
  8
ボルト／ビス
  6
CONTINUOUS
 62
    64
 10
-48.460998
 20
-72.858143
 11
-48.279547
 21
-73.030385
  0
CIRCLE
  8
ボルト／ビス
  6
CONTINUOUS
 62
    64
 10
-48.519442
 20
-73.101405
 40
0.216668
  0
CIRCLE
  8
ボルト／ビス
  6
CONTINUOUS
 10
-37.618663
 20
-61.618048
 40
0.250185
  0
CIRCLE
  8
ボルト／ビス
  6
CONTINUOUS
 10
-37.618663
 20
-61.618048
 40
0.301025
  0
LINE
  8
ボルト／ビス
  6
CONTINUOUS
 62
    64
 10
-37.560218
 20
-61.374783
 11
-37.800112
 21
-61.445802
  0
LINE
  8
ボルト／ビス
  6
CONTINUOUS
 62
    64
 10
-37.858558
 20
-61.689065
 11
-37.800112
 21
-61.445802
  0
LINE
  8
ボルト／ビス
  6
CONTINUOUS
 62
    64
 10
-37.378767
 20
-61.54703
 11
-37.437212
 21
-61.790293
  0
LINE
  8
ボルト／ビス
  6
CONTINUOUS
 62
    64
 10
-37.677107
 20
-61.861312
 11
-37.437212
 21
-61.790293
  0
LINE
  8
ボルト／ビス
  6
CONTINUOUS
 62
    64
 10
-37.560218
 20
-61.374783
 11
-37.378767
 21
-61.54703
  0
LINE
  8
ボルト／ビス
  6
CONTINUOUS
 62
    64
 10
-37.858558
 20
-61.689065
 11
-37.677107
 21
-61.861312
  0
CIRCLE
  8
ボルト／ビス
  6
CONTINUOUS
 62
    64
 10
-37.618663
 20
-61.618048
 40
0.216668
  0
ENDBLK
  0
BLOCK
  2
*GRP_0017
 70
    65
 10
0.0
 20
0.0
  0
LINE
  8
補助線
  6
BYBLOCK
 62
    64
 10
-37.676035
 20
-84.524323
 11
-37.56129
 21
-84.645202
  0
LINE
  8
補助線
  6
BYBLOCK
 62
    64
 10
-37.558223
 20
-84.527387
 11
-37.679103
 21
-84.642135
  0
LINE
  8
補助線
  6
BYBLOCK
 62
    64
 10
-48.576815
 20
-73.040967
 11
-48.46207
 21
-73.161842
  0
LINE
  8
補助線
  6
BYBLOCK
 62
    64
 10
-48.459003
 20
-73.044032
 11
-48.57988
 21
-73.158777
  0
LINE
  8
補助線
  6
BYBLOCK
 62
    64
 10
-59.36285
 20
-61.678488
 11
-59.477592
 21
-61.55761
  0
LINE
  8
補助線
  6
BYBLOCK
 62
    64
 10
-59.359782
 20
-61.560672
 11
-59.48066
 21
-61.67542
  0
LINE
  8
型材断面
  6
CONTINUOUS
 10
-36.784785
 20
-84.252793
 11
-36.803185
 21
-84.95966
  0
LINE
  8
型材断面
  6
CONTINUOUS
 10
-36.803185
 20
-84.95966
 11
-37.286695
 21
-85.41864
  0
LINE
  8
型材断面
  6
CONTINUOUS
 10
-37.286695
 20
-85.41864
 11
-37.993563
 21
-85.400242
  0
LINE
  8
型材断面
  6
CONTINUOUS
 10
-59.045325
 20
-60.80257
 11
-59.752193
 21
-60.784173
  0
LINE
  8
型材断面
  6
CONTINUOUS
 10
-59.752193
 20
-60.784173
 11
-60.235703
 21
-61.243152
  0
LINE
  8
型材断面
  6
CONTINUOUS
 10
-60.235703
 20
-61.243152
 11
-60.2541
 21
-61.95002
  0
LINE
  8
型材断面
  6
CONTINUOUS
 10
-36.784785
 20
-84.252793
 11
-59.045325
 21
-60.80257
  0
LINE
  8
型材断面
  6
CONTINUOUS
 10
-37.993563
 20
-85.400242
 11
-60.2541
 21
-61.95002
  0
CIRCLE
  8
ボルト／ビス
  6
CONTINUOUS
 10
-37.618663
 20
-84.584763
 40
0.250185
  0
CIRCLE
  8
ボルト／ビス
  6
CONTINUOUS
 10
-37.618663
 20
-84.584763
 40
0.301025
  0
LINE
  8
ボルト／ビス
  6
CONTINUOUS
 62
    64
 10
-37.378767
 20
-84.65578
 11
-37.437212
 21
-84.412518
  0
LINE
  8
ボルト／ビス
  6
CONTINUOUS
 62
    64
 10
-37.677107
 20
-84.341497
 11
-37.437212
 21
-84.412518
  0
LINE
  8
ボルト／ビス
  6
CONTINUOUS
 62
    64
 10
-37.560218
 20
-84.828028
 11
-37.800112
 21
-84.757007
  0
LINE
  8
ボルト／ビス
  6
CONTINUOUS
 62
    64
 10
-37.858558
 20
-84.513745
 11
-37.800112
 21
-84.757007
  0
LINE
  8
ボルト／ビス
  6
CONTINUOUS
 62
    64
 10
-37.378767
 20
-84.65578
 11
-37.560218
 21
-84.828028
  0
LINE
  8
ボルト／ビス
  6
CONTINUOUS
 62
    64
 10
-37.677107
 20
-84.341497
 11
-37.858558
 21
-84.513745
  0
CIRCLE
  8
ボルト／ビス
  6
CONTINUOUS
 62
    64
 10
-37.618663
 20
-84.584763
 40
0.216668
  0
CIRCLE
  8
ボルト／ビス
  6
CONTINUOUS
 10
-48.519442
 20
-73.101405
 40
0.250185
  0
CIRCLE
  8
ボルト／ビス
  6
CONTINUOUS
 10
-48.519442
 20
-73.101405
 40
0.301025
  0
LINE
  8
ボルト／ビス
  6
CONTINUOUS
 62
    64
 10
-48.279547
 20
-73.172425
 11
-48.337993
 21
-72.92916
  0
LINE
  8
ボルト／ビス
  6
CONTINUOUS
 62
    64
 10
-48.577887
 20
-72.858143
 11
-48.337993
 21
-72.92916
  0
LINE
  8
ボルト／ビス
  6
CONTINUOUS
 62
    64
 10
-48.460998
 20
-73.344668
 11
-48.700893
 21
-73.27365
  0
LINE
  8
ボルト／ビス
  6
CONTINUOUS
 62
    64
 10
-48.759338
 20
-73.030385
 11
-48.700893
 21
-73.27365
  0
LINE
  8
ボルト／ビス
  6
CONTINUOUS
 62
    64
 10
-48.279547
 20
-73.172425
 11
-48.460998
 21
-73.344668
  0
LINE
  8
ボルト／ビス
  6
CONTINUOUS
 62
    64
 10
-48.577887
 20
-72.858143
 11
-48.759338
 21
-73.030385
  0
CIRCLE
  8
ボルト／ビス
  6
CONTINUOUS
 62
    64
 10
-48.519442
 20
-73.101405
 40
0.216668
  0
CIRCLE
  8
ボルト／ビス
  6
CONTINUOUS
 10
-59.420223
 20
-61.618048
 40
0.250185
  0
CIRCLE
  8
ボルト／ビス
  6
CONTINUOUS
 10
-59.420223
 20
-61.618048
 40
0.301025
  0
LINE
  8
ボルト／ビス
  6
CONTINUOUS
 62
    64
 10
-59.478668
 20
-61.374783
 11
-59.238772
 21
-61.445802
  0
LINE
  8
ボルト／ビス
  6
CONTINUOUS
 62
    64
 10
-59.180328
 20
-61.689065
 11
-59.238772
 21
-61.445802
  0
LINE
  8
ボルト／ビス
  6
CONTINUOUS
 62
    64
 10
-59.660117
 20
-61.54703
 11
-59.601673
 21
-61.790293
  0
LINE
  8
ボルト／ビス
  6
CONTINUOUS
 62
    64
 10
-59.361777
 20
-61.861312
 11
-59.601673
 21
-61.790293
  0
LINE
  8
ボルト／ビス
  6
CONTINUOUS
 62
    64
 10
-59.478668
 20
-61.374783
 11
-59.660117
 21
-61.54703
  0
LINE
  8
ボルト／ビス
  6
CONTINUOUS
 62
    64
 10
-59.180328
 20
-61.689065
 11
-59.361777
 21
-61.861312
  0
CIRCLE
  8
ボルト／ビス
  6
CONTINUOUS
 62
    64
 10
-59.420223
 20
-61.618048
 40
0.216668
  0
ENDBLK
  0
BLOCK
  2
*GRP_0018
 70
    65
 10
0.0
 20
0.0
  0
LINE
  8
補助線
  6
BYBLOCK
 62
    64
 10
33.855735
 20
-84.524323
 11
33.97048
 21
-84.645202
  0
LINE
  8
補助線
  6
BYBLOCK
 62
    64
 10
33.973547
 20
-84.527387
 11
33.852667
 21
-84.642135
  0
LINE
  8
補助線
  6
BYBLOCK
 62
    64
 10
22.954955
 20
-73.040967
 11
23.0697
 21
-73.161842
  0
LINE
  8
補助線
  6
BYBLOCK
 62
    64
 10
23.072768
 20
-73.044032
 11
22.95189
 21
-73.158777
  0
LINE
  8
補助線
  6
BYBLOCK
 62
    64
 10
12.16892
 20
-61.678488
 11
12.054177
 21
-61.55761
  0
LINE
  8
補助線
  6
BYBLOCK
 62
    64
 10
12.171988
 20
-61.560672
 11
12.05111
 21
-61.67542
  0
LINE
  8
型材断面
  6
CONTINUOUS
 10
34.746985
 20
-84.252793
 11
34.728585
 21
-84.95966
  0
LINE
  8
型材断面
  6
CONTINUOUS
 10
34.728585
 20
-84.95966
 11
34.245075
 21
-85.41864
  0
LINE
  8
型材断面
  6
CONTINUOUS
 10
34.245075
 20
-85.41864
 11
33.538207
 21
-85.400242
  0
LINE
  8
型材断面
  6
CONTINUOUS
 10
12.486445
 20
-60.80257
 11
11.779578
 21
-60.784173
  0
LINE
  8
型材断面
  6
CONTINUOUS
 10
11.779578
 20
-60.784173
 11
11.296068
 21
-61.243152
  0
LINE
  8
型材断面
  6
CONTINUOUS
 10
11.296068
 20
-61.243152
 11
11.27767
 21
-61.95002
  0
LINE
  8
型材断面
  6
CONTINUOUS
 10
34.746985
 20
-84.252793
 11
12.486445
 21
-60.80257
  0
LINE
  8
型材断面
  6
CONTINUOUS
 10
33.538207
 20
-85.400242
 11
11.27767
 21
-61.95002
  0
CIRCLE
  8
ボルト／ビス
  6
CONTINUOUS
 10
33.913107
 20
-84.584763
 40
0.250185
  0
CIRCLE
  8
ボルト／ビス
  6
CONTINUOUS
 10
33.913107
 20
-84.584763
 40
0.301025
  0
LINE
  8
ボルト／ビス
  6
CONTINUOUS
 62
    64
 10
34.153002
 20
-84.65578
 11
34.094557
 21
-84.412518
  0
LINE
  8
ボルト／ビス
  6
CONTINUOUS
 62
    64
 10
33.854663
 20
-84.341497
 11
34.094557
 21
-84.412518
  0
LINE
  8
ボルト／ビス
  6
CONTINUOUS
 62
    64
 10
33.971552
 20
-84.828028
 11
33.731658
 21
-84.757007
  0
LINE
  8
ボルト／ビス
  6
CONTINUOUS
 62
    64
 10
33.673213
 20
-84.513745
 11
33.731658
 21
-84.757007
  0
LINE
  8
ボルト／ビス
  6
CONTINUOUS
 62
    64
 10
34.153002
 20
-84.65578
 11
33.971552
 21
-84.828028
  0
LINE
  8
ボルト／ビス
  6
CONTINUOUS
 62
    64
 10
33.854663
 20
-84.341497
 11
33.673213
 21
-84.513745
  0
CIRCLE
  8
ボルト／ビス
  6
CONTINUOUS
 62
    64
 10
33.913107
 20
-84.584763
 40
0.216668
  0
CIRCLE
  8
ボルト／ビス
  6
CONTINUOUS
 10
23.012327
 20
-73.101405
 40
0.250185
  0
CIRCLE
  8
ボルト／ビス
  6
CONTINUOUS
 10
23.012327
 20
-73.101405
 40
0.301025
  0
LINE
  8
ボルト／ビス
  6
CONTINUOUS
 62
    64
 10
23.252223
 20
-73.172425
 11
23.193778
 21
-72.92916
  0
LINE
  8
ボルト／ビス
  6
CONTINUOUS
 62
    64
 10
22.953882
 20
-72.858143
 11
23.193778
 21
-72.92916
  0
LINE
  8
ボルト／ビス
  6
CONTINUOUS
 62
    64
 10
23.070773
 20
-73.344668
 11
22.830877
 21
-73.27365
  0
LINE
  8
ボルト／ビス
  6
CONTINUOUS
 62
    64
 10
22.772432
 20
-73.030385
 11
22.830877
 21
-73.27365
  0
LINE
  8
ボルト／ビス
  6
CONTINUOUS
 62
    64
 10
23.252223
 20
-73.172425
 11
23.070773
 21
-73.344668
  0
LINE
  8
ボルト／ビス
  6
CONTINUOUS
 62
    64
 10
22.953882
 20
-72.858143
 11
22.772432
 21
-73.030385
  0
CIRCLE
  8
ボルト／ビス
  6
CONTINUOUS
 62
    64
 10
23.012327
 20
-73.101405
 40
0.216668
  0
CIRCLE
  8
ボルト／ビス
  6
CONTINUOUS
 10
12.111548
 20
-61.618048
 40
0.250185
  0
CIRCLE
  8
ボルト／ビス
  6
CONTINUOUS
 10
12.111548
 20
-61.618048
 40
0.301025
  0
LINE
  8
ボルト／ビス
  6
CONTINUOUS
 62
    64
 10
12.053103
 20
-61.374783
 11
12.292997
 21
-61.445802
  0
LINE
  8
ボルト／ビス
  6
CONTINUOUS
 62
    64
 10
12.351442
 20
-61.689065
 11
12.292997
 21
-61.445802
  0
LINE
  8
ボルト／ビス
  6
CONTINUOUS
 62
    64
 10
11.871652
 20
-61.54703
 11
11.930098
 21
-61.790293
  0
LINE
  8
ボルト／ビス
  6
CONTINUOUS
 62
    64
 10
12.169993
 20
-61.861312
 11
11.930098
 21
-61.790293
  0
LINE
  8
ボルト／ビス
  6
CONTINUOUS
 62
    64
 10
12.053103
 20
-61.374783
 11
11.871652
 21
-61.54703
  0
LINE
  8
ボルト／ビス
  6
CONTINUOUS
 62
    64
 10
12.351442
 20
-61.689065
 11
12.169993
 21
-61.861312
  0
CIRCLE
  8
ボルト／ビス
  6
CONTINUOUS
 62
    64
 10
12.111548
 20
-61.618048
 40
0.216668
  0
ENDBLK
  0
BLOCK
  2
*GRP_0019
 70
    65
 10
0.0
 20
0.0
  0
LINE
  8
補助線
  6
BYBLOCK
 62
    64
 10
12.16892
 20
-84.524323
 11
12.054175
 21
-84.645202
  0
LINE
  8
補助線
  6
BYBLOCK
 62
    64
 10
12.051108
 20
-84.527387
 11
12.171988
 21
-84.642135
  0
LINE
  8
補助線
  6
BYBLOCK
 62
    64
 10
23.0697
 20
-73.040967
 11
22.954955
 21
-73.161842
  0
LINE
  8
補助線
  6
BYBLOCK
 62
    64
 10
22.951887
 20
-73.044032
 11
23.072765
 21
-73.158777
  0
LINE
  8
補助線
  6
BYBLOCK
 62
    64
 10
33.855735
 20
-61.678488
 11
33.970478
 21
-61.55761
  0
LINE
  8
補助線
  6
BYBLOCK
 62
    64
 10
33.852667
 20
-61.560672
 11
33.973545
 21
-61.67542
  0
LINE
  8
型材断面
  6
CONTINUOUS
 10
11.27767
 20
-84.252793
 11
11.29607
 21
-84.95966
  0
LINE
  8
型材断面
  6
CONTINUOUS
 10
11.29607
 20
-84.95966
 11
11.77958
 21
-85.41864
  0
LINE
  8
型材断面
  6
CONTINUOUS
 10
11.77958
 20
-85.41864
 11
12.486448
 21
-85.400242
  0
LINE
  8
型材断面
  6
CONTINUOUS
 10
33.53821
 20
-60.80257
 11
34.245077
 21
-60.784173
  0
LINE
  8
型材断面
  6
CONTINUOUS
 10
34.245077
 20
-60.784173
 11
34.728587
 21
-61.243152
  0
LINE
  8
型材断面
  6
CONTINUOUS
 10
34.728587
 20
-61.243152
 11
34.746985
 21
-61.95002
  0
LINE
  8
型材断面
  6
CONTINUOUS
 10
11.27767
 20
-84.252793
 11
33.53821
 21
-60.80257
  0
LINE
  8
型材断面
  6
CONTINUOUS
 10
12.486448
 20
-85.400242
 11
34.746985
 21
-61.95002
  0
CIRCLE
  8
ボルト／ビス
  6
CONTINUOUS
 10
12.111548
 20
-84.584763
 40
0.250185
  0
CIRCLE
  8
ボルト／ビス
  6
CONTINUOUS
 10
12.111548
 20
-84.584763
 40
0.301025
  0
LINE
  8
ボルト／ビス
  6
CONTINUOUS
 62
    64
 10
11.871652
 20
-84.65578
 11
11.930098
 21
-84.412518
  0
LINE
  8
ボルト／ビス
  6
CONTINUOUS
 62
    64
 10
12.169993
 20
-84.341497
 11
11.930098
 21
-84.412518
  0
LINE
  8
ボルト／ビス
  6
CONTINUOUS
 62
    64
 10
12.053103
 20
-84.828028
 11
12.292997
 21
-84.757007
  0
LINE
  8
ボルト／ビス
  6
CONTINUOUS
 62
    64
 10
12.351442
 20
-84.513745
 11
12.292997
 21
-84.757007
  0
LINE
  8
ボルト／ビス
  6
CONTINUOUS
 62
    64
 10
11.871652
 20
-84.65578
 11
12.053103
 21
-84.828028
  0
LINE
  8
ボルト／ビス
  6
CONTINUOUS
 62
    64
 10
12.169993
 20
-84.341497
 11
12.351442
 21
-84.513745
  0
CIRCLE
  8
ボルト／ビス
  6
CONTINUOUS
 62
    64
 10
12.111548
 20
-84.584763
 40
0.216668
  0
CIRCLE
  8
ボルト／ビス
  6
CONTINUOUS
 10
23.012327
 20
-73.101405
 40
0.250185
  0
CIRCLE
  8
ボルト／ビス
  6
CONTINUOUS
 10
23.012327
 20
-73.101405
 40
0.301025
  0
LINE
  8
ボルト／ビス
  6
CONTINUOUS
 62
    64
 10
22.772432
 20
-73.172425
 11
22.830877
 21
-72.92916
  0
LINE
  8
ボルト／ビス
  6
CONTINUOUS
 62
    64
 10
23.070773
 20
-72.858143
 11
22.830877
 21
-72.92916
  0
LINE
  8
ボルト／ビス
  6
CONTINUOUS
 62
    64
 10
22.953882
 20
-73.344668
 11
23.193778
 21
-73.27365
  0
LINE
  8
ボルト／ビス
  6
CONTINUOUS
 62
    64
 10
23.252223
 20
-73.030385
 11
23.193778
 21
-73.27365
  0
LINE
  8
ボルト／ビス
  6
CONTINUOUS
 62
    64
 10
22.772432
 20
-73.172425
 11
22.953882
 21
-73.344668
  0
LINE
  8
ボルト／ビス
  6
CONTINUOUS
 62
    64
 10
23.070773
 20
-72.858143
 11
23.252223
 21
-73.030385
  0
CIRCLE
  8
ボルト／ビス
  6
CONTINUOUS
 62
    64
 10
23.012327
 20
-73.101405
 40
0.216668
  0
CIRCLE
  8
ボルト／ビス
  6
CONTINUOUS
 10
33.913107
 20
-61.618048
 40
0.250185
  0
CIRCLE
  8
ボルト／ビス
  6
CONTINUOUS
 10
33.913107
 20
-61.618048
 40
0.301025
  0
LINE
  8
ボルト／ビス
  6
CONTINUOUS
 62
    64
 10
33.971552
 20
-61.374783
 11
33.731658
 21
-61.445802
  0
LINE
  8
ボルト／ビス
  6
CONTINUOUS
 62
    64
 10
33.673213
 20
-61.689065
 11
33.731658
 21
-61.445802
  0
LINE
  8
ボルト／ビス
  6
CONTINUOUS
 62
    64
 10
34.153002
 20
-61.54703
 11
34.094557
 21
-61.790293
  0
LINE
  8
ボルト／ビス
  6
CONTINUOUS
 62
    64
 10
33.854663
 20
-61.861312
 11
34.094557
 21
-61.790293
  0
LINE
  8
ボルト／ビス
  6
CONTINUOUS
 62
    64
 10
33.971552
 20
-61.374783
 11
34.153002
 21
-61.54703
  0
LINE
  8
ボルト／ビス
  6
CONTINUOUS
 62
    64
 10
33.673213
 20
-61.689065
 11
33.854663
 21
-61.861312
  0
CIRCLE
  8
ボルト／ビス
  6
CONTINUOUS
 62
    64
 10
33.913107
 20
-61.618048
 40
0.216668
  0
ENDBLK
  0
BLOCK
  2
*DIM_0020
 70
    65
 10
0.0
 20
0.0
  0
LINE
  8
寸法
  6
BYBLOCK
 62
     0
 10
-74.086892
 20
8.08996
 11
-103.57597
 21
8.08996
  0
LINE
  8
寸法
  6
BYBLOCK
 62
     0
 10
-74.086892
 20
31.423293
 11
-103.57597
 21
31.423293
  0
LINE
  8
寸法
  6
BYBLOCK
 62
     0
 10
-103.57597
 20
8.08996
 11
-103.57597
 21
31.423293
  0
POINT
  8
寸法
 62
     0
 10
-103.57597
 20
8.08996
  0
POINT
  8
寸法
 62
     0
 10
-103.57597
 20
31.423293
  0
TEXT
  7
TextStyle03
  8
寸法
  6
CONTINUOUS
 62
     0
 10
-104.0
 20
17.3125
  1
700
 40
3.0
 50
90.0
 72
     5
 11
-104.0
 21
22.1875
  0
ENDBLK
  0
BLOCK
  2
*DIM_0021
 70
    65
 10
0.0
 20
0.0
  0
LINE
  8
寸法
  6
BYBLOCK
 62
     0
 10
-74.086892
 20
54.756625
 11
-103.57597
 21
54.756625
  0
LINE
  8
寸法
  6
BYBLOCK
 62
     0
 10
-103.57597
 20
31.423293
 11
-103.57597
 21
54.756625
  0
POINT
  8
寸法
 62
     0
 10
-103.57597
 20
54.756625
  0
TEXT
  7
TextStyle03
  8
寸法
  6
CONTINUOUS
 62
     0
 10
-104.0
 20
40.6375
  1
700
 40
3.0
 50
90.0
 72
     5
 11
-104.0
 21
45.5125
  0
ENDBLK
  0
BLOCK
  2
*DIM_0022
 70
    65
 10
0.0
 20
0.0
  0
LINE
  8
寸法
  6
BYBLOCK
 62
     0
 10
-66.08689
 20
67.756625
 11
-66.08689
 21
96.864697
  0
LINE
  8
寸法
  6
BYBLOCK
 62
     0
 10
-39.420225
 20
67.756625
 11
-39.420225
 21
96.864697
  0
LINE
  8
寸法
  6
BYBLOCK
 62
     0
 10
-66.08689
 20
96.864697
 11
-39.420225
 21
96.864697
  0
POINT
  8
寸法
 62
     0
 10
-66.08689
 20
96.864697
  0
POINT
  8
寸法
 62
     0
 10
-39.420225
 20
96.864697
  0
TEXT
  7
TextStyle03
  8
寸法
  6
CONTINUOUS
 62
     0
 10
-55.2125
 20
97.2
  1
800
 40
3.0
 72
     5
 11
-50.3375
 21
97.2
  0
ENDBLK
  0
BLOCK
  2
*DIM_0023
 70
    65
 10
0.0
 20
0.0
  0
LINE
  8
寸法
  6
BYBLOCK
 62
     0
 10
-12.753557
 20
67.756625
 11
-12.753557
 21
96.864697
  0
LINE
  8
寸法
  6
BYBLOCK
 62
     0
 10
-39.420225
 20
96.864697
 11
-12.753557
 21
96.864697
  0
POINT
  8
寸法
 62
     0
 10
-12.753557
 20
96.864697
  0
TEXT
  7
TextStyle03
  8
寸法
  6
CONTINUOUS
 62
     0
 10
-28.5625
 20
97.2
  1
800
 40
3.0
 72
     5
 11
-23.6875
 21
97.2
  0
ENDBLK
  0
BLOCK
  2
*DIM_0024
 70
    65
 10
0.0
 20
0.0
  0
LINE
  8
寸法
  6
BYBLOCK
 62
     0
 10
13.91311
 20
67.756625
 11
13.91311
 21
96.864697
  0
LINE
  8
寸法
  6
BYBLOCK
 62
     0
 10
-12.753557
 20
96.864697
 11
13.91311
 21
96.864697
  0
POINT
  8
寸法
 62
     0
 10
13.91311
 20
96.864697
  0
TEXT
  7
TextStyle03
  8
寸法
  6
CONTINUOUS
 62
     0
 10
-1.8875
 20
97.2
  1
800
 40
3.0
 72
     5
 11
2.9875
 21
97.2
  0
ENDBLK
  0
BLOCK
  2
*DIM_0025
 70
    65
 10
0.0
 20
0.0
  0
LINE
  8
寸法
  6
BYBLOCK
 62
     0
 10
40.579775
 20
67.756625
 11
40.579775
 21
96.864697
  0
LINE
  8
寸法
  6
BYBLOCK
 62
     0
 10
13.91311
 20
96.864697
 11
40.579775
 21
96.864697
  0
POINT
  8
寸法
 62
     0
 10
40.579775
 20
96.864697
  0
TEXT
  7
TextStyle03
  8
寸法
  6
CONTINUOUS
 62
     0
 10
24.7875
 20
97.2
  1
800
 40
3.0
 72
     5
 11
29.6625
 21
97.2
  0
ENDBLK
  0
BLOCK
  2
*DIM_0026
 70
    65
 10
0.0
 20
0.0
  0
LINE
  8
寸法
  6
CONTINUOUS
 10
151.849378
 20
-90.759512
 11
151.849378
 21
-24.759512
  0
POINT
  8
寸法
 10
151.849378
 20
-90.759512
  0
POINT
  8
寸法
 10
151.849378
 20
-24.759512
  0
TEXT
  7
TextStyle03
  8
寸法
  6
CONTINUOUS
 10
151.45
 20
-61.05625
  1
1980
 40
3.0
 50
90.0
 72
     5
 11
151.45
 21
-54.49375
  0
ENDBLK
  0
BLOCK
  2
*DIM_0027
 70
    65
 10
0.0
 20
0.0
  0
LINE
  8
寸法
  6
CONTINUOUS
 10
133.06327
 20
-15.341982
 11
95.296602
 21
-15.341982
  0
POINT
  8
寸法
 10
133.06327
 20
-15.341982
  0
POINT
  8
寸法
 10
95.296602
 20
-15.341982
  0
TEXT
  7
TextStyle03
  8
寸法
  6
CONTINUOUS
 10
110.89375
 20
-15.0
  1
1133
 40
3.0
 72
     5
 11
117.45625
 21
-15.0
  0
ENDBLK
  0
BLOCK
  2
*DIM_0028
 70
    65
 10
0.0
 20
0.0
  0
LINE
  8
寸法
  6
BYBLOCK
 62
     0
 10
29.91311
 20
-42.624597
 11
61.549425
 21
-42.624597
  0
LINE
  8
寸法
  6
BYBLOCK
 62
     0
 10
61.549425
 20
-62.95793
 11
61.549425
 21
-42.624597
  0
POINT
  8
寸法
 62
     0
 10
61.549425
 20
-62.95793
  0
POINT
  8
寸法
 62
     0
 10
61.549425
 20
-42.624597
  0
TEXT
  7
TextStyle03
  8
寸法
  6
CONTINUOUS
 62
     0
 10
61.15
 20
-61.89375
  1
上昇572以上
 40
3.0
 50
90.0
 72
     5
 11
61.15
 21
-43.70625
  0
ENDBLK
  0
BLOCK
  2
*GRP_0029
 70
    65
 10
0.0
 20
0.0
  0
LINE
  8
ボルト／ビス
  6
CONTINUOUS
 10
135.11304
 20
65.42329
 11
134.646375
 21
65.42329
  0
LINE
  8
ボルト／ビス
  6
CONTINUOUS
 10
135.11304
 20
65.056625
 11
135.046375
 21
65.056625
  0
LINE
  8
ボルト／ビス
  6
CONTINUOUS
 10
135.046375
 20
65.056625
 11
135.046375
 21
65.789957
  0
LINE
  8
ボルト／ビス
  6
CONTINUOUS
 10
135.046375
 20
65.789957
 11
135.11304
 21
65.789957
  0
LINE
  8
ボルト／ビス
  6
CONTINUOUS
 10
135.11304
 20
65.056625
 11
135.11304
 21
65.789957
  0
LINE
  8
ボルト／ビス
  6
CONTINUOUS
 10
135.01304
 20
65.12329
 11
135.046375
 21
65.12329
  0
LINE
  8
ボルト／ビス
  6
CONTINUOUS
 10
135.01304
 20
65.12329
 11
135.01304
 21
65.72329
  0
LINE
  8
ボルト／ビス
  6
CONTINUOUS
 10
135.01304
 20
65.72329
 11
135.046375
 21
65.72329
  0
LINE
  8
ボルト／ビス
  6
CONTINUOUS
 62
    64
 10
134.81304
 20
65.262915
 11
134.824715
 21
65.23084
  0
ARC
  8
ボルト／ビス
  6
CONTINUOUS
 62
    64
 10
134.918017
 20
65.278955
 40
0.104978
 50
152.721967
 51
180.0
  0
ARC
  8
ボルト／ビス
  6
CONTINUOUS
 62
    64
 10
135.215441
 20
65.423292
 40
0.402402
 50
166.165002
 51
193.834985
  0
LINE
  8
ボルト／ビス
  6
CONTINUOUS
 62
    64
 10
134.81304
 20
65.583665
 11
134.824715
 21
65.61574
  0
ARC
  8
ボルト／ビス
  6
CONTINUOUS
 62
    64
 10
134.918017
 20
65.56763
 40
0.104978
 50
180.0
 51
207.278033
  0
LINE
  8
ボルト／ビス
  6
CONTINUOUS
 62
    64
 10
134.81304
 20
65.262915
 11
134.81304
 21
65.583665
  0
LINE
  8
ボルト／ビス
  6
CONTINUOUS
 62
    64
 10
134.824715
 20
65.61574
 11
134.946375
 21
65.61574
  0
LINE
  8
ボルト／ビス
  6
CONTINUOUS
 62
    64
 10
134.824715
 20
65.519515
 11
134.946375
 21
65.519515
  0
LINE
  8
ボルト／ビス
  6
CONTINUOUS
 62
    64
 10
134.824715
 20
65.23084
 11
134.946375
 21
65.23084
  0
LINE
  8
ボルト／ビス
  6
CONTINUOUS
 62
    64
 10
134.824715
 20
65.327065
 11
134.946375
 21
65.327065
  0
LINE
  8
ボルト／ビス
  6
CONTINUOUS
 10
134.946375
 20
65.23084
 11
134.946375
 21
65.61574
  0
LINE
  8
ボルト／ビス
  6
CONTINUOUS
 10
134.946375
 20
65.22329
 11
135.01304
 21
65.22329
  0
LINE
  8
ボルト／ビス
  6
CONTINUOUS
 10
134.946375
 20
65.22329
 11
134.946375
 21
65.62329
  0
LINE
  8
ボルト／ビス
  6
CONTINUOUS
 10
134.946375
 20
65.62329
 11
135.01304
 21
65.62329
  0
ENDBLK
  0
BLOCK
  2
*GRP_0030
 70
    65
 10
0.0
 20
0.0
  0
LINE
  8
ボルト／ビス
  6
CONTINUOUS
 10
135.11304
 20
-2.57671
 11
134.646375
 21
-2.57671
  0
LINE
  8
ボルト／ビス
  6
CONTINUOUS
 10
135.11304
 20
-2.943375
 11
135.046375
 21
-2.943375
  0
LINE
  8
ボルト／ビス
  6
CONTINUOUS
 10
135.046375
 20
-2.943375
 11
135.046375
 21
-2.210042
  0
LINE
  8
ボルト／ビス
  6
CONTINUOUS
 10
135.046375
 20
-2.210042
 11
135.11304
 21
-2.210042
  0
LINE
  8
ボルト／ビス
  6
CONTINUOUS
 10
135.11304
 20
-2.943375
 11
135.11304
 21
-2.210042
  0
LINE
  8
ボルト／ビス
  6
CONTINUOUS
 10
135.01304
 20
-2.87671
 11
135.046375
 21
-2.87671
  0
LINE
  8
ボルト／ビス
  6
CONTINUOUS
 10
135.01304
 20
-2.87671
 11
135.01304
 21
-2.27671
  0
LINE
  8
ボルト／ビス
  6
CONTINUOUS
 10
135.01304
 20
-2.27671
 11
135.046375
 21
-2.27671
  0
LINE
  8
ボルト／ビス
  6
CONTINUOUS
 62
    64
 10
134.81304
 20
-2.737085
 11
134.824715
 21
-2.76916
  0
ARC
  8
ボルト／ビス
  6
CONTINUOUS
 62
    64
 10
134.918017
 20
-2.721045
 40
0.104978
 50
152.721967
 51
180.0
  0
ARC
  8
ボルト／ビス
  6
CONTINUOUS
 62
    64
 10
135.215441
 20
-2.576708
 40
0.402402
 50
166.165002
 51
193.834985
  0
LINE
  8
ボルト／ビス
  6
CONTINUOUS
 62
    64
 10
134.81304
 20
-2.416335
 11
134.824715
 21
-2.38426
  0
ARC
  8
ボルト／ビス
  6
CONTINUOUS
 62
    64
 10
134.918017
 20
-2.43237
 40
0.104978
 50
180.0
 51
207.278033
  0
LINE
  8
ボルト／ビス
  6
CONTINUOUS
 62
    64
 10
134.81304
 20
-2.737085
 11
134.81304
 21
-2.416335
  0
LINE
  8
ボルト／ビス
  6
CONTINUOUS
 62
    64
 10
134.824715
 20
-2.38426
 11
134.946375
 21
-2.38426
  0
LINE
  8
ボルト／ビス
  6
CONTINUOUS
 62
    64
 10
134.824715
 20
-2.480485
 11
134.946375
 21
-2.480485
  0
LINE
  8
ボルト／ビス
  6
CONTINUOUS
 62
    64
 10
134.824715
 20
-2.76916
 11
134.946375
 21
-2.76916
  0
LINE
  8
ボルト／ビス
  6
CONTINUOUS
 62
    64
 10
134.824715
 20
-2.672935
 11
134.946375
 21
-2.672935
  0
LINE
  8
ボルト／ビス
  6
CONTINUOUS
 10
134.946375
 20
-2.76916
 11
134.946375
 21
-2.38426
  0
LINE
  8
ボルト／ビス
  6
CONTINUOUS
 10
134.946375
 20
-2.77671
 11
135.01304
 21
-2.77671
  0
LINE
  8
ボルト／ビス
  6
CONTINUOUS
 10
134.946375
 20
-2.77671
 11
134.946375
 21
-2.37671
  0
LINE
  8
ボルト／ビス
  6
CONTINUOUS
 10
134.946375
 20
-2.37671
 11
135.01304
 21
-2.37671
  0
ENDBLK
  0
BLOCK
  2
*GRP_0031
 70
    65
 10
0.0
 20
0.0
  0
LINE
  8
ボルト／ビス
  6
CONTINUOUS
 10
46.246443
 20
-79.624597
 11
46.246443
 21
-79.157932
  0
LINE
  8
ボルト／ビス
  6
CONTINUOUS
 10
45.879777
 20
-79.624597
 11
45.879777
 21
-79.557932
  0
LINE
  8
ボルト／ビス
  6
CONTINUOUS
 10
45.879777
 20
-79.557932
 11
46.61311
 21
-79.557932
  0
LINE
  8
ボルト／ビス
  6
CONTINUOUS
 10
46.61311
 20
-79.557932
 11
46.61311
 21
-79.624597
  0
LINE
  8
ボルト／ビス
  6
CONTINUOUS
 10
45.879777
 20
-79.624597
 11
46.61311
 21
-79.624597
  0
LINE
  8
ボルト／ビス
  6
CONTINUOUS
 10
45.946443
 20
-79.524597
 11
45.946443
 21
-79.557932
  0
LINE
  8
ボルト／ビス
  6
CONTINUOUS
 10
45.946443
 20
-79.524597
 11
46.546443
 21
-79.524597
  0
LINE
  8
ボルト／ビス
  6
CONTINUOUS
 10
46.546443
 20
-79.524597
 11
46.546443
 21
-79.557932
  0
LINE
  8
ボルト／ビス
  6
CONTINUOUS
 62
    64
 10
46.086067
 20
-79.324597
 11
46.053992
 21
-79.336272
  0
ARC
  8
ボルト／ビス
  6
CONTINUOUS
 62
    64
 10
46.102107
 20
-79.429574
 40
0.104978
 50
62.721967
 51
90.0
  0
ARC
  8
ボルト／ビス
  6
CONTINUOUS
 62
    64
 10
46.246445
 20
-79.726998
 40
0.402402
 50
76.165002
 51
103.834985
  0
LINE
  8
ボルト／ビス
  6
CONTINUOUS
 62
    64
 10
46.406818
 20
-79.324597
 11
46.438892
 21
-79.336272
  0
ARC
  8
ボルト／ビス
  6
CONTINUOUS
 62
    64
 10
46.390782
 20
-79.429574
 40
0.104978
 50
90.0
 51
117.278033
  0
LINE
  8
ボルト／ビス
  6
CONTINUOUS
 62
    64
 10
46.086067
 20
-79.324597
 11
46.406818
 21
-79.324597
  0
LINE
  8
ボルト／ビス
  6
CONTINUOUS
 62
    64
 10
46.438892
 20
-79.336272
 11
46.438892
 21
-79.457932
  0
LINE
  8
ボルト／ビス
  6
CONTINUOUS
 62
    64
 10
46.342668
 20
-79.336272
 11
46.342668
 21
-79.457932
  0
LINE
  8
ボルト／ビス
  6
CONTINUOUS
 62
    64
 10
46.053992
 20
-79.336272
 11
46.053992
 21
-79.457932
  0
LINE
  8
ボルト／ビス
  6
CONTINUOUS
 62
    64
 10
46.150217
 20
-79.336272
 11
46.150217
 21
-79.457932
  0
LINE
  8
ボルト／ビス
  6
CONTINUOUS
 10
46.053992
 20
-79.457932
 11
46.438892
 21
-79.457932
  0
LINE
  8
ボルト／ビス
  6
CONTINUOUS
 10
46.046443
 20
-79.457932
 11
46.046443
 21
-79.524597
  0
LINE
  8
ボルト／ビス
  6
CONTINUOUS
 10
46.046443
 20
-79.457932
 11
46.446443
 21
-79.457932
  0
LINE
  8
ボルト／ビス
  6
CONTINUOUS
 10
46.446443
 20
-79.457932
 11
46.446443
 21
-79.524597
  0
ENDBLK
  0
BLOCK
  2
*GRP_0032
 70
    65
 10
0.0
 20
0.0
  0
LINE
  8
ボルト／ビス
  6
DOT
 10
46.246443
 20
-59.291265
 11
46.246443
 21
-58.8246
  0
LINE
  8
ボルト／ビス
  6
DOT
 10
45.879777
 20
-59.291265
 11
45.879777
 21
-59.2246
  0
LINE
  8
ボルト／ビス
  6
DOT
 10
45.879777
 20
-59.2246
 11
46.61311
 21
-59.2246
  0
LINE
  8
ボルト／ビス
  6
DOT
 10
46.61311
 20
-59.2246
 11
46.61311
 21
-59.291265
  0
LINE
  8
ボルト／ビス
  6
DOT
 10
45.879777
 20
-59.291265
 11
46.61311
 21
-59.291265
  0
LINE
  8
ボルト／ビス
  6
DOT
 10
45.946443
 20
-59.191265
 11
45.946443
 21
-59.2246
  0
LINE
  8
ボルト／ビス
  6
DOT
 10
45.946443
 20
-59.191265
 11
46.546443
 21
-59.191265
  0
LINE
  8
ボルト／ビス
  6
DOT
 10
46.546443
 20
-59.191265
 11
46.546443
 21
-59.2246
  0
LINE
  8
ボルト／ビス
  6
DOT
 62
    64
 10
46.086067
 20
-58.991265
 11
46.053992
 21
-59.00294
  0
ARC
  8
ボルト／ビス
  6
DOT
 62
    64
 10
46.102107
 20
-59.096242
 40
0.104978
 50
62.721967
 51
90.0
  0
ARC
  8
ボルト／ビス
  6
DOT
 62
    64
 10
46.246445
 20
-59.393666
 40
0.402402
 50
76.165002
 51
103.834985
  0
LINE
  8
ボルト／ビス
  6
DOT
 62
    64
 10
46.406818
 20
-58.991265
 11
46.438892
 21
-59.00294
  0
ARC
  8
ボルト／ビス
  6
DOT
 62
    64
 10
46.390782
 20
-59.096242
 40
0.104978
 50
90.0
 51
117.278033
  0
LINE
  8
ボルト／ビス
  6
DOT
 62
    64
 10
46.086067
 20
-58.991265
 11
46.406818
 21
-58.991265
  0
LINE
  8
ボルト／ビス
  6
DOT
 62
    64
 10
46.438892
 20
-59.00294
 11
46.438892
 21
-59.1246
  0
LINE
  8
ボルト／ビス
  6
DOT
 62
    64
 10
46.342668
 20
-59.00294
 11
46.342668
 21
-59.1246
  0
LINE
  8
ボルト／ビス
  6
DOT
 62
    64
 10
46.053992
 20
-59.00294
 11
46.053992
 21
-59.1246
  0
LINE
  8
ボルト／ビス
  6
DOT
 62
    64
 10
46.150217
 20
-59.00294
 11
46.150217
 21
-59.1246
  0
LINE
  8
ボルト／ビス
  6
DOT
 10
46.053992
 20
-59.1246
 11
46.438892
 21
-59.1246
  0
LINE
  8
ボルト／ビス
  6
DOT
 10
46.046443
 20
-59.1246
 11
46.046443
 21
-59.191265
  0
LINE
  8
ボルト／ビス
  6
DOT
 10
46.046443
 20
-59.1246
 11
46.446443
 21
-59.1246
  0
LINE
  8
ボルト／ビス
  6
DOT
 10
46.446443
 20
-59.1246
 11
46.446443
 21
-59.191265
  0
ENDBLK
  0
BLOCK
  2
*GRP_0033
 70
    65
 10
0.0
 20
0.0
  0
LINE
  8
ボルト／ビス
  6
CONTINUOUS
 10
-71.753557
 20
-79.624597
 11
-71.753557
 21
-79.157932
  0
LINE
  8
ボルト／ビス
  6
CONTINUOUS
 10
-72.120222
 20
-79.624597
 11
-72.120222
 21
-79.557932
  0
LINE
  8
ボルト／ビス
  6
CONTINUOUS
 10
-72.120222
 20
-79.557932
 11
-71.38689
 21
-79.557932
  0
LINE
  8
ボルト／ビス
  6
CONTINUOUS
 10
-71.38689
 20
-79.557932
 11
-71.38689
 21
-79.624597
  0
LINE
  8
ボルト／ビス
  6
CONTINUOUS
 10
-72.120222
 20
-79.624597
 11
-71.38689
 21
-79.624597
  0
LINE
  8
ボルト／ビス
  6
CONTINUOUS
 10
-72.053557
 20
-79.524597
 11
-72.053557
 21
-79.557932
  0
LINE
  8
ボルト／ビス
  6
CONTINUOUS
 10
-72.053557
 20
-79.524597
 11
-71.453557
 21
-79.524597
  0
LINE
  8
ボルト／ビス
  6
CONTINUOUS
 10
-71.453557
 20
-79.524597
 11
-71.453557
 21
-79.557932
  0
LINE
  8
ボルト／ビス
  6
CONTINUOUS
 62
    64
 10
-71.913933
 20
-79.324597
 11
-71.946007
 21
-79.336272
  0
ARC
  8
ボルト／ビス
  6
CONTINUOUS
 62
    64
 10
-71.897893
 20
-79.429574
 40
0.104978
 50
62.721967
 51
90.0
  0
ARC
  8
ボルト／ビス
  6
CONTINUOUS
 62
    64
 10
-71.753555
 20
-79.726998
 40
0.402402
 50
76.165002
 51
103.834985
  0
LINE
  8
ボルト／ビス
  6
CONTINUOUS
 62
    64
 10
-71.593182
 20
-79.324597
 11
-71.561107
 21
-79.336272
  0
ARC
  8
ボルト／ビス
  6
CONTINUOUS
 62
    64
 10
-71.609218
 20
-79.429574
 40
0.104978
 50
90.0
 51
117.278033
  0
LINE
  8
ボルト／ビス
  6
CONTINUOUS
 62
    64
 10
-71.913933
 20
-79.324597
 11
-71.593182
 21
-79.324597
  0
LINE
  8
ボルト／ビス
  6
CONTINUOUS
 62
    64
 10
-71.561107
 20
-79.336272
 11
-71.561107
 21
-79.457932
  0
LINE
  8
ボルト／ビス
  6
CONTINUOUS
 62
    64
 10
-71.657333
 20
-79.336272
 11
-71.657333
 21
-79.457932
  0
LINE
  8
ボルト／ビス
  6
CONTINUOUS
 62
    64
 10
-71.946007
 20
-79.336272
 11
-71.946007
 21
-79.457932
  0
LINE
  8
ボルト／ビス
  6
CONTINUOUS
 62
    64
 10
-71.849783
 20
-79.336272
 11
-71.849783
 21
-79.457932
  0
LINE
  8
ボルト／ビス
  6
CONTINUOUS
 10
-71.946007
 20
-79.457932
 11
-71.561107
 21
-79.457932
  0
LINE
  8
ボルト／ビス
  6
CONTINUOUS
 10
-71.953557
 20
-79.457932
 11
-71.953557
 21
-79.524597
  0
LINE
  8
ボルト／ビス
  6
CONTINUOUS
 10
-71.953557
 20
-79.457932
 11
-71.553557
 21
-79.457932
  0
LINE
  8
ボルト／ビス
  6
CONTINUOUS
 10
-71.553557
 20
-79.457932
 11
-71.553557
 21
-79.524597
  0
ENDBLK
  0
BLOCK
  2
*GRP_0034
 70
    65
 10
0.0
 20
0.0
  0
LINE
  8
ボルト／ビス
  6
DOT
 10
-71.753557
 20
-59.291265
 11
-71.753557
 21
-58.8246
  0
LINE
  8
ボルト／ビス
  6
DOT
 10
-72.120222
 20
-59.291265
 11
-72.120222
 21
-59.2246
  0
LINE
  8
ボルト／ビス
  6
DOT
 10
-72.120222
 20
-59.2246
 11
-71.38689
 21
-59.2246
  0
LINE
  8
ボルト／ビス
  6
DOT
 10
-71.38689
 20
-59.2246
 11
-71.38689
 21
-59.291265
  0
LINE
  8
ボルト／ビス
  6
DOT
 10
-72.120222
 20
-59.291265
 11
-71.38689
 21
-59.291265
  0
LINE
  8
ボルト／ビス
  6
DOT
 10
-72.053557
 20
-59.191265
 11
-72.053557
 21
-59.2246
  0
LINE
  8
ボルト／ビス
  6
DOT
 10
-72.053557
 20
-59.191265
 11
-71.453557
 21
-59.191265
  0
LINE
  8
ボルト／ビス
  6
DOT
 10
-71.453557
 20
-59.191265
 11
-71.453557
 21
-59.2246
  0
LINE
  8
ボルト／ビス
  6
DOT
 62
    64
 10
-71.913933
 20
-58.991265
 11
-71.946007
 21
-59.00294
  0
ARC
  8
ボルト／ビス
  6
DOT
 62
    64
 10
-71.897893
 20
-59.096242
 40
0.104978
 50
62.721967
 51
90.0
  0
ARC
  8
ボルト／ビス
  6
DOT
 62
    64
 10
-71.753555
 20
-59.393666
 40
0.402402
 50
76.165002
 51
103.834985
  0
LINE
  8
ボルト／ビス
  6
DOT
 62
    64
 10
-71.593182
 20
-58.991265
 11
-71.561107
 21
-59.00294
  0
ARC
  8
ボルト／ビス
  6
DOT
 62
    64
 10
-71.609218
 20
-59.096242
 40
0.104978
 50
90.0
 51
117.278033
  0
LINE
  8
ボルト／ビス
  6
DOT
 62
    64
 10
-71.913933
 20
-58.991265
 11
-71.593182
 21
-58.991265
  0
LINE
  8
ボルト／ビス
  6
DOT
 62
    64
 10
-71.561107
 20
-59.00294
 11
-71.561107
 21
-59.1246
  0
LINE
  8
ボルト／ビス
  6
DOT
 62
    64
 10
-71.657333
 20
-59.00294
 11
-71.657333
 21
-59.1246
  0
LINE
  8
ボルト／ビス
  6
DOT
 62
    64
 10
-71.946007
 20
-59.00294
 11
-71.946007
 21
-59.1246
  0
LINE
  8
ボルト／ビス
  6
DOT
 62
    64
 10
-71.849783
 20
-59.00294
 11
-71.849783
 21
-59.1246
  0
LINE
  8
ボルト／ビス
  6
DOT
 10
-71.946007
 20
-59.1246
 11
-71.561107
 21
-59.1246
  0
LINE
  8
ボルト／ビス
  6
DOT
 10
-71.953557
 20
-59.1246
 11
-71.953557
 21
-59.191265
  0
LINE
  8
ボルト／ビス
  6
DOT
 10
-71.953557
 20
-59.1246
 11
-71.553557
 21
-59.1246
  0
LINE
  8
ボルト／ビス
  6
DOT
 10
-71.553557
 20
-59.1246
 11
-71.553557
 21
-59.191265
  0
ENDBLK
  0
ENDSEC
  0
SECTION
  2
ENTITIES
  0
POLYLINE
  8
通り芯
  6
CONTINUOUS
 66
     1
 70
     1
  0
VERTEX
  8
通り芯
 10
-210.0
 20
-148.5
  0
VERTEX
  8
通り芯
 10
210.0
 20
-148.5
  0
VERTEX
  8
通り芯
 10
210.0
 20
148.5
  0
VERTEX
  8
通り芯
 10
-210.0
 20
148.5
  0
SEQEND
  0
INSERT
  2
*GRP_0001
  8
型材断面
  6
CONTINUOUS
 10
0.0
 20
0.0
  0
LINE
  8
型材断面
  6
DASHDOT
 10
45.579775
 20
64.756625
 11
45.579775
 21
-87.251428
  0
LINE
  8
型材断面
  6
DASHDOT
 10
-12.753557
 20
64.756625
 11
-12.753557
 21
-87.251428
  0
LINE
  8
型材断面
  6
DASHDOT
 10
-71.086892
 20
64.756625
 11
-71.086892
 21
-87.251428
  0
LINE
  8
型材断面
  6
DASHDOT
 10
143.256538
 20
-1.910042
 11
-71.086892
 21
-1.910042
  0
LINE
  8
型材断面
  6
DASHDOT
 10
143.256538
 20
31.423293
 11
-71.086892
 21
31.423293
  0
LINE
  8
型材断面
  6
DASHDOT
 10
143.256538
 20
64.756625
 11
-71.086892
 21
64.756625
  0
LINE
  8
型材断面
  6
DOT
 10
-71.08689
 20
32.673293
 11
-33.516892
 21
32.673293
  0
LINE
  8
型材断面
  6
DOT
 10
-71.08689
 20
30.173293
 11
-33.516892
 21
30.173293
  0
POLYLINE
  8
型材断面
  6
CONTINUOUS
 66
     1
 70
     1
  0
VERTEX
  8
型材断面
 10
-3.173515
 20
-11.012788
  0
VERTEX
  8
型材断面
 10
-21.945445
 20
-11.012788
  0
VERTEX
  8
型材断面
 10
-21.945445
 20
-15.74963
  0
VERTEX
  8
型材断面
 10
-3.173515
 20
-15.74963
  0
SEQEND
  0
POLYLINE
  8
型材断面
  6
CONTINUOUS
 66
     1
 70
     1
  0
VERTEX
  8
型材断面
 10
-3.173515
 20
75.205727
  0
VERTEX
  8
型材断面
 10
-21.945445
 20
75.205727
  0
VERTEX
  8
型材断面
 10
-21.945445
 20
79.94257
  0
VERTEX
  8
型材断面
 10
-3.173515
 20
79.94257
  0
SEQEND
  0
LINE
  8
型材断面
  6
CONTINUOUS
 10
-73.717022
 20
31.423293
 11
-76.30753
 21
32.918923
  0
LINE
  8
型材断面
  6
CONTINUOUS
 10
-73.717022
 20
31.423293
 11
-76.30753
 21
29.927663
  0
LINE
  8
型材断面
  6
CONTINUOUS
 10
-76.30753
 20
29.927663
 11
-76.30753
 21
32.918923
  0
LINE
  8
型材断面
  6
CONTINUOUS
 10
-111.9391
 20
102.734097
 11
-111.343045
 21
100.14359
  0
LINE
  8
型材断面
  6
CONTINUOUS
 10
-111.9391
 20
102.734097
 11
-112.535157
 21
100.14359
  0
LINE
  8
型材断面
  6
CONTINUOUS
 10
-112.535157
 20
100.14359
 11
-111.343045
 21
100.14359
  0
LINE
  8
型材断面
  6
CONTINUOUS
 10
-117.961687
 20
96.864697
 11
-71.71991
 21
96.864697
  0
LINE
  8
型材断面
  6
CONTINUOUS
 10
-111.9391
 20
109.263973
 11
-113.43473
 21
106.673465
  0
LINE
  8
型材断面
  6
CONTINUOUS
 10
-111.9391
 20
109.263973
 11
-110.44347
 21
106.673465
  0
LINE
  8
型材断面
  6
CONTINUOUS
 10
-110.44347
 20
106.673465
 11
-113.43473
 21
106.673465
  0
LINE
  8
型材断面
  6
CONTINUOUS
 10
-117.961687
 20
105.73487
 11
-71.71991
 21
105.73487
  0
LINE
  8
型材断面
  6
CONTINUOUS
 10
-117.961687
 20
91.076665
 11
-71.71991
 21
91.076665
  0
LINE
  8
型材断面
  6
CONTINUOUS
 10
-54.420225
 20
-4.54017
 11
-55.915855
 21
-7.130678
  0
LINE
  8
型材断面
  6
CONTINUOUS
 10
-54.420225
 20
-4.54017
 11
-52.924595
 21
-7.130678
  0
LINE
  8
型材断面
  6
CONTINUOUS
 10
-52.924595
 20
-7.130678
 11
-55.915855
 21
-7.130678
  0
LINE
  8
型材断面
  6
CONTINUOUS
 10
-54.420225
 20
67.386755
 11
-55.915855
 21
69.977262
  0
LINE
  8
型材断面
  6
CONTINUOUS
 10
-54.420225
 20
67.386755
 11
-52.924595
 21
69.977262
  0
LINE
  8
型材断面
  6
CONTINUOUS
 10
-52.924595
 20
69.977262
 11
-55.915855
 21
69.977262
  0
LINE
  8
型材断面
  6
CONTINUOUS
 10
48.209908
 20
31.423293
 11
50.800415
 21
32.918923
  0
LINE
  8
型材断面
  6
CONTINUOUS
 10
48.209908
 20
31.423293
 11
50.800415
 21
29.927663
  0
LINE
  8
型材断面
  6
CONTINUOUS
 10
50.800415
 20
29.927663
 11
50.800415
 21
32.918923
  0
LINE
  8
型材断面
  6
CONTINUOUS
 10
28.91311
 20
-4.54017
 11
30.40874
 21
-7.130678
  0
LINE
  8
型材断面
  6
CONTINUOUS
 10
28.91311
 20
-4.54017
 11
27.41748
 21
-7.130678
  0
LINE
  8
型材断面
  6
CONTINUOUS
 10
27.41748
 20
-7.130678
 11
30.40874
 21
-7.130678
  0
LINE
  8
型材断面
  6
CONTINUOUS
 10
28.91311
 20
67.386755
 11
30.40874
 21
69.977262
  0
LINE
  8
型材断面
  6
CONTINUOUS
 10
28.91311
 20
67.386755
 11
27.41748
 21
69.977262
  0
LINE
  8
型材断面
  6
CONTINUOUS
 10
27.41748
 20
69.977262
 11
30.40874
 21
69.977262
  0
LINE
  8
型材断面
  6
DASHDOT
 10
136.146322
 20
-1.910045
 11
142.166388
 21
-1.910045
  0
LINE
  8
型材断面
  6
CONTINUOUS
 62
    47
 10
138.429655
 20
-3.30671
 11
138.429655
 21
-2.52671
  0
LINE
  8
型材断面
  6
CONTINUOUS
 10
136.596322
 20
-3.40671
 11
136.146322
 21
-3.40671
  0
LINE
  8
型材断面
  6
CONTINUOUS
 62
    47
 10
139.269015
 20
-4.190045
 11
138.93568
 21
-4.190045
  0
LINE
  8
型材断面
  6
CONTINUOUS
 62
    47
 10
138.93568
 20
-4.190045
 11
138.83568
 21
-3.40671
  0
LINE
  8
型材断面
  6
CONTINUOUS
 62
    47
 10
138.429655
 20
-3.40671
 11
138.83568
 21
-3.40671
  0
LINE
  8
型材断面
  6
CONTINUOUS
 62
    47
 10
138.429655
 20
-3.87671
 11
136.596322
 21
-3.87671
  0
LINE
  8
型材断面
  6
CONTINUOUS
 62
    47
 10
142.396322
 20
-3.310045
 11
141.896322
 21
-3.310045
  0
LINE
  8
型材断面
  6
CONTINUOUS
 62
    47
 10
141.896322
 20
-3.87671
 11
139.269015
 21
-3.87671
  0
LINE
  8
型材断面
  6
CONTINUOUS
 62
    47
 10
142.396322
 20
-3.310045
 11
142.396322
 21
31.42329
  0
LINE
  8
型材断面
  6
CONTINUOUS
 62
    47
 10
141.896322
 20
-3.87671
 11
141.896322
 21
31.42329
  0
LINE
  8
型材断面
  6
CONTINUOUS
 62
    47
 10
139.269015
 20
-4.190045
 11
139.269015
 21
31.42329
  0
LINE
  8
型材断面
  6
CONTINUOUS
 10
138.93568
 20
-4.190045
 11
138.93568
 21
31.42329
  0
LINE
  8
型材断面
  6
CONTINUOUS
 62
    47
 10
138.429655
 20
-3.87671
 11
138.429655
 21
31.42329
  0
LINE
  8
型材断面
  6
CONTINUOUS
 10
138.83568
 20
-3.40671
 11
138.83568
 21
31.42329
  0
LINE
  8
型材断面
  6
CONTINUOUS
 10
136.596322
 20
-3.87671
 11
136.596322
 21
31.42329
  0
LINE
  8
型材断面
  6
CONTINUOUS
 62
    47
 10
138.429655
 20
66.15329
 11
138.429655
 21
65.37329
  0
LINE
  8
型材断面
  6
CONTINUOUS
 10
136.596322
 20
66.25329
 11
136.146322
 21
66.25329
  0
LINE
  8
型材断面
  6
CONTINUOUS
 62
    47
 10
139.269015
 20
67.036622
 11
138.93568
 21
67.036622
  0
LINE
  8
型材断面
  6
CONTINUOUS
 62
    47
 10
138.93568
 20
67.036622
 11
138.83568
 21
66.25329
  0
LINE
  8
型材断面
  6
CONTINUOUS
 62
    47
 10
138.429655
 20
66.25329
 11
138.83568
 21
66.25329
  0
LINE
  8
型材断面
  6
CONTINUOUS
 62
    47
 10
138.429655
 20
66.72329
 11
136.596322
 21
66.72329
  0
LINE
  8
型材断面
  6
CONTINUOUS
 62
    47
 10
142.396322
 20
66.156623
 11
141.896322
 21
66.156623
  0
LINE
  8
型材断面
  6
CONTINUOUS
 62
    47
 10
141.896322
 20
66.72329
 11
139.269015
 21
66.72329
  0
LINE
  8
型材断面
  6
CONTINUOUS
 62
    47
 10
142.396322
 20
66.156623
 11
142.396322
 21
31.42329
  0
LINE
  8
型材断面
  6
CONTINUOUS
 62
    47
 10
141.896322
 20
66.72329
 11
141.896322
 21
31.42329
  0
LINE
  8
型材断面
  6
CONTINUOUS
 62
    47
 10
139.269015
 20
67.036622
 11
139.269015
 21
31.42329
  0
LINE
  8
型材断面
  6
CONTINUOUS
 10
138.93568
 20
67.036622
 11
138.93568
 21
31.42329
  0
LINE
  8
型材断面
  6
CONTINUOUS
 62
    47
 10
138.429655
 20
66.72329
 11
138.429655
 21
31.42329
  0
LINE
  8
型材断面
  6
CONTINUOUS
 10
138.83568
 20
66.25329
 11
138.83568
 21
31.42329
  0
LINE
  8
型材断面
  6
CONTINUOUS
 10
136.596322
 20
66.72329
 11
136.596322
 21
31.42329
  0
LINE
  8
型材断面
  6
CONTINUOUS
 62
    47
 10
46.976442
 20
-82.941215
 11
46.196443
 21
-82.941215
  0
LINE
  8
型材断面
  6
CONTINUOUS
 10
47.076442
 20
-81.107882
 11
47.076442
 21
-80.657882
  0
LINE
  8
型材断面
  6
CONTINUOUS
 62
    47
 10
47.859778
 20
-83.780575
 11
47.859778
 21
-83.44724
  0
LINE
  8
型材断面
  6
CONTINUOUS
 62
    47
 10
47.859778
 20
-83.44724
 11
47.076442
 21
-83.34724
  0
LINE
  8
型材断面
  6
CONTINUOUS
 62
    47
 10
47.076442
 20
-82.941215
 11
47.076442
 21
-83.34724
  0
LINE
  8
型材断面
  6
CONTINUOUS
 62
    47
 10
47.546443
 20
-82.941215
 11
47.546443
 21
-81.107882
  0
LINE
  8
型材断面
  6
CONTINUOUS
 62
    47
 10
46.979777
 20
-86.907882
 11
46.979777
 21
-86.407882
  0
LINE
  8
型材断面
  6
CONTINUOUS
 62
    47
 10
47.546443
 20
-86.407882
 11
47.546443
 21
-83.780575
  0
LINE
  8
型材断面
  6
CONTINUOUS
 10
47.646443
 20
-3.97671
 11
47.859778
 21
-4.190045
  0
LINE
  8
型材断面
  6
CONTINUOUS
 10
47.859778
 20
-4.190045
 11
47.859778
 21
31.423293
  0
LINE
  8
型材断面
  6
CONTINUOUS
 10
47.859778
 20
-4.190045
 11
-12.753557
 21
-4.190045
  0
LINE
  8
型材断面
  6
CONTINUOUS
 10
47.646443
 20
66.823295
 11
47.859778
 21
67.03663
  0
LINE
  8
型材断面
  6
CONTINUOUS
 10
47.859778
 20
67.03663
 11
47.859778
 21
31.423293
  0
LINE
  8
型材断面
  6
CONTINUOUS
 10
47.859778
 20
67.03663
 11
-12.753557
 21
67.03663
  0
LINE
  8
型材断面
  6
CONTINUOUS
 10
-73.153557
 20
66.823295
 11
-73.366892
 21
67.03663
  0
LINE
  8
型材断面
  6
CONTINUOUS
 10
-73.366892
 20
67.03663
 11
-73.366892
 21
31.423293
  0
LINE
  8
型材断面
  6
CONTINUOUS
 10
-73.366892
 20
67.03663
 11
-12.753557
 21
67.03663
  0
LINE
  8
型材断面
  6
CONTINUOUS
 10
-73.153557
 20
-3.97671
 11
-73.366892
 21
-4.190045
  0
LINE
  8
型材断面
  6
CONTINUOUS
 10
-73.366892
 20
-4.190045
 11
-73.366892
 21
31.423293
  0
LINE
  8
型材断面
  6
CONTINUOUS
 10
-73.366892
 20
-4.190045
 11
-12.753557
 21
-4.190045
  0
LINE
  8
型材断面
  6
CONTINUOUS
 10
47.546443
 20
-81.107882
 11
-12.753557
 21
-81.107882
  0
LINE
  8
型材断面
  6
CONTINUOUS
 62
    47
 10
47.859778
 20
-83.780575
 11
-12.753557
 21
-83.780575
  0
LINE
  8
型材断面
  6
CONTINUOUS
 10
47.076442
 20
-83.34724
 11
-12.753557
 21
-83.34724
  0
LINE
  8
型材断面
  6
CONTINUOUS
 10
47.859778
 20
-83.44724
 11
-12.753557
 21
-83.44724
  0
LINE
  8
型材断面
  6
CONTINUOUS
 62
    47
 10
47.546443
 20
-82.941215
 11
-12.753557
 21
-82.941215
  0
LINE
  8
型材断面
  6
CONTINUOUS
 62
    47
 10
47.546443
 20
-86.407882
 11
-12.753557
 21
-86.407882
  0
LINE
  8
型材断面
  6
CONTINUOUS
 62
    47
 10
46.979777
 20
-86.907882
 11
-12.753557
 21
-86.907882
  0
LINE
  8
型材断面
  6
CONTINUOUS
 10
-72.583558
 20
-81.107882
 11
-72.583558
 21
-80.657882
  0
LINE
  8
型材断面
  6
CONTINUOUS
 62
    47
 10
-73.366892
 20
-83.780575
 11
-73.366892
 21
-83.44724
  0
LINE
  8
型材断面
  6
CONTINUOUS
 62
    47
 10
-73.366892
 20
-83.44724
 11
-72.583558
 21
-83.34724
  0
LINE
  8
型材断面
  6
CONTINUOUS
 62
    47
 10
-72.583558
 20
-82.941215
 11
-72.583558
 21
-83.34724
  0
LINE
  8
型材断面
  6
CONTINUOUS
 62
    47
 10
-73.053557
 20
-82.941215
 11
-73.053557
 21
-81.107882
  0
LINE
  8
型材断面
  6
CONTINUOUS
 62
    47
 10
-72.486892
 20
-86.907882
 11
-72.486892
 21
-86.407882
  0
LINE
  8
型材断面
  6
CONTINUOUS
 62
    47
 10
-73.053557
 20
-86.407882
 11
-73.053557
 21
-83.780575
  0
LINE
  8
型材断面
  6
CONTINUOUS
 10
-73.053557
 20
-81.107882
 11
-12.753557
 21
-81.107882
  0
LINE
  8
型材断面
  6
CONTINUOUS
 62
    47
 10
-73.366892
 20
-83.780575
 11
-12.753557
 21
-83.780575
  0
LINE
  8
型材断面
  6
CONTINUOUS
 10
-72.583558
 20
-83.34724
 11
-12.753557
 21
-83.34724
  0
LINE
  8
型材断面
  6
CONTINUOUS
 10
-73.366892
 20
-83.44724
 11
-12.753557
 21
-83.44724
  0
LINE
  8
型材断面
  6
CONTINUOUS
 62
    47
 10
-73.053557
 20
-82.941215
 11
-12.753557
 21
-82.941215
  0
LINE
  8
型材断面
  6
CONTINUOUS
 62
    47
 10
-73.053557
 20
-86.407882
 11
-12.753557
 21
-86.407882
  0
LINE
  8
型材断面
  6
CONTINUOUS
 62
    47
 10
-72.486892
 20
-86.907882
 11
-12.753557
 21
-86.907882
  0
LINE
  8
型材断面
  6
DOT
 10
45.579775
 20
32.673293
 11
8.05311
 21
32.673293
  0
LINE
  8
型材断面
  6
DOT
 10
45.579775
 20
30.173293
 11
8.05311
 21
30.173293
  0
LINE
  8
型材断面
  6
DOT
 10
-31.016892
 20
32.673293
 11
5.55311
 21
32.673293
  0
LINE
  8
型材断面
  6
DOT
 10
-31.016892
 20
30.173293
 11
5.55311
 21
30.173293
  0
LINE
  8
型材断面
  6
CONTINUOUS
 10
48.209902
 20
60.856625
 11
50.80041
 21
60.260568
  0
LINE
  8
型材断面
  6
CONTINUOUS
 10
48.209902
 20
60.856625
 11
50.80041
 21
61.452683
  0
LINE
  8
型材断面
  6
CONTINUOUS
 10
50.80041
 20
61.452683
 11
50.80041
 21
60.260568
  0
LINE
  8
型材断面
  6
CONTINUOUS
 10
48.209902
 20
1.98996
 11
50.80041
 21
2.586017
  0
LINE
  8
型材断面
  6
CONTINUOUS
 10
48.209902
 20
1.98996
 11
50.80041
 21
1.393902
  0
LINE
  8
型材断面
  6
CONTINUOUS
 10
50.80041
 20
1.393902
 11
50.80041
 21
2.586017
  0
LINE
  8
型材断面
  6
CONTINUOUS
 10
-73.717018
 20
60.856625
 11
-76.307525
 21
60.260568
  0
LINE
  8
型材断面
  6
CONTINUOUS
 10
-73.717018
 20
60.856625
 11
-76.307525
 21
61.452683
  0
LINE
  8
型材断面
  6
CONTINUOUS
 10
-76.307525
 20
61.452683
 11
-76.307525
 21
60.260568
  0
LINE
  8
型材断面
  6
CONTINUOUS
 10
-73.717018
 20
1.98996
 11
-76.307525
 21
2.586017
  0
LINE
  8
型材断面
  6
CONTINUOUS
 10
-73.717018
 20
1.98996
 11
-76.307525
 21
1.393902
  0
LINE
  8
型材断面
  6
CONTINUOUS
 10
-76.307525
 20
1.393902
 11
-76.307525
 21
2.586017
  0
LINE
  8
型材断面
  6
DOT
 62
    47
 10
46.976442
 20
-62.607882
 11
46.196443
 21
-62.607882
  0
LINE
  8
型材断面
  6
DOT
 10
47.076442
 20
-60.77455
 11
47.076442
 21
-60.32455
  0
LINE
  8
型材断面
  6
DOT
 62
    47
 10
47.859778
 20
-63.447242
 11
47.859778
 21
-63.113908
  0
LINE
  8
型材断面
  6
DOT
 62
    47
 10
47.859778
 20
-63.113908
 11
47.076442
 21
-63.013908
  0
LINE
  8
型材断面
  6
DOT
 62
    47
 10
47.076442
 20
-62.607882
 11
47.076442
 21
-63.013908
  0
LINE
  8
型材断面
  6
DOT
 62
    47
 10
47.546443
 20
-62.607882
 11
47.546443
 21
-60.77455
  0
LINE
  8
型材断面
  6
DOT
 10
47.546443
 20
-60.77455
 11
-12.753557
 21
-60.77455
  0
LINE
  8
型材断面
  6
DOT
 62
    47
 10
47.859778
 20
-63.447242
 11
-12.753557
 21
-63.447242
  0
LINE
  8
型材断面
  6
DOT
 10
47.076442
 20
-63.013908
 11
-12.753557
 21
-63.013908
  0
LINE
  8
型材断面
  6
DOT
 10
47.859778
 20
-63.113908
 11
-12.753557
 21
-63.113908
  0
LINE
  8
型材断面
  6
DOT
 62
    47
 10
47.546443
 20
-62.607882
 11
-12.753557
 21
-62.607882
  0
LINE
  8
型材断面
  6
DOT
 10
-72.583558
 20
-60.77455
 11
-72.583558
 21
-60.32455
  0
LINE
  8
型材断面
  6
DOT
 62
    47
 10
-73.366892
 20
-63.447242
 11
-73.366892
 21
-63.113908
  0
LINE
  8
型材断面
  6
DOT
 62
    47
 10
-73.366892
 20
-63.113908
 11
-72.583558
 21
-63.013908
  0
LINE
  8
型材断面
  6
DOT
 62
    47
 10
-72.583558
 20
-62.607882
 11
-72.583558
 21
-63.013908
  0
LINE
  8
型材断面
  6
DOT
 62
    47
 10
-73.053557
 20
-62.607882
 11
-73.053557
 21
-60.77455
  0
LINE
  8
型材断面
  6
DOT
 10
-73.053557
 20
-60.77455
 11
-12.753557
 21
-60.77455
  0
LINE
  8
型材断面
  6
DOT
 62
    47
 10
-73.366892
 20
-63.447242
 11
-12.753557
 21
-63.447242
  0
LINE
  8
型材断面
  6
DOT
 10
-72.583558
 20
-63.013908
 11
-12.753557
 21
-63.013908
  0
LINE
  8
型材断面
  6
DOT
 10
-73.366892
 20
-63.113908
 11
-12.753557
 21
-63.113908
  0
LINE
  8
型材断面
  6
DOT
 62
    47
 10
-73.053557
 20
-62.607882
 11
-12.753557
 21
-62.607882
  0
INSERT
  2
*GRP_0016
  8
型材断面
  6
CONTINUOUS
 10
0.0
 20
0.0
  0
INSERT
  2
*GRP_0017
  8
型材断面
  6
CONTINUOUS
 10
0.0
 20
0.0
  0
INSERT
  2
*GRP_0018
  8
型材断面
  6
CONTINUOUS
 10
0.0
 20
0.0
  0
INSERT
  2
*GRP_0019
  8
型材断面
  6
CONTINUOUS
 10
0.0
 20
0.0
  0
LINE
  8
型材断面
  6
CONTINUOUS
 10
-117.961687
 20
85.288632
 11
-71.71991
 21
85.288632
  0
LINE
  8
型材断面
  6
DASHDOT
 10
-32.31356
 20
-1.910042
 11
-32.31356
 21
64.756625
  0
LINE
  8
型材断面
  6
DOT
 10
-31.06356
 20
-1.910042
 11
-31.06356
 21
64.756625
  0
LINE
  8
型材断面
  6
DOT
 10
-33.56356
 20
-1.910042
 11
-33.56356
 21
64.756625
  0
LINE
  8
型材断面
  6
DASHDOT
 10
6.806445
 20
-1.910042
 11
6.806445
 21
64.756625
  0
LINE
  8
型材断面
  6
DOT
 10
5.556445
 20
-1.910042
 11
5.556445
 21
64.756625
  0
LINE
  8
型材断面
  6
DOT
 10
8.056445
 20
-1.910042
 11
8.056445
 21
64.756625
  0
TEXT
  7
TextStyle03
  8
文字
  6
CONTINUOUS
 10
-20.925
 20
-14.7
  1
可動装置側
 40
3.0
 72
     5
 11
-4.425
 21
-14.7
  0
TEXT
  7
TextStyle03
  8
文字
  6
CONTINUOUS
 10
-20.925
 20
75.975
  1
可動装置側
 40
3.0
 72
     5
 11
-4.425
 21
75.975
  0
TEXT
  7
TextStyle03
  8
文字
  6
CONTINUOUS
 10
-109.85
 20
2.025
  1
アンカーピッチ
 40
3.0
 50
90.0
 72
     5
 11
-109.85
 21
25.275
  0
TEXT
  7
TextStyle03
  8
文字
  6
CONTINUOUS
 10
-109.175
 20
101.325
  1
はケーシング位置を示す
 40
3.0
 72
     5
 11
-72.425
 21
101.325
  0
TEXT
  7
TextStyle03
  8
文字
  6
CONTINUOUS
 10
-109.175
 20
97.95
  1
４ヶ所中1ヶ所に設定
 40
3.0
 72
     5
 11
-77.4875
 21
97.95
  0
TEXT
  7
TextStyle03
  8
文字
  6
CONTINUOUS
 10
-109.175
 20
106.85
  1
は排水穴位置を示す
 40
3.0
 72
     5
 11
-79.175
 21
106.85
  0
TEXT
  7
TextStyle03
  8
文字
  6
CONTINUOUS
 10
-66.35
 20
102.75
  1
アンカーピッチ
 40
3.0
 72
     5
 11
-43.1
 21
102.75
  0
TEXT
  7
TextStyle03
  8
文字
  6
CONTINUOUS
 10
-112.9
 20
91.975
  1
アンカー数量　１６ヶ所
 40
3.0
 72
     5
 11
-76.15
 21
91.975
  0
TEXT
  7
TextStyle03
  8
文字
  6
CONTINUOUS
 10
-112.95
 20
86.2
  1
アームユニット数　４ヶ所
 40
3.0
 72
     5
 11
-72.825
 21
86.2
  0
TEXT
  7
TextStyle03
  8
文字
  6
CONTINUOUS
 10
113.9
 20
-83.825
  1
網入り6.8t
 40
3.0
 72
     5
 11
130.5875
 21
-83.825
  0
TEXT
  7
TextStyle03
  8
文字
  6
CONTINUOUS
 10
120.2
 20
-88.45
  1
×３枚
 40
3.0
 72
     5
 11
129.95
 21
-88.45
  0
LINE
  8
文字
  6
CONTINUOUS
 10
95.296602
 20
-15.341982
 11
95.296602
 21
-22.910538
  0
LINE
  8
文字
  6
CONTINUOUS
 10
133.06327
 20
-15.341982
 11
133.06327
 21
-22.910538
  0
LINE
  8
文字
  6
CONTINUOUS
 10
151.849378
 20
-24.759512
 11
136.58884
 21
-24.759512
  0
LINE
  8
文字
  6
CONTINUOUS
 10
151.849378
 20
-90.759512
 11
136.58884
 21
-90.759512
  0
TEXT
  7
TextStyle03
  8
文字
  6
CONTINUOUS
 10
78.1
 20
125.25
  1
シリーズ：ＳＴＤＬ
 40
5.0
 72
     5
 11
128.1
 21
125.25
  0
TEXT
  7
TextStyle03
  8
文字
  6
CONTINUOUS
 10
78.1
 20
119.625
  1
　　　　　（上下可動）2000×3500タイプ
 40
5.0
 72
     5
 11
184.35
 21
119.625
  0
TEXT
  7
TextStyle03
  8
文字
  6
CONTINUOUS
 10
78.1
 20
114.0
  1
図面名　：外観姿図
 40
5.0
 72
     5
 11
128.1
 21
114.0
  0
TEXT
  7
TextStyle03
  8
文字
  6
CONTINUOUS
 10
78.1
 20
108.375
  1
　　　　　　
 40
5.0
 72
     5
 11
111.225
 21
108.375
  0
TEXT
  7
TextStyle03
  8
文字
  6
CONTINUOUS
 10
77.425
 20
103.975
  1
ＮＳコード：ＮＳＤＳＬ
 40
5.0
 72
     5
 11
138.675
 21
103.975
  0
INSERT
  2
*DIM_0002
  8
寸法
  6
CONTINUOUS
 10
0.0
 20
0.0
  0
INSERT
  2
*DIM_0003
  8
寸法
  6
CONTINUOUS
 10
0.0
 20
0.0
  0
INSERT
  2
*DIM_0004
  8
寸法
  6
CONTINUOUS
 10
0.0
 20
0.0
  0
INSERT
  2
*DIM_0005
  8
寸法
  6
CONTINUOUS
 10
0.0
 20
0.0
  0
INSERT
  2
*DIM_0006
  8
寸法
  6
CONTINUOUS
 10
0.0
 20
0.0
  0
INSERT
  2
*DIM_0007
  8
寸法
  6
CONTINUOUS
 10
0.0
 20
0.0
  0
INSERT
  2
*DIM_0008
  8
寸法
  6
CONTINUOUS
 10
0.0
 20
0.0
  0
INSERT
  2
*DIM_0009
  8
寸法
  6
CONTINUOUS
 10
0.0
 20
0.0
  0
INSERT
  2
*DIM_0010
  8
寸法
  6
CONTINUOUS
 10
0.0
 20
0.0
  0
INSERT
  2
*DIM_0011
  8
寸法
  6
CONTINUOUS
 10
0.0
 20
0.0
  0
INSERT
  2
*DIM_0012
  8
寸法
  6
CONTINUOUS
 10
0.0
 20
0.0
  0
INSERT
  2
*DIM_0013
  8
寸法
  6
CONTINUOUS
 10
0.0
 20
0.0
  0
INSERT
  2
*DIM_0014
  8
寸法
  6
CONTINUOUS
 10
0.0
 20
0.0
  0
INSERT
  2
*DIM_0020
  8
寸法
  6
CONTINUOUS
 10
0.0
 20
0.0
  0
INSERT
  2
*DIM_0021
  8
寸法
  6
CONTINUOUS
 10
0.0
 20
0.0
  0
INSERT
  2
*DIM_0022
  8
寸法
  6
CONTINUOUS
 10
0.0
 20
0.0
  0
INSERT
  2
*DIM_0023
  8
寸法
  6
CONTINUOUS
 10
0.0
 20
0.0
  0
INSERT
  2
*DIM_0024
  8
寸法
  6
CONTINUOUS
 10
0.0
 20
0.0
  0
INSERT
  2
*DIM_0025
  8
寸法
  6
CONTINUOUS
 10
0.0
 20
0.0
  0
INSERT
  2
*DIM_0026
  8
寸法
  6
CONTINUOUS
 10
0.0
 20
0.0
  0
INSERT
  2
*DIM_0027
  8
寸法
  6
CONTINUOUS
 10
0.0
 20
0.0
  0
INSERT
  2
*DIM_0028
  8
寸法
  6
CONTINUOUS
 10
0.0
 20
0.0
  0
LINE
  8
別途部材
  6
CONTINUOUS
 10
47.646443
 20
-3.97671
 11
47.246443
 21
-3.57671
  0
LINE
  8
別途部材
  6
CONTINUOUS
 10
45.579775
 20
-1.910042
 11
37.52052
 21
6.149215
  0
LINE
  8
別途部材
  6
CONTINUOUS
 10
47.646443
 20
-3.97671
 11
47.646443
 21
31.423293
  0
LINE
  8
別途部材
  6
CONTINUOUS
 10
47.246443
 20
-3.57671
 11
47.246443
 21
31.423293
  0
LINE
  8
別途部材
  6
CONTINUOUS
 10
47.646443
 20
66.823295
 11
47.246443
 21
66.423295
  0
LINE
  8
別途部材
  6
CONTINUOUS
 10
45.579775
 20
64.756627
 11
37.52052
 21
56.69737
  0
LINE
  8
別途部材
  6
CONTINUOUS
 10
47.646443
 20
66.823295
 11
47.646443
 21
31.423293
  0
LINE
  8
別途部材
  6
CONTINUOUS
 10
47.246443
 20
66.423295
 11
47.246443
 21
31.423293
  0
LINE
  8
別途部材
  6
CONTINUOUS
 10
47.646443
 20
-3.97671
 11
-12.753557
 21
-3.97671
  0
LINE
  8
別途部材
  6
CONTINUOUS
 10
47.246443
 20
-3.57671
 11
-12.753557
 21
-3.57671
  0
LINE
  8
別途部材
  6
CONTINUOUS
 10
47.246443
 20
66.423295
 11
-12.753557
 21
66.423295
  0
LINE
  8
別途部材
  6
CONTINUOUS
 10
47.646443
 20
66.823295
 11
-12.753557
 21
66.823295
  0
LINE
  8
別途部材
  6
CONTINUOUS
 10
-73.153557
 20
-3.97671
 11
-72.753557
 21
-3.57671
  0
LINE
  8
別途部材
  6
CONTINUOUS
 10
-71.08689
 20
-1.910042
 11
-63.027635
 21
6.149215
  0
LINE
  8
別途部材
  6
CONTINUOUS
 10
-73.153557
 20
-3.97671
 11
-73.153557
 21
31.423293
  0
LINE
  8
別途部材
  6
CONTINUOUS
 10
-72.753557
 20
-3.57671
 11
-72.753557
 21
31.423293
  0
LINE
  8
別途部材
  6
CONTINUOUS
 10
-73.153557
 20
66.823295
 11
-72.753557
 21
66.423295
  0
LINE
  8
別途部材
  6
CONTINUOUS
 10
-71.08689
 20
64.756627
 11
-63.027635
 21
56.69737
  0
LINE
  8
別途部材
  6
CONTINUOUS
 10
-73.153557
 20
66.823295
 11
-73.153557
 21
31.423293
  0
LINE
  8
別途部材
  6
CONTINUOUS
 10
-72.753557
 20
66.423295
 11
-72.753557
 21
31.423293
  0
LINE
  8
別途部材
  6
CONTINUOUS
 10
-73.153557
 20
-3.97671
 11
-12.753557
 21
-3.97671
  0
LINE
  8
別途部材
  6
CONTINUOUS
 10
-72.753557
 20
-3.57671
 11
-12.753557
 21
-3.57671
  0
LINE
  8
別途部材
  6
CONTINUOUS
 10
-72.753557
 20
66.423295
 11
-12.753557
 21
66.423295
  0
LINE
  8
別途部材
  6
CONTINUOUS
 10
-73.153557
 20
66.823295
 11
-12.753557
 21
66.823295
  0
LINE
  8
別途部材
  6
CONTINUOUS
 62
    96
 10
135.11304
 20
-3.57671
 11
136.11304
 21
-3.97671
  0
ARC
  8
別途部材
  6
CONTINUOUS
 10
160.113036
 20
31.42329
 40
41.666665
 50
180.0
 51
233.130105
  0
ARC
  8
別途部材
  6
CONTINUOUS
 10
160.113036
 20
31.423291
 40
41.666665
 50
126.869895
 51
180.0
  0
LINE
  8
別途部材
  6
CONTINUOUS
 10
136.11304
 20
-3.97671
 11
136.11304
 21
31.42329
  0
LINE
  8
別途部材
  6
CONTINUOUS
 62
    96
 10
135.11304
 20
-3.57671
 11
135.11304
 21
31.42329
  0
LINE
  8
別途部材
  6
CONTINUOUS
 62
    96
 10
135.11304
 20
66.42329
 11
136.11304
 21
66.82329
  0
LINE
  8
別途部材
  6
CONTINUOUS
 10
136.11304
 20
66.82329
 11
136.11304
 21
31.42329
  0
LINE
  8
別途部材
  6
CONTINUOUS
 62
    96
 10
135.11304
 20
66.42329
 11
135.11304
 21
31.42329
  0
INSERT
  2
*GRP_0015
  8
別途部材
  6
CONTINUOUS
 10
0.0
 20
0.0
  0
LINE
  8
別途部材
  6
DOT
 62
    96
 10
47.246443
 20
-59.291265
 11
47.646443
 21
-60.291265
  0
LINE
  8
別途部材
  6
DOT
 62
    96
 10
47.246443
 20
-59.291265
 11
-12.753557
 21
-59.291265
  0
LINE
  8
別途部材
  6
DOT
 10
47.646443
 20
-60.291265
 11
-12.753557
 21
-60.291265
  0
LINE
  8
別途部材
  6
DOT
 62
    96
 10
-72.753557
 20
-59.291265
 11
-73.153557
 21
-60.291265
  0
LINE
  8
別途部材
  6
DOT
 62
    96
 10
-72.753557
 20
-59.291265
 11
-12.753557
 21
-59.291265
  0
LINE
  8
別途部材
  6
DOT
 10
-73.153557
 20
-60.291265
 11
-12.753557
 21
-60.291265
  0
ARC
  8
別途部材
  6
DOT
 10
-54.420225
 20
-59.291265
 40
16.666667
 50
90.0
 51
180.0
  0
ARC
  8
別途部材
  6
DOT
 10
28.91311
 20
-59.291265
 40
16.666667
 50
0.0
 51
90.0
  0
LINE
  8
別途部材
  6
DOT
 10
-12.753557
 20
-42.624597
 11
28.91311
 21
-42.624597
  0
LINE
  8
別途部材
  6
DOT
 10
-12.753557
 20
-42.624597
 11
-54.420225
 21
-42.624597
  0
INSERT
  2
*GRP_0029
  8
別途部材
  6
DOT
 10
0.0
 20
0.0
  0
INSERT
  2
*GRP_0030
  8
別途部材
  6
DOT
 10
0.0
 20
0.0
  0
INSERT
  2
*GRP_0031
  8
別途部材
  6
DOT
 10
0.0
 20
0.0
  0
INSERT
  2
*GRP_0032
  8
別途部材
  6
DOT
 10
0.0
 20
0.0
  0
INSERT
  2
*GRP_0033
  8
別途部材
  6
DOT
 10
0.0
 20
0.0
  0
INSERT
  2
*GRP_0034
  8
別途部材
  6
DOT
 10
0.0
 20
0.0
  0
LINE
  8
曲げ物
  6
CONTINUOUS
 10
95.296602
 20
-90.759512
 11
95.296602
 21
-24.759512
  0
LINE
  8
曲げ物
  6
CONTINUOUS
 10
133.06327
 20
-90.759512
 11
133.06327
 21
-24.759512
  0
LINE
  8
曲げ物
  6
CONTINUOUS
 10
95.296602
 20
-24.759512
 11
133.06327
 21
-24.759512
  0
LINE
  8
曲げ物
  6
CONTINUOUS
 10
95.296602
 20
-90.759512
 11
133.06327
 21
-90.759512
  0
ENDSEC
  0
EOF
