  0
SECTION
  2
HEADER
  9
$EXTMIN
 10
-210.0
 20
-148.5
  9
$EXTMAX
 10
210.0
 20
148.5
  9
$PDMODE
 70
    32
  9
$PDSIZE
 40
1.5
  9
$LTSCALE
 40
10.0
  0
ENDSEC
  0
SECTION
  2
TABLES
  0
TABLE
  2
LTYPE
 70
    15
  0
LTYPE
  2
CONTINUOUS
 70
    64
  3
実線
 72
    65
 73
     0
 40
0.0
  0
LTYPE
  2
DASHED
 70
    64
  3
破線A
 72
    65
 73
     2
 40
0.6
 49
0.4
 49
-0.2
  0
LTYPE
  2
DASHEDX2
 70
    64
  3
破線B
 72
    65
 73
     2
 40
1.3
 49
0.9
 49
-0.4
  0
LTYPE
  2
DASHDOT
 70
    64
  3
１点鎖線A
 72
    65
 73
     4
 40
0.5375
 49
0.375
 49
-0.05
 49
0.0625
 49
-0.05
  0
LTYPE
  2
DASHDOTX2
 70
    64
  3
１点鎖線B
 72
    65
 73
     4
 40
1.075
 49
0.75
 49
-0.1
 49
0.125
 49
-0.1
  0
LTYPE
  2
DIVIDE2
 70
    64
  3
２点鎖線A
 72
    65
 73
     6
 40
0.5125
 49
0.3
 49
-0.0375
 49
0.05
 49
-0.0375
 49
0.05
 49
-0.0375
  0
LTYPE
  2
DIVIDE
 70
    64
  3
２点鎖線B
 72
    65
 73
     6
 40
1.05
 49
0.55
 49
-0.1
 49
0.1
 49
-0.1
 49
0.1
 49
-0.1
  0
LTYPE
  2
DOT
 70
    64
  3
点線A
 72
    65
 73
     2
 40
0.1125
 49
0.0625
 49
-0.05
  0
LTYPE
  2
DOTX2
 70
    64
  3
点線B
 72
    65
 73
     2
 40
0.275
 49
0.15
 49
-0.125
  0
LTYPE
  2
CONTINUOUS
 70
    64
  3
実線
 72
    65
 73
     0
 40
0.0
  0
LTYPE
  2
CONTINUOUS
 70
    64
  3
実線
 72
    65
 73
     0
 40
0.0
  0
LTYPE
  2
CONTINUOUS
 70
    64
  3
実線
 72
    65
 73
     0
 40
0.0
  0
LTYPE
  2
CONTINUOUS
 70
    64
  3
実線
 72
    65
 73
     0
 40
0.0
  0
LTYPE
  2
CONTINUOUS
 70
    64
  3
実線
 72
    65
 73
     0
 40
0.0
  0
LTYPE
  2
CONTINUOUS
 70
    64
  3
実線
 72
    65
 73
     0
 40
0.0
  0
ENDTAB
  0
TABLE
  2
LAYER
 70
    34
  0
LAYER
  2
通り芯
 70
     0
 62
    15
  6
CONTINUOUS
  0
LAYER
  2
補助線
 70
     0
 62
    16
  6
DOT
  0
LAYER
  2
躯体
 70
     0
 62
    31
  6
CONTINUOUS
  0
LAYER
  2
型材
 70
     0
 62
    32
  6
CONTINUOUS
  0
LAYER
  2
型材断面
 70
     0
 62
    47
  6
CONTINUOUS
  0
LAYER
  2
ガラス
 70
     0
 62
    48
  6
CONTINUOUS
  0
LAYER
  2
ゴム等
 70
     0
 62
    63
  6
CONTINUOUS
  0
LAYER
  2
ボルト／ビス
 70
     0
 62
    64
  6
CONTINUOUS
  0
LAYER
  2
文字
 70
     0
 62
    79
  6
CONTINUOUS
  0
LAYER
  2
寸法
 70
     0
 62
    80
  6
CONTINUOUS
  0
LAYER
  2
ﾊｯﾁﾝｸﾞ
 70
     0
 62
    95
  6
CONTINUOUS
  0
LAYER
  2
別途部材
 70
     0
 62
    96
  6
CONTINUOUS
  0
LAYER
  2
曲げ物
 70
     0
 62
   111
  6
CONTINUOUS
  0
LAYER
  2
鉄骨等
 70
     0
 62
   112
  6
CONTINUOUS
  0
LAYER
  2
St
 70
     0
 62
   127
  6
CONTINUOUS
  0
LAYER
  2
その他部品等
 70
     0
 62
   128
  6
CONTINUOUS
  0
LAYER
  2
ｶﾞｽｹｯﾄ
 70
     0
 62
   143
  6
CONTINUOUS
  0
LAYER
  2
ｽｹｯﾁ
 70
     0
 62
    14
  6
CONTINUOUS
  0
LAYER
  2
0
 70
     0
 62
    17
  6
CONTINUOUS
  0
LAYER
  2
1
 70
     0
 62
    30
  6
CONTINUOUS
  0
LAYER
  2
4
 70
     0
 62
    33
  6
CONTINUOUS
  0
LAYER
  2
ﾚｲﾔ3
 70
     0
 62
    46
  6
CONTINUOUS
  0
LAYER
  2
外形線
 70
     0
 62
    49
  6
CONTINUOUS
  0
LAYER
  2
部品
 70
     0
 62
    14
  6
CONTINUOUS
  0
LAYER
  2
サッシ芯
 70
     0
 62
    17
  6
DASHDOTX2
  0
LAYER
  2
寸法線
 70
     0
 62
    62
  6
CONTINUOUS
  0
LAYER
  2
姿図外形線
 70
     0
 62
    65
  6
CONTINUOUS
  0
LAYER
  2
姿補助線
 70
     0
 62
    30
  6
CONTINUOUS
  0
LAYER
  2
透視線
 70
     0
 62
    78
  6
DOT
  0
LAYER
  2
用紙
 70
     0
 62
    81
  6
CONTINUOUS
  0
LAYER
  2
実線図枠
 70
     0
 62
    94
  6
CONTINUOUS
  0
LAYER
  2
補助図枠
 70
     0
 62
    97
  6
CONTINUOUS
  0
LAYER
  2
建具記号
 70
     0
 62
   110
  6
CONTINUOUS
  0
LAYER
  2
補助文字
 70
     0
 62
   113
  6
CONTINUOUS
  0
ENDTAB
  0
TABLE
  2
STYLE
 70
    10
  0
STYLE
  2
STANDARD
 70
     0
 40
1.0
 41
1.0
 42
1.0
 50
0.0
 71
     0
  3
TXT
  4
BIGFONT
  0
STYLE
  2
TATE
 70
     4
 40
1.0
 41
1.0
 42
1.0
 50
0.0
 71
     0
  3
TXT
  4
BIGFONT
  0
STYLE
  2
TextStyle03
 70
     0
 40
1.0
 41
1.0
 42
1.0
 50
0.0
 71
     0
  3
MONOTXT
  4
BIGFONT
  0
STYLE
  2
TextStyle04
 70
     0
 40
1.0
 41
1.0
 42
1.0
 50
0.0
 71
     0
  3
MONOTXT
  4
BIGFONT
  0
STYLE
  2
TextStyle05
 70
     0
 40
1.0
 41
1.0
 42
1.0
 50
0.0
 71
     0
  3
MONOTXT
  4
BIGFONT
  0
STYLE
  2
TextStyle06
 70
     0
 40
1.0
 41
1.0
 42
1.0
 50
0.0
 71
     0
  3
MONOTXT
  4
BIGFONT
  0
STYLE
  2
TextStyle07
 70
     0
 40
1.0
 41
1.0
 42
1.0
 50
0.0
 71
     0
  3
MONOTXT
  4
BIGFONT
  0
STYLE
  2
TextStyle08
 70
     0
 40
1.0
 41
1.0
 42
1.0
 50
0.0
 71
     0
  3
MONOTXT
  4
BIGFONT
  0
STYLE
  2
TextStyle09
 70
     0
 40
1.0
 41
1.0
 42
1.0
 50
0.0
 71
     0
  3
MONOTXT
  4
BIGFONT
  0
STYLE
  2
TextStyle10
 70
     0
 40
1.0
 41
1.0
 42
1.0
 50
0.0
 71
     0
  3
MONOTXT
  4
BIGFONT
  0
ENDTAB
  0
ENDSEC
  0
SECTION
  2
BLOCKS
  0
BLOCK
  2
*GRP_0001
 70
    65
 10
0.0
 20
0.0
  0
LINE
  8
型材断面
  6
CONTINUOUS
 10
195.0
 20
133.5
 11
195.0
 21
-133.5
  0
LINE
  8
型材断面
  6
CONTINUOUS
 10
195.0
 20
-133.5
 11
-185.0
 21
-133.5
  0
LINE
  8
型材断面
  6
CONTINUOUS
 10
-185.0
 20
-133.5
 11
-185.0
 21
133.5
  0
LINE
  8
型材断面
  6
CONTINUOUS
 10
195.0
 20
133.5
 11
-185.0
 21
133.5
  0
LINE
  8
型材断面
  6
CONTINUOUS
 10
145.0
 20
-133.5
 11
145.0
 21
-118.5
  0
LINE
  8
型材断面
  6
CONTINUOUS
 10
195.0
 20
-118.5
 11
145.0
 21
-118.5
  0
ENDBLK
  0
BLOCK
  2
*DIM_0002
 70
    65
 10
0.0
 20
0.0
  0
LINE
  8
寸法
  6
BYBLOCK
 62
     0
 10
13.246443
 20
-62.95793
 11
61.549425
 21
-62.95793
  0
LINE
  8
寸法
  6
BYBLOCK
 62
     0
 10
61.549425
 20
-79.624597
 11
61.549425
 21
-62.95793
  0
POINT
  8
寸法
 62
     0
 10
61.549425
 20
-62.95793
  0
TEXT
  7
TextStyle03
  8
寸法
  6
CONTINUOUS
 62
     0
 10
61.175
 20
-73.7375
  1
500
 40
3.0
 50
90.0
 72
     5
 11
61.175
 21
-68.8625
  0
ENDBLK
  0
BLOCK
  2
*DIM_0003
 70
    65
 10
0.0
 20
0.0
  0
LINE
  8
寸法
  6
BYBLOCK
 62
     0
 10
45.579775
 20
-23.142105
 11
-104.420225
 21
-23.142105
  0
POINT
  8
寸法
 62
     0
 10
45.579775
 20
-23.142105
  0
POINT
  8
寸法
 62
     0
 10
-104.420225
 20
-23.142105
  0
TEXT
  7
TextStyle03
  8
寸法
  6
CONTINUOUS
 62
     0
 10
-41.14375
 20
-22.775
  1
呼称寸法　4500
 40
3.0
 72
     5
 11
-17.70625
 21
-22.775
  0
ENDBLK
  0
BLOCK
  2
*DIM_0004
 70
    65
 10
0.0
 20
0.0
  0
LINE
  8
寸法
  6
BYBLOCK
 62
     0
 10
-87.753557
 20
-5.54017
 11
-87.753557
 21
-9.980263
  0
LINE
  8
寸法
  6
BYBLOCK
 62
     0
 10
-29.420225
 20
-5.54017
 11
-29.420225
 21
-9.980263
  0
LINE
  8
寸法
  6
BYBLOCK
 62
     0
 10
-87.753557
 20
-9.980263
 11
-29.420225
 21
-9.980263
  0
POINT
  8
寸法
 62
     0
 10
-87.753557
 20
-9.980263
  0
POINT
  8
寸法
 62
     0
 10
-29.420225
 20
-9.980263
  0
TEXT
  7
TextStyle03
  8
寸法
  6
CONTINUOUS
 62
     0
 10
-61.88125
 20
-9.625
  1
1750
 40
3.0
 72
     5
 11
-55.31875
 21
-9.625
  0
ENDBLK
  0
BLOCK
  2
*DIM_0005
 70
    65
 10
0.0
 20
0.0
  0
LINE
  8
寸法
  6
BYBLOCK
 62
     0
 10
28.913107
 20
-5.54017
 11
28.913107
 21
-9.980263
  0
LINE
  8
寸法
  6
BYBLOCK
 62
     0
 10
-29.420225
 20
-9.980263
 11
28.913107
 21
-9.980263
  0
POINT
  8
寸法
 62
     0
 10
28.913107
 20
-9.980263
  0
TEXT
  7
TextStyle03
  8
寸法
  6
CONTINUOUS
 62
     0
 10
-3.55625
 20
-9.625
  1
1750
 40
3.0
 72
     5
 11
3.00625
 21
-9.625
  0
ENDBLK
  0
BLOCK
  2
*DIM_0006
 70
    65
 10
0.0
 20
0.0
  0
LINE
  8
寸法
  6
BYBLOCK
 62
     0
 10
82.949083
 20
64.756625
 11
82.21224
 21
64.756625
  0
LINE
  8
寸法
  6
BYBLOCK
 62
     0
 10
82.949083
 20
-1.910042
 11
82.21224
 21
-1.910042
  0
LINE
  8
寸法
  6
BYBLOCK
 62
     0
 10
82.21224
 20
64.756625
 11
82.21224
 21
-1.910042
  0
POINT
  8
寸法
 62
     0
 10
82.21224
 20
64.756625
  0
POINT
  8
寸法
 62
     0
 10
82.21224
 20
-1.910042
  0
TEXT
  7
TextStyle03
  8
寸法
  6
CONTINUOUS
 62
     0
 10
81.825
 20
19.68125
  1
呼称寸法　2000
 40
3.0
 50
90.0
 72
     5
 11
81.825
 21
43.11875
  0
ENDBLK
  0
BLOCK
  2
*DIM_0007
 70
    65
 10
0.0
 20
0.0
  0
LINE
  8
寸法
  6
BYBLOCK
 62
     0
 10
118.446372
 20
32.42329
 11
118.446372
 21
86.5884
  0
LINE
  8
寸法
  6
BYBLOCK
 62
     0
 10
135.11304
 20
86.5884
 11
118.446372
 21
86.5884
  0
POINT
  8
寸法
 62
     0
 10
135.11304
 20
86.5884
  0
POINT
  8
寸法
 62
     0
 10
118.446372
 20
86.5884
  0
TEXT
  7
TextStyle03
  8
寸法
  6
CONTINUOUS
 62
     0
 10
124.3375
 20
86.95
  1
500
 40
3.0
 72
     5
 11
129.2125
 21
86.95
  0
ENDBLK
  0
BLOCK
  2
*DIM_0008
 70
    65
 10
0.0
 20
0.0
  0
LINE
  8
寸法
  6
BYBLOCK
 62
     0
 10
137.93568
 20
67.036622
 11
82.21224
 21
67.036622
  0
LINE
  8
寸法
  6
BYBLOCK
 62
     0
 10
82.21224
 20
64.756625
 11
82.21224
 21
67.036622
  0
POINT
  8
寸法
 62
     0
 10
82.21224
 20
64.756625
  0
POINT
  8
寸法
 62
     0
 10
82.21224
 20
67.036622
  0
TEXT
  7
TextStyle03
  8
寸法
  6
CONTINUOUS
 62
     0
 10
81.8
 20
69.34375
  1
68.4
 40
3.0
 50
90.0
 72
     5
 11
81.8
 21
75.90625
  0
ENDBLK
  0
BLOCK
  2
*DIM_0009
 70
    65
 10
0.0
 20
0.0
  0
LINE
  8
寸法
  6
BYBLOCK
 62
     0
 10
137.93568
 20
-4.190045
 11
82.21224
 21
-4.190045
  0
LINE
  8
寸法
  6
BYBLOCK
 62
     0
 10
82.21224
 20
-1.910042
 11
82.21224
 21
-4.190045
  0
POINT
  8
寸法
 62
     0
 10
82.21224
 20
-1.910042
  0
POINT
  8
寸法
 62
     0
 10
82.21224
 20
-4.190045
  0
TEXT
  7
TextStyle03
  8
寸法
  6
CONTINUOUS
 62
     0
 10
81.8
 20
-13.10625
  1
68.4
 40
3.0
 50
90.0
 72
     5
 11
81.8
 21
-6.54375
  0
ENDBLK
  0
BLOCK
  2
*DIM_0010
 70
    65
 10
0.0
 20
0.0
  0
LINE
  8
寸法
  6
BYBLOCK
 62
     0
 10
135.11304
 20
67.42329
 11
135.11304
 21
86.5884
  0
LINE
  8
寸法
  6
BYBLOCK
 62
     0
 10
141.896322
 20
67.72329
 11
141.896322
 21
86.5884
  0
LINE
  8
寸法
  6
BYBLOCK
 62
     0
 10
135.11304
 20
86.5884
 11
141.896322
 21
86.5884
  0
POINT
  8
寸法
 62
     0
 10
135.11304
 20
86.5884
  0
POINT
  8
寸法
 62
     0
 10
141.896322
 20
86.5884
  0
TEXT
  7
TextStyle03
  8
寸法
  6
CONTINUOUS
 62
     0
 10
142.775
 20
86.95
  1
203.5
 40
3.0
 72
     5
 11
151.025
 21
86.95
  0
ENDBLK
  0
BLOCK
  2
*DIM_0011
 70
    65
 10
0.0
 20
0.0
  0
LINE
  8
寸法
  6
BYBLOCK
 62
     0
 10
47.859778
 20
-82.44724
 11
47.859778
 21
-23.142105
  0
LINE
  8
寸法
  6
BYBLOCK
 62
     0
 10
45.579775
 20
-23.142105
 11
47.859778
 21
-23.142105
  0
POINT
  8
寸法
 62
     0
 10
45.579775
 20
-23.142105
  0
POINT
  8
寸法
 62
     0
 10
47.859778
 20
-23.142105
  0
TEXT
  7
TextStyle03
  8
寸法
  6
CONTINUOUS
 62
     0
 10
50.16875
 20
-22.775
  1
68.4
 40
3.0
 72
     5
 11
56.73125
 21
-22.775
  0
ENDBLK
  0
BLOCK
  2
*DIM_0012
 70
    65
 10
0.0
 20
0.0
  0
LINE
  8
寸法
  6
BYBLOCK
 62
     0
 10
-106.700227
 20
-82.44724
 11
-106.700227
 21
-23.142105
  0
LINE
  8
寸法
  6
BYBLOCK
 62
     0
 10
-104.420225
 20
-23.142105
 11
-106.700227
 21
-23.142105
  0
POINT
  8
寸法
 62
     0
 10
-104.420225
 20
-23.142105
  0
POINT
  8
寸法
 62
     0
 10
-106.700227
 20
-23.142105
  0
TEXT
  7
TextStyle03
  8
寸法
  6
CONTINUOUS
 62
     0
 10
-115.60625
 20
-22.775
  1
68.4
 40
3.0
 72
     5
 11
-109.04375
 21
-22.775
  0
ENDBLK
  0
BLOCK
  2
*DIM_0013
 70
    65
 10
0.0
 20
0.0
  0
LINE
  8
寸法
  6
BYBLOCK
 62
     0
 10
48.246443
 20
-79.624597
 11
61.549425
 21
-79.624597
  0
LINE
  8
寸法
  6
BYBLOCK
 62
     0
 10
48.546443
 20
-86.407882
 11
61.549425
 21
-86.407882
  0
LINE
  8
寸法
  6
BYBLOCK
 62
     0
 10
61.549425
 20
-79.624597
 11
61.549425
 21
-86.407882
  0
POINT
  8
寸法
 62
     0
 10
61.549425
 20
-79.624597
  0
POINT
  8
寸法
 62
     0
 10
61.549425
 20
-86.407882
  0
TEXT
  7
TextStyle03
  8
寸法
  6
CONTINUOUS
 62
     0
 10
61.15
 20
-95.575
  1
203.5
 40
3.0
 50
90.0
 72
     5
 11
61.15
 21
-87.325
  0
ENDBLK
  0
BLOCK
  2
*DIM_0014
 70
    65
 10
0.0
 20
0.0
  0
LINE
  8
寸法
  6
BYBLOCK
 62
     0
 10
100.455313
 20
-36.170175
 11
100.455313
 21
-24.884583
  0
LINE
  8
寸法
  6
BYBLOCK
 62
     0
 10
136.788645
 20
-36.170175
 11
136.788645
 21
-24.884583
  0
LINE
  8
寸法
  6
BYBLOCK
 62
     0
 10
100.455313
 20
-24.884583
 11
136.788645
 21
-24.884583
  0
POINT
  8
寸法
 62
     0
 10
100.455313
 20
-24.884583
  0
POINT
  8
寸法
 62
     0
 10
136.788645
 20
-24.884583
  0
TEXT
  7
TextStyle03
  8
寸法
  6
CONTINUOUS
 62
     0
 10
115.31875
 20
-24.525
  1
1090
 40
3.0
 72
     5
 11
121.88125
 21
-24.525
  0
ENDBLK
  0
BLOCK
  2
*DIM_0015
 70
    65
 10
0.0
 20
0.0
  0
LINE
  8
寸法
  6
BYBLOCK
 62
     0
 10
137.788645
 20
-37.170175
 11
149.43451
 21
-37.170175
  0
LINE
  8
寸法
  6
BYBLOCK
 62
     0
 10
137.788645
 20
-103.170175
 11
149.43451
 21
-103.170175
  0
LINE
  8
寸法
  6
BYBLOCK
 62
     0
 10
149.43451
 20
-37.170175
 11
149.43451
 21
-103.170175
  0
POINT
  8
寸法
 62
     0
 10
149.43451
 20
-37.170175
  0
POINT
  8
寸法
 62
     0
 10
149.43451
 20
-103.170175
  0
TEXT
  7
TextStyle03
  8
寸法
  6
CONTINUOUS
 62
     0
 10
149.05
 20
-73.45625
  1
1980
 40
3.0
 50
90.0
 72
     5
 11
149.05
 21
-66.89375
  0
ENDBLK
  0
BLOCK
  2
*DIM_0016
 70
    65
 10
0.0
 20
0.0
  0
LINE
  8
寸法
  6
BYBLOCK
 62
     0
 10
49.209902
 20
60.856625
 11
55.987195
 21
60.856625
  0
LINE
  8
寸法
  6
BYBLOCK
 62
     0
 10
55.987195
 20
64.756625
 11
55.987195
 21
60.856625
  0
POINT
  8
寸法
 62
     0
 10
55.987195
 20
64.756625
  0
POINT
  8
寸法
 62
     0
 10
55.987195
 20
60.856625
  0
TEXT
  7
TextStyle03
  8
寸法
  6
CONTINUOUS
 62
     0
 10
55.6
 20
65.4125
  1
117
 40
3.0
 50
90.0
 72
     5
 11
55.6
 21
70.2875
  0
ENDBLK
  0
BLOCK
  2
*DIM_0017
 70
    65
 10
0.0
 20
0.0
  0
LINE
  8
寸法
  6
BYBLOCK
 62
     0
 10
49.209902
 20
1.98996
 11
55.987195
 21
1.98996
  0
LINE
  8
寸法
  6
BYBLOCK
 62
     0
 10
55.987195
 20
-1.91004
 11
55.987195
 21
1.98996
  0
POINT
  8
寸法
 62
     0
 10
55.987195
 20
-1.91004
  0
POINT
  8
寸法
 62
     0
 10
55.987195
 20
1.98996
  0
TEXT
  7
TextStyle03
  8
寸法
  6
CONTINUOUS
 62
     0
 10
55.925
 20
-8.1875
  1
117
 40
3.0
 50
90.0
 72
     5
 11
55.925
 21
-3.3125
  0
ENDBLK
  0
BLOCK
  2
*GRP_0018
 70
    65
 10
0.0
 20
0.0
  0
LINE
  8
別途部材
  6
CONTINUOUS
 62
    96
 10
-106.08689
 20
-79.624597
 11
-106.48689
 21
-80.624597
  0
LINE
  8
別途部材
  6
CONTINUOUS
 62
    96
 10
-106.08689
 20
-79.624597
 11
-29.420225
 21
-79.624597
  0
LINE
  8
別途部材
  6
CONTINUOUS
 10
-106.48689
 20
-80.624597
 11
-29.420225
 21
-80.624597
  0
LINE
  8
別途部材
  6
CONTINUOUS
 10
-29.920225
 20
-79.624597
 11
-29.920225
 21
-61.95793
  0
LINE
  8
別途部材
  6
CONTINUOUS
 10
-32.920225
 20
-79.624597
 11
-32.920225
 21
-61.95793
  0
LINE
  8
別途部材
  6
CONTINUOUS
 10
-29.920225
 20
-61.95793
 11
-30.920225
 21
-62.95793
  0
LINE
  8
別途部材
  6
CONTINUOUS
 10
-33.920225
 20
-79.624597
 11
-33.920225
 21
-61.95793
  0
LINE
  8
別途部材
  6
CONTINUOUS
 10
-31.920225
 20
-62.95793
 11
-32.920225
 21
-61.95793
  0
LINE
  8
別途部材
  6
CONTINUOUS
 10
-33.920225
 20
-61.95793
 11
-34.920225
 21
-62.95793
  0
LINE
  8
別途部材
  6
CONTINUOUS
 10
-32.920225
 20
-61.95793
 11
-33.920225
 21
-61.95793
  0
LINE
  8
別途部材
  6
CONTINUOUS
 10
-29.920225
 20
-61.95793
 11
-29.420225
 21
-61.95793
  0
LINE
  8
別途部材
  6
CONTINUOUS
 10
-35.920225
 20
-62.95793
 11
-36.920225
 21
-61.95793
  0
LINE
  8
別途部材
  6
CONTINUOUS
 10
-37.920225
 20
-61.95793
 11
-38.920225
 21
-62.95793
  0
LINE
  8
別途部材
  6
CONTINUOUS
 10
-36.920225
 20
-61.95793
 11
-37.920225
 21
-61.95793
  0
LINE
  8
別途部材
  6
CONTINUOUS
 10
-31.920225
 20
-79.624597
 11
-31.920225
 21
-62.95793
  0
LINE
  8
別途部材
  6
CONTINUOUS
 10
-34.920225
 20
-79.624597
 11
-34.920225
 21
-62.95793
  0
LINE
  8
別途部材
  6
CONTINUOUS
 10
-35.920225
 20
-79.624597
 11
-35.920225
 21
-62.95793
  0
LINE
  8
別途部材
  6
CONTINUOUS
 10
-36.920225
 20
-79.624597
 11
-36.920225
 21
-61.95793
  0
LINE
  8
別途部材
  6
CONTINUOUS
 10
-37.920225
 20
-79.624597
 11
-37.920225
 21
-61.95793
  0
LINE
  8
別途部材
  6
CONTINUOUS
 10
-38.920225
 20
-79.624597
 11
-38.920225
 21
-62.95793
  0
LINE
  8
別途部材
  6
CONTINUOUS
 10
-39.920225
 20
-62.95793
 11
-40.920225
 21
-61.95793
  0
LINE
  8
別途部材
  6
CONTINUOUS
 10
-41.920225
 20
-61.95793
 11
-42.920225
 21
-62.95793
  0
LINE
  8
別途部材
  6
CONTINUOUS
 10
-40.920225
 20
-61.95793
 11
-41.920225
 21
-61.95793
  0
LINE
  8
別途部材
  6
CONTINUOUS
 10
-39.920225
 20
-79.624597
 11
-39.920225
 21
-62.95793
  0
LINE
  8
別途部材
  6
CONTINUOUS
 10
-40.920225
 20
-79.624597
 11
-40.920225
 21
-61.95793
  0
LINE
  8
別途部材
  6
CONTINUOUS
 10
-41.920225
 20
-79.624597
 11
-41.920225
 21
-61.95793
  0
LINE
  8
別途部材
  6
CONTINUOUS
 10
-42.920225
 20
-79.624597
 11
-42.920225
 21
-62.95793
  0
LINE
  8
別途部材
  6
CONTINUOUS
 10
-44.920225
 20
-79.624597
 11
-44.920225
 21
-61.95793
  0
LINE
  8
別途部材
  6
CONTINUOUS
 10
-45.920225
 20
-79.624597
 11
-45.920225
 21
-61.95793
  0
LINE
  8
別途部材
  6
CONTINUOUS
 10
-43.920225
 20
-62.95793
 11
-44.920225
 21
-61.95793
  0
LINE
  8
別途部材
  6
CONTINUOUS
 10
-45.920225
 20
-61.95793
 11
-46.920225
 21
-62.95793
  0
LINE
  8
別途部材
  6
CONTINUOUS
 10
-44.920225
 20
-61.95793
 11
-45.920225
 21
-61.95793
  0
LINE
  8
別途部材
  6
CONTINUOUS
 10
-47.920225
 20
-62.95793
 11
-48.920225
 21
-61.95793
  0
LINE
  8
別途部材
  6
CONTINUOUS
 10
-49.920225
 20
-61.95793
 11
-50.920225
 21
-62.95793
  0
LINE
  8
別途部材
  6
CONTINUOUS
 10
-48.920225
 20
-61.95793
 11
-49.920225
 21
-61.95793
  0
LINE
  8
別途部材
  6
CONTINUOUS
 10
-43.920225
 20
-79.624597
 11
-43.920225
 21
-62.95793
  0
LINE
  8
別途部材
  6
CONTINUOUS
 10
-46.920225
 20
-79.624597
 11
-46.920225
 21
-62.95793
  0
LINE
  8
別途部材
  6
CONTINUOUS
 10
-47.920225
 20
-79.624597
 11
-47.920225
 21
-62.95793
  0
LINE
  8
別途部材
  6
CONTINUOUS
 10
-48.920225
 20
-79.624597
 11
-48.920225
 21
-61.95793
  0
LINE
  8
別途部材
  6
CONTINUOUS
 10
-49.920225
 20
-79.624597
 11
-49.920225
 21
-61.95793
  0
LINE
  8
別途部材
  6
CONTINUOUS
 10
-50.920225
 20
-79.624597
 11
-50.920225
 21
-62.95793
  0
LINE
  8
別途部材
  6
CONTINUOUS
 10
-51.920225
 20
-62.95793
 11
-52.920225
 21
-61.95793
  0
LINE
  8
別途部材
  6
CONTINUOUS
 10
-53.920225
 20
-61.95793
 11
-54.920225
 21
-62.95793
  0
LINE
  8
別途部材
  6
CONTINUOUS
 10
-52.920225
 20
-61.95793
 11
-53.920225
 21
-61.95793
  0
LINE
  8
別途部材
  6
CONTINUOUS
 10
-51.920225
 20
-79.624597
 11
-51.920225
 21
-62.95793
  0
LINE
  8
別途部材
  6
CONTINUOUS
 10
-52.920225
 20
-79.624597
 11
-52.920225
 21
-61.95793
  0
LINE
  8
別途部材
  6
CONTINUOUS
 10
-53.920225
 20
-79.624597
 11
-53.920225
 21
-61.95793
  0
LINE
  8
別途部材
  6
CONTINUOUS
 10
-54.920225
 20
-79.624597
 11
-54.920225
 21
-62.95793
  0
LINE
  8
別途部材
  6
CONTINUOUS
 10
-56.920225
 20
-79.624597
 11
-56.920225
 21
-61.95793
  0
LINE
  8
別途部材
  6
CONTINUOUS
 10
-57.920225
 20
-79.624597
 11
-57.920225
 21
-61.95793
  0
LINE
  8
別途部材
  6
CONTINUOUS
 10
-55.920225
 20
-62.95793
 11
-56.920225
 21
-61.95793
  0
LINE
  8
別途部材
  6
CONTINUOUS
 10
-57.920225
 20
-61.95793
 11
-58.920225
 21
-62.95793
  0
LINE
  8
別途部材
  6
CONTINUOUS
 10
-56.920225
 20
-61.95793
 11
-57.920225
 21
-61.95793
  0
LINE
  8
別途部材
  6
CONTINUOUS
 10
-59.920225
 20
-62.95793
 11
-60.920225
 21
-61.95793
  0
LINE
  8
別途部材
  6
CONTINUOUS
 10
-61.920225
 20
-61.95793
 11
-62.920225
 21
-62.95793
  0
LINE
  8
別途部材
  6
CONTINUOUS
 10
-60.920225
 20
-61.95793
 11
-61.920225
 21
-61.95793
  0
LINE
  8
別途部材
  6
CONTINUOUS
 10
-55.920225
 20
-79.624597
 11
-55.920225
 21
-62.95793
  0
LINE
  8
別途部材
  6
CONTINUOUS
 10
-58.920225
 20
-79.624597
 11
-58.920225
 21
-62.95793
  0
LINE
  8
別途部材
  6
CONTINUOUS
 10
-59.920225
 20
-79.624597
 11
-59.920225
 21
-62.95793
  0
LINE
  8
別途部材
  6
CONTINUOUS
 10
-60.920225
 20
-79.624597
 11
-60.920225
 21
-61.95793
  0
LINE
  8
別途部材
  6
CONTINUOUS
 10
-61.920225
 20
-79.624597
 11
-61.920225
 21
-61.95793
  0
LINE
  8
別途部材
  6
CONTINUOUS
 10
-62.920225
 20
-79.624597
 11
-62.920225
 21
-62.95793
  0
LINE
  8
別途部材
  6
CONTINUOUS
 10
-63.920225
 20
-62.95793
 11
-64.920225
 21
-61.95793
  0
LINE
  8
別途部材
  6
CONTINUOUS
 10
-65.920225
 20
-61.95793
 11
-66.920225
 21
-62.95793
  0
LINE
  8
別途部材
  6
CONTINUOUS
 10
-64.920225
 20
-61.95793
 11
-65.920225
 21
-61.95793
  0
LINE
  8
別途部材
  6
CONTINUOUS
 10
-63.920225
 20
-79.624597
 11
-63.920225
 21
-62.95793
  0
LINE
  8
別途部材
  6
CONTINUOUS
 10
-64.920225
 20
-79.624597
 11
-64.920225
 21
-61.95793
  0
LINE
  8
別途部材
  6
CONTINUOUS
 10
-65.920225
 20
-79.624597
 11
-65.920225
 21
-61.95793
  0
LINE
  8
別途部材
  6
CONTINUOUS
 10
-66.920225
 20
-79.624597
 11
-66.920225
 21
-62.95793
  0
LINE
  8
別途部材
  6
CONTINUOUS
 10
-68.920225
 20
-79.624597
 11
-68.920225
 21
-61.95793
  0
LINE
  8
別途部材
  6
CONTINUOUS
 10
-69.920225
 20
-79.624597
 11
-69.920225
 21
-61.95793
  0
LINE
  8
別途部材
  6
CONTINUOUS
 10
-67.920225
 20
-62.95793
 11
-68.920225
 21
-61.95793
  0
LINE
  8
別途部材
  6
CONTINUOUS
 10
-69.920225
 20
-61.95793
 11
-70.920225
 21
-62.95793
  0
LINE
  8
別途部材
  6
CONTINUOUS
 10
-68.920225
 20
-61.95793
 11
-69.920225
 21
-61.95793
  0
LINE
  8
別途部材
  6
CONTINUOUS
 10
-67.920225
 20
-79.624597
 11
-67.920225
 21
-62.95793
  0
LINE
  8
別途部材
  6
CONTINUOUS
 10
-70.920225
 20
-79.624597
 11
-70.920225
 21
-62.95793
  0
LINE
  8
別途部材
  6
CONTINUOUS
 10
-66.920225
 20
-62.95793
 11
-67.920225
 21
-62.95793
  0
LINE
  8
別途部材
  6
CONTINUOUS
 10
-62.920225
 20
-62.95793
 11
-63.920225
 21
-62.95793
  0
LINE
  8
別途部材
  6
CONTINUOUS
 10
-58.920225
 20
-62.95793
 11
-59.920225
 21
-62.95793
  0
LINE
  8
別途部材
  6
CONTINUOUS
 10
-54.920225
 20
-62.95793
 11
-55.920225
 21
-62.95793
  0
LINE
  8
別途部材
  6
CONTINUOUS
 10
-50.920225
 20
-62.95793
 11
-51.920225
 21
-62.95793
  0
LINE
  8
別途部材
  6
CONTINUOUS
 10
-46.920225
 20
-62.95793
 11
-47.920225
 21
-62.95793
  0
LINE
  8
別途部材
  6
CONTINUOUS
 10
-42.920225
 20
-62.95793
 11
-43.920225
 21
-62.95793
  0
LINE
  8
別途部材
  6
CONTINUOUS
 10
-38.920225
 20
-62.95793
 11
-39.920225
 21
-62.95793
  0
LINE
  8
別途部材
  6
CONTINUOUS
 10
-34.920225
 20
-62.95793
 11
-35.920225
 21
-62.95793
  0
LINE
  8
別途部材
  6
CONTINUOUS
 10
-30.920225
 20
-79.624597
 11
-30.920225
 21
-62.95793
  0
LINE
  8
別途部材
  6
CONTINUOUS
 10
-31.920225
 20
-62.95793
 11
-30.920225
 21
-62.95793
  0
ARC
  8
別途部材
  6
CONTINUOUS
 10
-87.753557
 20
-79.624597
 40
16.666667
 50
90.0
 51
180.0
  0
LINE
  8
別途部材
  6
CONTINUOUS
 10
-72.920225
 20
-79.624597
 11
-72.920225
 21
-61.95793
  0
LINE
  8
別途部材
  6
CONTINUOUS
 10
-73.920225
 20
-79.624597
 11
-73.920225
 21
-61.95793
  0
LINE
  8
別途部材
  6
CONTINUOUS
 10
-71.920225
 20
-62.95793
 11
-72.920225
 21
-61.95793
  0
LINE
  8
別途部材
  6
CONTINUOUS
 10
-73.920225
 20
-61.95793
 11
-74.920225
 21
-62.95793
  0
LINE
  8
別途部材
  6
CONTINUOUS
 10
-72.920225
 20
-61.95793
 11
-73.920225
 21
-61.95793
  0
LINE
  8
別途部材
  6
CONTINUOUS
 10
-75.920225
 20
-62.95793
 11
-76.920225
 21
-61.95793
  0
LINE
  8
別途部材
  6
CONTINUOUS
 10
-77.920225
 20
-61.95793
 11
-78.920225
 21
-62.95793
  0
LINE
  8
別途部材
  6
CONTINUOUS
 10
-76.920225
 20
-61.95793
 11
-77.920225
 21
-61.95793
  0
LINE
  8
別途部材
  6
CONTINUOUS
 10
-71.920225
 20
-79.624597
 11
-71.920225
 21
-62.95793
  0
LINE
  8
別途部材
  6
CONTINUOUS
 10
-74.920225
 20
-79.624597
 11
-74.920225
 21
-62.95793
  0
LINE
  8
別途部材
  6
CONTINUOUS
 10
-75.920225
 20
-79.624597
 11
-75.920225
 21
-62.95793
  0
LINE
  8
別途部材
  6
CONTINUOUS
 10
-76.920225
 20
-79.624597
 11
-76.920225
 21
-61.95793
  0
LINE
  8
別途部材
  6
CONTINUOUS
 10
-77.920225
 20
-79.624597
 11
-77.920225
 21
-61.95793
  0
LINE
  8
別途部材
  6
CONTINUOUS
 10
-78.920225
 20
-79.624597
 11
-78.920225
 21
-62.95793
  0
LINE
  8
別途部材
  6
CONTINUOUS
 10
-79.920225
 20
-62.95793
 11
-80.920225
 21
-61.95793
  0
LINE
  8
別途部材
  6
CONTINUOUS
 10
-81.920225
 20
-61.95793
 11
-82.920225
 21
-62.95793
  0
LINE
  8
別途部材
  6
CONTINUOUS
 10
-80.920225
 20
-61.95793
 11
-81.920225
 21
-61.95793
  0
LINE
  8
別途部材
  6
CONTINUOUS
 10
-79.920225
 20
-79.624597
 11
-79.920225
 21
-62.95793
  0
LINE
  8
別途部材
  6
CONTINUOUS
 10
-80.920225
 20
-79.624597
 11
-80.920225
 21
-61.95793
  0
LINE
  8
別途部材
  6
CONTINUOUS
 10
-81.920225
 20
-79.624597
 11
-81.920225
 21
-61.95793
  0
LINE
  8
別途部材
  6
CONTINUOUS
 10
-82.920225
 20
-79.624597
 11
-82.920225
 21
-62.95793
  0
LINE
  8
別途部材
  6
CONTINUOUS
 10
-84.920225
 20
-79.624597
 11
-84.920225
 21
-61.95793
  0
LINE
  8
別途部材
  6
CONTINUOUS
 10
-85.920225
 20
-79.624597
 11
-85.920225
 21
-61.95793
  0
LINE
  8
別途部材
  6
CONTINUOUS
 10
-83.920225
 20
-62.95793
 11
-84.920225
 21
-61.95793
  0
LINE
  8
別途部材
  6
CONTINUOUS
 10
-85.920225
 20
-61.95793
 11
-86.920225
 21
-62.95793
  0
LINE
  8
別途部材
  6
CONTINUOUS
 10
-84.920225
 20
-61.95793
 11
-85.920225
 21
-61.95793
  0
LINE
  8
別途部材
  6
CONTINUOUS
 10
-83.920225
 20
-79.624597
 11
-83.920225
 21
-62.95793
  0
LINE
  8
別途部材
  6
CONTINUOUS
 10
-86.920225
 20
-79.624597
 11
-86.920225
 21
-62.95793
  0
LINE
  8
別途部材
  6
CONTINUOUS
 10
-82.920225
 20
-62.95793
 11
-83.920225
 21
-62.95793
  0
LINE
  8
別途部材
  6
CONTINUOUS
 10
-78.920225
 20
-62.95793
 11
-79.920225
 21
-62.95793
  0
LINE
  8
別途部材
  6
CONTINUOUS
 10
-74.920225
 20
-62.95793
 11
-75.920225
 21
-62.95793
  0
LINE
  8
別途部材
  6
CONTINUOUS
 10
-70.920225
 20
-62.95793
 11
-71.920225
 21
-62.95793
  0
LINE
  8
別途部材
  6
CONTINUOUS
 10
-87.753557
 20
-62.95793
 11
-86.920225
 21
-62.95793
  0
LINE
  8
別途部材
  6
CONTINUOUS
 62
    96
 10
47.246443
 20
-79.624597
 11
47.646443
 21
-80.624597
  0
LINE
  8
別途部材
  6
CONTINUOUS
 62
    96
 10
47.246443
 20
-79.624597
 11
-29.420225
 21
-79.624597
  0
LINE
  8
別途部材
  6
CONTINUOUS
 10
47.646443
 20
-80.624597
 11
-29.420225
 21
-80.624597
  0
LINE
  8
別途部材
  6
CONTINUOUS
 10
-28.920225
 20
-79.624597
 11
-28.920225
 21
-61.95793
  0
LINE
  8
別途部材
  6
CONTINUOUS
 10
-25.920225
 20
-79.624597
 11
-25.920225
 21
-61.95793
  0
LINE
  8
別途部材
  6
CONTINUOUS
 10
-28.920225
 20
-61.95793
 11
-27.920225
 21
-62.95793
  0
LINE
  8
別途部材
  6
CONTINUOUS
 10
-24.920225
 20
-79.624597
 11
-24.920225
 21
-61.95793
  0
LINE
  8
別途部材
  6
CONTINUOUS
 10
-26.920225
 20
-62.95793
 11
-25.920225
 21
-61.95793
  0
LINE
  8
別途部材
  6
CONTINUOUS
 10
-24.920225
 20
-61.95793
 11
-23.920225
 21
-62.95793
  0
LINE
  8
別途部材
  6
CONTINUOUS
 10
-25.920225
 20
-61.95793
 11
-24.920225
 21
-61.95793
  0
LINE
  8
別途部材
  6
CONTINUOUS
 10
-28.920225
 20
-61.95793
 11
-29.420225
 21
-61.95793
  0
LINE
  8
別途部材
  6
CONTINUOUS
 10
-22.920225
 20
-62.95793
 11
-21.920225
 21
-61.95793
  0
LINE
  8
別途部材
  6
CONTINUOUS
 10
-20.920225
 20
-61.95793
 11
-19.920225
 21
-62.95793
  0
LINE
  8
別途部材
  6
CONTINUOUS
 10
-21.920225
 20
-61.95793
 11
-20.920225
 21
-61.95793
  0
LINE
  8
別途部材
  6
CONTINUOUS
 10
-26.920225
 20
-79.624597
 11
-26.920225
 21
-62.95793
  0
LINE
  8
別途部材
  6
CONTINUOUS
 10
-23.920225
 20
-79.624597
 11
-23.920225
 21
-62.95793
  0
LINE
  8
別途部材
  6
CONTINUOUS
 10
-22.920225
 20
-79.624597
 11
-22.920225
 21
-62.95793
  0
LINE
  8
別途部材
  6
CONTINUOUS
 10
-21.920225
 20
-79.624597
 11
-21.920225
 21
-61.95793
  0
LINE
  8
別途部材
  6
CONTINUOUS
 10
-20.920225
 20
-79.624597
 11
-20.920225
 21
-61.95793
  0
LINE
  8
別途部材
  6
CONTINUOUS
 10
-19.920225
 20
-79.624597
 11
-19.920225
 21
-62.95793
  0
LINE
  8
別途部材
  6
CONTINUOUS
 10
-18.920225
 20
-62.95793
 11
-17.920225
 21
-61.95793
  0
LINE
  8
別途部材
  6
CONTINUOUS
 10
-16.920225
 20
-61.95793
 11
-15.920225
 21
-62.95793
  0
LINE
  8
別途部材
  6
CONTINUOUS
 10
-17.920225
 20
-61.95793
 11
-16.920225
 21
-61.95793
  0
LINE
  8
別途部材
  6
CONTINUOUS
 10
-18.920225
 20
-79.624597
 11
-18.920225
 21
-62.95793
  0
LINE
  8
別途部材
  6
CONTINUOUS
 10
-17.920225
 20
-79.624597
 11
-17.920225
 21
-61.95793
  0
LINE
  8
別途部材
  6
CONTINUOUS
 10
-16.920225
 20
-79.624597
 11
-16.920225
 21
-61.95793
  0
LINE
  8
別途部材
  6
CONTINUOUS
 10
-15.920225
 20
-79.624597
 11
-15.920225
 21
-62.95793
  0
LINE
  8
別途部材
  6
CONTINUOUS
 10
-13.920225
 20
-79.624597
 11
-13.920225
 21
-61.95793
  0
LINE
  8
別途部材
  6
CONTINUOUS
 10
-12.920225
 20
-79.624597
 11
-12.920225
 21
-61.95793
  0
LINE
  8
別途部材
  6
CONTINUOUS
 10
-14.920225
 20
-62.95793
 11
-13.920225
 21
-61.95793
  0
LINE
  8
別途部材
  6
CONTINUOUS
 10
-12.920225
 20
-61.95793
 11
-11.920225
 21
-62.95793
  0
LINE
  8
別途部材
  6
CONTINUOUS
 10
-13.920225
 20
-61.95793
 11
-12.920225
 21
-61.95793
  0
LINE
  8
別途部材
  6
CONTINUOUS
 10
-10.920225
 20
-62.95793
 11
-9.920225
 21
-61.95793
  0
LINE
  8
別途部材
  6
CONTINUOUS
 10
-8.920225
 20
-61.95793
 11
-7.920225
 21
-62.95793
  0
LINE
  8
別途部材
  6
CONTINUOUS
 10
-9.920225
 20
-61.95793
 11
-8.920225
 21
-61.95793
  0
LINE
  8
別途部材
  6
CONTINUOUS
 10
-14.920225
 20
-79.624597
 11
-14.920225
 21
-62.95793
  0
LINE
  8
別途部材
  6
CONTINUOUS
 10
-11.920225
 20
-79.624597
 11
-11.920225
 21
-62.95793
  0
LINE
  8
別途部材
  6
CONTINUOUS
 10
-10.920225
 20
-79.624597
 11
-10.920225
 21
-62.95793
  0
LINE
  8
別途部材
  6
CONTINUOUS
 10
-9.920225
 20
-79.624597
 11
-9.920225
 21
-61.95793
  0
LINE
  8
別途部材
  6
CONTINUOUS
 10
-8.920225
 20
-79.624597
 11
-8.920225
 21
-61.95793
  0
LINE
  8
別途部材
  6
CONTINUOUS
 10
-7.920225
 20
-79.624597
 11
-7.920225
 21
-62.95793
  0
LINE
  8
別途部材
  6
CONTINUOUS
 10
-6.920225
 20
-62.95793
 11
-5.920225
 21
-61.95793
  0
LINE
  8
別途部材
  6
CONTINUOUS
 10
-4.920225
 20
-61.95793
 11
-3.920225
 21
-62.95793
  0
LINE
  8
別途部材
  6
CONTINUOUS
 10
-5.920225
 20
-61.95793
 11
-4.920225
 21
-61.95793
  0
LINE
  8
別途部材
  6
CONTINUOUS
 10
-6.920225
 20
-79.624597
 11
-6.920225
 21
-62.95793
  0
LINE
  8
別途部材
  6
CONTINUOUS
 10
-5.920225
 20
-79.624597
 11
-5.920225
 21
-61.95793
  0
LINE
  8
別途部材
  6
CONTINUOUS
 10
-4.920225
 20
-79.624597
 11
-4.920225
 21
-61.95793
  0
LINE
  8
別途部材
  6
CONTINUOUS
 10
-3.920225
 20
-79.624597
 11
-3.920225
 21
-62.95793
  0
LINE
  8
別途部材
  6
CONTINUOUS
 10
-1.920225
 20
-79.624597
 11
-1.920225
 21
-61.95793
  0
LINE
  8
別途部材
  6
CONTINUOUS
 10
-0.920225
 20
-79.624597
 11
-0.920225
 21
-61.95793
  0
LINE
  8
別途部材
  6
CONTINUOUS
 10
-2.920225
 20
-62.95793
 11
-1.920225
 21
-61.95793
  0
LINE
  8
別途部材
  6
CONTINUOUS
 10
-0.920225
 20
-61.95793
 11
0.079775
 21
-62.95793
  0
LINE
  8
別途部材
  6
CONTINUOUS
 10
-1.920225
 20
-61.95793
 11
-0.920225
 21
-61.95793
  0
LINE
  8
別途部材
  6
CONTINUOUS
 10
1.079775
 20
-62.95793
 11
2.079775
 21
-61.95793
  0
LINE
  8
別途部材
  6
CONTINUOUS
 10
3.079775
 20
-61.95793
 11
4.079775
 21
-62.95793
  0
LINE
  8
別途部材
  6
CONTINUOUS
 10
2.079775
 20
-61.95793
 11
3.079775
 21
-61.95793
  0
LINE
  8
別途部材
  6
CONTINUOUS
 10
-2.920225
 20
-79.624597
 11
-2.920225
 21
-62.95793
  0
LINE
  8
別途部材
  6
CONTINUOUS
 10
0.079775
 20
-79.624597
 11
0.079775
 21
-62.95793
  0
LINE
  8
別途部材
  6
CONTINUOUS
 10
1.079775
 20
-79.624597
 11
1.079775
 21
-62.95793
  0
LINE
  8
別途部材
  6
CONTINUOUS
 10
2.079775
 20
-79.624597
 11
2.079775
 21
-61.95793
  0
LINE
  8
別途部材
  6
CONTINUOUS
 10
3.079775
 20
-79.624597
 11
3.079775
 21
-61.95793
  0
LINE
  8
別途部材
  6
CONTINUOUS
 10
4.079775
 20
-79.624597
 11
4.079775
 21
-62.95793
  0
LINE
  8
別途部材
  6
CONTINUOUS
 10
5.079775
 20
-62.95793
 11
6.079775
 21
-61.95793
  0
LINE
  8
別途部材
  6
CONTINUOUS
 10
7.079775
 20
-61.95793
 11
8.079775
 21
-62.95793
  0
LINE
  8
別途部材
  6
CONTINUOUS
 10
6.079775
 20
-61.95793
 11
7.079775
 21
-61.95793
  0
LINE
  8
別途部材
  6
CONTINUOUS
 10
5.079775
 20
-79.624597
 11
5.079775
 21
-62.95793
  0
LINE
  8
別途部材
  6
CONTINUOUS
 10
6.079775
 20
-79.624597
 11
6.079775
 21
-61.95793
  0
LINE
  8
別途部材
  6
CONTINUOUS
 10
7.079775
 20
-79.624597
 11
7.079775
 21
-61.95793
  0
LINE
  8
別途部材
  6
CONTINUOUS
 10
8.079775
 20
-79.624597
 11
8.079775
 21
-62.95793
  0
LINE
  8
別途部材
  6
CONTINUOUS
 10
10.079775
 20
-79.624597
 11
10.079775
 21
-61.95793
  0
LINE
  8
別途部材
  6
CONTINUOUS
 10
11.079775
 20
-79.624597
 11
11.079775
 21
-61.95793
  0
LINE
  8
別途部材
  6
CONTINUOUS
 10
9.079775
 20
-62.95793
 11
10.079775
 21
-61.95793
  0
LINE
  8
別途部材
  6
CONTINUOUS
 10
11.079775
 20
-61.95793
 11
12.079775
 21
-62.95793
  0
LINE
  8
別途部材
  6
CONTINUOUS
 10
10.079775
 20
-61.95793
 11
11.079775
 21
-61.95793
  0
LINE
  8
別途部材
  6
CONTINUOUS
 10
9.079775
 20
-79.624597
 11
9.079775
 21
-62.95793
  0
LINE
  8
別途部材
  6
CONTINUOUS
 10
12.079775
 20
-79.624597
 11
12.079775
 21
-62.95793
  0
LINE
  8
別途部材
  6
CONTINUOUS
 10
8.079775
 20
-62.95793
 11
9.079775
 21
-62.95793
  0
LINE
  8
別途部材
  6
CONTINUOUS
 10
4.079775
 20
-62.95793
 11
5.079775
 21
-62.95793
  0
LINE
  8
別途部材
  6
CONTINUOUS
 10
0.079775
 20
-62.95793
 11
1.079775
 21
-62.95793
  0
LINE
  8
別途部材
  6
CONTINUOUS
 10
-3.920225
 20
-62.95793
 11
-2.920225
 21
-62.95793
  0
LINE
  8
別途部材
  6
CONTINUOUS
 10
-7.920225
 20
-62.95793
 11
-6.920225
 21
-62.95793
  0
LINE
  8
別途部材
  6
CONTINUOUS
 10
-11.920225
 20
-62.95793
 11
-10.920225
 21
-62.95793
  0
LINE
  8
別途部材
  6
CONTINUOUS
 10
-15.920225
 20
-62.95793
 11
-14.920225
 21
-62.95793
  0
LINE
  8
別途部材
  6
CONTINUOUS
 10
-19.920225
 20
-62.95793
 11
-18.920225
 21
-62.95793
  0
LINE
  8
別途部材
  6
CONTINUOUS
 10
-23.920225
 20
-62.95793
 11
-22.920225
 21
-62.95793
  0
LINE
  8
別途部材
  6
CONTINUOUS
 10
-27.920225
 20
-79.624597
 11
-27.920225
 21
-62.95793
  0
LINE
  8
別途部材
  6
CONTINUOUS
 10
-26.920225
 20
-62.95793
 11
-27.920225
 21
-62.95793
  0
ARC
  8
別途部材
  6
CONTINUOUS
 10
28.913109
 20
-79.624597
 40
16.666667
 50
0.0
 51
90.0
  0
LINE
  8
別途部材
  6
CONTINUOUS
 10
14.079775
 20
-79.624597
 11
14.079775
 21
-61.95793
  0
LINE
  8
別途部材
  6
CONTINUOUS
 10
15.079775
 20
-79.624597
 11
15.079775
 21
-61.95793
  0
LINE
  8
別途部材
  6
CONTINUOUS
 10
13.079775
 20
-62.95793
 11
14.079775
 21
-61.95793
  0
LINE
  8
別途部材
  6
CONTINUOUS
 10
15.079775
 20
-61.95793
 11
16.079775
 21
-62.95793
  0
LINE
  8
別途部材
  6
CONTINUOUS
 10
14.079775
 20
-61.95793
 11
15.079775
 21
-61.95793
  0
LINE
  8
別途部材
  6
CONTINUOUS
 10
17.079775
 20
-62.95793
 11
18.079775
 21
-61.95793
  0
LINE
  8
別途部材
  6
CONTINUOUS
 10
19.079775
 20
-61.95793
 11
20.079775
 21
-62.95793
  0
LINE
  8
別途部材
  6
CONTINUOUS
 10
18.079775
 20
-61.95793
 11
19.079775
 21
-61.95793
  0
LINE
  8
別途部材
  6
CONTINUOUS
 10
13.079775
 20
-79.624597
 11
13.079775
 21
-62.95793
  0
LINE
  8
別途部材
  6
CONTINUOUS
 10
16.079775
 20
-79.624597
 11
16.079775
 21
-62.95793
  0
LINE
  8
別途部材
  6
CONTINUOUS
 10
17.079775
 20
-79.624597
 11
17.079775
 21
-62.95793
  0
LINE
  8
別途部材
  6
CONTINUOUS
 10
18.079775
 20
-79.624597
 11
18.079775
 21
-61.95793
  0
LINE
  8
別途部材
  6
CONTINUOUS
 10
19.079775
 20
-79.624597
 11
19.079775
 21
-61.95793
  0
LINE
  8
別途部材
  6
CONTINUOUS
 10
20.079775
 20
-79.624597
 11
20.079775
 21
-62.95793
  0
LINE
  8
別途部材
  6
CONTINUOUS
 10
21.079775
 20
-62.95793
 11
22.079775
 21
-61.95793
  0
LINE
  8
別途部材
  6
CONTINUOUS
 10
23.079775
 20
-61.95793
 11
24.079775
 21
-62.95793
  0
LINE
  8
別途部材
  6
CONTINUOUS
 10
22.079775
 20
-61.95793
 11
23.079775
 21
-61.95793
  0
LINE
  8
別途部材
  6
CONTINUOUS
 10
21.079775
 20
-79.624597
 11
21.079775
 21
-62.95793
  0
LINE
  8
別途部材
  6
CONTINUOUS
 10
22.079775
 20
-79.624597
 11
22.079775
 21
-61.95793
  0
LINE
  8
別途部材
  6
CONTINUOUS
 10
23.079775
 20
-79.624597
 11
23.079775
 21
-61.95793
  0
LINE
  8
別途部材
  6
CONTINUOUS
 10
24.079775
 20
-79.624597
 11
24.079775
 21
-62.95793
  0
LINE
  8
別途部材
  6
CONTINUOUS
 10
26.079775
 20
-79.624597
 11
26.079775
 21
-61.95793
  0
LINE
  8
別途部材
  6
CONTINUOUS
 10
27.079775
 20
-79.624597
 11
27.079775
 21
-61.95793
  0
LINE
  8
別途部材
  6
CONTINUOUS
 10
25.079775
 20
-62.95793
 11
26.079775
 21
-61.95793
  0
LINE
  8
別途部材
  6
CONTINUOUS
 10
27.079775
 20
-61.95793
 11
28.079775
 21
-62.95793
  0
LINE
  8
別途部材
  6
CONTINUOUS
 10
26.079775
 20
-61.95793
 11
27.079775
 21
-61.95793
  0
LINE
  8
別途部材
  6
CONTINUOUS
 10
25.079775
 20
-79.624597
 11
25.079775
 21
-62.95793
  0
LINE
  8
別途部材
  6
CONTINUOUS
 10
28.079775
 20
-79.624597
 11
28.079775
 21
-62.95793
  0
LINE
  8
別途部材
  6
CONTINUOUS
 10
24.079775
 20
-62.95793
 11
25.079775
 21
-62.95793
  0
LINE
  8
別途部材
  6
CONTINUOUS
 10
20.079775
 20
-62.95793
 11
21.079775
 21
-62.95793
  0
LINE
  8
別途部材
  6
CONTINUOUS
 10
16.079775
 20
-62.95793
 11
17.079775
 21
-62.95793
  0
LINE
  8
別途部材
  6
CONTINUOUS
 10
12.079775
 20
-62.95793
 11
13.079775
 21
-62.95793
  0
LINE
  8
別途部材
  6
CONTINUOUS
 10
28.91311
 20
-62.95793
 11
28.079775
 21
-62.95793
  0
ENDBLK
  0
BLOCK
  2
*GRP_0019
 70
    65
 10
0.0
 20
0.0
  0
LINE
  8
補助線
  6
BYBLOCK
 62
    64
 10
-101.034527
 20
-84.519938
 11
-101.139257
 21
-84.649587
  0
LINE
  8
補助線
  6
BYBLOCK
 62
    64
 10
-101.15172
 20
-84.532395
 11
-101.022067
 21
-84.637128
  0
LINE
  8
補助線
  6
BYBLOCK
 62
    64
 10
-91.084973
 20
-72.20325
 11
-91.189705
 21
-72.332895
  0
LINE
  8
補助線
  6
BYBLOCK
 62
    64
 10
-91.202165
 20
-72.215705
 11
-91.072515
 21
-72.320438
  0
LINE
  8
補助線
  6
BYBLOCK
 62
    64
 10
-81.240153
 20
-60.016205
 11
-81.13542
 21
-59.886557
  0
LINE
  8
補助線
  6
BYBLOCK
 62
    64
 10
-81.252613
 20
-59.899013
 11
-81.12296
 21
-60.003745
  0
LINE
  8
型材断面
  6
CONTINUOUS
 10
-101.944603
 20
-84.3204
 11
-101.86985
 21
-85.023545
  0
LINE
  8
型材断面
  6
CONTINUOUS
 10
-101.86985
 20
-85.023545
 11
-101.351253
 21
-85.442472
  0
LINE
  8
型材断面
  6
CONTINUOUS
 10
-101.351253
 20
-85.442472
 11
-100.648107
 21
-85.36772
  0
LINE
  8
型材断面
  6
CONTINUOUS
 10
-81.626567
 20
-59.168422
 11
-80.923425
 21
-59.09367
  0
LINE
  8
型材断面
  6
CONTINUOUS
 10
-80.923425
 20
-59.09367
 11
-80.404828
 21
-59.5126
  0
LINE
  8
型材断面
  6
CONTINUOUS
 10
-80.404828
 20
-59.5126
 11
-80.330073
 21
-60.215745
  0
LINE
  8
型材断面
  6
CONTINUOUS
 10
-101.944603
 20
-84.3204
 11
-81.626567
 21
-59.168422
  0
LINE
  8
型材断面
  6
CONTINUOUS
 10
-100.648107
 20
-85.36772
 11
-80.330073
 21
-60.215745
  0
CIRCLE
  8
ボルト／ビス
  6
CONTINUOUS
 10
-101.086892
 20
-84.584763
 40
0.250185
  0
CIRCLE
  8
ボルト／ビス
  6
CONTINUOUS
 10
-101.086892
 20
-84.584763
 40
0.301025
  0
LINE
  8
ボルト／ビス
  6
CONTINUOUS
 62
    64
 10
-101.320355
 20
-84.6747
 11
-101.28151
 21
-84.427548
  0
LINE
  8
ボルト／ビス
  6
CONTINUOUS
 62
    64
 10
-101.04805
 20
-84.33761
 11
-101.28151
 21
-84.427548
  0
LINE
  8
ボルト／ビス
  6
CONTINUOUS
 62
    64
 10
-101.125735
 20
-84.831915
 11
-100.892275
 21
-84.741978
  0
LINE
  8
ボルト／ビス
  6
CONTINUOUS
 62
    64
 10
-100.85343
 20
-84.494825
 11
-100.892275
 21
-84.741978
  0
LINE
  8
ボルト／ビス
  6
CONTINUOUS
 62
    64
 10
-101.320355
 20
-84.6747
 11
-101.125735
 21
-84.831915
  0
LINE
  8
ボルト／ビス
  6
CONTINUOUS
 62
    64
 10
-101.04805
 20
-84.33761
 11
-100.85343
 21
-84.494825
  0
CIRCLE
  8
ボルト／ビス
  6
CONTINUOUS
 62
    64
 10
-101.086892
 20
-84.584763
 40
0.216668
  0
CIRCLE
  8
ボルト／ビス
  6
CONTINUOUS
 10
-91.13734
 20
-72.26807
 40
0.250185
  0
CIRCLE
  8
ボルト／ビス
  6
CONTINUOUS
 10
-91.13734
 20
-72.26807
 40
0.301025
  0
LINE
  8
ボルト／ビス
  6
CONTINUOUS
 62
    64
 10
-91.3708
 20
-72.35801
 11
-91.331958
 21
-72.110858
  0
LINE
  8
ボルト／ビス
  6
CONTINUOUS
 62
    64
 10
-91.098495
 20
-72.02092
 11
-91.331958
 21
-72.110858
  0
LINE
  8
ボルト／ビス
  6
CONTINUOUS
 62
    64
 10
-91.176182
 20
-72.515222
 11
-90.94272
 21
-72.425285
  0
LINE
  8
ボルト／ビス
  6
CONTINUOUS
 62
    64
 10
-90.903877
 20
-72.178132
 11
-90.94272
 21
-72.425285
  0
LINE
  8
ボルト／ビス
  6
CONTINUOUS
 62
    64
 10
-91.3708
 20
-72.35801
 11
-91.176182
 21
-72.515222
  0
LINE
  8
ボルト／ビス
  6
CONTINUOUS
 62
    64
 10
-91.098495
 20
-72.02092
 11
-90.903877
 21
-72.178132
  0
CIRCLE
  8
ボルト／ビス
  6
CONTINUOUS
 62
    64
 10
-91.13734
 20
-72.26807
 40
0.216668
  0
CIRCLE
  8
ボルト／ビス
  6
CONTINUOUS
 10
-81.187785
 20
-59.95138
 40
0.250185
  0
CIRCLE
  8
ボルト／ビス
  6
CONTINUOUS
 10
-81.187785
 20
-59.95138
 40
0.301025
  0
LINE
  8
ボルト／ビス
  6
CONTINUOUS
 62
    64
 10
-81.148942
 20
-59.704227
 11
-81.382402
 21
-59.794165
  0
LINE
  8
ボルト／ビス
  6
CONTINUOUS
 62
    64
 10
-81.421248
 20
-60.041317
 11
-81.382402
 21
-59.794165
  0
LINE
  8
ボルト／ビス
  6
CONTINUOUS
 62
    64
 10
-80.954323
 20
-59.861442
 11
-80.993167
 21
-60.108595
  0
LINE
  8
ボルト／ビス
  6
CONTINUOUS
 62
    64
 10
-81.22663
 20
-60.198532
 11
-80.993167
 21
-60.108595
  0
LINE
  8
ボルト／ビス
  6
CONTINUOUS
 62
    64
 10
-81.148942
 20
-59.704227
 11
-80.954323
 21
-59.861442
  0
LINE
  8
ボルト／ビス
  6
CONTINUOUS
 62
    64
 10
-81.421248
 20
-60.041317
 11
-81.22663
 21
-60.198532
  0
CIRCLE
  8
ボルト／ビス
  6
CONTINUOUS
 62
    64
 10
-81.187785
 20
-59.95138
 40
0.216668
  0
ENDBLK
  0
BLOCK
  2
*GRP_0020
 70
    65
 10
0.0
 20
0.0
  0
LINE
  8
補助線
  6
BYBLOCK
 62
    64
 10
-81.240147
 20
-84.519938
 11
-81.135418
 21
-84.649587
  0
LINE
  8
補助線
  6
BYBLOCK
 62
    64
 10
-81.122955
 20
-84.532395
 11
-81.252607
 21
-84.637128
  0
LINE
  8
補助線
  6
BYBLOCK
 62
    64
 10
-91.189703
 20
-72.20325
 11
-91.08497
 21
-72.332895
  0
LINE
  8
補助線
  6
BYBLOCK
 62
    64
 10
-91.07251
 20
-72.215705
 11
-91.20216
 21
-72.320438
  0
LINE
  8
補助線
  6
BYBLOCK
 62
    64
 10
-101.034523
 20
-60.016205
 11
-101.139255
 21
-59.886557
  0
LINE
  8
補助線
  6
BYBLOCK
 62
    64
 10
-101.022062
 20
-59.899013
 11
-101.151715
 21
-60.003745
  0
LINE
  8
型材断面
  6
CONTINUOUS
 10
-80.330073
 20
-84.3204
 11
-80.404825
 21
-85.023545
  0
LINE
  8
型材断面
  6
CONTINUOUS
 10
-80.404825
 20
-85.023545
 11
-80.923423
 21
-85.442472
  0
LINE
  8
型材断面
  6
CONTINUOUS
 10
-80.923423
 20
-85.442472
 11
-81.626567
 21
-85.36772
  0
LINE
  8
型材断面
  6
CONTINUOUS
 10
-100.648107
 20
-59.168422
 11
-101.35125
 21
-59.09367
  0
LINE
  8
型材断面
  6
CONTINUOUS
 10
-101.35125
 20
-59.09367
 11
-101.869848
 21
-59.5126
  0
LINE
  8
型材断面
  6
CONTINUOUS
 10
-101.869848
 20
-59.5126
 11
-101.944603
 21
-60.215745
  0
LINE
  8
型材断面
  6
CONTINUOUS
 10
-80.330073
 20
-84.3204
 11
-100.648107
 21
-59.168422
  0
LINE
  8
型材断面
  6
CONTINUOUS
 10
-81.626567
 20
-85.36772
 11
-101.944603
 21
-60.215745
  0
CIRCLE
  8
ボルト／ビス
  6
CONTINUOUS
 10
-81.187782
 20
-84.584763
 40
0.250185
  0
CIRCLE
  8
ボルト／ビス
  6
CONTINUOUS
 10
-81.187782
 20
-84.584763
 40
0.301025
  0
LINE
  8
ボルト／ビス
  6
CONTINUOUS
 62
    64
 10
-80.95432
 20
-84.6747
 11
-80.993165
 21
-84.427548
  0
LINE
  8
ボルト／ビス
  6
CONTINUOUS
 62
    64
 10
-81.226625
 20
-84.33761
 11
-80.993165
 21
-84.427548
  0
LINE
  8
ボルト／ビス
  6
CONTINUOUS
 62
    64
 10
-81.14894
 20
-84.831915
 11
-81.3824
 21
-84.741978
  0
LINE
  8
ボルト／ビス
  6
CONTINUOUS
 62
    64
 10
-81.421245
 20
-84.494825
 11
-81.3824
 21
-84.741978
  0
LINE
  8
ボルト／ビス
  6
CONTINUOUS
 62
    64
 10
-80.95432
 20
-84.6747
 11
-81.14894
 21
-84.831915
  0
LINE
  8
ボルト／ビス
  6
CONTINUOUS
 62
    64
 10
-81.226625
 20
-84.33761
 11
-81.421245
 21
-84.494825
  0
CIRCLE
  8
ボルト／ビス
  6
CONTINUOUS
 62
    64
 10
-81.187782
 20
-84.584763
 40
0.216668
  0
CIRCLE
  8
ボルト／ビス
  6
CONTINUOUS
 10
-91.137335
 20
-72.26807
 40
0.250185
  0
CIRCLE
  8
ボルト／ビス
  6
CONTINUOUS
 10
-91.137335
 20
-72.26807
 40
0.301025
  0
LINE
  8
ボルト／ビス
  6
CONTINUOUS
 62
    64
 10
-90.903875
 20
-72.35801
 11
-90.942717
 21
-72.110858
  0
LINE
  8
ボルト／ビス
  6
CONTINUOUS
 62
    64
 10
-91.17618
 20
-72.02092
 11
-90.942717
 21
-72.110858
  0
LINE
  8
ボルト／ビス
  6
CONTINUOUS
 62
    64
 10
-91.098492
 20
-72.515222
 11
-91.331955
 21
-72.425285
  0
LINE
  8
ボルト／ビス
  6
CONTINUOUS
 62
    64
 10
-91.370798
 20
-72.178132
 11
-91.331955
 21
-72.425285
  0
LINE
  8
ボルト／ビス
  6
CONTINUOUS
 62
    64
 10
-90.903875
 20
-72.35801
 11
-91.098492
 21
-72.515222
  0
LINE
  8
ボルト／ビス
  6
CONTINUOUS
 62
    64
 10
-91.17618
 20
-72.02092
 11
-91.370798
 21
-72.178132
  0
CIRCLE
  8
ボルト／ビス
  6
CONTINUOUS
 62
    64
 10
-91.137335
 20
-72.26807
 40
0.216668
  0
CIRCLE
  8
ボルト／ビス
  6
CONTINUOUS
 10
-101.08689
 20
-59.95138
 40
0.250185
  0
CIRCLE
  8
ボルト／ビス
  6
CONTINUOUS
 10
-101.08689
 20
-59.95138
 40
0.301025
  0
LINE
  8
ボルト／ビス
  6
CONTINUOUS
 62
    64
 10
-101.125732
 20
-59.704227
 11
-100.892273
 21
-59.794165
  0
LINE
  8
ボルト／ビス
  6
CONTINUOUS
 62
    64
 10
-100.853428
 20
-60.041317
 11
-100.892273
 21
-59.794165
  0
LINE
  8
ボルト／ビス
  6
CONTINUOUS
 62
    64
 10
-101.320352
 20
-59.861442
 11
-101.281508
 21
-60.108595
  0
LINE
  8
ボルト／ビス
  6
CONTINUOUS
 62
    64
 10
-101.048045
 20
-60.198532
 11
-101.281508
 21
-60.108595
  0
LINE
  8
ボルト／ビス
  6
CONTINUOUS
 62
    64
 10
-101.125732
 20
-59.704227
 11
-101.320352
 21
-59.861442
  0
LINE
  8
ボルト／ビス
  6
CONTINUOUS
 62
    64
 10
-100.853428
 20
-60.041317
 11
-101.048045
 21
-60.198532
  0
CIRCLE
  8
ボルト／ビス
  6
CONTINUOUS
 62
    64
 10
-101.08689
 20
-59.95138
 40
0.216668
  0
ENDBLK
  0
BLOCK
  2
*GRP_0021
 70
    65
 10
0.0
 20
0.0
  0
LINE
  8
補助線
  6
BYBLOCK
 62
    64
 10
42.194077
 20
-84.519938
 11
42.298807
 21
-84.649587
  0
LINE
  8
補助線
  6
BYBLOCK
 62
    64
 10
42.31127
 20
-84.532395
 11
42.181617
 21
-84.637128
  0
LINE
  8
補助線
  6
BYBLOCK
 62
    64
 10
32.244522
 20
-72.20325
 11
32.349255
 21
-72.332895
  0
LINE
  8
補助線
  6
BYBLOCK
 62
    64
 10
32.361715
 20
-72.215705
 11
32.232065
 21
-72.320438
  0
LINE
  8
補助線
  6
BYBLOCK
 62
    64
 10
22.399703
 20
-60.016205
 11
22.29497
 21
-59.886557
  0
LINE
  8
補助線
  6
BYBLOCK
 62
    64
 10
22.412162
 20
-59.899013
 11
22.28251
 21
-60.003745
  0
LINE
  8
型材断面
  6
CONTINUOUS
 10
43.104153
 20
-84.3204
 11
43.0294
 21
-85.023545
  0
LINE
  8
型材断面
  6
CONTINUOUS
 10
43.0294
 20
-85.023545
 11
42.510802
 21
-85.442472
  0
LINE
  8
型材断面
  6
CONTINUOUS
 10
42.510802
 20
-85.442472
 11
41.807657
 21
-85.36772
  0
LINE
  8
型材断面
  6
CONTINUOUS
 10
22.786118
 20
-59.168422
 11
22.082975
 21
-59.09367
  0
LINE
  8
型材断面
  6
CONTINUOUS
 10
22.082975
 20
-59.09367
 11
21.564378
 21
-59.5126
  0
LINE
  8
型材断面
  6
CONTINUOUS
 10
21.564378
 20
-59.5126
 11
21.489623
 21
-60.215745
  0
LINE
  8
型材断面
  6
CONTINUOUS
 10
43.104153
 20
-84.3204
 11
22.786118
 21
-59.168422
  0
LINE
  8
型材断面
  6
CONTINUOUS
 10
41.807657
 20
-85.36772
 11
21.489623
 21
-60.215745
  0
CIRCLE
  8
ボルト／ビス
  6
CONTINUOUS
 10
42.246443
 20
-84.584763
 40
0.250185
  0
CIRCLE
  8
ボルト／ビス
  6
CONTINUOUS
 10
42.246443
 20
-84.584763
 40
0.301025
  0
LINE
  8
ボルト／ビス
  6
CONTINUOUS
 62
    64
 10
42.479905
 20
-84.6747
 11
42.44106
 21
-84.427548
  0
LINE
  8
ボルト／ビス
  6
CONTINUOUS
 62
    64
 10
42.2076
 20
-84.33761
 11
42.44106
 21
-84.427548
  0
LINE
  8
ボルト／ビス
  6
CONTINUOUS
 62
    64
 10
42.285285
 20
-84.831915
 11
42.051825
 21
-84.741978
  0
LINE
  8
ボルト／ビス
  6
CONTINUOUS
 62
    64
 10
42.01298
 20
-84.494825
 11
42.051825
 21
-84.741978
  0
LINE
  8
ボルト／ビス
  6
CONTINUOUS
 62
    64
 10
42.479905
 20
-84.6747
 11
42.285285
 21
-84.831915
  0
LINE
  8
ボルト／ビス
  6
CONTINUOUS
 62
    64
 10
42.2076
 20
-84.33761
 11
42.01298
 21
-84.494825
  0
CIRCLE
  8
ボルト／ビス
  6
CONTINUOUS
 62
    64
 10
42.246443
 20
-84.584763
 40
0.216668
  0
CIRCLE
  8
ボルト／ビス
  6
CONTINUOUS
 10
32.29689
 20
-72.26807
 40
0.250185
  0
CIRCLE
  8
ボルト／ビス
  6
CONTINUOUS
 10
32.29689
 20
-72.26807
 40
0.301025
  0
LINE
  8
ボルト／ビス
  6
CONTINUOUS
 62
    64
 10
32.53035
 20
-72.35801
 11
32.491508
 21
-72.110858
  0
LINE
  8
ボルト／ビス
  6
CONTINUOUS
 62
    64
 10
32.258045
 20
-72.02092
 11
32.491508
 21
-72.110858
  0
LINE
  8
ボルト／ビス
  6
CONTINUOUS
 62
    64
 10
32.335733
 20
-72.515222
 11
32.10227
 21
-72.425285
  0
LINE
  8
ボルト／ビス
  6
CONTINUOUS
 62
    64
 10
32.063428
 20
-72.178132
 11
32.10227
 21
-72.425285
  0
LINE
  8
ボルト／ビス
  6
CONTINUOUS
 62
    64
 10
32.53035
 20
-72.35801
 11
32.335733
 21
-72.515222
  0
LINE
  8
ボルト／ビス
  6
CONTINUOUS
 62
    64
 10
32.258045
 20
-72.02092
 11
32.063428
 21
-72.178132
  0
CIRCLE
  8
ボルト／ビス
  6
CONTINUOUS
 62
    64
 10
32.29689
 20
-72.26807
 40
0.216668
  0
CIRCLE
  8
ボルト／ビス
  6
CONTINUOUS
 10
22.347335
 20
-59.95138
 40
0.250185
  0
CIRCLE
  8
ボルト／ビス
  6
CONTINUOUS
 10
22.347335
 20
-59.95138
 40
0.301025
  0
LINE
  8
ボルト／ビス
  6
CONTINUOUS
 62
    64
 10
22.308492
 20
-59.704227
 11
22.541952
 21
-59.794165
  0
LINE
  8
ボルト／ビス
  6
CONTINUOUS
 62
    64
 10
22.580797
 20
-60.041317
 11
22.541952
 21
-59.794165
  0
LINE
  8
ボルト／ビス
  6
CONTINUOUS
 62
    64
 10
22.113873
 20
-59.861442
 11
22.152717
 21
-60.108595
  0
LINE
  8
ボルト／ビス
  6
CONTINUOUS
 62
    64
 10
22.38618
 20
-60.198532
 11
22.152717
 21
-60.108595
  0
LINE
  8
ボルト／ビス
  6
CONTINUOUS
 62
    64
 10
22.308492
 20
-59.704227
 11
22.113873
 21
-59.861442
  0
LINE
  8
ボルト／ビス
  6
CONTINUOUS
 62
    64
 10
22.580797
 20
-60.041317
 11
22.38618
 21
-60.198532
  0
CIRCLE
  8
ボルト／ビス
  6
CONTINUOUS
 62
    64
 10
22.347335
 20
-59.95138
 40
0.216668
  0
ENDBLK
  0
BLOCK
  2
*GRP_0022
 70
    65
 10
0.0
 20
0.0
  0
LINE
  8
補助線
  6
BYBLOCK
 62
    64
 10
22.399698
 20
-84.519938
 11
22.294967
 21
-84.649587
  0
LINE
  8
補助線
  6
BYBLOCK
 62
    64
 10
22.282505
 20
-84.532395
 11
22.412157
 21
-84.637128
  0
LINE
  8
補助線
  6
BYBLOCK
 62
    64
 10
32.349252
 20
-72.20325
 11
32.24452
 21
-72.332895
  0
LINE
  8
補助線
  6
BYBLOCK
 62
    64
 10
32.23206
 20
-72.215705
 11
32.36171
 21
-72.320438
  0
LINE
  8
補助線
  6
BYBLOCK
 62
    64
 10
42.194073
 20
-60.016205
 11
42.298805
 21
-59.886557
  0
LINE
  8
補助線
  6
BYBLOCK
 62
    64
 10
42.181612
 20
-59.899013
 11
42.311265
 21
-60.003745
  0
LINE
  8
型材断面
  6
CONTINUOUS
 10
21.489623
 20
-84.3204
 11
21.564375
 21
-85.023545
  0
LINE
  8
型材断面
  6
CONTINUOUS
 10
21.564375
 20
-85.023545
 11
22.082972
 21
-85.442472
  0
LINE
  8
型材断面
  6
CONTINUOUS
 10
22.082972
 20
-85.442472
 11
22.786118
 21
-85.36772
  0
LINE
  8
型材断面
  6
CONTINUOUS
 10
41.807657
 20
-59.168422
 11
42.5108
 21
-59.09367
  0
LINE
  8
型材断面
  6
CONTINUOUS
 10
42.5108
 20
-59.09367
 11
43.029398
 21
-59.5126
  0
LINE
  8
型材断面
  6
CONTINUOUS
 10
43.029398
 20
-59.5126
 11
43.104153
 21
-60.215745
  0
LINE
  8
型材断面
  6
CONTINUOUS
 10
21.489623
 20
-84.3204
 11
41.807657
 21
-59.168422
  0
LINE
  8
型材断面
  6
CONTINUOUS
 10
22.786118
 20
-85.36772
 11
43.104153
 21
-60.215745
  0
CIRCLE
  8
ボルト／ビス
  6
CONTINUOUS
 10
22.347333
 20
-84.584763
 40
0.250185
  0
CIRCLE
  8
ボルト／ビス
  6
CONTINUOUS
 10
22.347333
 20
-84.584763
 40
0.301025
  0
LINE
  8
ボルト／ビス
  6
CONTINUOUS
 62
    64
 10
22.11387
 20
-84.6747
 11
22.152715
 21
-84.427548
  0
LINE
  8
ボルト／ビス
  6
CONTINUOUS
 62
    64
 10
22.386175
 20
-84.33761
 11
22.152715
 21
-84.427548
  0
LINE
  8
ボルト／ビス
  6
CONTINUOUS
 62
    64
 10
22.30849
 20
-84.831915
 11
22.54195
 21
-84.741978
  0
LINE
  8
ボルト／ビス
  6
CONTINUOUS
 62
    64
 10
22.580795
 20
-84.494825
 11
22.54195
 21
-84.741978
  0
LINE
  8
ボルト／ビス
  6
CONTINUOUS
 62
    64
 10
22.11387
 20
-84.6747
 11
22.30849
 21
-84.831915
  0
LINE
  8
ボルト／ビス
  6
CONTINUOUS
 62
    64
 10
22.386175
 20
-84.33761
 11
22.580795
 21
-84.494825
  0
CIRCLE
  8
ボルト／ビス
  6
CONTINUOUS
 62
    64
 10
22.347333
 20
-84.584763
 40
0.216668
  0
CIRCLE
  8
ボルト／ビス
  6
CONTINUOUS
 10
32.296885
 20
-72.26807
 40
0.250185
  0
CIRCLE
  8
ボルト／ビス
  6
CONTINUOUS
 10
32.296885
 20
-72.26807
 40
0.301025
  0
LINE
  8
ボルト／ビス
  6
CONTINUOUS
 62
    64
 10
32.063425
 20
-72.35801
 11
32.102268
 21
-72.110858
  0
LINE
  8
ボルト／ビス
  6
CONTINUOUS
 62
    64
 10
32.33573
 20
-72.02092
 11
32.102268
 21
-72.110858
  0
LINE
  8
ボルト／ビス
  6
CONTINUOUS
 62
    64
 10
32.258043
 20
-72.515222
 11
32.491505
 21
-72.425285
  0
LINE
  8
ボルト／ビス
  6
CONTINUOUS
 62
    64
 10
32.530348
 20
-72.178132
 11
32.491505
 21
-72.425285
  0
LINE
  8
ボルト／ビス
  6
CONTINUOUS
 62
    64
 10
32.063425
 20
-72.35801
 11
32.258043
 21
-72.515222
  0
LINE
  8
ボルト／ビス
  6
CONTINUOUS
 62
    64
 10
32.33573
 20
-72.02092
 11
32.530348
 21
-72.178132
  0
CIRCLE
  8
ボルト／ビス
  6
CONTINUOUS
 62
    64
 10
32.296885
 20
-72.26807
 40
0.216668
  0
CIRCLE
  8
ボルト／ビス
  6
CONTINUOUS
 10
42.24644
 20
-59.95138
 40
0.250185
  0
CIRCLE
  8
ボルト／ビス
  6
CONTINUOUS
 10
42.24644
 20
-59.95138
 40
0.301025
  0
LINE
  8
ボルト／ビス
  6
CONTINUOUS
 62
    64
 10
42.285282
 20
-59.704227
 11
42.051822
 21
-59.794165
  0
LINE
  8
ボルト／ビス
  6
CONTINUOUS
 62
    64
 10
42.012977
 20
-60.041317
 11
42.051822
 21
-59.794165
  0
LINE
  8
ボルト／ビス
  6
CONTINUOUS
 62
    64
 10
42.479903
 20
-59.861442
 11
42.441057
 21
-60.108595
  0
LINE
  8
ボルト／ビス
  6
CONTINUOUS
 62
    64
 10
42.207595
 20
-60.198532
 11
42.441057
 21
-60.108595
  0
LINE
  8
ボルト／ビス
  6
CONTINUOUS
 62
    64
 10
42.285282
 20
-59.704227
 11
42.479903
 21
-59.861442
  0
LINE
  8
ボルト／ビス
  6
CONTINUOUS
 62
    64
 10
42.012977
 20
-60.041317
 11
42.207595
 21
-60.198532
  0
CIRCLE
  8
ボルト／ビス
  6
CONTINUOUS
 62
    64
 10
42.24644
 20
-59.95138
 40
0.216668
  0
ENDBLK
  0
BLOCK
  2
*GRP_0023
 70
    65
 10
0.0
 20
0.0
  0
LINE
  8
補助線
  6
BYBLOCK
 62
    64
 10
-19.523035
 20
-84.519938
 11
-19.418305
 21
-84.649587
  0
LINE
  8
補助線
  6
BYBLOCK
 62
    64
 10
-19.405843
 20
-84.532395
 11
-19.535495
 21
-84.637128
  0
LINE
  8
補助線
  6
BYBLOCK
 62
    64
 10
-29.47259
 20
-72.20325
 11
-29.367857
 21
-72.332895
  0
LINE
  8
補助線
  6
BYBLOCK
 62
    64
 10
-29.355397
 20
-72.215705
 11
-29.485048
 21
-72.320438
  0
LINE
  8
補助線
  6
BYBLOCK
 62
    64
 10
-39.31741
 20
-60.016205
 11
-39.422142
 21
-59.886557
  0
LINE
  8
補助線
  6
BYBLOCK
 62
    64
 10
-39.30495
 20
-59.899013
 11
-39.434602
 21
-60.003745
  0
LINE
  8
型材断面
  6
CONTINUOUS
 10
-18.61296
 20
-84.3204
 11
-18.687712
 21
-85.023545
  0
LINE
  8
型材断面
  6
CONTINUOUS
 10
-18.687712
 20
-85.023545
 11
-19.20631
 21
-85.442472
  0
LINE
  8
型材断面
  6
CONTINUOUS
 10
-19.20631
 20
-85.442472
 11
-19.909455
 21
-85.36772
  0
LINE
  8
型材断面
  6
CONTINUOUS
 10
-38.930995
 20
-59.168422
 11
-39.634137
 21
-59.09367
  0
LINE
  8
型材断面
  6
CONTINUOUS
 10
-39.634137
 20
-59.09367
 11
-40.152735
 21
-59.5126
  0
LINE
  8
型材断面
  6
CONTINUOUS
 10
-40.152735
 20
-59.5126
 11
-40.22749
 21
-60.215745
  0
LINE
  8
型材断面
  6
CONTINUOUS
 10
-18.61296
 20
-84.3204
 11
-38.930995
 21
-59.168422
  0
LINE
  8
型材断面
  6
CONTINUOUS
 10
-19.909455
 20
-85.36772
 11
-40.22749
 21
-60.215745
  0
CIRCLE
  8
ボルト／ビス
  6
CONTINUOUS
 10
-19.47067
 20
-84.584763
 40
0.250185
  0
CIRCLE
  8
ボルト／ビス
  6
CONTINUOUS
 10
-19.47067
 20
-84.584763
 40
0.301025
  0
LINE
  8
ボルト／ビス
  6
CONTINUOUS
 62
    64
 10
-19.237208
 20
-84.6747
 11
-19.276052
 21
-84.427548
  0
LINE
  8
ボルト／ビス
  6
CONTINUOUS
 62
    64
 10
-19.509512
 20
-84.33761
 11
-19.276052
 21
-84.427548
  0
LINE
  8
ボルト／ビス
  6
CONTINUOUS
 62
    64
 10
-19.431827
 20
-84.831915
 11
-19.665287
 21
-84.741978
  0
LINE
  8
ボルト／ビス
  6
CONTINUOUS
 62
    64
 10
-19.704133
 20
-84.494825
 11
-19.665287
 21
-84.741978
  0
LINE
  8
ボルト／ビス
  6
CONTINUOUS
 62
    64
 10
-19.237208
 20
-84.6747
 11
-19.431827
 21
-84.831915
  0
LINE
  8
ボルト／ビス
  6
CONTINUOUS
 62
    64
 10
-19.509512
 20
-84.33761
 11
-19.704133
 21
-84.494825
  0
CIRCLE
  8
ボルト／ビス
  6
CONTINUOUS
 62
    64
 10
-19.47067
 20
-84.584763
 40
0.216668
  0
CIRCLE
  8
ボルト／ビス
  6
CONTINUOUS
 10
-29.420223
 20
-72.26807
 40
0.250185
  0
CIRCLE
  8
ボルト／ビス
  6
CONTINUOUS
 10
-29.420223
 20
-72.26807
 40
0.301025
  0
LINE
  8
ボルト／ビス
  6
CONTINUOUS
 62
    64
 10
-29.186762
 20
-72.35801
 11
-29.225605
 21
-72.110858
  0
LINE
  8
ボルト／ビス
  6
CONTINUOUS
 62
    64
 10
-29.459068
 20
-72.02092
 11
-29.225605
 21
-72.110858
  0
LINE
  8
ボルト／ビス
  6
CONTINUOUS
 62
    64
 10
-29.38138
 20
-72.515222
 11
-29.614843
 21
-72.425285
  0
LINE
  8
ボルト／ビス
  6
CONTINUOUS
 62
    64
 10
-29.653685
 20
-72.178132
 11
-29.614843
 21
-72.425285
  0
LINE
  8
ボルト／ビス
  6
CONTINUOUS
 62
    64
 10
-29.186762
 20
-72.35801
 11
-29.38138
 21
-72.515222
  0
LINE
  8
ボルト／ビス
  6
CONTINUOUS
 62
    64
 10
-29.459068
 20
-72.02092
 11
-29.653685
 21
-72.178132
  0
CIRCLE
  8
ボルト／ビス
  6
CONTINUOUS
 62
    64
 10
-29.420223
 20
-72.26807
 40
0.216668
  0
CIRCLE
  8
ボルト／ビス
  6
CONTINUOUS
 10
-39.369777
 20
-59.95138
 40
0.250185
  0
CIRCLE
  8
ボルト／ビス
  6
CONTINUOUS
 10
-39.369777
 20
-59.95138
 40
0.301025
  0
LINE
  8
ボルト／ビス
  6
CONTINUOUS
 62
    64
 10
-39.40862
 20
-59.704227
 11
-39.17516
 21
-59.794165
  0
LINE
  8
ボルト／ビス
  6
CONTINUOUS
 62
    64
 10
-39.136315
 20
-60.041317
 11
-39.17516
 21
-59.794165
  0
LINE
  8
ボルト／ビス
  6
CONTINUOUS
 62
    64
 10
-39.60324
 20
-59.861442
 11
-39.564395
 21
-60.108595
  0
LINE
  8
ボルト／ビス
  6
CONTINUOUS
 62
    64
 10
-39.330933
 20
-60.198532
 11
-39.564395
 21
-60.108595
  0
LINE
  8
ボルト／ビス
  6
CONTINUOUS
 62
    64
 10
-39.40862
 20
-59.704227
 11
-39.60324
 21
-59.861442
  0
LINE
  8
ボルト／ビス
  6
CONTINUOUS
 62
    64
 10
-39.136315
 20
-60.041317
 11
-39.330933
 21
-60.198532
  0
CIRCLE
  8
ボルト／ビス
  6
CONTINUOUS
 62
    64
 10
-39.369777
 20
-59.95138
 40
0.216668
  0
ENDBLK
  0
BLOCK
  2
*GRP_0024
 70
    65
 10
0.0
 20
0.0
  0
LINE
  8
補助線
  6
BYBLOCK
 62
    64
 10
-39.317415
 20
-84.519938
 11
-39.422145
 21
-84.649587
  0
LINE
  8
補助線
  6
BYBLOCK
 62
    64
 10
-39.434608
 20
-84.532395
 11
-39.304955
 21
-84.637128
  0
LINE
  8
補助線
  6
BYBLOCK
 62
    64
 10
-29.36786
 20
-72.20325
 11
-29.472592
 21
-72.332895
  0
LINE
  8
補助線
  6
BYBLOCK
 62
    64
 10
-29.485052
 20
-72.215705
 11
-29.355403
 21
-72.320438
  0
LINE
  8
補助線
  6
BYBLOCK
 62
    64
 10
-19.52304
 20
-60.016205
 11
-19.418307
 21
-59.886557
  0
LINE
  8
補助線
  6
BYBLOCK
 62
    64
 10
-19.5355
 20
-59.899013
 11
-19.405847
 21
-60.003745
  0
LINE
  8
型材断面
  6
CONTINUOUS
 10
-40.22749
 20
-84.3204
 11
-40.152737
 21
-85.023545
  0
LINE
  8
型材断面
  6
CONTINUOUS
 10
-40.152737
 20
-85.023545
 11
-39.63414
 21
-85.442472
  0
LINE
  8
型材断面
  6
CONTINUOUS
 10
-39.63414
 20
-85.442472
 11
-38.930995
 21
-85.36772
  0
LINE
  8
型材断面
  6
CONTINUOUS
 10
-19.909455
 20
-59.168422
 11
-19.206312
 21
-59.09367
  0
LINE
  8
型材断面
  6
CONTINUOUS
 10
-19.206312
 20
-59.09367
 11
-18.687715
 21
-59.5126
  0
LINE
  8
型材断面
  6
CONTINUOUS
 10
-18.687715
 20
-59.5126
 11
-18.61296
 21
-60.215745
  0
LINE
  8
型材断面
  6
CONTINUOUS
 10
-40.22749
 20
-84.3204
 11
-19.909455
 21
-59.168422
  0
LINE
  8
型材断面
  6
CONTINUOUS
 10
-38.930995
 20
-85.36772
 11
-18.61296
 21
-60.215745
  0
CIRCLE
  8
ボルト／ビス
  6
CONTINUOUS
 10
-39.36978
 20
-84.584763
 40
0.250185
  0
CIRCLE
  8
ボルト／ビス
  6
CONTINUOUS
 10
-39.36978
 20
-84.584763
 40
0.301025
  0
LINE
  8
ボルト／ビス
  6
CONTINUOUS
 62
    64
 10
-39.603243
 20
-84.6747
 11
-39.564397
 21
-84.427548
  0
LINE
  8
ボルト／ビス
  6
CONTINUOUS
 62
    64
 10
-39.330937
 20
-84.33761
 11
-39.564397
 21
-84.427548
  0
LINE
  8
ボルト／ビス
  6
CONTINUOUS
 62
    64
 10
-39.408623
 20
-84.831915
 11
-39.175162
 21
-84.741978
  0
LINE
  8
ボルト／ビス
  6
CONTINUOUS
 62
    64
 10
-39.136318
 20
-84.494825
 11
-39.175162
 21
-84.741978
  0
LINE
  8
ボルト／ビス
  6
CONTINUOUS
 62
    64
 10
-39.603243
 20
-84.6747
 11
-39.408623
 21
-84.831915
  0
LINE
  8
ボルト／ビス
  6
CONTINUOUS
 62
    64
 10
-39.330937
 20
-84.33761
 11
-39.136318
 21
-84.494825
  0
CIRCLE
  8
ボルト／ビス
  6
CONTINUOUS
 62
    64
 10
-39.36978
 20
-84.584763
 40
0.216668
  0
CIRCLE
  8
ボルト／ビス
  6
CONTINUOUS
 10
-29.420227
 20
-72.26807
 40
0.250185
  0
CIRCLE
  8
ボルト／ビス
  6
CONTINUOUS
 10
-29.420227
 20
-72.26807
 40
0.301025
  0
LINE
  8
ボルト／ビス
  6
CONTINUOUS
 62
    64
 10
-29.653687
 20
-72.35801
 11
-29.614845
 21
-72.110858
  0
LINE
  8
ボルト／ビス
  6
CONTINUOUS
 62
    64
 10
-29.381383
 20
-72.02092
 11
-29.614845
 21
-72.110858
  0
LINE
  8
ボルト／ビス
  6
CONTINUOUS
 62
    64
 10
-29.45907
 20
-72.515222
 11
-29.225608
 21
-72.425285
  0
LINE
  8
ボルト／ビス
  6
CONTINUOUS
 62
    64
 10
-29.186765
 20
-72.178132
 11
-29.225608
 21
-72.425285
  0
LINE
  8
ボルト／ビス
  6
CONTINUOUS
 62
    64
 10
-29.653687
 20
-72.35801
 11
-29.45907
 21
-72.515222
  0
LINE
  8
ボルト／ビス
  6
CONTINUOUS
 62
    64
 10
-29.381383
 20
-72.02092
 11
-29.186765
 21
-72.178132
  0
CIRCLE
  8
ボルト／ビス
  6
CONTINUOUS
 62
    64
 10
-29.420227
 20
-72.26807
 40
0.216668
  0
CIRCLE
  8
ボルト／ビス
  6
CONTINUOUS
 10
-19.470672
 20
-59.95138
 40
0.250185
  0
CIRCLE
  8
ボルト／ビス
  6
CONTINUOUS
 10
-19.470672
 20
-59.95138
 40
0.301025
  0
LINE
  8
ボルト／ビス
  6
CONTINUOUS
 62
    64
 10
-19.43183
 20
-59.704227
 11
-19.66529
 21
-59.794165
  0
LINE
  8
ボルト／ビス
  6
CONTINUOUS
 62
    64
 10
-19.704135
 20
-60.041317
 11
-19.66529
 21
-59.794165
  0
LINE
  8
ボルト／ビス
  6
CONTINUOUS
 62
    64
 10
-19.23721
 20
-59.861442
 11
-19.276055
 21
-60.108595
  0
LINE
  8
ボルト／ビス
  6
CONTINUOUS
 62
    64
 10
-19.509518
 20
-60.198532
 11
-19.276055
 21
-60.108595
  0
LINE
  8
ボルト／ビス
  6
CONTINUOUS
 62
    64
 10
-19.43183
 20
-59.704227
 11
-19.23721
 21
-59.861442
  0
LINE
  8
ボルト／ビス
  6
CONTINUOUS
 62
    64
 10
-19.704135
 20
-60.041317
 11
-19.509518
 21
-60.198532
  0
CIRCLE
  8
ボルト／ビス
  6
CONTINUOUS
 62
    64
 10
-19.470672
 20
-59.95138
 40
0.216668
  0
ENDBLK
  0
BLOCK
  2
*DIM_0025
 70
    65
 10
0.0
 20
0.0
  0
LINE
  8
寸法
  6
BYBLOCK
 62
     0
 10
-107.420225
 20
8.08996
 11
-136.909303
 21
8.08996
  0
LINE
  8
寸法
  6
BYBLOCK
 62
     0
 10
-107.420225
 20
31.423293
 11
-136.909303
 21
31.423293
  0
LINE
  8
寸法
  6
BYBLOCK
 62
     0
 10
-136.909303
 20
8.08996
 11
-136.909303
 21
31.423293
  0
POINT
  8
寸法
 62
     0
 10
-136.909303
 20
8.08996
  0
POINT
  8
寸法
 62
     0
 10
-136.909303
 20
31.423293
  0
TEXT
  7
TextStyle03
  8
寸法
  6
CONTINUOUS
 62
     0
 10
-137.3
 20
17.3125
  1
700
 40
3.0
 50
90.0
 72
     5
 11
-137.3
 21
22.1875
  0
ENDBLK
  0
BLOCK
  2
*DIM_0026
 70
    65
 10
0.0
 20
0.0
  0
LINE
  8
寸法
  6
BYBLOCK
 62
     0
 10
-107.420225
 20
54.756625
 11
-136.909303
 21
54.756625
  0
LINE
  8
寸法
  6
BYBLOCK
 62
     0
 10
-136.909303
 20
31.423293
 11
-136.909303
 21
54.756625
  0
POINT
  8
寸法
 62
     0
 10
-136.909303
 20
54.756625
  0
TEXT
  7
TextStyle03
  8
寸法
  6
CONTINUOUS
 62
     0
 10
-137.3
 20
40.6375
  1
700
 40
3.0
 50
90.0
 72
     5
 11
-137.3
 21
45.5125
  0
ENDBLK
  0
BLOCK
  2
*DIM_0027
 70
    65
 10
0.0
 20
0.0
  0
LINE
  8
寸法
  6
BYBLOCK
 62
     0
 10
-96.086892
 20
67.756625
 11
-96.086892
 21
96.864697
  0
LINE
  8
寸法
  6
BYBLOCK
 62
     0
 10
-69.420225
 20
67.756625
 11
-69.420225
 21
96.864697
  0
LINE
  8
寸法
  6
BYBLOCK
 62
     0
 10
-96.086892
 20
96.864697
 11
-69.420225
 21
96.864697
  0
POINT
  8
寸法
 62
     0
 10
-96.086892
 20
96.864697
  0
POINT
  8
寸法
 62
     0
 10
-69.420225
 20
96.864697
  0
TEXT
  7
TextStyle03
  8
寸法
  6
CONTINUOUS
 62
     0
 10
-85.2125
 20
97.2
  1
800
 40
3.0
 72
     5
 11
-80.3375
 21
97.2
  0
ENDBLK
  0
BLOCK
  2
*DIM_0028
 70
    65
 10
0.0
 20
0.0
  0
LINE
  8
寸法
  6
BYBLOCK
 62
     0
 10
-42.753557
 20
67.756625
 11
-42.753557
 21
96.864697
  0
LINE
  8
寸法
  6
BYBLOCK
 62
     0
 10
-69.420225
 20
96.864697
 11
-42.753557
 21
96.864697
  0
POINT
  8
寸法
 62
     0
 10
-42.753557
 20
96.864697
  0
TEXT
  7
TextStyle03
  8
寸法
  6
CONTINUOUS
 62
     0
 10
-58.5375
 20
97.2
  1
800
 40
3.0
 72
     5
 11
-53.6625
 21
97.2
  0
ENDBLK
  0
BLOCK
  2
*DIM_0029
 70
    65
 10
0.0
 20
0.0
  0
LINE
  8
寸法
  6
BYBLOCK
 62
     0
 10
-16.086892
 20
67.756625
 11
-16.086892
 21
96.864697
  0
LINE
  8
寸法
  6
BYBLOCK
 62
     0
 10
-42.753557
 20
96.864697
 11
-16.086892
 21
96.864697
  0
POINT
  8
寸法
 62
     0
 10
-16.086892
 20
96.864697
  0
TEXT
  7
TextStyle03
  8
寸法
  6
CONTINUOUS
 62
     0
 10
-31.8625
 20
97.2
  1
800
 40
3.0
 72
     5
 11
-26.9875
 21
97.2
  0
ENDBLK
  0
BLOCK
  2
*DIM_0030
 70
    65
 10
0.0
 20
0.0
  0
LINE
  8
寸法
  6
BYBLOCK
 62
     0
 10
10.579775
 20
67.756625
 11
10.579775
 21
96.864697
  0
LINE
  8
寸法
  6
BYBLOCK
 62
     0
 10
-16.086892
 20
96.864697
 11
10.579775
 21
96.864697
  0
POINT
  8
寸法
 62
     0
 10
10.579775
 20
96.864697
  0
TEXT
  7
TextStyle03
  8
寸法
  6
CONTINUOUS
 62
     0
 10
-5.2125
 20
97.2
  1
800
 40
3.0
 72
     5
 11
-0.3375
 21
97.2
  0
ENDBLK
  0
BLOCK
  2
*DIM_0031
 70
    65
 10
0.0
 20
0.0
  0
LINE
  8
寸法
  6
BYBLOCK
 62
     0
 10
37.246443
 20
67.756625
 11
37.246443
 21
96.864697
  0
LINE
  8
寸法
  6
BYBLOCK
 62
     0
 10
10.579775
 20
96.864697
 11
37.246443
 21
96.864697
  0
POINT
  8
寸法
 62
     0
 10
37.246443
 20
96.864697
  0
TEXT
  7
TextStyle03
  8
寸法
  6
CONTINUOUS
 62
     0
 10
21.4625
 20
97.2
  1
800
 40
3.0
 72
     5
 11
26.3375
 21
97.2
  0
ENDBLK
  0
BLOCK
  2
*DIM_0032
 70
    65
 10
0.0
 20
0.0
  0
LINE
  8
寸法
  6
BYBLOCK
 62
     0
 10
29.913107
 20
-40.95793
 11
61.549425
 21
-40.95793
  0
LINE
  8
寸法
  6
BYBLOCK
 62
     0
 10
61.549425
 20
-62.95793
 11
61.549425
 21
-40.95793
  0
POINT
  8
寸法
 62
     0
 10
61.549425
 20
-62.95793
  0
POINT
  8
寸法
 62
     0
 10
61.549425
 20
-40.95793
  0
TEXT
  7
TextStyle03
  8
寸法
  6
CONTINUOUS
 62
     0
 10
61.15
 20
-61.06875
  1
上昇632以上
 40
3.0
 50
90.0
 72
     5
 11
61.15
 21
-42.88125
  0
ENDBLK
  0
BLOCK
  2
*GRP_0033
 70
    65
 10
0.0
 20
0.0
  0
LINE
  8
ボルト／ビス
  6
CONTINUOUS
 10
135.11304
 20
65.42329
 11
134.646375
 21
65.42329
  0
LINE
  8
ボルト／ビス
  6
CONTINUOUS
 10
135.11304
 20
65.056625
 11
135.046375
 21
65.056625
  0
LINE
  8
ボルト／ビス
  6
CONTINUOUS
 10
135.046375
 20
65.056625
 11
135.046375
 21
65.789957
  0
LINE
  8
ボルト／ビス
  6
CONTINUOUS
 10
135.046375
 20
65.789957
 11
135.11304
 21
65.789957
  0
LINE
  8
ボルト／ビス
  6
CONTINUOUS
 10
135.11304
 20
65.056625
 11
135.11304
 21
65.789957
  0
LINE
  8
ボルト／ビス
  6
CONTINUOUS
 10
135.01304
 20
65.12329
 11
135.046375
 21
65.12329
  0
LINE
  8
ボルト／ビス
  6
CONTINUOUS
 10
135.01304
 20
65.12329
 11
135.01304
 21
65.72329
  0
LINE
  8
ボルト／ビス
  6
CONTINUOUS
 10
135.01304
 20
65.72329
 11
135.046375
 21
65.72329
  0
LINE
  8
ボルト／ビス
  6
CONTINUOUS
 62
    64
 10
134.81304
 20
65.262915
 11
134.824715
 21
65.23084
  0
ARC
  8
ボルト／ビス
  6
CONTINUOUS
 62
    64
 10
134.918017
 20
65.278955
 40
0.104978
 50
152.721967
 51
180.0
  0
ARC
  8
ボルト／ビス
  6
CONTINUOUS
 62
    64
 10
135.215441
 20
65.423292
 40
0.402402
 50
166.165002
 51
193.834985
  0
LINE
  8
ボルト／ビス
  6
CONTINUOUS
 62
    64
 10
134.81304
 20
65.583665
 11
134.824715
 21
65.61574
  0
ARC
  8
ボルト／ビス
  6
CONTINUOUS
 62
    64
 10
134.918017
 20
65.56763
 40
0.104978
 50
180.0
 51
207.278033
  0
LINE
  8
ボルト／ビス
  6
CONTINUOUS
 62
    64
 10
134.81304
 20
65.262915
 11
134.81304
 21
65.583665
  0
LINE
  8
ボルト／ビス
  6
CONTINUOUS
 62
    64
 10
134.824715
 20
65.61574
 11
134.946375
 21
65.61574
  0
LINE
  8
ボルト／ビス
  6
CONTINUOUS
 62
    64
 10
134.824715
 20
65.519515
 11
134.946375
 21
65.519515
  0
LINE
  8
ボルト／ビス
  6
CONTINUOUS
 62
    64
 10
134.824715
 20
65.23084
 11
134.946375
 21
65.23084
  0
LINE
  8
ボルト／ビス
  6
CONTINUOUS
 62
    64
 10
134.824715
 20
65.327065
 11
134.946375
 21
65.327065
  0
LINE
  8
ボルト／ビス
  6
CONTINUOUS
 10
134.946375
 20
65.23084
 11
134.946375
 21
65.61574
  0
LINE
  8
ボルト／ビス
  6
CONTINUOUS
 10
134.946375
 20
65.22329
 11
135.01304
 21
65.22329
  0
LINE
  8
ボルト／ビス
  6
CONTINUOUS
 10
134.946375
 20
65.22329
 11
134.946375
 21
65.62329
  0
LINE
  8
ボルト／ビス
  6
CONTINUOUS
 10
134.946375
 20
65.62329
 11
135.01304
 21
65.62329
  0
ENDBLK
  0
BLOCK
  2
*GRP_0034
 70
    65
 10
0.0
 20
0.0
  0
LINE
  8
ボルト／ビス
  6
CONTINUOUS
 10
135.11304
 20
-2.57671
 11
134.646375
 21
-2.57671
  0
LINE
  8
ボルト／ビス
  6
CONTINUOUS
 10
135.11304
 20
-2.943375
 11
135.046375
 21
-2.943375
  0
LINE
  8
ボルト／ビス
  6
CONTINUOUS
 10
135.046375
 20
-2.943375
 11
135.046375
 21
-2.210042
  0
LINE
  8
ボルト／ビス
  6
CONTINUOUS
 10
135.046375
 20
-2.210042
 11
135.11304
 21
-2.210042
  0
LINE
  8
ボルト／ビス
  6
CONTINUOUS
 10
135.11304
 20
-2.943375
 11
135.11304
 21
-2.210042
  0
LINE
  8
ボルト／ビス
  6
CONTINUOUS
 10
135.01304
 20
-2.87671
 11
135.046375
 21
-2.87671
  0
LINE
  8
ボルト／ビス
  6
CONTINUOUS
 10
135.01304
 20
-2.87671
 11
135.01304
 21
-2.27671
  0
LINE
  8
ボルト／ビス
  6
CONTINUOUS
 10
135.01304
 20
-2.27671
 11
135.046375
 21
-2.27671
  0
LINE
  8
ボルト／ビス
  6
CONTINUOUS
 62
    64
 10
134.81304
 20
-2.737085
 11
134.824715
 21
-2.76916
  0
ARC
  8
ボルト／ビス
  6
CONTINUOUS
 62
    64
 10
134.918017
 20
-2.721045
 40
0.104978
 50
152.721967
 51
180.0
  0
ARC
  8
ボルト／ビス
  6
CONTINUOUS
 62
    64
 10
135.215441
 20
-2.576708
 40
0.402402
 50
166.165002
 51
193.834985
  0
LINE
  8
ボルト／ビス
  6
CONTINUOUS
 62
    64
 10
134.81304
 20
-2.416335
 11
134.824715
 21
-2.38426
  0
ARC
  8
ボルト／ビス
  6
CONTINUOUS
 62
    64
 10
134.918017
 20
-2.43237
 40
0.104978
 50
180.0
 51
207.278033
  0
LINE
  8
ボルト／ビス
  6
CONTINUOUS
 62
    64
 10
134.81304
 20
-2.737085
 11
134.81304
 21
-2.416335
  0
LINE
  8
ボルト／ビス
  6
CONTINUOUS
 62
    64
 10
134.824715
 20
-2.38426
 11
134.946375
 21
-2.38426
  0
LINE
  8
ボルト／ビス
  6
CONTINUOUS
 62
    64
 10
134.824715
 20
-2.480485
 11
134.946375
 21
-2.480485
  0
LINE
  8
ボルト／ビス
  6
CONTINUOUS
 62
    64
 10
134.824715
 20
-2.76916
 11
134.946375
 21
-2.76916
  0
LINE
  8
ボルト／ビス
  6
CONTINUOUS
 62
    64
 10
134.824715
 20
-2.672935
 11
134.946375
 21
-2.672935
  0
LINE
  8
ボルト／ビス
  6
CONTINUOUS
 10
134.946375
 20
-2.76916
 11
134.946375
 21
-2.38426
  0
LINE
  8
ボルト／ビス
  6
CONTINUOUS
 10
134.946375
 20
-2.77671
 11
135.01304
 21
-2.77671
  0
LINE
  8
ボルト／ビス
  6
CONTINUOUS
 10
134.946375
 20
-2.77671
 11
134.946375
 21
-2.37671
  0
LINE
  8
ボルト／ビス
  6
CONTINUOUS
 10
134.946375
 20
-2.37671
 11
135.01304
 21
-2.37671
  0
ENDBLK
  0
BLOCK
  2
*GRP_0035
 70
    65
 10
0.0
 20
0.0
  0
LINE
  8
ボルト／ビス
  6
CONTINUOUS
 10
46.246443
 20
-79.624597
 11
46.246443
 21
-79.157932
  0
LINE
  8
ボルト／ビス
  6
CONTINUOUS
 10
45.879777
 20
-79.624597
 11
45.879777
 21
-79.557932
  0
LINE
  8
ボルト／ビス
  6
CONTINUOUS
 10
45.879777
 20
-79.557932
 11
46.61311
 21
-79.557932
  0
LINE
  8
ボルト／ビス
  6
CONTINUOUS
 10
46.61311
 20
-79.557932
 11
46.61311
 21
-79.624597
  0
LINE
  8
ボルト／ビス
  6
CONTINUOUS
 10
45.879777
 20
-79.624597
 11
46.61311
 21
-79.624597
  0
LINE
  8
ボルト／ビス
  6
CONTINUOUS
 10
45.946443
 20
-79.524597
 11
45.946443
 21
-79.557932
  0
LINE
  8
ボルト／ビス
  6
CONTINUOUS
 10
45.946443
 20
-79.524597
 11
46.546443
 21
-79.524597
  0
LINE
  8
ボルト／ビス
  6
CONTINUOUS
 10
46.546443
 20
-79.524597
 11
46.546443
 21
-79.557932
  0
LINE
  8
ボルト／ビス
  6
CONTINUOUS
 62
    64
 10
46.086067
 20
-79.324597
 11
46.053992
 21
-79.336272
  0
ARC
  8
ボルト／ビス
  6
CONTINUOUS
 62
    64
 10
46.102107
 20
-79.429574
 40
0.104978
 50
62.721967
 51
90.0
  0
ARC
  8
ボルト／ビス
  6
CONTINUOUS
 62
    64
 10
46.246445
 20
-79.726998
 40
0.402402
 50
76.165002
 51
103.834985
  0
LINE
  8
ボルト／ビス
  6
CONTINUOUS
 62
    64
 10
46.406818
 20
-79.324597
 11
46.438892
 21
-79.336272
  0
ARC
  8
ボルト／ビス
  6
CONTINUOUS
 62
    64
 10
46.390782
 20
-79.429574
 40
0.104978
 50
90.0
 51
117.278033
  0
LINE
  8
ボルト／ビス
  6
CONTINUOUS
 62
    64
 10
46.086067
 20
-79.324597
 11
46.406818
 21
-79.324597
  0
LINE
  8
ボルト／ビス
  6
CONTINUOUS
 62
    64
 10
46.438892
 20
-79.336272
 11
46.438892
 21
-79.457932
  0
LINE
  8
ボルト／ビス
  6
CONTINUOUS
 62
    64
 10
46.342668
 20
-79.336272
 11
46.342668
 21
-79.457932
  0
LINE
  8
ボルト／ビス
  6
CONTINUOUS
 62
    64
 10
46.053992
 20
-79.336272
 11
46.053992
 21
-79.457932
  0
LINE
  8
ボルト／ビス
  6
CONTINUOUS
 62
    64
 10
46.150217
 20
-79.336272
 11
46.150217
 21
-79.457932
  0
LINE
  8
ボルト／ビス
  6
CONTINUOUS
 10
46.053992
 20
-79.457932
 11
46.438892
 21
-79.457932
  0
LINE
  8
ボルト／ビス
  6
CONTINUOUS
 10
46.046443
 20
-79.457932
 11
46.046443
 21
-79.524597
  0
LINE
  8
ボルト／ビス
  6
CONTINUOUS
 10
46.046443
 20
-79.457932
 11
46.446443
 21
-79.457932
  0
LINE
  8
ボルト／ビス
  6
CONTINUOUS
 10
46.446443
 20
-79.457932
 11
46.446443
 21
-79.524597
  0
ENDBLK
  0
BLOCK
  2
*GRP_0036
 70
    65
 10
0.0
 20
0.0
  0
LINE
  8
ボルト／ビス
  6
DOT
 10
46.246443
 20
-57.624597
 11
46.246443
 21
-57.157932
  0
LINE
  8
ボルト／ビス
  6
DOT
 10
45.879777
 20
-57.624597
 11
45.879777
 21
-57.557932
  0
LINE
  8
ボルト／ビス
  6
DOT
 10
45.879777
 20
-57.557932
 11
46.61311
 21
-57.557932
  0
LINE
  8
ボルト／ビス
  6
DOT
 10
46.61311
 20
-57.557932
 11
46.61311
 21
-57.624597
  0
LINE
  8
ボルト／ビス
  6
DOT
 10
45.879777
 20
-57.624597
 11
46.61311
 21
-57.624597
  0
LINE
  8
ボルト／ビス
  6
DOT
 10
45.946443
 20
-57.524597
 11
45.946443
 21
-57.557932
  0
LINE
  8
ボルト／ビス
  6
DOT
 10
45.946443
 20
-57.524597
 11
46.546443
 21
-57.524597
  0
LINE
  8
ボルト／ビス
  6
DOT
 10
46.546443
 20
-57.524597
 11
46.546443
 21
-57.557932
  0
LINE
  8
ボルト／ビス
  6
DOT
 62
    64
 10
46.086067
 20
-57.324597
 11
46.053992
 21
-57.336272
  0
ARC
  8
ボルト／ビス
  6
DOT
 62
    64
 10
46.102107
 20
-57.429574
 40
0.104978
 50
62.721967
 51
90.0
  0
ARC
  8
ボルト／ビス
  6
DOT
 62
    64
 10
46.246445
 20
-57.726998
 40
0.402402
 50
76.165002
 51
103.834985
  0
LINE
  8
ボルト／ビス
  6
DOT
 62
    64
 10
46.406818
 20
-57.324597
 11
46.438892
 21
-57.336272
  0
ARC
  8
ボルト／ビス
  6
DOT
 62
    64
 10
46.390782
 20
-57.429574
 40
0.104978
 50
90.0
 51
117.278033
  0
LINE
  8
ボルト／ビス
  6
DOT
 62
    64
 10
46.086067
 20
-57.324597
 11
46.406818
 21
-57.324597
  0
LINE
  8
ボルト／ビス
  6
DOT
 62
    64
 10
46.438892
 20
-57.336272
 11
46.438892
 21
-57.457932
  0
LINE
  8
ボルト／ビス
  6
DOT
 62
    64
 10
46.342668
 20
-57.336272
 11
46.342668
 21
-57.457932
  0
LINE
  8
ボルト／ビス
  6
DOT
 62
    64
 10
46.053992
 20
-57.336272
 11
46.053992
 21
-57.457932
  0
LINE
  8
ボルト／ビス
  6
DOT
 62
    64
 10
46.150217
 20
-57.336272
 11
46.150217
 21
-57.457932
  0
LINE
  8
ボルト／ビス
  6
DOT
 10
46.053992
 20
-57.457932
 11
46.438892
 21
-57.457932
  0
LINE
  8
ボルト／ビス
  6
DOT
 10
46.046443
 20
-57.457932
 11
46.046443
 21
-57.524597
  0
LINE
  8
ボルト／ビス
  6
DOT
 10
46.046443
 20
-57.457932
 11
46.446443
 21
-57.457932
  0
LINE
  8
ボルト／ビス
  6
DOT
 10
46.446443
 20
-57.457932
 11
46.446443
 21
-57.524597
  0
ENDBLK
  0
BLOCK
  2
*GRP_0037
 70
    65
 10
0.0
 20
0.0
  0
LINE
  8
ボルト／ビス
  6
CONTINUOUS
 10
-105.086892
 20
-79.624597
 11
-105.086892
 21
-79.157932
  0
LINE
  8
ボルト／ビス
  6
CONTINUOUS
 10
-105.453557
 20
-79.624597
 11
-105.453557
 21
-79.557932
  0
LINE
  8
ボルト／ビス
  6
CONTINUOUS
 10
-105.453557
 20
-79.557932
 11
-104.720225
 21
-79.557932
  0
LINE
  8
ボルト／ビス
  6
CONTINUOUS
 10
-104.720225
 20
-79.557932
 11
-104.720225
 21
-79.624597
  0
LINE
  8
ボルト／ビス
  6
CONTINUOUS
 10
-105.453557
 20
-79.624597
 11
-104.720225
 21
-79.624597
  0
LINE
  8
ボルト／ビス
  6
CONTINUOUS
 10
-105.386892
 20
-79.524597
 11
-105.386892
 21
-79.557932
  0
LINE
  8
ボルト／ビス
  6
CONTINUOUS
 10
-105.386892
 20
-79.524597
 11
-104.786892
 21
-79.524597
  0
LINE
  8
ボルト／ビス
  6
CONTINUOUS
 10
-104.786892
 20
-79.524597
 11
-104.786892
 21
-79.557932
  0
LINE
  8
ボルト／ビス
  6
CONTINUOUS
 62
    64
 10
-105.247267
 20
-79.324597
 11
-105.279342
 21
-79.336272
  0
ARC
  8
ボルト／ビス
  6
CONTINUOUS
 62
    64
 10
-105.231228
 20
-79.429574
 40
0.104978
 50
62.721967
 51
90.0
  0
ARC
  8
ボルト／ビス
  6
CONTINUOUS
 62
    64
 10
-105.08689
 20
-79.726998
 40
0.402402
 50
76.165002
 51
103.834985
  0
LINE
  8
ボルト／ビス
  6
CONTINUOUS
 62
    64
 10
-104.926518
 20
-79.324597
 11
-104.894442
 21
-79.336272
  0
ARC
  8
ボルト／ビス
  6
CONTINUOUS
 62
    64
 10
-104.942553
 20
-79.429574
 40
0.104978
 50
90.0
 51
117.278033
  0
LINE
  8
ボルト／ビス
  6
CONTINUOUS
 62
    64
 10
-105.247267
 20
-79.324597
 11
-104.926518
 21
-79.324597
  0
LINE
  8
ボルト／ビス
  6
CONTINUOUS
 62
    64
 10
-104.894442
 20
-79.336272
 11
-104.894442
 21
-79.457932
  0
LINE
  8
ボルト／ビス
  6
CONTINUOUS
 62
    64
 10
-104.990668
 20
-79.336272
 11
-104.990668
 21
-79.457932
  0
LINE
  8
ボルト／ビス
  6
CONTINUOUS
 62
    64
 10
-105.279342
 20
-79.336272
 11
-105.279342
 21
-79.457932
  0
LINE
  8
ボルト／ビス
  6
CONTINUOUS
 62
    64
 10
-105.183118
 20
-79.336272
 11
-105.183118
 21
-79.457932
  0
LINE
  8
ボルト／ビス
  6
CONTINUOUS
 10
-105.279342
 20
-79.457932
 11
-104.894442
 21
-79.457932
  0
LINE
  8
ボルト／ビス
  6
CONTINUOUS
 10
-105.286892
 20
-79.457932
 11
-105.286892
 21
-79.524597
  0
LINE
  8
ボルト／ビス
  6
CONTINUOUS
 10
-105.286892
 20
-79.457932
 11
-104.886892
 21
-79.457932
  0
LINE
  8
ボルト／ビス
  6
CONTINUOUS
 10
-104.886892
 20
-79.457932
 11
-104.886892
 21
-79.524597
  0
ENDBLK
  0
BLOCK
  2
*GRP_0038
 70
    65
 10
0.0
 20
0.0
  0
LINE
  8
ボルト／ビス
  6
DOT
 10
-105.086892
 20
-57.624597
 11
-105.086892
 21
-57.157932
  0
LINE
  8
ボルト／ビス
  6
DOT
 10
-105.453557
 20
-57.624597
 11
-105.453557
 21
-57.557932
  0
LINE
  8
ボルト／ビス
  6
DOT
 10
-105.453557
 20
-57.557932
 11
-104.720225
 21
-57.557932
  0
LINE
  8
ボルト／ビス
  6
DOT
 10
-104.720225
 20
-57.557932
 11
-104.720225
 21
-57.624597
  0
LINE
  8
ボルト／ビス
  6
DOT
 10
-105.453557
 20
-57.624597
 11
-104.720225
 21
-57.624597
  0
LINE
  8
ボルト／ビス
  6
DOT
 10
-105.386892
 20
-57.524597
 11
-105.386892
 21
-57.557932
  0
LINE
  8
ボルト／ビス
  6
DOT
 10
-105.386892
 20
-57.524597
 11
-104.786892
 21
-57.524597
  0
LINE
  8
ボルト／ビス
  6
DOT
 10
-104.786892
 20
-57.524597
 11
-104.786892
 21
-57.557932
  0
LINE
  8
ボルト／ビス
  6
DOT
 62
    64
 10
-105.247267
 20
-57.324597
 11
-105.279342
 21
-57.336272
  0
ARC
  8
ボルト／ビス
  6
DOT
 62
    64
 10
-105.231228
 20
-57.429574
 40
0.104978
 50
62.721967
 51
90.0
  0
ARC
  8
ボルト／ビス
  6
DOT
 62
    64
 10
-105.08689
 20
-57.726998
 40
0.402402
 50
76.165002
 51
103.834985
  0
LINE
  8
ボルト／ビス
  6
DOT
 62
    64
 10
-104.926518
 20
-57.324597
 11
-104.894442
 21
-57.336272
  0
ARC
  8
ボルト／ビス
  6
DOT
 62
    64
 10
-104.942553
 20
-57.429574
 40
0.104978
 50
90.0
 51
117.278033
  0
LINE
  8
ボルト／ビス
  6
DOT
 62
    64
 10
-105.247267
 20
-57.324597
 11
-104.926518
 21
-57.324597
  0
LINE
  8
ボルト／ビス
  6
DOT
 62
    64
 10
-104.894442
 20
-57.336272
 11
-104.894442
 21
-57.457932
  0
LINE
  8
ボルト／ビス
  6
DOT
 62
    64
 10
-104.990668
 20
-57.336272
 11
-104.990668
 21
-57.457932
  0
LINE
  8
ボルト／ビス
  6
DOT
 62
    64
 10
-105.279342
 20
-57.336272
 11
-105.279342
 21
-57.457932
  0
LINE
  8
ボルト／ビス
  6
DOT
 62
    64
 10
-105.183118
 20
-57.336272
 11
-105.183118
 21
-57.457932
  0
LINE
  8
ボルト／ビス
  6
DOT
 10
-105.279342
 20
-57.457932
 11
-104.894442
 21
-57.457932
  0
LINE
  8
ボルト／ビス
  6
DOT
 10
-105.286892
 20
-57.457932
 11
-105.286892
 21
-57.524597
  0
LINE
  8
ボルト／ビス
  6
DOT
 10
-105.286892
 20
-57.457932
 11
-104.886892
 21
-57.457932
  0
LINE
  8
ボルト／ビス
  6
DOT
 10
-104.886892
 20
-57.457932
 11
-104.886892
 21
-57.524597
  0
ENDBLK
  0
ENDSEC
  0
SECTION
  2
ENTITIES
  0
POLYLINE
  8
通り芯
  6
CONTINUOUS
 66
     1
 70
     1
  0
VERTEX
  8
通り芯
 10
-210.0
 20
-148.5
  0
VERTEX
  8
通り芯
 10
210.0
 20
-148.5
  0
VERTEX
  8
通り芯
 10
210.0
 20
148.5
  0
VERTEX
  8
通り芯
 10
-210.0
 20
148.5
  0
SEQEND
  0
INSERT
  2
*GRP_0001
  8
型材断面
  6
CONTINUOUS
 10
0.0
 20
0.0
  0
LINE
  8
型材断面
  6
DASHDOT
 10
45.579775
 20
64.756625
 11
45.579775
 21
-87.251428
  0
LINE
  8
型材断面
  6
DASHDOT
 10
-29.420225
 20
64.756625
 11
-29.420225
 21
-87.251428
  0
LINE
  8
型材断面
  6
DASHDOT
 10
-104.420225
 20
64.756625
 11
-104.420225
 21
-87.251428
  0
LINE
  8
型材断面
  6
DASHDOT
 10
143.256538
 20
-1.910042
 11
-104.420225
 21
-1.910042
  0
LINE
  8
型材断面
  6
DASHDOT
 10
143.256538
 20
31.423293
 11
-104.420225
 21
31.423293
  0
LINE
  8
型材断面
  6
DASHDOT
 10
143.256538
 20
64.756625
 11
-104.420225
 21
64.756625
  0
LINE
  8
型材断面
  6
DOT
 10
-30.670225
 20
-1.910042
 11
-30.670225
 21
64.756625
  0
LINE
  8
型材断面
  6
DOT
 10
-28.170225
 20
-1.910042
 11
-28.170225
 21
64.756625
  0
LINE
  8
型材断面
  6
CONTINUOUS
 10
-107.050355
 20
31.423293
 11
-109.640863
 21
32.918923
  0
LINE
  8
型材断面
  6
CONTINUOUS
 10
-107.050355
 20
31.423293
 11
-109.640863
 21
29.927663
  0
LINE
  8
型材断面
  6
CONTINUOUS
 10
-109.640863
 20
29.927663
 11
-109.640863
 21
32.918923
  0
LINE
  8
型材断面
  6
CONTINUOUS
 10
-145.272433
 20
102.734097
 11
-144.676378
 21
100.14359
  0
LINE
  8
型材断面
  6
CONTINUOUS
 10
-145.272433
 20
102.734097
 11
-145.86849
 21
100.14359
  0
LINE
  8
型材断面
  6
CONTINUOUS
 10
-145.86849
 20
100.14359
 11
-144.676378
 21
100.14359
  0
LINE
  8
型材断面
  6
CONTINUOUS
 10
-151.29502
 20
96.864697
 11
-105.053243
 21
96.864697
  0
LINE
  8
型材断面
  6
CONTINUOUS
 10
-145.272433
 20
109.263973
 11
-146.768062
 21
106.673465
  0
LINE
  8
型材断面
  6
CONTINUOUS
 10
-145.272433
 20
109.263973
 11
-143.776803
 21
106.673465
  0
LINE
  8
型材断面
  6
CONTINUOUS
 10
-143.776803
 20
106.673465
 11
-146.768062
 21
106.673465
  0
LINE
  8
型材断面
  6
CONTINUOUS
 10
-151.29502
 20
105.73487
 11
-105.053243
 21
105.73487
  0
LINE
  8
型材断面
  6
CONTINUOUS
 10
-151.29502
 20
91.076665
 11
-105.053243
 21
91.076665
  0
LINE
  8
型材断面
  6
CONTINUOUS
 10
-87.753557
 20
-4.54017
 11
-89.249187
 21
-7.130678
  0
LINE
  8
型材断面
  6
CONTINUOUS
 10
-87.753557
 20
-4.54017
 11
-86.257928
 21
-7.130678
  0
LINE
  8
型材断面
  6
CONTINUOUS
 10
-86.257928
 20
-7.130678
 11
-89.249187
 21
-7.130678
  0
LINE
  8
型材断面
  6
CONTINUOUS
 10
-87.753557
 20
67.386755
 11
-89.249187
 21
69.977262
  0
LINE
  8
型材断面
  6
CONTINUOUS
 10
-87.753557
 20
67.386755
 11
-86.257928
 21
69.977262
  0
LINE
  8
型材断面
  6
CONTINUOUS
 10
-86.257928
 20
69.977262
 11
-89.249187
 21
69.977262
  0
LINE
  8
型材断面
  6
CONTINUOUS
 10
48.209905
 20
31.423293
 11
50.800412
 21
32.918923
  0
LINE
  8
型材断面
  6
CONTINUOUS
 10
48.209905
 20
31.423293
 11
50.800412
 21
29.927663
  0
LINE
  8
型材断面
  6
CONTINUOUS
 10
50.800412
 20
29.927663
 11
50.800412
 21
32.918923
  0
LINE
  8
型材断面
  6
CONTINUOUS
 10
28.913107
 20
-4.54017
 11
30.408737
 21
-7.130678
  0
LINE
  8
型材断面
  6
CONTINUOUS
 10
28.913107
 20
-4.54017
 11
27.417477
 21
-7.130678
  0
LINE
  8
型材断面
  6
CONTINUOUS
 10
27.417477
 20
-7.130678
 11
30.408737
 21
-7.130678
  0
LINE
  8
型材断面
  6
CONTINUOUS
 10
28.913107
 20
67.386755
 11
30.408737
 21
69.977262
  0
LINE
  8
型材断面
  6
CONTINUOUS
 10
28.913107
 20
67.386755
 11
27.417477
 21
69.977262
  0
LINE
  8
型材断面
  6
CONTINUOUS
 10
27.417477
 20
69.977262
 11
30.408737
 21
69.977262
  0
LINE
  8
型材断面
  6
CONTINUOUS
 10
-29.420225
 20
-4.54017
 11
-27.924595
 21
-7.130678
  0
LINE
  8
型材断面
  6
CONTINUOUS
 10
-29.420225
 20
-4.54017
 11
-30.915855
 21
-7.130678
  0
LINE
  8
型材断面
  6
CONTINUOUS
 10
-30.915855
 20
-7.130678
 11
-27.924595
 21
-7.130678
  0
LINE
  8
型材断面
  6
CONTINUOUS
 10
-29.420225
 20
67.386755
 11
-27.924595
 21
69.977262
  0
LINE
  8
型材断面
  6
CONTINUOUS
 10
-29.420225
 20
67.386755
 11
-30.915855
 21
69.977262
  0
LINE
  8
型材断面
  6
CONTINUOUS
 10
-30.915855
 20
69.977262
 11
-27.924595
 21
69.977262
  0
POLYLINE
  8
型材断面
  6
CONTINUOUS
 66
     1
 70
     1
  0
VERTEX
  8
型材断面
 10
-19.63188
 20
-11.012788
  0
VERTEX
  8
型材断面
 10
-38.40381
 20
-11.012788
  0
VERTEX
  8
型材断面
 10
-38.40381
 20
-15.74963
  0
VERTEX
  8
型材断面
 10
-19.63188
 20
-15.74963
  0
SEQEND
  0
POLYLINE
  8
型材断面
  6
CONTINUOUS
 66
     1
 70
     1
  0
VERTEX
  8
型材断面
 10
-19.63188
 20
75.205727
  0
VERTEX
  8
型材断面
 10
-38.40381
 20
75.205727
  0
VERTEX
  8
型材断面
 10
-38.40381
 20
79.94257
  0
VERTEX
  8
型材断面
 10
-19.63188
 20
79.94257
  0
SEQEND
  0
LINE
  8
型材断面
  6
DASHDOT
 10
136.146322
 20
-1.910045
 11
142.166388
 21
-1.910045
  0
LINE
  8
型材断面
  6
CONTINUOUS
 62
    47
 10
138.429655
 20
-3.30671
 11
138.429655
 21
-2.52671
  0
LINE
  8
型材断面
  6
CONTINUOUS
 10
136.596322
 20
-3.40671
 11
136.146322
 21
-3.40671
  0
LINE
  8
型材断面
  6
CONTINUOUS
 62
    47
 10
139.269015
 20
-4.190045
 11
138.93568
 21
-4.190045
  0
LINE
  8
型材断面
  6
CONTINUOUS
 62
    47
 10
138.93568
 20
-4.190045
 11
138.83568
 21
-3.40671
  0
LINE
  8
型材断面
  6
CONTINUOUS
 62
    47
 10
138.429655
 20
-3.40671
 11
138.83568
 21
-3.40671
  0
LINE
  8
型材断面
  6
CONTINUOUS
 62
    47
 10
138.429655
 20
-3.87671
 11
136.596322
 21
-3.87671
  0
LINE
  8
型材断面
  6
CONTINUOUS
 62
    47
 10
142.396322
 20
-3.310045
 11
141.896322
 21
-3.310045
  0
LINE
  8
型材断面
  6
CONTINUOUS
 62
    47
 10
141.896322
 20
-3.87671
 11
139.269015
 21
-3.87671
  0
LINE
  8
型材断面
  6
CONTINUOUS
 62
    47
 10
142.396322
 20
-3.310045
 11
142.396322
 21
31.42329
  0
LINE
  8
型材断面
  6
CONTINUOUS
 62
    47
 10
141.896322
 20
-3.87671
 11
141.896322
 21
31.42329
  0
LINE
  8
型材断面
  6
CONTINUOUS
 62
    47
 10
139.269015
 20
-4.190045
 11
139.269015
 21
31.42329
  0
LINE
  8
型材断面
  6
CONTINUOUS
 10
138.93568
 20
-4.190045
 11
138.93568
 21
31.42329
  0
LINE
  8
型材断面
  6
CONTINUOUS
 62
    47
 10
138.429655
 20
-3.87671
 11
138.429655
 21
31.42329
  0
LINE
  8
型材断面
  6
CONTINUOUS
 10
138.83568
 20
-3.40671
 11
138.83568
 21
31.42329
  0
LINE
  8
型材断面
  6
CONTINUOUS
 10
136.596322
 20
-3.87671
 11
136.596322
 21
31.42329
  0
LINE
  8
型材断面
  6
CONTINUOUS
 62
    47
 10
138.429655
 20
66.15329
 11
138.429655
 21
65.37329
  0
LINE
  8
型材断面
  6
CONTINUOUS
 10
136.596322
 20
66.25329
 11
136.146322
 21
66.25329
  0
LINE
  8
型材断面
  6
CONTINUOUS
 62
    47
 10
139.269015
 20
67.036622
 11
138.93568
 21
67.036622
  0
LINE
  8
型材断面
  6
CONTINUOUS
 62
    47
 10
138.93568
 20
67.036622
 11
138.83568
 21
66.25329
  0
LINE
  8
型材断面
  6
CONTINUOUS
 62
    47
 10
138.429655
 20
66.25329
 11
138.83568
 21
66.25329
  0
LINE
  8
型材断面
  6
CONTINUOUS
 62
    47
 10
138.429655
 20
66.72329
 11
136.596322
 21
66.72329
  0
LINE
  8
型材断面
  6
CONTINUOUS
 62
    47
 10
142.396322
 20
66.156623
 11
141.896322
 21
66.156623
  0
LINE
  8
型材断面
  6
CONTINUOUS
 62
    47
 10
141.896322
 20
66.72329
 11
139.269015
 21
66.72329
  0
LINE
  8
型材断面
  6
CONTINUOUS
 62
    47
 10
142.396322
 20
66.156623
 11
142.396322
 21
31.42329
  0
LINE
  8
型材断面
  6
CONTINUOUS
 62
    47
 10
141.896322
 20
66.72329
 11
141.896322
 21
31.42329
  0
LINE
  8
型材断面
  6
CONTINUOUS
 62
    47
 10
139.269015
 20
67.036622
 11
139.269015
 21
31.42329
  0
LINE
  8
型材断面
  6
CONTINUOUS
 10
138.93568
 20
67.036622
 11
138.93568
 21
31.42329
  0
LINE
  8
型材断面
  6
CONTINUOUS
 62
    47
 10
138.429655
 20
66.72329
 11
138.429655
 21
31.42329
  0
LINE
  8
型材断面
  6
CONTINUOUS
 10
138.83568
 20
66.25329
 11
138.83568
 21
31.42329
  0
LINE
  8
型材断面
  6
CONTINUOUS
 10
136.596322
 20
66.72329
 11
136.596322
 21
31.42329
  0
LINE
  8
型材断面
  6
CONTINUOUS
 62
    47
 10
46.976442
 20
-82.941215
 11
46.196443
 21
-82.941215
  0
LINE
  8
型材断面
  6
CONTINUOUS
 10
47.076442
 20
-81.107882
 11
47.076442
 21
-80.657882
  0
LINE
  8
型材断面
  6
CONTINUOUS
 62
    47
 10
47.859778
 20
-83.780575
 11
47.859778
 21
-83.44724
  0
LINE
  8
型材断面
  6
CONTINUOUS
 62
    47
 10
47.859778
 20
-83.44724
 11
47.076442
 21
-83.34724
  0
LINE
  8
型材断面
  6
CONTINUOUS
 62
    47
 10
47.076442
 20
-82.941215
 11
47.076442
 21
-83.34724
  0
LINE
  8
型材断面
  6
CONTINUOUS
 62
    47
 10
47.546443
 20
-82.941215
 11
47.546443
 21
-81.107882
  0
LINE
  8
型材断面
  6
CONTINUOUS
 62
    47
 10
46.979777
 20
-86.907882
 11
46.979777
 21
-86.407882
  0
LINE
  8
型材断面
  6
CONTINUOUS
 62
    47
 10
47.546443
 20
-86.407882
 11
47.546443
 21
-83.780575
  0
LINE
  8
型材断面
  6
CONTINUOUS
 10
47.646443
 20
-3.97671
 11
47.859778
 21
-4.190045
  0
LINE
  8
型材断面
  6
CONTINUOUS
 10
47.859778
 20
-4.190045
 11
47.859778
 21
31.423293
  0
LINE
  8
型材断面
  6
CONTINUOUS
 10
47.546443
 20
-81.107882
 11
-29.420225
 21
-81.107882
  0
LINE
  8
型材断面
  6
CONTINUOUS
 10
47.859778
 20
-83.44724
 11
-29.420225
 21
-83.44724
  0
LINE
  8
型材断面
  6
CONTINUOUS
 62
    47
 10
47.546443
 20
-82.941215
 11
-29.420225
 21
-82.941215
  0
LINE
  8
型材断面
  6
CONTINUOUS
 10
47.076442
 20
-83.34724
 11
-29.420225
 21
-83.34724
  0
LINE
  8
型材断面
  6
CONTINUOUS
 62
    47
 10
47.859778
 20
-83.780575
 11
-29.420225
 21
-83.780575
  0
LINE
  8
型材断面
  6
CONTINUOUS
 62
    47
 10
47.546443
 20
-86.407882
 11
-29.420225
 21
-86.407882
  0
LINE
  8
型材断面
  6
CONTINUOUS
 62
    47
 10
46.979777
 20
-86.907882
 11
-29.420225
 21
-86.907882
  0
LINE
  8
型材断面
  6
CONTINUOUS
 62
    47
 10
-105.816892
 20
-82.941215
 11
-105.036892
 21
-82.941215
  0
LINE
  8
型材断面
  6
CONTINUOUS
 10
-105.916892
 20
-81.107882
 11
-105.916892
 21
-80.657882
  0
LINE
  8
型材断面
  6
CONTINUOUS
 62
    47
 10
-106.700227
 20
-83.780575
 11
-106.700227
 21
-83.44724
  0
LINE
  8
型材断面
  6
CONTINUOUS
 62
    47
 10
-106.700227
 20
-83.44724
 11
-105.916892
 21
-83.34724
  0
LINE
  8
型材断面
  6
CONTINUOUS
 62
    47
 10
-105.916892
 20
-82.941215
 11
-105.916892
 21
-83.34724
  0
LINE
  8
型材断面
  6
CONTINUOUS
 62
    47
 10
-106.386892
 20
-82.941215
 11
-106.386892
 21
-81.107882
  0
LINE
  8
型材断面
  6
CONTINUOUS
 62
    47
 10
-105.820227
 20
-86.907882
 11
-105.820227
 21
-86.407882
  0
LINE
  8
型材断面
  6
CONTINUOUS
 62
    47
 10
-106.386892
 20
-86.407882
 11
-106.386892
 21
-83.780575
  0
LINE
  8
型材断面
  6
CONTINUOUS
 10
-106.386892
 20
-81.107882
 11
-29.420225
 21
-81.107882
  0
LINE
  8
型材断面
  6
CONTINUOUS
 10
-106.700227
 20
-83.44724
 11
-29.420225
 21
-83.44724
  0
LINE
  8
型材断面
  6
CONTINUOUS
 62
    47
 10
-106.386892
 20
-82.941215
 11
-29.420225
 21
-82.941215
  0
LINE
  8
型材断面
  6
CONTINUOUS
 10
-105.916892
 20
-83.34724
 11
-29.420225
 21
-83.34724
  0
LINE
  8
型材断面
  6
CONTINUOUS
 62
    47
 10
-106.700227
 20
-83.780575
 11
-29.420225
 21
-83.780575
  0
LINE
  8
型材断面
  6
CONTINUOUS
 62
    47
 10
-106.386892
 20
-86.407882
 11
-29.420225
 21
-86.407882
  0
LINE
  8
型材断面
  6
CONTINUOUS
 62
    47
 10
-105.820227
 20
-86.907882
 11
-29.420225
 21
-86.907882
  0
LINE
  8
型材断面
  6
CONTINUOUS
 10
47.859778
 20
-4.190045
 11
-29.420225
 21
-4.190045
  0
LINE
  8
型材断面
  6
CONTINUOUS
 10
47.646443
 20
66.823295
 11
47.859778
 21
67.03663
  0
LINE
  8
型材断面
  6
CONTINUOUS
 10
47.859778
 20
67.03663
 11
47.859778
 21
31.423293
  0
LINE
  8
型材断面
  6
CONTINUOUS
 10
47.859778
 20
67.03663
 11
-29.420225
 21
67.03663
  0
LINE
  8
型材断面
  6
CONTINUOUS
 10
-106.486892
 20
66.823295
 11
-106.700227
 21
67.03663
  0
LINE
  8
型材断面
  6
CONTINUOUS
 10
-106.700227
 20
67.03663
 11
-106.700227
 21
31.423293
  0
LINE
  8
型材断面
  6
CONTINUOUS
 10
-106.700227
 20
67.03663
 11
-29.420225
 21
67.03663
  0
LINE
  8
型材断面
  6
CONTINUOUS
 10
-106.486892
 20
-3.97671
 11
-106.700227
 21
-4.190045
  0
LINE
  8
型材断面
  6
CONTINUOUS
 10
-106.700227
 20
-4.190045
 11
-106.700227
 21
31.423293
  0
LINE
  8
型材断面
  6
CONTINUOUS
 10
-106.700227
 20
-4.190045
 11
-29.420225
 21
-4.190045
  0
LINE
  8
型材断面
  6
DOT
 10
45.579775
 20
32.673293
 11
9.496443
 21
32.673293
  0
LINE
  8
型材断面
  6
DOT
 10
45.579775
 20
30.173293
 11
9.496443
 21
30.173293
  0
LINE
  8
型材断面
  6
DOT
 10
-28.170225
 20
32.673293
 11
6.996443
 21
32.673293
  0
LINE
  8
型材断面
  6
DOT
 10
-28.170225
 20
30.173293
 11
6.996443
 21
30.173293
  0
LINE
  8
型材断面
  6
DOT
 10
-30.670225
 20
32.673293
 11
-65.836892
 21
32.673293
  0
LINE
  8
型材断面
  6
DOT
 10
-30.670225
 20
30.173293
 11
-65.836892
 21
30.173293
  0
LINE
  8
型材断面
  6
DOT
 10
-104.420225
 20
32.673293
 11
-68.336892
 21
32.673293
  0
LINE
  8
型材断面
  6
DOT
 10
-104.420225
 20
30.173293
 11
-68.336892
 21
30.173293
  0
LINE
  8
型材断面
  6
CONTINUOUS
 10
48.209902
 20
60.856625
 11
50.80041
 21
60.260568
  0
LINE
  8
型材断面
  6
CONTINUOUS
 10
48.209902
 20
60.856625
 11
50.80041
 21
61.452683
  0
LINE
  8
型材断面
  6
CONTINUOUS
 10
50.80041
 20
61.452683
 11
50.80041
 21
60.260568
  0
LINE
  8
型材断面
  6
CONTINUOUS
 10
48.209902
 20
1.98996
 11
50.80041
 21
2.586017
  0
LINE
  8
型材断面
  6
CONTINUOUS
 10
48.209902
 20
1.98996
 11
50.80041
 21
1.393902
  0
LINE
  8
型材断面
  6
CONTINUOUS
 10
50.80041
 20
1.393902
 11
50.80041
 21
2.586017
  0
LINE
  8
型材断面
  6
CONTINUOUS
 10
-107.050353
 20
60.856625
 11
-109.64086
 21
60.260568
  0
LINE
  8
型材断面
  6
CONTINUOUS
 10
-107.050353
 20
60.856625
 11
-109.64086
 21
61.452683
  0
LINE
  8
型材断面
  6
CONTINUOUS
 10
-109.64086
 20
61.452683
 11
-109.64086
 21
60.260568
  0
LINE
  8
型材断面
  6
CONTINUOUS
 10
-107.050353
 20
1.98996
 11
-109.64086
 21
2.586017
  0
LINE
  8
型材断面
  6
CONTINUOUS
 10
-107.050353
 20
1.98996
 11
-109.64086
 21
1.393902
  0
LINE
  8
型材断面
  6
CONTINUOUS
 10
-109.64086
 20
1.393902
 11
-109.64086
 21
2.586017
  0
LINE
  8
型材断面
  6
DOT
 62
    47
 10
46.976442
 20
-60.941215
 11
46.196443
 21
-60.941215
  0
LINE
  8
型材断面
  6
DOT
 10
47.076442
 20
-59.107882
 11
47.076442
 21
-58.657882
  0
LINE
  8
型材断面
  6
DOT
 62
    47
 10
47.859778
 20
-61.780575
 11
47.859778
 21
-61.44724
  0
LINE
  8
型材断面
  6
DOT
 62
    47
 10
47.859778
 20
-61.44724
 11
47.076442
 21
-61.34724
  0
LINE
  8
型材断面
  6
DOT
 62
    47
 10
47.076442
 20
-60.941215
 11
47.076442
 21
-61.34724
  0
LINE
  8
型材断面
  6
DOT
 62
    47
 10
47.546443
 20
-60.941215
 11
47.546443
 21
-59.107882
  0
LINE
  8
型材断面
  6
DOT
 10
47.546443
 20
-59.107882
 11
-29.420225
 21
-59.107882
  0
LINE
  8
型材断面
  6
DOT
 10
47.859778
 20
-61.44724
 11
-29.420225
 21
-61.44724
  0
LINE
  8
型材断面
  6
DOT
 62
    47
 10
47.546443
 20
-60.941215
 11
-29.420225
 21
-60.941215
  0
LINE
  8
型材断面
  6
DOT
 10
47.076442
 20
-61.34724
 11
-29.420225
 21
-61.34724
  0
LINE
  8
型材断面
  6
DOT
 62
    47
 10
47.859778
 20
-61.780575
 11
-29.420225
 21
-61.780575
  0
LINE
  8
型材断面
  6
DOT
 62
    47
 10
-105.816892
 20
-60.941215
 11
-105.036892
 21
-60.941215
  0
LINE
  8
型材断面
  6
DOT
 10
-105.916892
 20
-59.107882
 11
-105.916892
 21
-58.657882
  0
LINE
  8
型材断面
  6
DOT
 62
    47
 10
-106.700227
 20
-61.780575
 11
-106.700227
 21
-61.44724
  0
LINE
  8
型材断面
  6
DOT
 62
    47
 10
-106.700227
 20
-61.44724
 11
-105.916892
 21
-61.34724
  0
LINE
  8
型材断面
  6
DOT
 62
    47
 10
-105.916892
 20
-60.941215
 11
-105.916892
 21
-61.34724
  0
LINE
  8
型材断面
  6
DOT
 62
    47
 10
-106.386892
 20
-60.941215
 11
-106.386892
 21
-59.107882
  0
LINE
  8
型材断面
  6
DOT
 10
-106.386892
 20
-59.107882
 11
-29.420225
 21
-59.107882
  0
LINE
  8
型材断面
  6
DOT
 10
-106.700227
 20
-61.44724
 11
-29.420225
 21
-61.44724
  0
LINE
  8
型材断面
  6
DOT
 62
    47
 10
-106.386892
 20
-60.941215
 11
-29.420225
 21
-60.941215
  0
LINE
  8
型材断面
  6
DOT
 10
-105.916892
 20
-61.34724
 11
-29.420225
 21
-61.34724
  0
LINE
  8
型材断面
  6
DOT
 62
    47
 10
-106.700227
 20
-61.780575
 11
-29.420225
 21
-61.780575
  0
INSERT
  2
*GRP_0019
  8
型材断面
  6
CONTINUOUS
 10
0.0
 20
0.0
  0
INSERT
  2
*GRP_0020
  8
型材断面
  6
CONTINUOUS
 10
0.0
 20
0.0
  0
INSERT
  2
*GRP_0021
  8
型材断面
  6
CONTINUOUS
 10
0.0
 20
0.0
  0
INSERT
  2
*GRP_0022
  8
型材断面
  6
CONTINUOUS
 10
0.0
 20
0.0
  0
INSERT
  2
*GRP_0023
  8
型材断面
  6
CONTINUOUS
 10
0.0
 20
0.0
  0
INSERT
  2
*GRP_0024
  8
型材断面
  6
CONTINUOUS
 10
0.0
 20
0.0
  0
LINE
  8
型材断面
  6
CONTINUOUS
 10
-151.29502
 20
85.288632
 11
-105.053243
 21
85.288632
  0
LINE
  8
型材断面
  6
DASHDOT
 10
-67.090228
 20
-1.910042
 11
-67.090228
 21
64.756625
  0
LINE
  8
型材断面
  6
DOT
 10
-65.840228
 20
-1.910042
 11
-65.840228
 21
64.756625
  0
LINE
  8
型材断面
  6
DOT
 10
-68.340228
 20
-1.910042
 11
-68.340228
 21
64.756625
  0
LINE
  8
型材断面
  6
DASHDOT
 10
8.249777
 20
-1.910042
 11
8.249777
 21
64.756625
  0
LINE
  8
型材断面
  6
DOT
 10
6.999777
 20
-1.910042
 11
6.999777
 21
64.756625
  0
LINE
  8
型材断面
  6
DOT
 10
9.499777
 20
-1.910042
 11
9.499777
 21
64.756625
  0
TEXT
  7
TextStyle03
  8
文字
  6
CONTINUOUS
 10
-143.15
 20
2.025
  1
アンカーピッチ
 40
3.0
 50
90.0
 72
     5
 11
-143.15
 21
25.275
  0
TEXT
  7
TextStyle03
  8
文字
  6
CONTINUOUS
 10
-142.475
 20
101.325
  1
はケーシング位置を示す
 40
3.0
 72
     5
 11
-105.725
 21
101.325
  0
TEXT
  7
TextStyle03
  8
文字
  6
CONTINUOUS
 10
-142.475
 20
97.95
  1
４ヶ所中1ヶ所に設定
 40
3.0
 72
     5
 11
-110.7875
 21
97.95
  0
TEXT
  7
TextStyle03
  8
文字
  6
CONTINUOUS
 10
-142.475
 20
106.85
  1
は排水穴位置を示す
 40
3.0
 72
     5
 11
-112.475
 21
106.85
  0
TEXT
  7
TextStyle03
  8
文字
  6
CONTINUOUS
 10
-37.325
 20
-14.7
  1
可動装置側
 40
3.0
 72
     5
 11
-20.825
 21
-14.7
  0
TEXT
  7
TextStyle03
  8
文字
  6
CONTINUOUS
 10
-37.325
 20
75.975
  1
可動装置側
 40
3.0
 72
     5
 11
-20.825
 21
75.975
  0
TEXT
  7
TextStyle03
  8
文字
  6
CONTINUOUS
 10
116.825
 20
-96.225
  1
網入り6.8t
 40
3.0
 72
     5
 11
133.5125
 21
-96.225
  0
TEXT
  7
TextStyle03
  8
文字
  6
CONTINUOUS
 10
123.125
 20
-100.85
  1
×４枚
 40
3.0
 72
     5
 11
132.875
 21
-100.85
  0
TEXT
  7
TextStyle03
  8
文字
  6
CONTINUOUS
 10
-89.475
 20
101.8
  1
アンカーピッチ
 40
3.0
 72
     5
 11
-66.225
 21
101.8
  0
TEXT
  7
TextStyle03
  8
文字
  6
CONTINUOUS
 10
-146.2
 20
91.975
  1
アンカー数量　１８ヶ所
 40
3.0
 72
     5
 11
-109.45
 21
91.975
  0
TEXT
  7
TextStyle03
  8
文字
  6
CONTINUOUS
 10
-151.2
 20
86.2
  1
アームユニット数　※４～６ヶ所
 40
3.0
 72
     5
 11
-100.95
 21
86.2
  0
TEXT
  7
TextStyle03
  8
文字
  6
CONTINUOUS
 10
-151.2
 20
81.25
  1
※重量に依るのでご相談ください
 40
3.0
 72
     5
 11
-100.95
 21
81.25
  0
TEXT
  7
TextStyle03
  8
文字
  6
CONTINUOUS
 10
78.1
 20
125.25
  1
シリーズ：ＳＴＤＬ
 40
5.0
 72
     5
 11
128.1
 21
125.25
  0
TEXT
  7
TextStyle03
  8
文字
  6
CONTINUOUS
 10
78.1
 20
119.625
  1
　　　　　（上下可動）2000×4500タイプ
 40
5.0
 72
     5
 11
184.35
 21
119.625
  0
TEXT
  7
TextStyle03
  8
文字
  6
CONTINUOUS
 10
78.1
 20
114.0
  1
図面名　：外観姿図
 40
5.0
 72
     5
 11
128.1
 21
114.0
  0
TEXT
  7
TextStyle03
  8
文字
  6
CONTINUOUS
 10
78.1
 20
108.375
  1
　　　　　　
 40
5.0
 72
     5
 11
111.225
 21
108.375
  0
TEXT
  7
TextStyle03
  8
文字
  6
CONTINUOUS
 10
77.425
 20
103.975
  1
ＮＳコード：ＮＳＤＳＬ
 40
5.0
 72
     5
 11
138.675
 21
103.975
  0
INSERT
  2
*DIM_0002
  8
寸法
  6
CONTINUOUS
 10
0.0
 20
0.0
  0
INSERT
  2
*DIM_0003
  8
寸法
  6
CONTINUOUS
 10
0.0
 20
0.0
  0
INSERT
  2
*DIM_0004
  8
寸法
  6
CONTINUOUS
 10
0.0
 20
0.0
  0
INSERT
  2
*DIM_0005
  8
寸法
  6
CONTINUOUS
 10
0.0
 20
0.0
  0
INSERT
  2
*DIM_0006
  8
寸法
  6
CONTINUOUS
 10
0.0
 20
0.0
  0
INSERT
  2
*DIM_0007
  8
寸法
  6
CONTINUOUS
 10
0.0
 20
0.0
  0
INSERT
  2
*DIM_0008
  8
寸法
  6
CONTINUOUS
 10
0.0
 20
0.0
  0
INSERT
  2
*DIM_0009
  8
寸法
  6
CONTINUOUS
 10
0.0
 20
0.0
  0
INSERT
  2
*DIM_0010
  8
寸法
  6
CONTINUOUS
 10
0.0
 20
0.0
  0
INSERT
  2
*DIM_0011
  8
寸法
  6
CONTINUOUS
 10
0.0
 20
0.0
  0
INSERT
  2
*DIM_0012
  8
寸法
  6
CONTINUOUS
 10
0.0
 20
0.0
  0
INSERT
  2
*DIM_0013
  8
寸法
  6
CONTINUOUS
 10
0.0
 20
0.0
  0
INSERT
  2
*DIM_0014
  8
寸法
  6
CONTINUOUS
 10
0.0
 20
0.0
  0
INSERT
  2
*DIM_0015
  8
寸法
  6
CONTINUOUS
 10
0.0
 20
0.0
  0
INSERT
  2
*DIM_0016
  8
寸法
  6
CONTINUOUS
 10
0.0
 20
0.0
  0
INSERT
  2
*DIM_0017
  8
寸法
  6
CONTINUOUS
 10
0.0
 20
0.0
  0
INSERT
  2
*DIM_0025
  8
寸法
  6
CONTINUOUS
 10
0.0
 20
0.0
  0
INSERT
  2
*DIM_0026
  8
寸法
  6
CONTINUOUS
 10
0.0
 20
0.0
  0
INSERT
  2
*DIM_0027
  8
寸法
  6
CONTINUOUS
 10
0.0
 20
0.0
  0
INSERT
  2
*DIM_0028
  8
寸法
  6
CONTINUOUS
 10
0.0
 20
0.0
  0
INSERT
  2
*DIM_0029
  8
寸法
  6
CONTINUOUS
 10
0.0
 20
0.0
  0
INSERT
  2
*DIM_0030
  8
寸法
  6
CONTINUOUS
 10
0.0
 20
0.0
  0
INSERT
  2
*DIM_0031
  8
寸法
  6
CONTINUOUS
 10
0.0
 20
0.0
  0
INSERT
  2
*DIM_0032
  8
寸法
  6
CONTINUOUS
 10
0.0
 20
0.0
  0
LINE
  8
別途部材
  6
CONTINUOUS
 10
47.646443
 20
-3.97671
 11
47.246443
 21
-3.57671
  0
LINE
  8
別途部材
  6
CONTINUOUS
 10
45.579775
 20
-1.910042
 11
37.52052
 21
6.149215
  0
LINE
  8
別途部材
  6
CONTINUOUS
 10
47.646443
 20
-3.97671
 11
47.646443
 21
31.423293
  0
LINE
  8
別途部材
  6
CONTINUOUS
 10
47.246443
 20
-3.57671
 11
47.246443
 21
31.423293
  0
LINE
  8
別途部材
  6
CONTINUOUS
 10
47.646443
 20
66.823295
 11
47.246443
 21
66.423295
  0
LINE
  8
別途部材
  6
CONTINUOUS
 10
45.579775
 20
64.756627
 11
37.52052
 21
56.69737
  0
LINE
  8
別途部材
  6
CONTINUOUS
 10
47.646443
 20
66.823295
 11
47.646443
 21
31.423293
  0
LINE
  8
別途部材
  6
CONTINUOUS
 10
47.246443
 20
66.423295
 11
47.246443
 21
31.423293
  0
LINE
  8
別途部材
  6
CONTINUOUS
 10
47.246443
 20
-3.57671
 11
-29.420225
 21
-3.57671
  0
LINE
  8
別途部材
  6
CONTINUOUS
 10
47.646443
 20
-3.97671
 11
-29.420225
 21
-3.97671
  0
LINE
  8
別途部材
  6
CONTINUOUS
 10
47.246443
 20
66.423295
 11
-29.420225
 21
66.423295
  0
LINE
  8
別途部材
  6
CONTINUOUS
 10
47.646443
 20
66.823295
 11
-29.420225
 21
66.823295
  0
LINE
  8
別途部材
  6
CONTINUOUS
 10
-106.486892
 20
-3.97671
 11
-106.086892
 21
-3.57671
  0
LINE
  8
別途部材
  6
CONTINUOUS
 10
-104.420225
 20
-1.910042
 11
-96.36097
 21
6.149215
  0
LINE
  8
別途部材
  6
CONTINUOUS
 10
-106.486892
 20
-3.97671
 11
-106.486892
 21
31.423293
  0
LINE
  8
別途部材
  6
CONTINUOUS
 10
-106.086892
 20
-3.57671
 11
-106.086892
 21
31.423293
  0
LINE
  8
別途部材
  6
CONTINUOUS
 10
-106.486892
 20
66.823295
 11
-106.086892
 21
66.423295
  0
LINE
  8
別途部材
  6
CONTINUOUS
 10
-104.420225
 20
64.756627
 11
-96.36097
 21
56.69737
  0
LINE
  8
別途部材
  6
CONTINUOUS
 10
-106.486892
 20
66.823295
 11
-106.486892
 21
31.423293
  0
LINE
  8
別途部材
  6
CONTINUOUS
 10
-106.086892
 20
66.423295
 11
-106.086892
 21
31.423293
  0
LINE
  8
別途部材
  6
CONTINUOUS
 10
-106.086892
 20
-3.57671
 11
-29.420225
 21
-3.57671
  0
LINE
  8
別途部材
  6
CONTINUOUS
 10
-106.486892
 20
-3.97671
 11
-29.420225
 21
-3.97671
  0
LINE
  8
別途部材
  6
CONTINUOUS
 10
-106.086892
 20
66.423295
 11
-29.420225
 21
66.423295
  0
LINE
  8
別途部材
  6
CONTINUOUS
 10
-106.486892
 20
66.823295
 11
-29.420225
 21
66.823295
  0
LINE
  8
別途部材
  6
CONTINUOUS
 62
    96
 10
135.11304
 20
-3.57671
 11
136.11304
 21
-3.97671
  0
ARC
  8
別途部材
  6
CONTINUOUS
 10
160.113036
 20
31.42329
 40
41.666665
 50
180.0
 51
233.130105
  0
ARC
  8
別途部材
  6
CONTINUOUS
 10
160.113036
 20
31.423291
 40
41.666665
 50
126.869895
 51
180.0
  0
LINE
  8
別途部材
  6
CONTINUOUS
 10
136.11304
 20
-3.97671
 11
136.11304
 21
31.42329
  0
LINE
  8
別途部材
  6
CONTINUOUS
 62
    96
 10
135.11304
 20
-3.57671
 11
135.11304
 21
31.42329
  0
LINE
  8
別途部材
  6
CONTINUOUS
 62
    96
 10
135.11304
 20
66.42329
 11
136.11304
 21
66.82329
  0
LINE
  8
別途部材
  6
CONTINUOUS
 10
136.11304
 20
66.82329
 11
136.11304
 21
31.42329
  0
LINE
  8
別途部材
  6
CONTINUOUS
 62
    96
 10
135.11304
 20
66.42329
 11
135.11304
 21
31.42329
  0
INSERT
  2
*GRP_0018
  8
別途部材
  6
CONTINUOUS
 10
0.0
 20
0.0
  0
LINE
  8
別途部材
  6
DOT
 62
    96
 10
47.246443
 20
-57.624597
 11
47.646443
 21
-58.624597
  0
LINE
  8
別途部材
  6
DOT
 62
    96
 10
47.246443
 20
-57.624597
 11
-29.420225
 21
-57.624597
  0
LINE
  8
別途部材
  6
DOT
 10
47.646443
 20
-58.624597
 11
-29.420225
 21
-58.624597
  0
LINE
  8
別途部材
  6
DOT
 62
    96
 10
-106.086892
 20
-57.624597
 11
-106.486892
 21
-58.624597
  0
LINE
  8
別途部材
  6
DOT
 62
    96
 10
-106.086892
 20
-57.624597
 11
-29.420225
 21
-57.624597
  0
LINE
  8
別途部材
  6
DOT
 10
-106.486892
 20
-58.624597
 11
-29.420225
 21
-58.624597
  0
ARC
  8
別途部材
  6
DOT
 10
-87.753557
 20
-57.624598
 40
16.666667
 50
90.0
 51
180.0
  0
ARC
  8
別途部材
  6
DOT
 10
28.913107
 20
-57.624598
 40
16.666667
 50
0.0
 51
90.0
  0
LINE
  8
別途部材
  6
DOT
 10
-29.420225
 20
-40.95793
 11
28.913107
 21
-40.95793
  0
LINE
  8
別途部材
  6
DOT
 10
-29.420225
 20
-40.95793
 11
-87.753557
 21
-40.95793
  0
INSERT
  2
*GRP_0033
  8
別途部材
  6
DOT
 10
0.0
 20
0.0
  0
INSERT
  2
*GRP_0034
  8
別途部材
  6
DOT
 10
0.0
 20
0.0
  0
INSERT
  2
*GRP_0035
  8
別途部材
  6
DOT
 10
0.0
 20
0.0
  0
INSERT
  2
*GRP_0036
  8
別途部材
  6
DOT
 10
0.0
 20
0.0
  0
INSERT
  2
*GRP_0037
  8
別途部材
  6
DOT
 10
0.0
 20
0.0
  0
INSERT
  2
*GRP_0038
  8
別途部材
  6
DOT
 10
0.0
 20
0.0
  0
LINE
  8
曲げ物
  6
CONTINUOUS
 10
136.788645
 20
-103.170175
 11
100.455313
 21
-103.170175
  0
LINE
  8
曲げ物
  6
CONTINUOUS
 10
100.455313
 20
-103.170175
 11
100.455313
 21
-37.170175
  0
LINE
  8
曲げ物
  6
CONTINUOUS
 10
100.455313
 20
-37.170175
 11
136.788645
 21
-37.170175
  0
LINE
  8
曲げ物
  6
CONTINUOUS
 10
136.788645
 20
-103.170175
 11
136.788645
 21
-37.170175
  0
ENDSEC
  0
EOF
