  0
SECTION
  2
HEADER
  9
$EXTMIN
 10
-210.0
 20
-148.5
  9
$EXTMAX
 10
210.0
 20
148.5
  9
$PDMODE
 70
    32
  9
$PDSIZE
 40
1.5
  9
$LTSCALE
 40
10.0
  0
ENDSEC
  0
SECTION
  2
TABLES
  0
TABLE
  2
LTYPE
 70
    15
  0
LTYPE
  2
CONTINUOUS
 70
    64
  3
実線
 72
    65
 73
     0
 40
0.0
  0
LTYPE
  2
DASHED
 70
    64
  3
破線A
 72
    65
 73
     2
 40
0.6
 49
0.4
 49
-0.2
  0
LTYPE
  2
DASHEDX2
 70
    64
  3
破線B
 72
    65
 73
     2
 40
1.3
 49
0.9
 49
-0.4
  0
LTYPE
  2
DASHDOT
 70
    64
  3
１点鎖線A
 72
    65
 73
     4
 40
0.5375
 49
0.375
 49
-0.05
 49
0.0625
 49
-0.05
  0
LTYPE
  2
DASHDOTX2
 70
    64
  3
１点鎖線B
 72
    65
 73
     4
 40
1.075
 49
0.75
 49
-0.1
 49
0.125
 49
-0.1
  0
LTYPE
  2
DIVIDE2
 70
    64
  3
２点鎖線A
 72
    65
 73
     6
 40
0.5125
 49
0.3
 49
-0.0375
 49
0.05
 49
-0.0375
 49
0.05
 49
-0.0375
  0
LTYPE
  2
DIVIDE
 70
    64
  3
２点鎖線B
 72
    65
 73
     6
 40
1.05
 49
0.55
 49
-0.1
 49
0.1
 49
-0.1
 49
0.1
 49
-0.1
  0
LTYPE
  2
DOT
 70
    64
  3
点線A
 72
    65
 73
     2
 40
0.1125
 49
0.0625
 49
-0.05
  0
LTYPE
  2
DOTX2
 70
    64
  3
点線B
 72
    65
 73
     2
 40
0.275
 49
0.15
 49
-0.125
  0
LTYPE
  2
CONTINUOUS
 70
    64
  3
実線
 72
    65
 73
     0
 40
0.0
  0
LTYPE
  2
CONTINUOUS
 70
    64
  3
実線
 72
    65
 73
     0
 40
0.0
  0
LTYPE
  2
CONTINUOUS
 70
    64
  3
実線
 72
    65
 73
     0
 40
0.0
  0
LTYPE
  2
CONTINUOUS
 70
    64
  3
実線
 72
    65
 73
     0
 40
0.0
  0
LTYPE
  2
CONTINUOUS
 70
    64
  3
実線
 72
    65
 73
     0
 40
0.0
  0
LTYPE
  2
CONTINUOUS
 70
    64
  3
実線
 72
    65
 73
     0
 40
0.0
  0
ENDTAB
  0
TABLE
  2
LAYER
 70
    34
  0
LAYER
  2
通り芯
 70
     0
 62
    15
  6
CONTINUOUS
  0
LAYER
  2
補助線
 70
     0
 62
    16
  6
DOT
  0
LAYER
  2
躯体
 70
     0
 62
    31
  6
CONTINUOUS
  0
LAYER
  2
型材
 70
     0
 62
    32
  6
CONTINUOUS
  0
LAYER
  2
型材断面
 70
     0
 62
    47
  6
CONTINUOUS
  0
LAYER
  2
ガラス
 70
     0
 62
    48
  6
CONTINUOUS
  0
LAYER
  2
ゴム等
 70
     0
 62
    63
  6
CONTINUOUS
  0
LAYER
  2
ボルト／ビス
 70
     0
 62
    64
  6
CONTINUOUS
  0
LAYER
  2
文字
 70
     0
 62
    79
  6
CONTINUOUS
  0
LAYER
  2
寸法
 70
     0
 62
    80
  6
CONTINUOUS
  0
LAYER
  2
ﾊｯﾁﾝｸﾞ
 70
     0
 62
    95
  6
CONTINUOUS
  0
LAYER
  2
別途部材
 70
     0
 62
    96
  6
CONTINUOUS
  0
LAYER
  2
曲げ物
 70
     0
 62
   111
  6
CONTINUOUS
  0
LAYER
  2
鉄骨等
 70
     0
 62
   112
  6
CONTINUOUS
  0
LAYER
  2
St
 70
     0
 62
   127
  6
CONTINUOUS
  0
LAYER
  2
その他部品等
 70
     0
 62
   128
  6
CONTINUOUS
  0
LAYER
  2
ｶﾞｽｹｯﾄ
 70
     0
 62
   143
  6
CONTINUOUS
  0
LAYER
  2
ｽｹｯﾁ
 70
     0
 62
    14
  6
CONTINUOUS
  0
LAYER
  2
0
 70
     0
 62
    17
  6
CONTINUOUS
  0
LAYER
  2
1
 70
     0
 62
    30
  6
CONTINUOUS
  0
LAYER
  2
4
 70
     0
 62
    33
  6
CONTINUOUS
  0
LAYER
  2
ﾚｲﾔ3
 70
     0
 62
    46
  6
CONTINUOUS
  0
LAYER
  2
外形線
 70
     0
 62
    49
  6
CONTINUOUS
  0
LAYER
  2
部品
 70
     0
 62
    14
  6
CONTINUOUS
  0
LAYER
  2
サッシ芯
 70
     0
 62
    17
  6
DASHDOTX2
  0
LAYER
  2
寸法線
 70
     0
 62
    62
  6
CONTINUOUS
  0
LAYER
  2
姿図外形線
 70
     0
 62
    65
  6
CONTINUOUS
  0
LAYER
  2
姿補助線
 70
     0
 62
    30
  6
CONTINUOUS
  0
LAYER
  2
透視線
 70
     0
 62
    78
  6
DOT
  0
LAYER
  2
用紙
 70
     0
 62
    81
  6
CONTINUOUS
  0
LAYER
  2
実線図枠
 70
     0
 62
    94
  6
CONTINUOUS
  0
LAYER
  2
補助図枠
 70
     0
 62
    97
  6
CONTINUOUS
  0
LAYER
  2
建具記号
 70
     0
 62
   110
  6
CONTINUOUS
  0
LAYER
  2
補助文字
 70
     0
 62
   113
  6
CONTINUOUS
  0
ENDTAB
  0
TABLE
  2
STYLE
 70
    10
  0
STYLE
  2
STANDARD
 70
     0
 40
1.0
 41
1.0
 42
1.0
 50
0.0
 71
     0
  3
TXT
  4
BIGFONT
  0
STYLE
  2
TATE
 70
     4
 40
1.0
 41
1.0
 42
1.0
 50
0.0
 71
     0
  3
TXT
  4
BIGFONT
  0
STYLE
  2
TextStyle03
 70
     0
 40
1.0
 41
1.0
 42
1.0
 50
0.0
 71
     0
  3
MONOTXT
  4
BIGFONT
  0
STYLE
  2
TextStyle04
 70
     0
 40
1.0
 41
1.0
 42
1.0
 50
0.0
 71
     0
  3
MONOTXT
  4
BIGFONT
  0
STYLE
  2
TextStyle05
 70
     0
 40
1.0
 41
1.0
 42
1.0
 50
0.0
 71
     0
  3
MONOTXT
  4
BIGFONT
  0
STYLE
  2
TextStyle06
 70
     0
 40
1.0
 41
1.0
 42
1.0
 50
0.0
 71
     0
  3
MONOTXT
  4
BIGFONT
  0
STYLE
  2
TextStyle07
 70
     0
 40
1.0
 41
1.0
 42
1.0
 50
0.0
 71
     0
  3
MONOTXT
  4
BIGFONT
  0
STYLE
  2
TextStyle08
 70
     0
 40
1.0
 41
1.0
 42
1.0
 50
0.0
 71
     0
  3
MONOTXT
  4
BIGFONT
  0
STYLE
  2
TextStyle09
 70
     0
 40
1.0
 41
1.0
 42
1.0
 50
0.0
 71
     0
  3
MONOTXT
  4
BIGFONT
  0
STYLE
  2
TextStyle10
 70
     0
 40
1.0
 41
1.0
 42
1.0
 50
0.0
 71
     0
  3
MONOTXT
  4
BIGFONT
  0
ENDTAB
  0
ENDSEC
  0
SECTION
  2
BLOCKS
  0
BLOCK
  2
*GRP_0001
 70
    65
 10
0.0
 20
0.0
  0
LINE
  8
型材断面
  6
CONTINUOUS
 10
195.0
 20
133.5
 11
195.0
 21
-133.5
  0
LINE
  8
型材断面
  6
CONTINUOUS
 10
195.0
 20
-133.5
 11
-185.0
 21
-133.5
  0
LINE
  8
型材断面
  6
CONTINUOUS
 10
-185.0
 20
-133.5
 11
-185.0
 21
133.5
  0
LINE
  8
型材断面
  6
CONTINUOUS
 10
195.0
 20
133.5
 11
-185.0
 21
133.5
  0
LINE
  8
型材断面
  6
CONTINUOUS
 10
145.0
 20
-133.5
 11
145.0
 21
-118.5
  0
LINE
  8
型材断面
  6
CONTINUOUS
 10
195.0
 20
-118.5
 11
145.0
 21
-118.5
  0
ENDBLK
  0
BLOCK
  2
*DIM_0002
 70
    65
 10
0.0
 20
0.0
  0
LINE
  8
寸法
  6
BYBLOCK
 62
     0
 10
-4.287135
 20
-64.87628
 11
20.682515
 21
-64.87628
  0
LINE
  8
寸法
  6
BYBLOCK
 62
     0
 10
20.682515
 20
-70.209613
 11
20.682515
 21
-64.87628
  0
POINT
  8
寸法
 62
     0
 10
20.682515
 20
-70.209613
  0
POINT
  8
寸法
 62
     0
 10
20.682515
 20
-64.87628
  0
TEXT
  7
TextStyle03
  8
寸法
  6
CONTINUOUS
 62
     0
 10
20.3
 20
-69.9875
  1
160
 40
3.0
 50
90.0
 72
     5
 11
20.3
 21
-65.1125
  0
ENDBLK
  0
BLOCK
  2
*DIM_0003
 70
    65
 10
0.0
 20
0.0
  0
LINE
  8
寸法
  6
BYBLOCK
 62
     0
 10
38.732515
 20
22.814033
 11
38.732515
 21
42.814033
  0
POINT
  8
寸法
 62
     0
 10
38.732515
 20
22.814033
  0
POINT
  8
寸法
 62
     0
 10
38.732515
 20
42.814033
  0
TEXT
  7
TextStyle03
  8
寸法
  6
CONTINUOUS
 62
     0
 10
38.35
 20
21.925
  1
呼称寸法　600
 40
3.0
 50
90.0
 72
     5
 11
38.35
 21
43.675
  0
ENDBLK
  0
BLOCK
  2
*DIM_0004
 70
    65
 10
0.0
 20
0.0
  0
LINE
  8
寸法
  6
BYBLOCK
 62
     0
 10
88.912797
 20
33.814033
 11
88.912797
 21
60.666798
  0
LINE
  8
寸法
  6
BYBLOCK
 62
     0
 10
94.24613
 20
60.666798
 11
88.912797
 21
60.666798
  0
POINT
  8
寸法
 62
     0
 10
94.24613
 20
60.666798
  0
POINT
  8
寸法
 62
     0
 10
88.912797
 20
60.666798
  0
TEXT
  7
TextStyle03
  8
寸法
  6
CONTINUOUS
 62
     0
 10
89.1375
 20
61.025
  1
160
 40
3.0
 72
     5
 11
94.0125
 21
61.025
  0
ENDBLK
  0
BLOCK
  2
*DIM_0005
 70
    65
 10
0.0
 20
0.0
  0
LINE
  8
寸法
  6
BYBLOCK
 62
     0
 10
100.79942
 20
-63.785395
 11
108.91095
 21
-63.785395
  0
LINE
  8
寸法
  6
BYBLOCK
 62
     0
 10
100.79942
 20
-83.118728
 11
108.91095
 21
-83.118728
  0
LINE
  8
寸法
  6
BYBLOCK
 62
     0
 10
108.91095
 20
-63.785395
 11
108.91095
 21
-83.118728
  0
POINT
  8
寸法
 62
     0
 10
108.91095
 20
-63.785395
  0
POINT
  8
寸法
 62
     0
 10
108.91095
 20
-83.118728
  0
TEXT
  7
TextStyle03
  8
寸法
  6
CONTINUOUS
 62
     0
 10
108.525
 20
-75.9125
  1
580
 40
3.0
 50
90.0
 72
     5
 11
108.525
 21
-71.0375
  0
ENDBLK
  0
BLOCK
  2
*DIM_0006
 70
    65
 10
0.0
 20
0.0
  0
LINE
  8
寸法
  6
BYBLOCK
 62
     0
 10
-61.953802
 20
-16.511205
 11
-61.953802
 21
-13.121378
  0
LINE
  8
寸法
  6
BYBLOCK
 62
     0
 10
4.712865
 20
-13.121378
 11
-61.953802
 21
-13.121378
  0
POINT
  8
寸法
 62
     0
 10
4.712865
 20
-13.121378
  0
POINT
  8
寸法
 62
     0
 10
-61.953802
 20
-13.121378
  0
TEXT
  7
TextStyle03
  8
寸法
  6
CONTINUOUS
 62
     0
 10
-40.34375
 20
-12.75
  1
呼称寸法　2000
 40
3.0
 72
     5
 11
-16.90625
 21
-12.75
  0
ENDBLK
  0
BLOCK
  2
*DIM_0007
 70
    65
 10
0.0
 20
0.0
  0
LINE
  8
寸法
  6
BYBLOCK
 62
     0
 10
-45.287135
 20
19.183902
 11
-45.287135
 21
14.182178
  0
LINE
  8
寸法
  6
BYBLOCK
 62
     0
 10
-11.9538
 20
19.183902
 11
-11.9538
 21
14.182178
  0
LINE
  8
寸法
  6
BYBLOCK
 62
     0
 10
-45.287135
 20
14.182178
 11
-11.9538
 21
14.182178
  0
POINT
  8
寸法
 62
     0
 10
-45.287135
 20
14.182178
  0
POINT
  8
寸法
 62
     0
 10
-11.9538
 20
14.182178
  0
TEXT
  7
TextStyle03
  8
寸法
  6
CONTINUOUS
 62
     0
 10
-31.90625
 20
14.55
  1
1000
 40
3.0
 72
     5
 11
-25.34375
 21
14.55
  0
ENDBLK
  0
BLOCK
  2
*DIM_0008
 70
    65
 10
0.0
 20
0.0
  0
LINE
  8
寸法
  6
BYBLOCK
 62
     0
 10
94.24613
 20
45.4807
 11
94.24613
 21
60.666798
  0
LINE
  8
寸法
  6
BYBLOCK
 62
     0
 10
101.029413
 20
45.7807
 11
101.029413
 21
60.666798
  0
LINE
  8
寸法
  6
BYBLOCK
 62
     0
 10
94.24613
 20
60.666798
 11
101.029413
 21
60.666798
  0
POINT
  8
寸法
 62
     0
 10
94.24613
 20
60.666798
  0
POINT
  8
寸法
 62
     0
 10
101.029413
 20
60.666798
  0
TEXT
  7
TextStyle03
  8
寸法
  6
CONTINUOUS
 62
     0
 10
101.925
 20
61.025
  1
203.5
 40
3.0
 72
     5
 11
110.175
 21
61.025
  0
ENDBLK
  0
BLOCK
  2
*DIM_0009
 70
    65
 10
0.0
 20
0.0
  0
LINE
  8
寸法
  6
BYBLOCK
 62
     0
 10
97.06877
 20
45.094035
 11
38.732515
 21
45.094035
  0
LINE
  8
寸法
  6
BYBLOCK
 62
     0
 10
38.732515
 20
42.814033
 11
38.732515
 21
45.094035
  0
POINT
  8
寸法
 62
     0
 10
38.732515
 20
42.814033
  0
POINT
  8
寸法
 62
     0
 10
38.732515
 20
45.094035
  0
TEXT
  7
TextStyle03
  8
寸法
  6
CONTINUOUS
 62
     0
 10
38.35
 20
47.41875
  1
68.4
 40
3.0
 50
90.0
 72
     5
 11
38.35
 21
53.98125
  0
ENDBLK
  0
BLOCK
  2
*DIM_0010
 70
    65
 10
0.0
 20
0.0
  0
LINE
  8
寸法
  6
BYBLOCK
 62
     0
 10
97.06877
 20
20.53403
 11
38.732515
 21
20.53403
  0
LINE
  8
寸法
  6
BYBLOCK
 62
     0
 10
38.732515
 20
22.814033
 11
38.732515
 21
20.53403
  0
POINT
  8
寸法
 62
     0
 10
38.732515
 20
22.814033
  0
POINT
  8
寸法
 62
     0
 10
38.732515
 20
20.53403
  0
TEXT
  7
TextStyle03
  8
寸法
  6
CONTINUOUS
 62
     0
 10
38.35
 20
11.61875
  1
68.4
 40
3.0
 50
90.0
 72
     5
 11
38.35
 21
18.18125
  0
ENDBLK
  0
BLOCK
  2
*DIM_0011
 70
    65
 10
0.0
 20
0.0
  0
LINE
  8
寸法
  6
BYBLOCK
 62
     0
 10
7.379532
 20
-70.209613
 11
20.682515
 21
-70.209613
  0
LINE
  8
寸法
  6
BYBLOCK
 62
     0
 10
7.679532
 20
-76.992895
 11
20.682515
 21
-76.992895
  0
LINE
  8
寸法
  6
BYBLOCK
 62
     0
 10
20.682515
 20
-70.209613
 11
20.682515
 21
-76.992895
  0
POINT
  8
寸法
 62
     0
 10
20.682515
 20
-70.209613
  0
POINT
  8
寸法
 62
     0
 10
20.682515
 20
-76.992895
  0
TEXT
  7
TextStyle03
  8
寸法
  6
CONTINUOUS
 62
     0
 10
20.3
 20
-86.175
  1
203.5
 40
3.0
 50
90.0
 72
     5
 11
20.3
 21
-77.925
  0
ENDBLK
  0
BLOCK
  2
*DIM_0012
 70
    65
 10
0.0
 20
0.0
  0
LINE
  8
寸法
  6
BYBLOCK
 62
     0
 10
6.992867
 20
-73.032252
 11
6.992867
 21
-13.121378
  0
LINE
  8
寸法
  6
BYBLOCK
 62
     0
 10
4.712865
 20
-13.121378
 11
6.992867
 21
-13.121378
  0
POINT
  8
寸法
 62
     0
 10
4.712865
 20
-13.121378
  0
POINT
  8
寸法
 62
     0
 10
6.992867
 20
-13.121378
  0
TEXT
  7
TextStyle03
  8
寸法
  6
CONTINUOUS
 62
     0
 10
9.31875
 20
-12.75
  1
68.4
 40
3.0
 72
     5
 11
15.88125
 21
-12.75
  0
ENDBLK
  0
BLOCK
  2
*DIM_0013
 70
    65
 10
0.0
 20
0.0
  0
LINE
  8
寸法
  6
BYBLOCK
 62
     0
 10
-64.233802
 20
-73.032252
 11
-64.233802
 21
-13.121378
  0
LINE
  8
寸法
  6
BYBLOCK
 62
     0
 10
-61.953802
 20
-13.121378
 11
-64.233802
 21
-13.121378
  0
POINT
  8
寸法
 62
     0
 10
-61.953802
 20
-13.121378
  0
POINT
  8
寸法
 62
     0
 10
-64.233802
 20
-13.121378
  0
TEXT
  7
TextStyle03
  8
寸法
  6
CONTINUOUS
 62
     0
 10
-73.13125
 20
-12.75
  1
68.4
 40
3.0
 72
     5
 11
-66.56875
 21
-12.75
  0
ENDBLK
  0
BLOCK
  2
*DIM_0014
 70
    65
 10
0.0
 20
0.0
  0
LINE
  8
寸法
  6
BYBLOCK
 62
     0
 10
67.466087
 20
-62.785395
 11
67.466087
 21
-53.61304
  0
LINE
  8
寸法
  6
BYBLOCK
 62
     0
 10
99.79942
 20
-62.785395
 11
99.79942
 21
-53.61304
  0
LINE
  8
寸法
  6
BYBLOCK
 62
     0
 10
67.466087
 20
-53.61304
 11
99.79942
 21
-53.61304
  0
POINT
  8
寸法
 62
     0
 10
67.466087
 20
-53.61304
  0
POINT
  8
寸法
 62
     0
 10
99.79942
 20
-53.61304
  0
TEXT
  7
TextStyle03
  8
寸法
  6
CONTINUOUS
 62
     0
 10
81.1875
 20
-53.25
  1
970
 40
3.0
 72
     5
 11
86.0625
 21
-53.25
  0
ENDBLK
  0
BLOCK
  2
*DIM_0015
 70
    65
 10
0.0
 20
0.0
  0
LINE
  8
寸法
  6
BYBLOCK
 62
     0
 10
8.342993
 20
38.914033
 11
15.120285
 21
38.914033
  0
LINE
  8
寸法
  6
BYBLOCK
 62
     0
 10
15.120285
 20
42.814033
 11
15.120285
 21
38.914033
  0
POINT
  8
寸法
 62
     0
 10
15.120285
 20
42.814033
  0
POINT
  8
寸法
 62
     0
 10
15.120285
 20
38.914033
  0
TEXT
  7
TextStyle03
  8
寸法
  6
CONTINUOUS
 62
     0
 10
14.875
 20
43.4875
  1
117
 40
3.0
 50
90.0
 72
     5
 11
14.875
 21
48.3625
  0
ENDBLK
  0
BLOCK
  2
*DIM_0016
 70
    65
 10
0.0
 20
0.0
  0
LINE
  8
寸法
  6
BYBLOCK
 62
     0
 10
8.342993
 20
26.714033
 11
15.120285
 21
26.714033
  0
LINE
  8
寸法
  6
BYBLOCK
 62
     0
 10
15.120285
 20
22.814033
 11
15.120285
 21
26.714033
  0
POINT
  8
寸法
 62
     0
 10
15.120285
 20
22.814033
  0
POINT
  8
寸法
 62
     0
 10
15.120285
 20
26.714033
  0
TEXT
  7
TextStyle03
  8
寸法
  6
CONTINUOUS
 62
     0
 10
15.05
 20
17.0125
  1
117
 40
3.0
 50
90.0
 72
     5
 11
15.05
 21
21.8875
  0
ENDBLK
  0
BLOCK
  2
*GRP_0017
 70
    65
 10
0.0
 20
0.0
  0
LINE
  8
別途部材
  6
CONTINUOUS
 62
    96
 10
-63.620467
 20
-70.209613
 11
-64.020467
 21
-71.209613
  0
ARC
  8
別途部材
  6
CONTINUOUS
 10
-51.953803
 20
-76.917952
 40
12.041668
 50
90.0
 51
146.144967
  0
LINE
  8
別途部材
  6
CONTINUOUS
 10
-64.020467
 20
-71.209613
 11
-28.620467
 21
-71.209613
  0
LINE
  8
別途部材
  6
CONTINUOUS
 62
    96
 10
-63.620467
 20
-70.209613
 11
-28.620467
 21
-70.209613
  0
LINE
  8
別途部材
  6
CONTINUOUS
 10
-29.120467
 20
-63.87628
 11
-30.120467
 21
-64.87628
  0
LINE
  8
別途部材
  6
CONTINUOUS
 10
-31.120467
 20
-64.87628
 11
-32.120467
 21
-63.87628
  0
LINE
  8
別途部材
  6
CONTINUOUS
 10
-33.120467
 20
-63.87628
 11
-34.120467
 21
-64.87628
  0
LINE
  8
別途部材
  6
CONTINUOUS
 10
-32.120467
 20
-63.87628
 11
-33.120467
 21
-63.87628
  0
LINE
  8
別途部材
  6
CONTINUOUS
 10
-29.120467
 20
-63.87628
 11
-28.620467
 21
-63.87628
  0
LINE
  8
別途部材
  6
CONTINUOUS
 10
-35.120467
 20
-64.87628
 11
-36.120467
 21
-63.87628
  0
LINE
  8
別途部材
  6
CONTINUOUS
 10
-37.120467
 20
-63.87628
 11
-38.120467
 21
-64.87628
  0
LINE
  8
別途部材
  6
CONTINUOUS
 10
-36.120467
 20
-63.87628
 11
-37.120467
 21
-63.87628
  0
LINE
  8
別途部材
  6
CONTINUOUS
 10
-39.120467
 20
-64.87628
 11
-40.120467
 21
-63.87628
  0
LINE
  8
別途部材
  6
CONTINUOUS
 10
-41.120467
 20
-63.87628
 11
-42.120467
 21
-64.87628
  0
LINE
  8
別途部材
  6
CONTINUOUS
 10
-40.120467
 20
-63.87628
 11
-41.120467
 21
-63.87628
  0
LINE
  8
別途部材
  6
CONTINUOUS
 10
-43.120467
 20
-64.87628
 11
-44.120467
 21
-63.87628
  0
LINE
  8
別途部材
  6
CONTINUOUS
 10
-45.120467
 20
-63.87628
 11
-46.120467
 21
-64.87628
  0
LINE
  8
別途部材
  6
CONTINUOUS
 10
-44.120467
 20
-63.87628
 11
-45.120467
 21
-63.87628
  0
LINE
  8
別途部材
  6
CONTINUOUS
 10
-47.120467
 20
-64.87628
 11
-48.120467
 21
-63.87628
  0
LINE
  8
別途部材
  6
CONTINUOUS
 10
-49.120467
 20
-63.87628
 11
-50.120467
 21
-64.87628
  0
LINE
  8
別途部材
  6
CONTINUOUS
 10
-48.120467
 20
-63.87628
 11
-49.120467
 21
-63.87628
  0
LINE
  8
別途部材
  6
CONTINUOUS
 10
-46.120467
 20
-64.87628
 11
-47.120467
 21
-64.87628
  0
LINE
  8
別途部材
  6
CONTINUOUS
 10
-42.120467
 20
-64.87628
 11
-43.120467
 21
-64.87628
  0
LINE
  8
別途部材
  6
CONTINUOUS
 10
-38.120467
 20
-64.87628
 11
-39.120467
 21
-64.87628
  0
LINE
  8
別途部材
  6
CONTINUOUS
 10
-34.120467
 20
-64.87628
 11
-35.120467
 21
-64.87628
  0
LINE
  8
別途部材
  6
CONTINUOUS
 10
-31.120467
 20
-64.87628
 11
-30.120467
 21
-64.87628
  0
LINE
  8
別途部材
  6
CONTINUOUS
 10
-49.120467
 20
-63.87628
 11
-49.120467
 21
-70.209613
  0
LINE
  8
別途部材
  6
CONTINUOUS
 10
-48.120467
 20
-63.87628
 11
-48.120467
 21
-70.209613
  0
LINE
  8
別途部材
  6
CONTINUOUS
 10
-50.120467
 20
-64.87628
 11
-50.120467
 21
-70.209613
  0
LINE
  8
別途部材
  6
CONTINUOUS
 10
-47.120467
 20
-64.87628
 11
-47.120467
 21
-70.209613
  0
LINE
  8
別途部材
  6
CONTINUOUS
 10
-45.120467
 20
-63.87628
 11
-45.120467
 21
-70.209613
  0
LINE
  8
別途部材
  6
CONTINUOUS
 10
-44.120467
 20
-63.87628
 11
-44.120467
 21
-70.209613
  0
LINE
  8
別途部材
  6
CONTINUOUS
 10
-43.120467
 20
-64.87628
 11
-43.120467
 21
-70.209613
  0
LINE
  8
別途部材
  6
CONTINUOUS
 10
-42.120467
 20
-64.87628
 11
-42.120467
 21
-70.209613
  0
LINE
  8
別途部材
  6
CONTINUOUS
 10
-41.120467
 20
-63.87628
 11
-41.120467
 21
-70.209613
  0
LINE
  8
別途部材
  6
CONTINUOUS
 10
-46.120467
 20
-64.87628
 11
-46.120467
 21
-70.209613
  0
LINE
  8
別途部材
  6
CONTINUOUS
 10
-40.120467
 20
-63.87628
 11
-40.120467
 21
-70.209613
  0
LINE
  8
別途部材
  6
CONTINUOUS
 10
-39.120467
 20
-64.87628
 11
-39.120467
 21
-70.209613
  0
LINE
  8
別途部材
  6
CONTINUOUS
 10
-38.120467
 20
-64.87628
 11
-38.120467
 21
-70.209613
  0
LINE
  8
別途部材
  6
CONTINUOUS
 10
-36.120467
 20
-63.87628
 11
-36.120467
 21
-70.209613
  0
LINE
  8
別途部材
  6
CONTINUOUS
 10
-34.120467
 20
-64.87628
 11
-34.120467
 21
-70.209613
  0
LINE
  8
別途部材
  6
CONTINUOUS
 10
-33.120467
 20
-63.87628
 11
-33.120467
 21
-70.209613
  0
LINE
  8
別途部材
  6
CONTINUOUS
 10
-31.120467
 20
-64.87628
 11
-31.120467
 21
-70.209613
  0
LINE
  8
別途部材
  6
CONTINUOUS
 10
-30.120467
 20
-64.87628
 11
-30.120467
 21
-70.209613
  0
LINE
  8
別途部材
  6
CONTINUOUS
 10
-29.120467
 20
-63.87628
 11
-29.120467
 21
-70.209613
  0
LINE
  8
別途部材
  6
CONTINUOUS
 10
-32.120467
 20
-63.87628
 11
-32.120467
 21
-70.209613
  0
LINE
  8
別途部材
  6
CONTINUOUS
 10
-35.120467
 20
-64.87628
 11
-35.120467
 21
-70.209613
  0
LINE
  8
別途部材
  6
CONTINUOUS
 10
-37.120467
 20
-63.87628
 11
-37.120467
 21
-70.209613
  0
LINE
  8
別途部材
  6
CONTINUOUS
 10
-50.120467
 20
-64.87628
 11
-51.9538
 21
-64.87628
  0
LINE
  8
別途部材
  6
CONTINUOUS
 62
    96
 10
6.379532
 20
-70.209613
 11
6.779532
 21
-71.209613
  0
ARC
  8
別途部材
  6
CONTINUOUS
 10
-5.287132
 20
-76.917952
 40
12.041668
 50
33.855033
 51
90.0
  0
LINE
  8
別途部材
  6
CONTINUOUS
 10
6.779532
 20
-71.209613
 11
-28.620467
 21
-71.209613
  0
LINE
  8
別途部材
  6
CONTINUOUS
 62
    96
 10
6.379532
 20
-70.209613
 11
-28.620467
 21
-70.209613
  0
LINE
  8
別途部材
  6
CONTINUOUS
 10
-28.120467
 20
-63.87628
 11
-27.120467
 21
-64.87628
  0
LINE
  8
別途部材
  6
CONTINUOUS
 10
-26.120467
 20
-64.87628
 11
-25.120467
 21
-63.87628
  0
LINE
  8
別途部材
  6
CONTINUOUS
 10
-24.120467
 20
-63.87628
 11
-23.120467
 21
-64.87628
  0
LINE
  8
別途部材
  6
CONTINUOUS
 10
-25.120467
 20
-63.87628
 11
-24.120467
 21
-63.87628
  0
LINE
  8
別途部材
  6
CONTINUOUS
 10
-28.120467
 20
-63.87628
 11
-28.620467
 21
-63.87628
  0
LINE
  8
別途部材
  6
CONTINUOUS
 10
-22.120467
 20
-64.87628
 11
-21.120467
 21
-63.87628
  0
LINE
  8
別途部材
  6
CONTINUOUS
 10
-20.120467
 20
-63.87628
 11
-19.120467
 21
-64.87628
  0
LINE
  8
別途部材
  6
CONTINUOUS
 10
-21.120467
 20
-63.87628
 11
-20.120467
 21
-63.87628
  0
LINE
  8
別途部材
  6
CONTINUOUS
 10
-18.120467
 20
-64.87628
 11
-17.120467
 21
-63.87628
  0
LINE
  8
別途部材
  6
CONTINUOUS
 10
-16.120467
 20
-63.87628
 11
-15.120467
 21
-64.87628
  0
LINE
  8
別途部材
  6
CONTINUOUS
 10
-17.120467
 20
-63.87628
 11
-16.120467
 21
-63.87628
  0
LINE
  8
別途部材
  6
CONTINUOUS
 10
-14.120467
 20
-64.87628
 11
-13.120467
 21
-63.87628
  0
LINE
  8
別途部材
  6
CONTINUOUS
 10
-12.120467
 20
-63.87628
 11
-11.120467
 21
-64.87628
  0
LINE
  8
別途部材
  6
CONTINUOUS
 10
-13.120467
 20
-63.87628
 11
-12.120467
 21
-63.87628
  0
LINE
  8
別途部材
  6
CONTINUOUS
 10
-10.120467
 20
-64.87628
 11
-9.120467
 21
-63.87628
  0
LINE
  8
別途部材
  6
CONTINUOUS
 10
-8.120467
 20
-63.87628
 11
-7.120467
 21
-64.87628
  0
LINE
  8
別途部材
  6
CONTINUOUS
 10
-9.120467
 20
-63.87628
 11
-8.120467
 21
-63.87628
  0
LINE
  8
別途部材
  6
CONTINUOUS
 10
-11.120467
 20
-64.87628
 11
-10.120467
 21
-64.87628
  0
LINE
  8
別途部材
  6
CONTINUOUS
 10
-15.120467
 20
-64.87628
 11
-14.120467
 21
-64.87628
  0
LINE
  8
別途部材
  6
CONTINUOUS
 10
-19.120467
 20
-64.87628
 11
-18.120467
 21
-64.87628
  0
LINE
  8
別途部材
  6
CONTINUOUS
 10
-23.120467
 20
-64.87628
 11
-22.120467
 21
-64.87628
  0
LINE
  8
別途部材
  6
CONTINUOUS
 10
-26.120467
 20
-64.87628
 11
-27.120467
 21
-64.87628
  0
LINE
  8
別途部材
  6
CONTINUOUS
 10
-8.120467
 20
-63.87628
 11
-8.120467
 21
-70.209613
  0
LINE
  8
別途部材
  6
CONTINUOUS
 10
-9.120467
 20
-63.87628
 11
-9.120467
 21
-70.209613
  0
LINE
  8
別途部材
  6
CONTINUOUS
 10
-7.120467
 20
-64.87628
 11
-7.120467
 21
-70.209613
  0
LINE
  8
別途部材
  6
CONTINUOUS
 10
-10.120467
 20
-64.87628
 11
-10.120467
 21
-70.209613
  0
LINE
  8
別途部材
  6
CONTINUOUS
 10
-12.120467
 20
-63.87628
 11
-12.120467
 21
-70.209613
  0
LINE
  8
別途部材
  6
CONTINUOUS
 10
-13.120467
 20
-63.87628
 11
-13.120467
 21
-70.209613
  0
LINE
  8
別途部材
  6
CONTINUOUS
 10
-14.120467
 20
-64.87628
 11
-14.120467
 21
-70.209613
  0
LINE
  8
別途部材
  6
CONTINUOUS
 10
-15.120467
 20
-64.87628
 11
-15.120467
 21
-70.209613
  0
LINE
  8
別途部材
  6
CONTINUOUS
 10
-16.120467
 20
-63.87628
 11
-16.120467
 21
-70.209613
  0
LINE
  8
別途部材
  6
CONTINUOUS
 10
-11.120467
 20
-64.87628
 11
-11.120467
 21
-70.209613
  0
LINE
  8
別途部材
  6
CONTINUOUS
 10
-17.120467
 20
-63.87628
 11
-17.120467
 21
-70.209613
  0
LINE
  8
別途部材
  6
CONTINUOUS
 10
-18.120467
 20
-64.87628
 11
-18.120467
 21
-70.209613
  0
LINE
  8
別途部材
  6
CONTINUOUS
 10
-19.120467
 20
-64.87628
 11
-19.120467
 21
-70.209613
  0
LINE
  8
別途部材
  6
CONTINUOUS
 10
-21.120467
 20
-63.87628
 11
-21.120467
 21
-70.209613
  0
LINE
  8
別途部材
  6
CONTINUOUS
 10
-23.120467
 20
-64.87628
 11
-23.120467
 21
-70.209613
  0
LINE
  8
別途部材
  6
CONTINUOUS
 10
-24.120467
 20
-63.87628
 11
-24.120467
 21
-70.209613
  0
LINE
  8
別途部材
  6
CONTINUOUS
 10
-26.120467
 20
-64.87628
 11
-26.120467
 21
-70.209613
  0
LINE
  8
別途部材
  6
CONTINUOUS
 10
-27.120467
 20
-64.87628
 11
-27.120467
 21
-70.209613
  0
LINE
  8
別途部材
  6
CONTINUOUS
 10
-28.120467
 20
-63.87628
 11
-28.120467
 21
-70.209613
  0
LINE
  8
別途部材
  6
CONTINUOUS
 10
-25.120467
 20
-63.87628
 11
-25.120467
 21
-70.209613
  0
LINE
  8
別途部材
  6
CONTINUOUS
 10
-22.120467
 20
-64.87628
 11
-22.120467
 21
-70.209613
  0
LINE
  8
別途部材
  6
CONTINUOUS
 10
-20.120467
 20
-63.87628
 11
-20.120467
 21
-70.209613
  0
LINE
  8
別途部材
  6
CONTINUOUS
 10
-7.120467
 20
-64.87628
 11
-5.287135
 21
-64.87628
  0
ENDBLK
  0
BLOCK
  2
*DIM_0018
 70
    65
 10
0.0
 20
0.0
  0
LINE
  8
寸法
  6
BYBLOCK
 62
     0
 10
-64.953802
 20
39.4807
 11
-78.24664
 21
39.4807
  0
LINE
  8
寸法
  6
BYBLOCK
 62
     0
 10
-64.953802
 20
26.147365
 11
-78.24664
 21
26.147365
  0
LINE
  8
寸法
  6
BYBLOCK
 62
     0
 10
-78.24664
 20
39.4807
 11
-78.24664
 21
26.147365
  0
POINT
  8
寸法
 62
     0
 10
-78.24664
 20
39.4807
  0
POINT
  8
寸法
 62
     0
 10
-78.24664
 20
26.147365
  0
TEXT
  7
TextStyle03
  8
寸法
  6
CONTINUOUS
 62
     0
 10
-78.625
 20
30.3625
  1
400
 40
3.0
 50
90.0
 72
     5
 11
-78.625
 21
35.2375
  0
ENDBLK
  0
BLOCK
  2
*DIM_0019
 70
    65
 10
0.0
 20
0.0
  0
LINE
  8
寸法
  6
BYBLOCK
 62
     0
 10
-51.9538
 20
45.814033
 11
-51.9538
 21
74.741653
  0
LINE
  8
寸法
  6
BYBLOCK
 62
     0
 10
-28.620467
 20
45.814033
 11
-28.620467
 21
74.741653
  0
LINE
  8
寸法
  6
BYBLOCK
 62
     0
 10
-51.9538
 20
74.741653
 11
-28.620467
 21
74.741653
  0
POINT
  8
寸法
 62
     0
 10
-51.9538
 20
74.741653
  0
POINT
  8
寸法
 62
     0
 10
-28.620467
 20
74.741653
  0
TEXT
  7
TextStyle03
  8
寸法
  6
CONTINUOUS
 62
     0
 10
-42.7125
 20
75.125
  1
700
 40
3.0
 72
     5
 11
-37.8375
 21
75.125
  0
ENDBLK
  0
BLOCK
  2
*DIM_0020
 70
    65
 10
0.0
 20
0.0
  0
LINE
  8
寸法
  6
BYBLOCK
 62
     0
 10
-5.287135
 20
45.814033
 11
-5.287135
 21
74.741653
  0
LINE
  8
寸法
  6
BYBLOCK
 62
     0
 10
-28.620467
 20
74.741653
 11
-5.287135
 21
74.741653
  0
POINT
  8
寸法
 62
     0
 10
-5.287135
 20
74.741653
  0
TEXT
  7
TextStyle03
  8
寸法
  6
CONTINUOUS
 62
     0
 10
-19.3875
 20
75.125
  1
700
 40
3.0
 72
     5
 11
-14.5125
 21
75.125
  0
ENDBLK
  0
BLOCK
  2
*DIM_0021
 70
    65
 10
0.0
 20
0.0
  0
LINE
  8
寸法
  6
BYBLOCK
 62
     0
 10
-2.287135
 20
-57.542947
 11
20.682515
 21
-57.542947
  0
LINE
  8
寸法
  6
BYBLOCK
 62
     0
 10
20.682515
 20
-64.87628
 11
20.682515
 21
-57.542947
  0
POINT
  8
寸法
 62
     0
 10
20.682515
 20
-64.87628
  0
POINT
  8
寸法
 62
     0
 10
20.682515
 20
-57.542947
  0
TEXT
  7
TextStyle03
  8
寸法
  6
CONTINUOUS
 62
     0
 10
26.025
 20
-70.01875
  1
上昇168以上
 40
3.0
 50
90.0
 72
     5
 11
26.025
 21
-51.83125
  0
ENDBLK
  0
BLOCK
  2
*GRP_0022
 70
    65
 10
0.0
 20
0.0
  0
LINE
  8
ボルト／ビス
  6
CONTINUOUS
 10
5.379532
 20
-70.209613
 11
5.379532
 21
-69.742947
  0
LINE
  8
ボルト／ビス
  6
CONTINUOUS
 10
5.012867
 20
-70.209613
 11
5.012867
 21
-70.142947
  0
LINE
  8
ボルト／ビス
  6
CONTINUOUS
 10
5.012867
 20
-70.142947
 11
5.7462
 21
-70.142947
  0
LINE
  8
ボルト／ビス
  6
CONTINUOUS
 10
5.7462
 20
-70.142947
 11
5.7462
 21
-70.209613
  0
LINE
  8
ボルト／ビス
  6
CONTINUOUS
 10
5.012867
 20
-70.209613
 11
5.7462
 21
-70.209613
  0
LINE
  8
ボルト／ビス
  6
CONTINUOUS
 10
5.079532
 20
-70.109612
 11
5.079532
 21
-70.142947
  0
LINE
  8
ボルト／ビス
  6
CONTINUOUS
 10
5.079532
 20
-70.109612
 11
5.679532
 21
-70.109612
  0
LINE
  8
ボルト／ビス
  6
CONTINUOUS
 10
5.679532
 20
-70.109612
 11
5.679532
 21
-70.142947
  0
LINE
  8
ボルト／ビス
  6
CONTINUOUS
 62
    64
 10
5.219158
 20
-69.909613
 11
5.187082
 21
-69.921288
  0
ARC
  8
ボルト／ビス
  6
CONTINUOUS
 62
    64
 10
5.235196
 20
-70.01459
 40
0.104978
 50
62.721967
 51
90.0
  0
ARC
  8
ボルト／ビス
  6
CONTINUOUS
 62
    64
 10
5.379534
 20
-70.312014
 40
0.402402
 50
76.165002
 51
103.834985
  0
LINE
  8
ボルト／ビス
  6
CONTINUOUS
 62
    64
 10
5.539907
 20
-69.909613
 11
5.571983
 21
-69.921288
  0
ARC
  8
ボルト／ビス
  6
CONTINUOUS
 62
    64
 10
5.523872
 20
-70.01459
 40
0.104978
 50
90.0
 51
117.278033
  0
LINE
  8
ボルト／ビス
  6
CONTINUOUS
 62
    64
 10
5.219158
 20
-69.909613
 11
5.539907
 21
-69.909613
  0
LINE
  8
ボルト／ビス
  6
CONTINUOUS
 62
    64
 10
5.571983
 20
-69.921288
 11
5.571983
 21
-70.042947
  0
LINE
  8
ボルト／ビス
  6
CONTINUOUS
 62
    64
 10
5.475757
 20
-69.921288
 11
5.475757
 21
-70.042947
  0
LINE
  8
ボルト／ビス
  6
CONTINUOUS
 62
    64
 10
5.187082
 20
-69.921288
 11
5.187082
 21
-70.042947
  0
LINE
  8
ボルト／ビス
  6
CONTINUOUS
 62
    64
 10
5.283308
 20
-69.921288
 11
5.283308
 21
-70.042947
  0
LINE
  8
ボルト／ビス
  6
CONTINUOUS
 10
5.187082
 20
-70.042947
 11
5.571983
 21
-70.042947
  0
LINE
  8
ボルト／ビス
  6
CONTINUOUS
 10
5.179532
 20
-70.042947
 11
5.179532
 21
-70.109612
  0
LINE
  8
ボルト／ビス
  6
CONTINUOUS
 10
5.179532
 20
-70.042947
 11
5.579532
 21
-70.042947
  0
LINE
  8
ボルト／ビス
  6
CONTINUOUS
 10
5.579532
 20
-70.042947
 11
5.579532
 21
-70.109612
  0
ENDBLK
  0
BLOCK
  2
*GRP_0023
 70
    65
 10
0.0
 20
0.0
  0
LINE
  8
ボルト／ビス
  6
DOT
 10
5.379532
 20
-62.87628
 11
5.379532
 21
-62.409615
  0
LINE
  8
ボルト／ビス
  6
DOT
 10
5.012867
 20
-62.87628
 11
5.012867
 21
-62.809615
  0
LINE
  8
ボルト／ビス
  6
DOT
 10
5.012867
 20
-62.809615
 11
5.7462
 21
-62.809615
  0
LINE
  8
ボルト／ビス
  6
DOT
 10
5.7462
 20
-62.809615
 11
5.7462
 21
-62.87628
  0
LINE
  8
ボルト／ビス
  6
DOT
 10
5.012867
 20
-62.87628
 11
5.7462
 21
-62.87628
  0
LINE
  8
ボルト／ビス
  6
DOT
 10
5.079532
 20
-62.77628
 11
5.079532
 21
-62.809615
  0
LINE
  8
ボルト／ビス
  6
DOT
 10
5.079532
 20
-62.77628
 11
5.679532
 21
-62.77628
  0
LINE
  8
ボルト／ビス
  6
DOT
 10
5.679532
 20
-62.77628
 11
5.679532
 21
-62.809615
  0
LINE
  8
ボルト／ビス
  6
DOT
 62
    64
 10
5.219158
 20
-62.57628
 11
5.187082
 21
-62.587955
  0
ARC
  8
ボルト／ビス
  6
DOT
 62
    64
 10
5.235196
 20
-62.681257
 40
0.104978
 50
62.721967
 51
90.0
  0
ARC
  8
ボルト／ビス
  6
DOT
 62
    64
 10
5.379534
 20
-62.978681
 40
0.402402
 50
76.165002
 51
103.834985
  0
LINE
  8
ボルト／ビス
  6
DOT
 62
    64
 10
5.539907
 20
-62.57628
 11
5.571983
 21
-62.587955
  0
ARC
  8
ボルト／ビス
  6
DOT
 62
    64
 10
5.523872
 20
-62.681257
 40
0.104978
 50
90.0
 51
117.278033
  0
LINE
  8
ボルト／ビス
  6
DOT
 62
    64
 10
5.219158
 20
-62.57628
 11
5.539907
 21
-62.57628
  0
LINE
  8
ボルト／ビス
  6
DOT
 62
    64
 10
5.571983
 20
-62.587955
 11
5.571983
 21
-62.709615
  0
LINE
  8
ボルト／ビス
  6
DOT
 62
    64
 10
5.475757
 20
-62.587955
 11
5.475757
 21
-62.709615
  0
LINE
  8
ボルト／ビス
  6
DOT
 62
    64
 10
5.187082
 20
-62.587955
 11
5.187082
 21
-62.709615
  0
LINE
  8
ボルト／ビス
  6
DOT
 62
    64
 10
5.283308
 20
-62.587955
 11
5.283308
 21
-62.709615
  0
LINE
  8
ボルト／ビス
  6
DOT
 10
5.187082
 20
-62.709615
 11
5.571983
 21
-62.709615
  0
LINE
  8
ボルト／ビス
  6
DOT
 10
5.179532
 20
-62.709615
 11
5.179532
 21
-62.77628
  0
LINE
  8
ボルト／ビス
  6
DOT
 10
5.179532
 20
-62.709615
 11
5.579532
 21
-62.709615
  0
LINE
  8
ボルト／ビス
  6
DOT
 10
5.579532
 20
-62.709615
 11
5.579532
 21
-62.77628
  0
ENDBLK
  0
BLOCK
  2
*GRP_0024
 70
    65
 10
0.0
 20
0.0
  0
LINE
  8
ボルト／ビス
  6
CONTINUOUS
 10
-62.620467
 20
-70.209613
 11
-62.620467
 21
-69.742947
  0
LINE
  8
ボルト／ビス
  6
CONTINUOUS
 10
-62.987133
 20
-70.209613
 11
-62.987133
 21
-70.142947
  0
LINE
  8
ボルト／ビス
  6
CONTINUOUS
 10
-62.987133
 20
-70.142947
 11
-62.2538
 21
-70.142947
  0
LINE
  8
ボルト／ビス
  6
CONTINUOUS
 10
-62.2538
 20
-70.142947
 11
-62.2538
 21
-70.209613
  0
LINE
  8
ボルト／ビス
  6
CONTINUOUS
 10
-62.987133
 20
-70.209613
 11
-62.2538
 21
-70.209613
  0
LINE
  8
ボルト／ビス
  6
CONTINUOUS
 10
-62.920467
 20
-70.109612
 11
-62.920467
 21
-70.142947
  0
LINE
  8
ボルト／ビス
  6
CONTINUOUS
 10
-62.920467
 20
-70.109612
 11
-62.320467
 21
-70.109612
  0
LINE
  8
ボルト／ビス
  6
CONTINUOUS
 10
-62.320467
 20
-70.109612
 11
-62.320467
 21
-70.142947
  0
LINE
  8
ボルト／ビス
  6
CONTINUOUS
 62
    64
 10
-62.780843
 20
-69.909613
 11
-62.812918
 21
-69.921288
  0
ARC
  8
ボルト／ビス
  6
CONTINUOUS
 62
    64
 10
-62.764804
 20
-70.01459
 40
0.104978
 50
62.721967
 51
90.0
  0
ARC
  8
ボルト／ビス
  6
CONTINUOUS
 62
    64
 10
-62.620466
 20
-70.312014
 40
0.402402
 50
76.165002
 51
103.834985
  0
LINE
  8
ボルト／ビス
  6
CONTINUOUS
 62
    64
 10
-62.460092
 20
-69.909613
 11
-62.428017
 21
-69.921288
  0
ARC
  8
ボルト／ビス
  6
CONTINUOUS
 62
    64
 10
-62.476128
 20
-70.01459
 40
0.104978
 50
90.0
 51
117.278033
  0
LINE
  8
ボルト／ビス
  6
CONTINUOUS
 62
    64
 10
-62.780843
 20
-69.909613
 11
-62.460092
 21
-69.909613
  0
LINE
  8
ボルト／ビス
  6
CONTINUOUS
 62
    64
 10
-62.428017
 20
-69.921288
 11
-62.428017
 21
-70.042947
  0
LINE
  8
ボルト／ビス
  6
CONTINUOUS
 62
    64
 10
-62.524243
 20
-69.921288
 11
-62.524243
 21
-70.042947
  0
LINE
  8
ボルト／ビス
  6
CONTINUOUS
 62
    64
 10
-62.812918
 20
-69.921288
 11
-62.812918
 21
-70.042947
  0
LINE
  8
ボルト／ビス
  6
CONTINUOUS
 62
    64
 10
-62.716693
 20
-69.921288
 11
-62.716693
 21
-70.042947
  0
LINE
  8
ボルト／ビス
  6
CONTINUOUS
 10
-62.812918
 20
-70.042947
 11
-62.428017
 21
-70.042947
  0
LINE
  8
ボルト／ビス
  6
CONTINUOUS
 10
-62.820467
 20
-70.042947
 11
-62.820467
 21
-70.109612
  0
LINE
  8
ボルト／ビス
  6
CONTINUOUS
 10
-62.820467
 20
-70.042947
 11
-62.420467
 21
-70.042947
  0
LINE
  8
ボルト／ビス
  6
CONTINUOUS
 10
-62.420467
 20
-70.042947
 11
-62.420467
 21
-70.109612
  0
ENDBLK
  0
BLOCK
  2
*GRP_0025
 70
    65
 10
0.0
 20
0.0
  0
LINE
  8
ボルト／ビス
  6
DOT
 10
-62.620467
 20
-62.87628
 11
-62.620467
 21
-62.409615
  0
LINE
  8
ボルト／ビス
  6
DOT
 10
-62.987133
 20
-62.87628
 11
-62.987133
 21
-62.809615
  0
LINE
  8
ボルト／ビス
  6
DOT
 10
-62.987133
 20
-62.809615
 11
-62.2538
 21
-62.809615
  0
LINE
  8
ボルト／ビス
  6
DOT
 10
-62.2538
 20
-62.809615
 11
-62.2538
 21
-62.87628
  0
LINE
  8
ボルト／ビス
  6
DOT
 10
-62.987133
 20
-62.87628
 11
-62.2538
 21
-62.87628
  0
LINE
  8
ボルト／ビス
  6
DOT
 10
-62.920467
 20
-62.77628
 11
-62.920467
 21
-62.809615
  0
LINE
  8
ボルト／ビス
  6
DOT
 10
-62.920467
 20
-62.77628
 11
-62.320467
 21
-62.77628
  0
LINE
  8
ボルト／ビス
  6
DOT
 10
-62.320467
 20
-62.77628
 11
-62.320467
 21
-62.809615
  0
LINE
  8
ボルト／ビス
  6
DOT
 62
    64
 10
-62.780843
 20
-62.57628
 11
-62.812918
 21
-62.587955
  0
ARC
  8
ボルト／ビス
  6
DOT
 62
    64
 10
-62.764804
 20
-62.681257
 40
0.104978
 50
62.721967
 51
90.0
  0
ARC
  8
ボルト／ビス
  6
DOT
 62
    64
 10
-62.620466
 20
-62.978681
 40
0.402402
 50
76.165002
 51
103.834985
  0
LINE
  8
ボルト／ビス
  6
DOT
 62
    64
 10
-62.460092
 20
-62.57628
 11
-62.428017
 21
-62.587955
  0
ARC
  8
ボルト／ビス
  6
DOT
 62
    64
 10
-62.476128
 20
-62.681257
 40
0.104978
 50
90.0
 51
117.278033
  0
LINE
  8
ボルト／ビス
  6
DOT
 62
    64
 10
-62.780843
 20
-62.57628
 11
-62.460092
 21
-62.57628
  0
LINE
  8
ボルト／ビス
  6
DOT
 62
    64
 10
-62.428017
 20
-62.587955
 11
-62.428017
 21
-62.709615
  0
LINE
  8
ボルト／ビス
  6
DOT
 62
    64
 10
-62.524243
 20
-62.587955
 11
-62.524243
 21
-62.709615
  0
LINE
  8
ボルト／ビス
  6
DOT
 62
    64
 10
-62.812918
 20
-62.587955
 11
-62.812918
 21
-62.709615
  0
LINE
  8
ボルト／ビス
  6
DOT
 62
    64
 10
-62.716693
 20
-62.587955
 11
-62.716693
 21
-62.709615
  0
LINE
  8
ボルト／ビス
  6
DOT
 10
-62.812918
 20
-62.709615
 11
-62.428017
 21
-62.709615
  0
LINE
  8
ボルト／ビス
  6
DOT
 10
-62.820467
 20
-62.709615
 11
-62.820467
 21
-62.77628
  0
LINE
  8
ボルト／ビス
  6
DOT
 10
-62.820467
 20
-62.709615
 11
-62.420467
 21
-62.709615
  0
LINE
  8
ボルト／ビス
  6
DOT
 10
-62.420467
 20
-62.709615
 11
-62.420467
 21
-62.77628
  0
ENDBLK
  0
BLOCK
  2
*GRP_0026
 70
    65
 10
0.0
 20
0.0
  0
LINE
  8
ボルト／ビス
  6
CONTINUOUS
 10
94.24613
 20
43.4807
 11
93.779465
 21
43.4807
  0
LINE
  8
ボルト／ビス
  6
CONTINUOUS
 10
94.24613
 20
43.847365
 11
94.179465
 21
43.847365
  0
LINE
  8
ボルト／ビス
  6
CONTINUOUS
 10
94.179465
 20
43.847365
 11
94.179465
 21
43.114033
  0
LINE
  8
ボルト／ビス
  6
CONTINUOUS
 10
94.179465
 20
43.114033
 11
94.24613
 21
43.114033
  0
LINE
  8
ボルト／ビス
  6
CONTINUOUS
 10
94.24613
 20
43.847365
 11
94.24613
 21
43.114033
  0
LINE
  8
ボルト／ビス
  6
CONTINUOUS
 10
94.14613
 20
43.7807
 11
94.179465
 21
43.7807
  0
LINE
  8
ボルト／ビス
  6
CONTINUOUS
 10
94.14613
 20
43.7807
 11
94.14613
 21
43.1807
  0
LINE
  8
ボルト／ビス
  6
CONTINUOUS
 10
94.14613
 20
43.1807
 11
94.179465
 21
43.1807
  0
LINE
  8
ボルト／ビス
  6
CONTINUOUS
 62
    64
 10
93.94613
 20
43.641075
 11
93.957805
 21
43.67315
  0
ARC
  8
ボルト／ビス
  6
CONTINUOUS
 62
    64
 10
94.051109
 20
43.625035
 40
0.104978
 50
180.0
 51
207.278033
  0
ARC
  8
ボルト／ビス
  6
CONTINUOUS
 62
    64
 10
94.348533
 20
43.480698
 40
0.402402
 50
166.165015
 51
193.834998
  0
LINE
  8
ボルト／ビス
  6
CONTINUOUS
 62
    64
 10
93.94613
 20
43.320325
 11
93.957805
 21
43.28825
  0
ARC
  8
ボルト／ビス
  6
CONTINUOUS
 62
    64
 10
94.051109
 20
43.33636
 40
0.104978
 50
152.721967
 51
180.0
  0
LINE
  8
ボルト／ビス
  6
CONTINUOUS
 62
    64
 10
93.94613
 20
43.641075
 11
93.94613
 21
43.320325
  0
LINE
  8
ボルト／ビス
  6
CONTINUOUS
 62
    64
 10
93.957805
 20
43.28825
 11
94.079465
 21
43.28825
  0
LINE
  8
ボルト／ビス
  6
CONTINUOUS
 62
    64
 10
93.957805
 20
43.384475
 11
94.079465
 21
43.384475
  0
LINE
  8
ボルト／ビス
  6
CONTINUOUS
 62
    64
 10
93.957805
 20
43.67315
 11
94.079465
 21
43.67315
  0
LINE
  8
ボルト／ビス
  6
CONTINUOUS
 62
    64
 10
93.957805
 20
43.576925
 11
94.079465
 21
43.576925
  0
LINE
  8
ボルト／ビス
  6
CONTINUOUS
 10
94.079465
 20
43.67315
 11
94.079465
 21
43.28825
  0
LINE
  8
ボルト／ビス
  6
CONTINUOUS
 10
94.079465
 20
43.6807
 11
94.14613
 21
43.6807
  0
LINE
  8
ボルト／ビス
  6
CONTINUOUS
 10
94.079465
 20
43.6807
 11
94.079465
 21
43.2807
  0
LINE
  8
ボルト／ビス
  6
CONTINUOUS
 10
94.079465
 20
43.2807
 11
94.14613
 21
43.2807
  0
ENDBLK
  0
BLOCK
  2
*GRP_0027
 70
    65
 10
0.0
 20
0.0
  0
LINE
  8
ボルト／ビス
  6
CONTINUOUS
 10
94.24613
 20
22.147365
 11
93.779465
 21
22.147365
  0
LINE
  8
ボルト／ビス
  6
CONTINUOUS
 10
94.24613
 20
22.51403
 11
94.179465
 21
22.51403
  0
LINE
  8
ボルト／ビス
  6
CONTINUOUS
 10
94.179465
 20
22.51403
 11
94.179465
 21
21.780697
  0
LINE
  8
ボルト／ビス
  6
CONTINUOUS
 10
94.179465
 20
21.780697
 11
94.24613
 21
21.780697
  0
LINE
  8
ボルト／ビス
  6
CONTINUOUS
 10
94.24613
 20
22.51403
 11
94.24613
 21
21.780697
  0
LINE
  8
ボルト／ビス
  6
CONTINUOUS
 10
94.14613
 20
22.447365
 11
94.179465
 21
22.447365
  0
LINE
  8
ボルト／ビス
  6
CONTINUOUS
 10
94.14613
 20
22.447365
 11
94.14613
 21
21.847365
  0
LINE
  8
ボルト／ビス
  6
CONTINUOUS
 10
94.14613
 20
21.847365
 11
94.179465
 21
21.847365
  0
LINE
  8
ボルト／ビス
  6
CONTINUOUS
 62
    64
 10
93.94613
 20
22.30774
 11
93.957805
 21
22.339815
  0
ARC
  8
ボルト／ビス
  6
CONTINUOUS
 62
    64
 10
94.051108
 20
22.291701
 40
0.104978
 50
180.0
 51
207.278033
  0
ARC
  8
ボルト／ビス
  6
CONTINUOUS
 62
    64
 10
94.348532
 20
22.147363
 40
0.402402
 50
166.165015
 51
193.834998
  0
LINE
  8
ボルト／ビス
  6
CONTINUOUS
 62
    64
 10
93.94613
 20
21.98699
 11
93.957805
 21
21.954915
  0
ARC
  8
ボルト／ビス
  6
CONTINUOUS
 62
    64
 10
94.051108
 20
22.003025
 40
0.104978
 50
152.721967
 51
180.0
  0
LINE
  8
ボルト／ビス
  6
CONTINUOUS
 62
    64
 10
93.94613
 20
22.30774
 11
93.94613
 21
21.98699
  0
LINE
  8
ボルト／ビス
  6
CONTINUOUS
 62
    64
 10
93.957805
 20
21.954915
 11
94.079465
 21
21.954915
  0
LINE
  8
ボルト／ビス
  6
CONTINUOUS
 62
    64
 10
93.957805
 20
22.05114
 11
94.079465
 21
22.05114
  0
LINE
  8
ボルト／ビス
  6
CONTINUOUS
 62
    64
 10
93.957805
 20
22.339815
 11
94.079465
 21
22.339815
  0
LINE
  8
ボルト／ビス
  6
CONTINUOUS
 62
    64
 10
93.957805
 20
22.24359
 11
94.079465
 21
22.24359
  0
LINE
  8
ボルト／ビス
  6
CONTINUOUS
 10
94.079465
 20
22.339815
 11
94.079465
 21
21.954915
  0
LINE
  8
ボルト／ビス
  6
CONTINUOUS
 10
94.079465
 20
22.347365
 11
94.14613
 21
22.347365
  0
LINE
  8
ボルト／ビス
  6
CONTINUOUS
 10
94.079465
 20
22.347365
 11
94.079465
 21
21.947365
  0
LINE
  8
ボルト／ビス
  6
CONTINUOUS
 10
94.079465
 20
21.947365
 11
94.14613
 21
21.947365
  0
ENDBLK
  0
ENDSEC
  0
SECTION
  2
ENTITIES
  0
POLYLINE
  8
通り芯
  6
CONTINUOUS
 66
     1
 70
     1
  0
VERTEX
  8
通り芯
 10
-210.0
 20
-148.5
  0
VERTEX
  8
通り芯
 10
210.0
 20
-148.5
  0
VERTEX
  8
通り芯
 10
210.0
 20
148.5
  0
VERTEX
  8
通り芯
 10
-210.0
 20
148.5
  0
SEQEND
  0
INSERT
  2
*GRP_0001
  8
型材断面
  6
CONTINUOUS
 10
0.0
 20
0.0
  0
LINE
  8
型材断面
  6
DASHDOT
 10
4.712865
 20
-77.836442
 11
4.712865
 21
42.814033
  0
LINE
  8
型材断面
  6
DASHDOT
 10
-28.620467
 20
-77.836442
 11
-28.620467
 21
42.814033
  0
LINE
  8
型材断面
  6
DASHDOT
 10
-61.953802
 20
-77.836442
 11
-61.953802
 21
42.814033
  0
LINE
  8
型材断面
  6
DASHDOT
 10
102.389627
 20
42.814033
 11
-61.953802
 21
42.814033
  0
LINE
  8
型材断面
  6
DASHDOT
 10
102.389627
 20
32.814033
 11
-61.953802
 21
32.814033
  0
LINE
  8
型材断面
  6
DASHDOT
 10
102.389627
 20
22.814033
 11
-61.953802
 21
22.814033
  0
LINE
  8
型材断面
  6
DOT
 10
-27.370467
 20
22.814033
 11
-27.370467
 21
42.814033
  0
LINE
  8
型材断面
  6
DASHDOT
 10
-28.620467
 20
22.814033
 11
-28.620467
 21
42.814033
  0
LINE
  8
型材断面
  6
DOT
 10
-29.870467
 20
22.814033
 11
-29.870467
 21
42.814033
  0
POLYLINE
  8
型材断面
  6
CONTINUOUS
 66
     1
 70
     1
  0
VERTEX
  8
型材断面
 10
-19.76742
 20
13.03811
  0
VERTEX
  8
型材断面
 10
-38.53935
 20
13.03811
  0
VERTEX
  8
型材断面
 10
-38.53935
 20
8.301267
  0
VERTEX
  8
型材断面
 10
-19.76742
 20
8.301267
  0
SEQEND
  0
POLYLINE
  8
型材断面
  6
CONTINUOUS
 66
     1
 70
     1
  0
VERTEX
  8
型材断面
 10
-19.76742
 20
52.589955
  0
VERTEX
  8
型材断面
 10
-38.53935
 20
52.589955
  0
VERTEX
  8
型材断面
 10
-38.53935
 20
57.326798
  0
VERTEX
  8
型材断面
 10
-19.76742
 20
57.326798
  0
SEQEND
  0
LINE
  8
型材断面
  6
CONTINUOUS
 10
-45.287135
 20
45.444162
 11
-46.782765
 21
48.03467
  0
LINE
  8
型材断面
  6
CONTINUOUS
 10
-45.287135
 20
45.444162
 11
-43.791505
 21
48.03467
  0
LINE
  8
型材断面
  6
CONTINUOUS
 10
-43.791505
 20
48.03467
 11
-46.782765
 21
48.03467
  0
LINE
  8
型材断面
  6
CONTINUOUS
 10
-102.80601
 20
80.791505
 11
-102.209955
 21
78.200998
  0
LINE
  8
型材断面
  6
CONTINUOUS
 10
-102.80601
 20
80.791505
 11
-103.402067
 21
78.200998
  0
LINE
  8
型材断面
  6
CONTINUOUS
 10
-103.402067
 20
78.200998
 11
-102.209955
 21
78.200998
  0
LINE
  8
型材断面
  6
CONTINUOUS
 10
-108.828597
 20
74.922105
 11
-62.58682
 21
74.922105
  0
LINE
  8
型材断面
  6
CONTINUOUS
 10
-102.80601
 20
87.32138
 11
-104.30164
 21
84.730873
  0
LINE
  8
型材断面
  6
CONTINUOUS
 10
-102.80601
 20
87.32138
 11
-101.31038
 21
84.730873
  0
LINE
  8
型材断面
  6
CONTINUOUS
 10
-101.31038
 20
84.730873
 11
-104.30164
 21
84.730873
  0
LINE
  8
型材断面
  6
CONTINUOUS
 10
-108.828597
 20
83.792277
 11
-62.58682
 21
83.792277
  0
LINE
  8
型材断面
  6
CONTINUOUS
 10
-108.828597
 20
69.134073
 11
-62.58682
 21
69.134073
  0
LINE
  8
型材断面
  6
CONTINUOUS
 10
-64.583932
 20
32.814033
 11
-67.17444
 21
34.309663
  0
LINE
  8
型材断面
  6
CONTINUOUS
 10
-64.583932
 20
32.814033
 11
-67.17444
 21
31.318403
  0
LINE
  8
型材断面
  6
CONTINUOUS
 10
-67.17444
 20
31.318403
 11
-67.17444
 21
34.309663
  0
LINE
  8
型材断面
  6
CONTINUOUS
 10
-45.287135
 20
20.183902
 11
-46.782765
 21
17.593395
  0
LINE
  8
型材断面
  6
CONTINUOUS
 10
-45.287135
 20
20.183902
 11
-43.791505
 21
17.593395
  0
LINE
  8
型材断面
  6
CONTINUOUS
 10
-43.791505
 20
17.593395
 11
-46.782765
 21
17.593395
  0
LINE
  8
型材断面
  6
CONTINUOUS
 10
-11.9538
 20
45.444162
 11
-10.45817
 21
48.03467
  0
LINE
  8
型材断面
  6
CONTINUOUS
 10
-11.9538
 20
45.444162
 11
-13.44943
 21
48.03467
  0
LINE
  8
型材断面
  6
CONTINUOUS
 10
-13.44943
 20
48.03467
 11
-10.45817
 21
48.03467
  0
LINE
  8
型材断面
  6
CONTINUOUS
 10
7.342997
 20
32.814033
 11
9.933505
 21
34.309663
  0
LINE
  8
型材断面
  6
CONTINUOUS
 10
7.342997
 20
32.814033
 11
9.933505
 21
31.318403
  0
LINE
  8
型材断面
  6
CONTINUOUS
 10
9.933505
 20
31.318403
 11
9.933505
 21
34.309663
  0
LINE
  8
型材断面
  6
CONTINUOUS
 10
-11.9538
 20
20.183902
 11
-10.45817
 21
17.593395
  0
LINE
  8
型材断面
  6
CONTINUOUS
 10
-11.9538
 20
20.183902
 11
-13.44943
 21
17.593395
  0
LINE
  8
型材断面
  6
CONTINUOUS
 10
-13.44943
 20
17.593395
 11
-10.45817
 21
17.593395
  0
LINE
  8
型材断面
  6
DASHDOT
 10
95.279413
 20
22.81403
 11
101.299477
 21
22.81403
  0
LINE
  8
型材断面
  6
CONTINUOUS
 62
    47
 10
97.562745
 20
21.417365
 11
97.562745
 21
22.197365
  0
LINE
  8
型材断面
  6
CONTINUOUS
 10
95.729413
 20
21.317365
 11
95.279413
 21
21.317365
  0
LINE
  8
型材断面
  6
CONTINUOUS
 62
    47
 10
98.402105
 20
20.53403
 11
98.06877
 21
20.53403
  0
LINE
  8
型材断面
  6
CONTINUOUS
 62
    47
 10
98.06877
 20
20.53403
 11
97.96877
 21
21.317365
  0
LINE
  8
型材断面
  6
CONTINUOUS
 62
    47
 10
97.562745
 20
21.317365
 11
97.96877
 21
21.317365
  0
LINE
  8
型材断面
  6
CONTINUOUS
 62
    47
 10
97.562745
 20
20.847365
 11
95.729413
 21
20.847365
  0
LINE
  8
型材断面
  6
CONTINUOUS
 62
    47
 10
101.529413
 20
21.41403
 11
101.029413
 21
21.41403
  0
LINE
  8
型材断面
  6
CONTINUOUS
 62
    47
 10
101.029413
 20
20.847365
 11
98.402105
 21
20.847365
  0
LINE
  8
型材断面
  6
CONTINUOUS
 62
    47
 10
101.029413
 20
20.847365
 11
101.029413
 21
32.814033
  0
LINE
  8
型材断面
  6
CONTINUOUS
 62
    47
 10
101.529413
 20
21.41403
 11
101.529413
 21
32.814033
  0
LINE
  8
型材断面
  6
CONTINUOUS
 10
97.96877
 20
21.317365
 11
97.96877
 21
32.814033
  0
LINE
  8
型材断面
  6
CONTINUOUS
 10
98.06877
 20
20.53403
 11
98.06877
 21
32.814033
  0
LINE
  8
型材断面
  6
CONTINUOUS
 62
    47
 10
97.562745
 20
20.847365
 11
97.562745
 21
32.814033
  0
LINE
  8
型材断面
  6
CONTINUOUS
 62
    47
 10
98.402105
 20
20.53403
 11
98.402105
 21
32.814033
  0
LINE
  8
型材断面
  6
CONTINUOUS
 10
95.729413
 20
20.847365
 11
95.729413
 21
32.814033
  0
LINE
  8
型材断面
  6
DASHDOT
 10
95.279413
 20
42.814035
 11
101.299477
 21
42.814035
  0
LINE
  8
型材断面
  6
CONTINUOUS
 62
    47
 10
97.562745
 20
44.2107
 11
97.562745
 21
43.4307
  0
LINE
  8
型材断面
  6
CONTINUOUS
 10
95.729413
 20
44.3107
 11
95.279413
 21
44.3107
  0
LINE
  8
型材断面
  6
CONTINUOUS
 62
    47
 10
98.402105
 20
45.094035
 11
98.06877
 21
45.094035
  0
LINE
  8
型材断面
  6
CONTINUOUS
 62
    47
 10
98.06877
 20
45.094035
 11
97.96877
 21
44.3107
  0
LINE
  8
型材断面
  6
CONTINUOUS
 62
    47
 10
97.562745
 20
44.3107
 11
97.96877
 21
44.3107
  0
LINE
  8
型材断面
  6
CONTINUOUS
 62
    47
 10
97.562745
 20
44.7807
 11
95.729413
 21
44.7807
  0
LINE
  8
型材断面
  6
CONTINUOUS
 62
    47
 10
101.529413
 20
44.214035
 11
101.029413
 21
44.214035
  0
LINE
  8
型材断面
  6
CONTINUOUS
 62
    47
 10
101.029413
 20
44.7807
 11
98.402105
 21
44.7807
  0
LINE
  8
型材断面
  6
CONTINUOUS
 62
    47
 10
101.029413
 20
44.7807
 11
101.029413
 21
32.814033
  0
LINE
  8
型材断面
  6
CONTINUOUS
 62
    47
 10
101.529413
 20
44.214035
 11
101.529413
 21
32.814033
  0
LINE
  8
型材断面
  6
CONTINUOUS
 10
97.96877
 20
44.3107
 11
97.96877
 21
32.814033
  0
LINE
  8
型材断面
  6
CONTINUOUS
 10
98.06877
 20
45.094035
 11
98.06877
 21
32.814033
  0
LINE
  8
型材断面
  6
CONTINUOUS
 62
    47
 10
97.562745
 20
44.7807
 11
97.562745
 21
32.814033
  0
LINE
  8
型材断面
  6
CONTINUOUS
 62
    47
 10
98.402105
 20
45.094035
 11
98.402105
 21
32.814033
  0
LINE
  8
型材断面
  6
CONTINUOUS
 10
95.729413
 20
44.7807
 11
95.729413
 21
32.814033
  0
LINE
  8
型材断面
  6
DASHDOT
 10
-61.953802
 20
-71.242895
 11
-61.953802
 21
-77.26296
  0
LINE
  8
型材断面
  6
CONTINUOUS
 62
    47
 10
-63.350468
 20
-73.526228
 11
-62.570467
 21
-73.526228
  0
LINE
  8
型材断面
  6
CONTINUOUS
 10
-63.450468
 20
-71.692895
 11
-63.450468
 21
-71.242895
  0
LINE
  8
型材断面
  6
CONTINUOUS
 62
    47
 10
-64.233802
 20
-74.365588
 11
-64.233802
 21
-74.032252
  0
LINE
  8
型材断面
  6
CONTINUOUS
 62
    47
 10
-64.233802
 20
-74.032252
 11
-63.450468
 21
-73.932252
  0
LINE
  8
型材断面
  6
CONTINUOUS
 62
    47
 10
-63.450468
 20
-73.526228
 11
-63.450468
 21
-73.932252
  0
LINE
  8
型材断面
  6
CONTINUOUS
 62
    47
 10
-63.920467
 20
-73.526228
 11
-63.920467
 21
-71.692895
  0
LINE
  8
型材断面
  6
CONTINUOUS
 62
    47
 10
-63.353802
 20
-77.492895
 11
-63.353802
 21
-76.992895
  0
LINE
  8
型材断面
  6
CONTINUOUS
 62
    47
 10
-63.920467
 20
-76.992895
 11
-63.920467
 21
-74.365588
  0
LINE
  8
型材断面
  6
CONTINUOUS
 10
-63.920467
 20
-71.692895
 11
-28.620467
 21
-71.692895
  0
LINE
  8
型材断面
  6
CONTINUOUS
 10
-64.233802
 20
-74.032252
 11
-28.620467
 21
-74.032252
  0
LINE
  8
型材断面
  6
CONTINUOUS
 62
    47
 10
-64.233802
 20
-74.365588
 11
-28.620467
 21
-74.365588
  0
LINE
  8
型材断面
  6
CONTINUOUS
 10
-63.450468
 20
-73.932252
 11
-28.620467
 21
-73.932252
  0
LINE
  8
型材断面
  6
CONTINUOUS
 62
    47
 10
-63.920467
 20
-73.526228
 11
-28.620467
 21
-73.526228
  0
LINE
  8
型材断面
  6
CONTINUOUS
 62
    47
 10
-63.920467
 20
-76.992895
 11
-28.620467
 21
-76.992895
  0
LINE
  8
型材断面
  6
CONTINUOUS
 62
    47
 10
-63.353802
 20
-77.492895
 11
-28.620467
 21
-77.492895
  0
LINE
  8
型材断面
  6
DASHDOT
 10
4.712867
 20
-71.242895
 11
4.712867
 21
-77.26296
  0
LINE
  8
型材断面
  6
CONTINUOUS
 62
    47
 10
6.109533
 20
-73.526228
 11
5.329532
 21
-73.526228
  0
LINE
  8
型材断面
  6
CONTINUOUS
 10
6.209533
 20
-71.692895
 11
6.209533
 21
-71.242895
  0
LINE
  8
型材断面
  6
CONTINUOUS
 62
    47
 10
6.992867
 20
-74.365588
 11
6.992867
 21
-74.032252
  0
LINE
  8
型材断面
  6
CONTINUOUS
 62
    47
 10
6.992867
 20
-74.032252
 11
6.209533
 21
-73.932252
  0
LINE
  8
型材断面
  6
CONTINUOUS
 62
    47
 10
6.209533
 20
-73.526228
 11
6.209533
 21
-73.932252
  0
LINE
  8
型材断面
  6
CONTINUOUS
 62
    47
 10
6.679532
 20
-73.526228
 11
6.679532
 21
-71.692895
  0
LINE
  8
型材断面
  6
CONTINUOUS
 62
    47
 10
6.112867
 20
-77.492895
 11
6.112867
 21
-76.992895
  0
LINE
  8
型材断面
  6
CONTINUOUS
 62
    47
 10
6.679532
 20
-76.992895
 11
6.679532
 21
-74.365588
  0
LINE
  8
型材断面
  6
CONTINUOUS
 10
6.679532
 20
-71.692895
 11
-28.620467
 21
-71.692895
  0
LINE
  8
型材断面
  6
CONTINUOUS
 10
6.992867
 20
-74.032252
 11
-28.620467
 21
-74.032252
  0
LINE
  8
型材断面
  6
CONTINUOUS
 62
    47
 10
6.992867
 20
-74.365588
 11
-28.620467
 21
-74.365588
  0
LINE
  8
型材断面
  6
CONTINUOUS
 10
6.209533
 20
-73.932252
 11
-28.620467
 21
-73.932252
  0
LINE
  8
型材断面
  6
CONTINUOUS
 62
    47
 10
6.679532
 20
-73.526228
 11
-28.620467
 21
-73.526228
  0
LINE
  8
型材断面
  6
CONTINUOUS
 62
    47
 10
6.679532
 20
-76.992895
 11
-28.620467
 21
-76.992895
  0
LINE
  8
型材断面
  6
CONTINUOUS
 62
    47
 10
6.112867
 20
-77.492895
 11
-28.620467
 21
-77.492895
  0
LINE
  8
型材断面
  6
DOT
 62
    47
 10
-63.350468
 20
-66.192895
 11
-62.570467
 21
-66.192895
  0
LINE
  8
型材断面
  6
DOT
 10
-63.450468
 20
-64.359562
 11
-63.450468
 21
-63.909562
  0
LINE
  8
型材断面
  6
DOT
 62
    47
 10
-64.233802
 20
-67.032255
 11
-64.233802
 21
-66.69892
  0
LINE
  8
型材断面
  6
DOT
 62
    47
 10
-64.233802
 20
-66.69892
 11
-63.450468
 21
-66.59892
  0
LINE
  8
型材断面
  6
DOT
 62
    47
 10
-63.450468
 20
-66.192895
 11
-63.450468
 21
-66.59892
  0
LINE
  8
型材断面
  6
DOT
 62
    47
 10
-63.920467
 20
-66.192895
 11
-63.920467
 21
-64.359562
  0
LINE
  8
型材断面
  6
DOT
 10
-63.920467
 20
-64.359562
 11
-28.620467
 21
-64.359562
  0
LINE
  8
型材断面
  6
DOT
 10
-64.233802
 20
-66.69892
 11
-28.620467
 21
-66.69892
  0
LINE
  8
型材断面
  6
DOT
 62
    47
 10
-64.233802
 20
-67.032255
 11
-28.620467
 21
-67.032255
  0
LINE
  8
型材断面
  6
DOT
 10
-63.450468
 20
-66.59892
 11
-28.620467
 21
-66.59892
  0
LINE
  8
型材断面
  6
DOT
 62
    47
 10
-63.920467
 20
-66.192895
 11
-28.620467
 21
-66.192895
  0
LINE
  8
型材断面
  6
DOT
 62
    47
 10
6.109533
 20
-66.192895
 11
5.329532
 21
-66.192895
  0
LINE
  8
型材断面
  6
DOT
 10
6.209533
 20
-64.359562
 11
6.209533
 21
-63.909562
  0
LINE
  8
型材断面
  6
DOT
 62
    47
 10
6.992867
 20
-67.032255
 11
6.992867
 21
-66.69892
  0
LINE
  8
型材断面
  6
DOT
 62
    47
 10
6.992867
 20
-66.69892
 11
6.209533
 21
-66.59892
  0
LINE
  8
型材断面
  6
DOT
 62
    47
 10
6.209533
 20
-66.192895
 11
6.209533
 21
-66.59892
  0
LINE
  8
型材断面
  6
DOT
 62
    47
 10
6.679532
 20
-66.192895
 11
6.679532
 21
-64.359562
  0
LINE
  8
型材断面
  6
DOT
 10
6.679532
 20
-64.359562
 11
-28.620467
 21
-64.359562
  0
LINE
  8
型材断面
  6
DOT
 10
6.992867
 20
-66.69892
 11
-28.620467
 21
-66.69892
  0
LINE
  8
型材断面
  6
DOT
 62
    47
 10
6.992867
 20
-67.032255
 11
-28.620467
 21
-67.032255
  0
LINE
  8
型材断面
  6
DOT
 10
6.209533
 20
-66.59892
 11
-28.620467
 21
-66.59892
  0
LINE
  8
型材断面
  6
DOT
 62
    47
 10
6.679532
 20
-66.192895
 11
-28.620467
 21
-66.192895
  0
LINE
  8
型材断面
  6
CONTINUOUS
 10
6.779532
 20
20.747365
 11
6.992867
 21
20.53403
  0
LINE
  8
型材断面
  6
CONTINUOUS
 10
6.992867
 20
20.53403
 11
-28.620467
 21
20.53403
  0
LINE
  8
型材断面
  6
CONTINUOUS
 10
6.992867
 20
20.53403
 11
6.992867
 21
32.814033
  0
LINE
  8
型材断面
  6
CONTINUOUS
 10
6.779532
 20
44.8807
 11
6.992867
 21
45.094035
  0
LINE
  8
型材断面
  6
CONTINUOUS
 10
6.992867
 20
45.094035
 11
-28.620467
 21
45.094035
  0
LINE
  8
型材断面
  6
CONTINUOUS
 10
6.992867
 20
45.094035
 11
6.992867
 21
32.814033
  0
LINE
  8
型材断面
  6
CONTINUOUS
 10
-64.020467
 20
44.8807
 11
-64.233802
 21
45.094035
  0
LINE
  8
型材断面
  6
CONTINUOUS
 10
-64.233802
 20
45.094035
 11
-28.620467
 21
45.094035
  0
LINE
  8
型材断面
  6
CONTINUOUS
 10
-64.233802
 20
45.094035
 11
-64.233802
 21
32.814033
  0
LINE
  8
型材断面
  6
CONTINUOUS
 10
-64.020467
 20
20.747365
 11
-64.233802
 21
20.53403
  0
LINE
  8
型材断面
  6
CONTINUOUS
 10
-64.233802
 20
20.53403
 11
-28.620467
 21
20.53403
  0
LINE
  8
型材断面
  6
CONTINUOUS
 10
-64.233802
 20
20.53403
 11
-64.233802
 21
32.814033
  0
LINE
  8
型材断面
  6
CONTINUOUS
 10
7.342993
 20
38.914033
 11
9.9335
 21
38.317975
  0
LINE
  8
型材断面
  6
CONTINUOUS
 10
7.342993
 20
38.914033
 11
9.9335
 21
39.51009
  0
LINE
  8
型材断面
  6
CONTINUOUS
 10
9.9335
 20
39.51009
 11
9.9335
 21
38.317975
  0
LINE
  8
型材断面
  6
CONTINUOUS
 10
7.342993
 20
26.714033
 11
9.9335
 21
27.31009
  0
LINE
  8
型材断面
  6
CONTINUOUS
 10
7.342993
 20
26.714033
 11
9.9335
 21
26.117975
  0
LINE
  8
型材断面
  6
CONTINUOUS
 10
9.9335
 20
26.117975
 11
9.9335
 21
27.31009
  0
LINE
  8
型材断面
  6
CONTINUOUS
 10
-64.583928
 20
38.914033
 11
-67.174435
 21
38.317975
  0
LINE
  8
型材断面
  6
CONTINUOUS
 10
-64.583928
 20
38.914033
 11
-67.174435
 21
39.51009
  0
LINE
  8
型材断面
  6
CONTINUOUS
 10
-67.174435
 20
39.51009
 11
-67.174435
 21
38.317975
  0
LINE
  8
型材断面
  6
CONTINUOUS
 10
-64.583928
 20
26.714033
 11
-67.174435
 21
27.31009
  0
LINE
  8
型材断面
  6
CONTINUOUS
 10
-64.583928
 20
26.714033
 11
-67.174435
 21
26.117975
  0
LINE
  8
型材断面
  6
CONTINUOUS
 10
-67.174435
 20
26.117975
 11
-67.174435
 21
27.31009
  0
LINE
  8
型材断面
  6
CONTINUOUS
 10
-108.828597
 20
63.34604
 11
-62.58682
 21
63.34604
  0
TEXT
  7
TextStyle03
  8
文字
  6
CONTINUOUS
 10
81.275
 20
-76.7
  1
網入り6.8t
 40
3.0
 72
     5
 11
97.9625
 21
-76.7
  0
TEXT
  7
TextStyle03
  8
文字
  6
CONTINUOUS
 10
87.95
 20
-81.375
  1
×２枚
 40
3.0
 72
     5
 11
97.7
 21
-81.375
  0
TEXT
  7
TextStyle03
  8
文字
  6
CONTINUOUS
 10
-37.575
 20
9.325
  1
可動装置側
 40
3.0
 72
     5
 11
-21.075
 21
9.325
  0
TEXT
  7
TextStyle03
  8
文字
  6
CONTINUOUS
 10
-37.575
 20
53.3
  1
可動装置側
 40
3.0
 72
     5
 11
-21.075
 21
53.3
  0
TEXT
  7
TextStyle03
  8
文字
  6
CONTINUOUS
 10
-100.025
 20
79.425
  1
はケーシング位置を示す
 40
3.0
 72
     5
 11
-63.275
 21
79.425
  0
TEXT
  7
TextStyle03
  8
文字
  6
CONTINUOUS
 10
-100.025
 20
76.05
  1
４ヶ所中1ヶ所に設定
 40
3.0
 72
     5
 11
-68.3375
 21
76.05
  0
TEXT
  7
TextStyle03
  8
文字
  6
CONTINUOUS
 10
-100.025
 20
84.95
  1
は排水穴位置を示す
 40
3.0
 72
     5
 11
-70.025
 21
84.95
  0
TEXT
  7
TextStyle03
  8
文字
  6
CONTINUOUS
 10
-82.975
 20
11.275
  1
アンカーピッチ
 40
3.0
 50
90.0
 72
     5
 11
-82.975
 21
34.525
  0
TEXT
  7
TextStyle03
  8
文字
  6
CONTINUOUS
 10
-54.5
 20
79.675
  1
アンカーピッチ
 40
3.0
 72
     5
 11
-31.25
 21
79.675
  0
TEXT
  7
TextStyle03
  8
文字
  6
CONTINUOUS
 10
-103.75
 20
70.075
  1
アンカー数量　１０ヶ所
 40
3.0
 72
     5
 11
-67.0
 21
70.075
  0
TEXT
  7
TextStyle03
  8
文字
  6
CONTINUOUS
 10
-103.825
 20
64.3
  1
アームユニット数　２ヶ所
 40
3.0
 72
     5
 11
-63.7
 21
64.3
  0
TEXT
  7
TextStyle03
  8
文字
  6
CONTINUOUS
 10
78.1
 20
125.25
  1
シリーズ：ＳＴＤＬ
 40
5.0
 72
     5
 11
128.1
 21
125.25
  0
TEXT
  7
TextStyle03
  8
文字
  6
CONTINUOUS
 10
78.1
 20
119.625
  1
　　　　　（上下可動）600×2000タイプ
 40
5.0
 72
     5
 11
181.5375
 21
119.625
  0
TEXT
  7
TextStyle03
  8
文字
  6
CONTINUOUS
 10
78.1
 20
114.0
  1
図面名　：外観姿図
 40
5.0
 72
     5
 11
128.1
 21
114.0
  0
TEXT
  7
TextStyle03
  8
文字
  6
CONTINUOUS
 10
78.1
 20
108.375
  1
　　　　　　
 40
5.0
 72
     5
 11
111.225
 21
108.375
  0
TEXT
  7
TextStyle03
  8
文字
  6
CONTINUOUS
 10
77.425
 20
103.975
  1
ＮＳコード：ＮＳＤＳＬ
 40
5.0
 72
     5
 11
138.675
 21
103.975
  0
INSERT
  2
*DIM_0002
  8
寸法
  6
CONTINUOUS
 10
0.0
 20
0.0
  0
INSERT
  2
*DIM_0003
  8
寸法
  6
CONTINUOUS
 10
0.0
 20
0.0
  0
INSERT
  2
*DIM_0004
  8
寸法
  6
CONTINUOUS
 10
0.0
 20
0.0
  0
INSERT
  2
*DIM_0005
  8
寸法
  6
CONTINUOUS
 10
0.0
 20
0.0
  0
INSERT
  2
*DIM_0006
  8
寸法
  6
CONTINUOUS
 10
0.0
 20
0.0
  0
INSERT
  2
*DIM_0007
  8
寸法
  6
CONTINUOUS
 10
0.0
 20
0.0
  0
INSERT
  2
*DIM_0008
  8
寸法
  6
CONTINUOUS
 10
0.0
 20
0.0
  0
INSERT
  2
*DIM_0009
  8
寸法
  6
CONTINUOUS
 10
0.0
 20
0.0
  0
INSERT
  2
*DIM_0010
  8
寸法
  6
CONTINUOUS
 10
0.0
 20
0.0
  0
INSERT
  2
*DIM_0011
  8
寸法
  6
CONTINUOUS
 10
0.0
 20
0.0
  0
INSERT
  2
*DIM_0012
  8
寸法
  6
CONTINUOUS
 10
0.0
 20
0.0
  0
INSERT
  2
*DIM_0013
  8
寸法
  6
CONTINUOUS
 10
0.0
 20
0.0
  0
INSERT
  2
*DIM_0014
  8
寸法
  6
CONTINUOUS
 10
0.0
 20
0.0
  0
INSERT
  2
*DIM_0015
  8
寸法
  6
CONTINUOUS
 10
0.0
 20
0.0
  0
INSERT
  2
*DIM_0016
  8
寸法
  6
CONTINUOUS
 10
0.0
 20
0.0
  0
INSERT
  2
*DIM_0018
  8
寸法
  6
CONTINUOUS
 10
0.0
 20
0.0
  0
INSERT
  2
*DIM_0019
  8
寸法
  6
CONTINUOUS
 10
0.0
 20
0.0
  0
INSERT
  2
*DIM_0020
  8
寸法
  6
CONTINUOUS
 10
0.0
 20
0.0
  0
INSERT
  2
*DIM_0021
  8
寸法
  6
CONTINUOUS
 10
0.0
 20
0.0
  0
LINE
  8
別途部材
  6
CONTINUOUS
 10
6.779532
 20
20.747365
 11
6.379532
 21
21.147365
  0
LINE
  8
別途部材
  6
CONTINUOUS
 10
4.712865
 20
22.814033
 11
-3.34639
 21
30.87329
  0
LINE
  8
別途部材
  6
CONTINUOUS
 62
    96
 10
94.24613
 20
21.147365
 11
95.24613
 21
20.747365
  0
LINE
  8
別途部材
  6
CONTINUOUS
 62
    96
 10
94.24613
 20
21.147365
 11
94.24613
 21
32.814033
  0
LINE
  8
別途部材
  6
CONTINUOUS
 10
95.24613
 20
20.747365
 11
95.24613
 21
32.814033
  0
LINE
  8
別途部材
  6
CONTINUOUS
 62
    96
 10
94.24613
 20
44.4807
 11
95.24613
 21
44.8807
  0
LINE
  8
別途部材
  6
CONTINUOUS
 62
    96
 10
94.24613
 20
44.4807
 11
94.24613
 21
32.814033
  0
LINE
  8
別途部材
  6
CONTINUOUS
 10
95.24613
 20
44.8807
 11
95.24613
 21
32.814033
  0
ARC
  8
別途部材
  6
CONTINUOUS
 10
100.954465
 20
32.814033
 40
12.041667
 50
123.855033
 51
236.144967
  0
LINE
  8
別途部材
  6
CONTINUOUS
 10
6.379532
 20
21.147365
 11
6.379532
 21
32.814033
  0
LINE
  8
別途部材
  6
CONTINUOUS
 10
6.779532
 20
20.747365
 11
6.779532
 21
32.814033
  0
LINE
  8
別途部材
  6
CONTINUOUS
 10
6.779532
 20
44.8807
 11
6.379532
 21
44.4807
  0
LINE
  8
別途部材
  6
CONTINUOUS
 10
4.712865
 20
42.814033
 11
-3.34639
 21
34.754775
  0
LINE
  8
別途部材
  6
CONTINUOUS
 10
6.379532
 20
44.4807
 11
6.379532
 21
32.814033
  0
LINE
  8
別途部材
  6
CONTINUOUS
 10
6.779532
 20
44.8807
 11
6.779532
 21
32.814033
  0
LINE
  8
別途部材
  6
CONTINUOUS
 10
6.379532
 20
44.4807
 11
-28.620467
 21
44.4807
  0
LINE
  8
別途部材
  6
CONTINUOUS
 10
6.779532
 20
44.8807
 11
-28.620467
 21
44.8807
  0
LINE
  8
別途部材
  6
CONTINUOUS
 10
6.779532
 20
20.747365
 11
-28.620467
 21
20.747365
  0
LINE
  8
別途部材
  6
CONTINUOUS
 10
6.379532
 20
21.147365
 11
-28.620467
 21
21.147365
  0
LINE
  8
別途部材
  6
CONTINUOUS
 10
-64.020467
 20
20.747365
 11
-63.620467
 21
21.147365
  0
LINE
  8
別途部材
  6
CONTINUOUS
 10
-61.9538
 20
22.814033
 11
-53.894545
 21
30.87329
  0
LINE
  8
別途部材
  6
CONTINUOUS
 10
-63.620467
 20
21.147365
 11
-63.620467
 21
32.814033
  0
LINE
  8
別途部材
  6
CONTINUOUS
 10
-64.020467
 20
20.747365
 11
-64.020467
 21
32.814033
  0
LINE
  8
別途部材
  6
CONTINUOUS
 10
-64.020467
 20
44.8807
 11
-63.620467
 21
44.4807
  0
LINE
  8
別途部材
  6
CONTINUOUS
 10
-61.9538
 20
42.814033
 11
-53.894545
 21
34.754775
  0
LINE
  8
別途部材
  6
CONTINUOUS
 10
-63.620467
 20
44.4807
 11
-63.620467
 21
32.814033
  0
LINE
  8
別途部材
  6
CONTINUOUS
 10
-64.020467
 20
44.8807
 11
-64.020467
 21
32.814033
  0
LINE
  8
別途部材
  6
CONTINUOUS
 10
-63.620467
 20
44.4807
 11
-28.620467
 21
44.4807
  0
LINE
  8
別途部材
  6
CONTINUOUS
 10
-64.020467
 20
44.8807
 11
-28.620467
 21
44.8807
  0
LINE
  8
別途部材
  6
CONTINUOUS
 10
-64.020467
 20
20.747365
 11
-28.620467
 21
20.747365
  0
LINE
  8
別途部材
  6
CONTINUOUS
 10
-63.620467
 20
21.147365
 11
-28.620467
 21
21.147365
  0
LINE
  8
別途部材
  6
DOT
 62
    96
 10
6.379532
 20
-62.87628
 11
6.779532
 21
-63.87628
  0
ARC
  8
別途部材
  6
DOT
 10
-5.287135
 20
-69.584615
 40
12.041667
 50
33.855033
 51
90.0
  0
LINE
  8
別途部材
  6
DOT
 10
-5.287135
 20
-57.542947
 11
-28.620467
 21
-57.542947
  0
LINE
  8
別途部材
  6
DOT
 10
6.779532
 20
-63.87628
 11
-28.620467
 21
-63.87628
  0
LINE
  8
別途部材
  6
DOT
 62
    96
 10
6.379532
 20
-62.87628
 11
-28.620467
 21
-62.87628
  0
LINE
  8
別途部材
  6
DOT
 62
    96
 10
-63.620467
 20
-62.87628
 11
-64.020467
 21
-63.87628
  0
ARC
  8
別途部材
  6
DOT
 10
-51.9538
 20
-69.584615
 40
12.041667
 50
90.0
 51
146.144967
  0
LINE
  8
別途部材
  6
DOT
 10
-51.9538
 20
-57.542947
 11
-28.620467
 21
-57.542947
  0
LINE
  8
別途部材
  6
DOT
 10
-64.020467
 20
-63.87628
 11
-28.620467
 21
-63.87628
  0
LINE
  8
別途部材
  6
DOT
 62
    96
 10
-63.620467
 20
-62.87628
 11
-28.620467
 21
-62.87628
  0
INSERT
  2
*GRP_0017
  8
別途部材
  6
CONTINUOUS
 10
0.0
 20
0.0
  0
INSERT
  2
*GRP_0022
  8
別途部材
  6
DOT
 10
0.0
 20
0.0
  0
INSERT
  2
*GRP_0023
  8
別途部材
  6
DOT
 10
0.0
 20
0.0
  0
INSERT
  2
*GRP_0024
  8
別途部材
  6
DOT
 10
0.0
 20
0.0
  0
INSERT
  2
*GRP_0025
  8
別途部材
  6
DOT
 10
0.0
 20
0.0
  0
INSERT
  2
*GRP_0026
  8
別途部材
  6
DOT
 10
0.0
 20
0.0
  0
INSERT
  2
*GRP_0027
  8
別途部材
  6
DOT
 10
0.0
 20
0.0
  0
LINE
  8
曲げ物
  6
CONTINUOUS
 10
99.79942
 20
-83.118728
 11
99.79942
 21
-63.785395
  0
LINE
  8
曲げ物
  6
CONTINUOUS
 10
99.79942
 20
-63.785395
 11
67.466087
 21
-63.785395
  0
LINE
  8
曲げ物
  6
CONTINUOUS
 10
67.466087
 20
-63.785395
 11
67.466087
 21
-83.118728
  0
LINE
  8
曲げ物
  6
CONTINUOUS
 10
99.79942
 20
-83.118728
 11
67.466087
 21
-83.118728
  0
ENDSEC
  0
EOF
