  0
SECTION
  2
HEADER
  9
$EXTMIN
 10
-210.0
 20
-148.5
  9
$EXTMAX
 10
210.0
 20
148.5
  9
$PDMODE
 70
    32
  9
$PDSIZE
 40
1.5
  9
$LTSCALE
 40
10.0
  0
ENDSEC
  0
SECTION
  2
TABLES
  0
TABLE
  2
LTYPE
 70
    15
  0
LTYPE
  2
CONTINUOUS
 70
    64
  3
実線
 72
    65
 73
     0
 40
0.0
  0
LTYPE
  2
DASHED
 70
    64
  3
破線A
 72
    65
 73
     2
 40
0.6
 49
0.4
 49
-0.2
  0
LTYPE
  2
DASHEDX2
 70
    64
  3
破線B
 72
    65
 73
     2
 40
1.3
 49
0.9
 49
-0.4
  0
LTYPE
  2
DASHDOT
 70
    64
  3
１点鎖線A
 72
    65
 73
     4
 40
0.5375
 49
0.375
 49
-0.05
 49
0.0625
 49
-0.05
  0
LTYPE
  2
DASHDOTX2
 70
    64
  3
１点鎖線B
 72
    65
 73
     4
 40
1.075
 49
0.75
 49
-0.1
 49
0.125
 49
-0.1
  0
LTYPE
  2
DIVIDE2
 70
    64
  3
２点鎖線A
 72
    65
 73
     6
 40
0.5125
 49
0.3
 49
-0.0375
 49
0.05
 49
-0.0375
 49
0.05
 49
-0.0375
  0
LTYPE
  2
DIVIDE
 70
    64
  3
２点鎖線B
 72
    65
 73
     6
 40
1.05
 49
0.55
 49
-0.1
 49
0.1
 49
-0.1
 49
0.1
 49
-0.1
  0
LTYPE
  2
DOT
 70
    64
  3
点線A
 72
    65
 73
     2
 40
0.1125
 49
0.0625
 49
-0.05
  0
LTYPE
  2
DOTX2
 70
    64
  3
点線B
 72
    65
 73
     2
 40
0.275
 49
0.15
 49
-0.125
  0
LTYPE
  2
CONTINUOUS
 70
    64
  3
実線
 72
    65
 73
     0
 40
0.0
  0
LTYPE
  2
CONTINUOUS
 70
    64
  3
実線
 72
    65
 73
     0
 40
0.0
  0
LTYPE
  2
CONTINUOUS
 70
    64
  3
実線
 72
    65
 73
     0
 40
0.0
  0
LTYPE
  2
CONTINUOUS
 70
    64
  3
実線
 72
    65
 73
     0
 40
0.0
  0
LTYPE
  2
CONTINUOUS
 70
    64
  3
実線
 72
    65
 73
     0
 40
0.0
  0
LTYPE
  2
CONTINUOUS
 70
    64
  3
実線
 72
    65
 73
     0
 40
0.0
  0
ENDTAB
  0
TABLE
  2
LAYER
 70
    34
  0
LAYER
  2
通り芯
 70
     0
 62
    15
  6
CONTINUOUS
  0
LAYER
  2
補助線
 70
     0
 62
    16
  6
DOT
  0
LAYER
  2
躯体
 70
     0
 62
    31
  6
CONTINUOUS
  0
LAYER
  2
型材
 70
     0
 62
    32
  6
CONTINUOUS
  0
LAYER
  2
型材断面
 70
     0
 62
    47
  6
CONTINUOUS
  0
LAYER
  2
ガラス
 70
     0
 62
    48
  6
CONTINUOUS
  0
LAYER
  2
ゴム等
 70
     0
 62
    63
  6
CONTINUOUS
  0
LAYER
  2
ボルト／ビス
 70
     0
 62
    64
  6
CONTINUOUS
  0
LAYER
  2
文字
 70
     0
 62
    79
  6
CONTINUOUS
  0
LAYER
  2
寸法
 70
     0
 62
    80
  6
CONTINUOUS
  0
LAYER
  2
ﾊｯﾁﾝｸﾞ
 70
     0
 62
    95
  6
CONTINUOUS
  0
LAYER
  2
別途部材
 70
     0
 62
    96
  6
CONTINUOUS
  0
LAYER
  2
曲げ物
 70
     0
 62
   111
  6
CONTINUOUS
  0
LAYER
  2
鉄骨等
 70
     0
 62
   112
  6
CONTINUOUS
  0
LAYER
  2
St
 70
     0
 62
   127
  6
CONTINUOUS
  0
LAYER
  2
その他部品等
 70
     0
 62
   128
  6
CONTINUOUS
  0
LAYER
  2
ｶﾞｽｹｯﾄ
 70
     0
 62
   143
  6
CONTINUOUS
  0
LAYER
  2
ｽｹｯﾁ
 70
     0
 62
    14
  6
CONTINUOUS
  0
LAYER
  2
0
 70
     0
 62
    17
  6
CONTINUOUS
  0
LAYER
  2
1
 70
     0
 62
    30
  6
CONTINUOUS
  0
LAYER
  2
4
 70
     0
 62
    33
  6
CONTINUOUS
  0
LAYER
  2
ﾚｲﾔ3
 70
     0
 62
    46
  6
CONTINUOUS
  0
LAYER
  2
外形線
 70
     0
 62
    49
  6
CONTINUOUS
  0
LAYER
  2
部品
 70
     0
 62
    14
  6
CONTINUOUS
  0
LAYER
  2
サッシ芯
 70
     0
 62
    17
  6
DASHDOTX2
  0
LAYER
  2
寸法線
 70
     0
 62
    62
  6
CONTINUOUS
  0
LAYER
  2
姿図外形線
 70
     0
 62
    65
  6
CONTINUOUS
  0
LAYER
  2
姿補助線
 70
     0
 62
    30
  6
CONTINUOUS
  0
LAYER
  2
透視線
 70
     0
 62
    78
  6
DOT
  0
LAYER
  2
用紙
 70
     0
 62
    81
  6
CONTINUOUS
  0
LAYER
  2
実線図枠
 70
     0
 62
    94
  6
CONTINUOUS
  0
LAYER
  2
補助図枠
 70
     0
 62
    97
  6
CONTINUOUS
  0
LAYER
  2
建具記号
 70
     0
 62
   110
  6
CONTINUOUS
  0
LAYER
  2
補助文字
 70
     0
 62
   113
  6
CONTINUOUS
  0
ENDTAB
  0
TABLE
  2
STYLE
 70
    10
  0
STYLE
  2
STANDARD
 70
     0
 40
1.0
 41
1.0
 42
1.0
 50
0.0
 71
     0
  3
TXT
  4
BIGFONT
  0
STYLE
  2
TATE
 70
     4
 40
1.0
 41
1.0
 42
1.0
 50
0.0
 71
     0
  3
TXT
  4
BIGFONT
  0
STYLE
  2
TextStyle03
 70
     0
 40
1.0
 41
1.0
 42
1.0
 50
0.0
 71
     0
  3
MONOTXT
  4
BIGFONT
  0
STYLE
  2
TextStyle04
 70
     0
 40
1.0
 41
1.0
 42
1.0
 50
0.0
 71
     0
  3
MONOTXT
  4
BIGFONT
  0
STYLE
  2
TextStyle05
 70
     0
 40
1.0
 41
1.0
 42
1.0
 50
0.0
 71
     0
  3
MONOTXT
  4
BIGFONT
  0
STYLE
  2
TextStyle06
 70
     0
 40
1.0
 41
1.0
 42
1.0
 50
0.0
 71
     0
  3
MONOTXT
  4
BIGFONT
  0
STYLE
  2
TextStyle07
 70
     0
 40
1.0
 41
1.0
 42
1.0
 50
0.0
 71
     0
  3
MONOTXT
  4
BIGFONT
  0
STYLE
  2
TextStyle08
 70
     0
 40
1.0
 41
1.0
 42
1.0
 50
0.0
 71
     0
  3
MONOTXT
  4
BIGFONT
  0
STYLE
  2
TextStyle09
 70
     0
 40
1.0
 41
1.0
 42
1.0
 50
0.0
 71
     0
  3
MONOTXT
  4
BIGFONT
  0
STYLE
  2
TextStyle10
 70
     0
 40
1.0
 41
1.0
 42
1.0
 50
0.0
 71
     0
  3
MONOTXT
  4
BIGFONT
  0
ENDTAB
  0
ENDSEC
  0
SECTION
  2
BLOCKS
  0
BLOCK
  2
*GRP_0001
 70
    65
 10
0.0
 20
0.0
  0
LINE
  8
型材断面
  6
CONTINUOUS
 10
195.0
 20
133.5
 11
195.0
 21
-133.5
  0
LINE
  8
型材断面
  6
CONTINUOUS
 10
195.0
 20
-133.5
 11
-185.0
 21
-133.5
  0
LINE
  8
型材断面
  6
CONTINUOUS
 10
-185.0
 20
-133.5
 11
-185.0
 21
133.5
  0
LINE
  8
型材断面
  6
CONTINUOUS
 10
195.0
 20
133.5
 11
-185.0
 21
133.5
  0
LINE
  8
型材断面
  6
CONTINUOUS
 10
145.0
 20
-133.5
 11
145.0
 21
-118.5
  0
LINE
  8
型材断面
  6
CONTINUOUS
 10
195.0
 20
-118.5
 11
145.0
 21
-118.5
  0
ENDBLK
  0
BLOCK
  2
*DIM_0002
 70
    65
 10
0.0
 20
0.0
  0
LINE
  8
寸法
  6
BYBLOCK
 62
     0
 10
37.224393
 20
-64.87628
 11
62.194043
 21
-64.87628
  0
LINE
  8
寸法
  6
BYBLOCK
 62
     0
 10
62.194043
 20
-70.209613
 11
62.194043
 21
-64.87628
  0
POINT
  8
寸法
 62
     0
 10
62.194043
 20
-70.209613
  0
POINT
  8
寸法
 62
     0
 10
62.194043
 20
-64.87628
  0
TEXT
  7
TextStyle03
  8
寸法
  6
CONTINUOUS
 62
     0
 10
61.8
 20
-69.9875
  1
160
 40
3.0
 50
90.0
 72
     5
 11
61.8
 21
-65.1125
  0
ENDBLK
  0
BLOCK
  2
*DIM_0003
 70
    65
 10
0.0
 20
0.0
  0
LINE
  8
寸法
  6
BYBLOCK
 62
     0
 10
-70.442275
 20
-16.511205
 11
-70.442275
 21
-13.121378
  0
LINE
  8
寸法
  6
BYBLOCK
 62
     0
 10
46.224393
 20
-13.121378
 11
-70.442275
 21
-13.121378
  0
POINT
  8
寸法
 62
     0
 10
46.224393
 20
-13.121378
  0
POINT
  8
寸法
 62
     0
 10
-70.442275
 20
-13.121378
  0
TEXT
  7
TextStyle03
  8
寸法
  6
CONTINUOUS
 62
     0
 10
-23.84375
 20
-12.75
  1
呼称寸法　3500
 40
3.0
 72
     5
 11
-0.40625
 21
-12.75
  0
ENDBLK
  0
BLOCK
  2
*DIM_0004
 70
    65
 10
0.0
 20
0.0
  0
LINE
  8
寸法
  6
BYBLOCK
 62
     0
 10
-53.775608
 20
19.183902
 11
-53.775608
 21
14.042105
  0
LINE
  8
寸法
  6
BYBLOCK
 62
     0
 10
29.557727
 20
19.183902
 11
29.557727
 21
14.042105
  0
LINE
  8
寸法
  6
BYBLOCK
 62
     0
 10
-53.775608
 20
14.042105
 11
29.557727
 21
14.042105
  0
POINT
  8
寸法
 62
     0
 10
-53.775608
 20
14.042105
  0
POINT
  8
寸法
 62
     0
 10
29.557727
 20
14.042105
  0
TEXT
  7
TextStyle03
  8
寸法
  6
CONTINUOUS
 62
     0
 10
-15.40625
 20
14.4
  1
2500
 40
3.0
 72
     5
 11
-8.84375
 21
14.4
  0
ENDBLK
  0
BLOCK
  2
*DIM_0005
 70
    65
 10
0.0
 20
0.0
  0
LINE
  8
寸法
  6
BYBLOCK
 62
     0
 10
80.244043
 20
22.814033
 11
80.244043
 21
42.814033
  0
POINT
  8
寸法
 62
     0
 10
80.244043
 20
22.814033
  0
POINT
  8
寸法
 62
     0
 10
80.244043
 20
42.814033
  0
TEXT
  7
TextStyle03
  8
寸法
  6
CONTINUOUS
 62
     0
 10
79.85
 20
21.925
  1
呼称寸法　600
 40
3.0
 50
90.0
 72
     5
 11
79.85
 21
43.675
  0
ENDBLK
  0
BLOCK
  2
*DIM_0006
 70
    65
 10
0.0
 20
0.0
  0
LINE
  8
寸法
  6
BYBLOCK
 62
     0
 10
130.424325
 20
33.814033
 11
130.424325
 21
60.666798
  0
LINE
  8
寸法
  6
BYBLOCK
 62
     0
 10
135.757657
 20
60.666798
 11
130.424325
 21
60.666798
  0
POINT
  8
寸法
 62
     0
 10
135.757657
 20
60.666798
  0
POINT
  8
寸法
 62
     0
 10
130.424325
 20
60.666798
  0
TEXT
  7
TextStyle03
  8
寸法
  6
CONTINUOUS
 62
     0
 10
130.6375
 20
61.025
  1
160
 40
3.0
 72
     5
 11
135.5125
 21
61.025
  0
ENDBLK
  0
BLOCK
  2
*DIM_0007
 70
    65
 10
0.0
 20
0.0
  0
LINE
  8
寸法
  6
BYBLOCK
 62
     0
 10
135.757657
 20
45.4807
 11
135.757657
 21
60.666798
  0
LINE
  8
寸法
  6
BYBLOCK
 62
     0
 10
142.54094
 20
45.7807
 11
142.54094
 21
60.666798
  0
LINE
  8
寸法
  6
BYBLOCK
 62
     0
 10
135.757657
 20
60.666798
 11
142.54094
 21
60.666798
  0
POINT
  8
寸法
 62
     0
 10
135.757657
 20
60.666798
  0
POINT
  8
寸法
 62
     0
 10
142.54094
 20
60.666798
  0
TEXT
  7
TextStyle03
  8
寸法
  6
CONTINUOUS
 62
     0
 10
143.425
 20
61.025
  1
203.5
 40
3.0
 72
     5
 11
151.675
 21
61.025
  0
ENDBLK
  0
BLOCK
  2
*DIM_0008
 70
    65
 10
0.0
 20
0.0
  0
LINE
  8
寸法
  6
BYBLOCK
 62
     0
 10
138.580298
 20
45.094035
 11
80.244043
 21
45.094035
  0
LINE
  8
寸法
  6
BYBLOCK
 62
     0
 10
80.244043
 20
42.814033
 11
80.244043
 21
45.094035
  0
POINT
  8
寸法
 62
     0
 10
80.244043
 20
42.814033
  0
POINT
  8
寸法
 62
     0
 10
80.244043
 20
45.094035
  0
TEXT
  7
TextStyle03
  8
寸法
  6
CONTINUOUS
 62
     0
 10
79.85
 20
47.41875
  1
68.4
 40
3.0
 50
90.0
 72
     5
 11
79.85
 21
53.98125
  0
ENDBLK
  0
BLOCK
  2
*DIM_0009
 70
    65
 10
0.0
 20
0.0
  0
LINE
  8
寸法
  6
BYBLOCK
 62
     0
 10
138.580298
 20
20.53403
 11
80.244043
 21
20.53403
  0
LINE
  8
寸法
  6
BYBLOCK
 62
     0
 10
80.244043
 20
22.814033
 11
80.244043
 21
20.53403
  0
POINT
  8
寸法
 62
     0
 10
80.244043
 20
22.814033
  0
POINT
  8
寸法
 62
     0
 10
80.244043
 20
20.53403
  0
TEXT
  7
TextStyle03
  8
寸法
  6
CONTINUOUS
 62
     0
 10
79.85
 20
11.61875
  1
68.4
 40
3.0
 50
90.0
 72
     5
 11
79.85
 21
18.18125
  0
ENDBLK
  0
BLOCK
  2
*DIM_0010
 70
    65
 10
0.0
 20
0.0
  0
LINE
  8
寸法
  6
BYBLOCK
 62
     0
 10
48.89106
 20
-70.209613
 11
62.194043
 21
-70.209613
  0
LINE
  8
寸法
  6
BYBLOCK
 62
     0
 10
49.19106
 20
-76.992895
 11
62.194043
 21
-76.992895
  0
LINE
  8
寸法
  6
BYBLOCK
 62
     0
 10
62.194043
 20
-70.209613
 11
62.194043
 21
-76.992895
  0
POINT
  8
寸法
 62
     0
 10
62.194043
 20
-70.209613
  0
POINT
  8
寸法
 62
     0
 10
62.194043
 20
-76.992895
  0
TEXT
  7
TextStyle03
  8
寸法
  6
CONTINUOUS
 62
     0
 10
61.8
 20
-86.175
  1
203.5
 40
3.0
 50
90.0
 72
     5
 11
61.8
 21
-77.925
  0
ENDBLK
  0
BLOCK
  2
*DIM_0011
 70
    65
 10
0.0
 20
0.0
  0
LINE
  8
寸法
  6
BYBLOCK
 62
     0
 10
48.504395
 20
-73.032252
 11
48.504395
 21
-13.121378
  0
LINE
  8
寸法
  6
BYBLOCK
 62
     0
 10
46.224393
 20
-13.121378
 11
48.504395
 21
-13.121378
  0
POINT
  8
寸法
 62
     0
 10
46.224393
 20
-13.121378
  0
POINT
  8
寸法
 62
     0
 10
48.504395
 20
-13.121378
  0
TEXT
  7
TextStyle03
  8
寸法
  6
CONTINUOUS
 62
     0
 10
50.81875
 20
-12.75
  1
68.4
 40
3.0
 72
     5
 11
57.38125
 21
-12.75
  0
ENDBLK
  0
BLOCK
  2
*DIM_0012
 70
    65
 10
0.0
 20
0.0
  0
LINE
  8
寸法
  6
BYBLOCK
 62
     0
 10
-72.722275
 20
-73.032252
 11
-72.722275
 21
-13.121378
  0
LINE
  8
寸法
  6
BYBLOCK
 62
     0
 10
-70.442275
 20
-13.121378
 11
-72.722275
 21
-13.121378
  0
POINT
  8
寸法
 62
     0
 10
-70.442275
 20
-13.121378
  0
POINT
  8
寸法
 62
     0
 10
-72.722275
 20
-13.121378
  0
TEXT
  7
TextStyle03
  8
寸法
  6
CONTINUOUS
 62
     0
 10
-81.63125
 20
-12.75
  1
68.4
 40
3.0
 72
     5
 11
-75.06875
 21
-12.75
  0
ENDBLK
  0
BLOCK
  2
*DIM_0013
 70
    65
 10
0.0
 20
0.0
  0
LINE
  8
寸法
  6
BYBLOCK
 62
     0
 10
49.85452
 20
38.914033
 11
56.631812
 21
38.914033
  0
LINE
  8
寸法
  6
BYBLOCK
 62
     0
 10
56.631812
 20
42.814033
 11
56.631812
 21
38.914033
  0
POINT
  8
寸法
 62
     0
 10
56.631812
 20
42.814033
  0
POINT
  8
寸法
 62
     0
 10
56.631812
 20
38.914033
  0
TEXT
  7
TextStyle03
  8
寸法
  6
CONTINUOUS
 62
     0
 10
56.375
 20
43.4875
  1
117
 40
3.0
 50
90.0
 72
     5
 11
56.375
 21
48.3625
  0
ENDBLK
  0
BLOCK
  2
*DIM_0014
 70
    65
 10
0.0
 20
0.0
  0
LINE
  8
寸法
  6
BYBLOCK
 62
     0
 10
49.85452
 20
26.714033
 11
56.631812
 21
26.714033
  0
LINE
  8
寸法
  6
BYBLOCK
 62
     0
 10
56.631812
 20
22.814033
 11
56.631812
 21
26.714033
  0
POINT
  8
寸法
 62
     0
 10
56.631812
 20
22.814033
  0
POINT
  8
寸法
 62
     0
 10
56.631812
 20
26.714033
  0
TEXT
  7
TextStyle03
  8
寸法
  6
CONTINUOUS
 62
     0
 10
56.55
 20
17.0125
  1
117
 40
3.0
 50
90.0
 72
     5
 11
56.55
 21
21.8875
  0
ENDBLK
  0
BLOCK
  2
*GRP_0015
 70
    65
 10
0.0
 20
0.0
  0
LINE
  8
別途部材
  6
CONTINUOUS
 62
    96
 10
-72.10894
 20
-70.209613
 11
-72.50894
 21
-71.209613
  0
ARC
  8
別途部材
  6
CONTINUOUS
 10
-60.442272
 20
-76.917946
 40
12.041668
 50
90.0
 51
146.144967
  0
LINE
  8
別途部材
  6
CONTINUOUS
 10
-72.50894
 20
-71.209613
 11
-12.10894
 21
-71.209613
  0
LINE
  8
別途部材
  6
CONTINUOUS
 62
    96
 10
-72.10894
 20
-70.209613
 11
-12.10894
 21
-70.209613
  0
LINE
  8
別途部材
  6
CONTINUOUS
 10
-12.60894
 20
-63.87628
 11
-13.60894
 21
-64.87628
  0
LINE
  8
別途部材
  6
CONTINUOUS
 10
-14.60894
 20
-64.87628
 11
-15.60894
 21
-63.87628
  0
LINE
  8
別途部材
  6
CONTINUOUS
 10
-16.60894
 20
-63.87628
 11
-17.60894
 21
-64.87628
  0
LINE
  8
別途部材
  6
CONTINUOUS
 10
-15.60894
 20
-63.87628
 11
-16.60894
 21
-63.87628
  0
LINE
  8
別途部材
  6
CONTINUOUS
 10
-12.60894
 20
-63.87628
 11
-12.10894
 21
-63.87628
  0
LINE
  8
別途部材
  6
CONTINUOUS
 10
-18.60894
 20
-64.87628
 11
-19.60894
 21
-63.87628
  0
LINE
  8
別途部材
  6
CONTINUOUS
 10
-20.60894
 20
-63.87628
 11
-21.60894
 21
-64.87628
  0
LINE
  8
別途部材
  6
CONTINUOUS
 10
-19.60894
 20
-63.87628
 11
-20.60894
 21
-63.87628
  0
LINE
  8
別途部材
  6
CONTINUOUS
 10
-22.60894
 20
-64.87628
 11
-23.60894
 21
-63.87628
  0
LINE
  8
別途部材
  6
CONTINUOUS
 10
-24.60894
 20
-63.87628
 11
-25.60894
 21
-64.87628
  0
LINE
  8
別途部材
  6
CONTINUOUS
 10
-23.60894
 20
-63.87628
 11
-24.60894
 21
-63.87628
  0
LINE
  8
別途部材
  6
CONTINUOUS
 10
-26.60894
 20
-64.87628
 11
-27.60894
 21
-63.87628
  0
LINE
  8
別途部材
  6
CONTINUOUS
 10
-28.60894
 20
-63.87628
 11
-29.60894
 21
-64.87628
  0
LINE
  8
別途部材
  6
CONTINUOUS
 10
-27.60894
 20
-63.87628
 11
-28.60894
 21
-63.87628
  0
LINE
  8
別途部材
  6
CONTINUOUS
 10
-30.60894
 20
-64.87628
 11
-31.60894
 21
-63.87628
  0
LINE
  8
別途部材
  6
CONTINUOUS
 10
-32.60894
 20
-63.87628
 11
-33.60894
 21
-64.87628
  0
LINE
  8
別途部材
  6
CONTINUOUS
 10
-31.60894
 20
-63.87628
 11
-32.60894
 21
-63.87628
  0
LINE
  8
別途部材
  6
CONTINUOUS
 10
-34.60894
 20
-64.87628
 11
-35.60894
 21
-63.87628
  0
LINE
  8
別途部材
  6
CONTINUOUS
 10
-36.60894
 20
-63.87628
 11
-37.60894
 21
-64.87628
  0
LINE
  8
別途部材
  6
CONTINUOUS
 10
-35.60894
 20
-63.87628
 11
-36.60894
 21
-63.87628
  0
LINE
  8
別途部材
  6
CONTINUOUS
 10
-38.60894
 20
-64.87628
 11
-39.60894
 21
-63.87628
  0
LINE
  8
別途部材
  6
CONTINUOUS
 10
-40.60894
 20
-63.87628
 11
-41.60894
 21
-64.87628
  0
LINE
  8
別途部材
  6
CONTINUOUS
 10
-39.60894
 20
-63.87628
 11
-40.60894
 21
-63.87628
  0
LINE
  8
別途部材
  6
CONTINUOUS
 10
-42.60894
 20
-64.87628
 11
-43.60894
 21
-63.87628
  0
LINE
  8
別途部材
  6
CONTINUOUS
 10
-44.60894
 20
-63.87628
 11
-45.60894
 21
-64.87628
  0
LINE
  8
別途部材
  6
CONTINUOUS
 10
-43.60894
 20
-63.87628
 11
-44.60894
 21
-63.87628
  0
LINE
  8
別途部材
  6
CONTINUOUS
 10
-46.60894
 20
-64.87628
 11
-47.60894
 21
-63.87628
  0
LINE
  8
別途部材
  6
CONTINUOUS
 10
-48.60894
 20
-63.87628
 11
-49.60894
 21
-64.87628
  0
LINE
  8
別途部材
  6
CONTINUOUS
 10
-47.60894
 20
-63.87628
 11
-48.60894
 21
-63.87628
  0
LINE
  8
別途部材
  6
CONTINUOUS
 10
-50.60894
 20
-64.87628
 11
-51.60894
 21
-63.87628
  0
LINE
  8
別途部材
  6
CONTINUOUS
 10
-52.60894
 20
-63.87628
 11
-53.60894
 21
-64.87628
  0
LINE
  8
別途部材
  6
CONTINUOUS
 10
-51.60894
 20
-63.87628
 11
-52.60894
 21
-63.87628
  0
LINE
  8
別途部材
  6
CONTINUOUS
 10
-54.60894
 20
-64.87628
 11
-55.60894
 21
-63.87628
  0
LINE
  8
別途部材
  6
CONTINUOUS
 10
-56.60894
 20
-63.87628
 11
-57.60894
 21
-64.87628
  0
LINE
  8
別途部材
  6
CONTINUOUS
 10
-55.60894
 20
-63.87628
 11
-56.60894
 21
-63.87628
  0
LINE
  8
別途部材
  6
CONTINUOUS
 10
-53.60894
 20
-64.87628
 11
-54.60894
 21
-64.87628
  0
LINE
  8
別途部材
  6
CONTINUOUS
 10
-49.60894
 20
-64.87628
 11
-50.60894
 21
-64.87628
  0
LINE
  8
別途部材
  6
CONTINUOUS
 10
-45.60894
 20
-64.87628
 11
-46.60894
 21
-64.87628
  0
LINE
  8
別途部材
  6
CONTINUOUS
 10
-41.60894
 20
-64.87628
 11
-42.60894
 21
-64.87628
  0
LINE
  8
別途部材
  6
CONTINUOUS
 10
-37.60894
 20
-64.87628
 11
-38.60894
 21
-64.87628
  0
LINE
  8
別途部材
  6
CONTINUOUS
 10
-33.60894
 20
-64.87628
 11
-34.60894
 21
-64.87628
  0
LINE
  8
別途部材
  6
CONTINUOUS
 10
-29.60894
 20
-64.87628
 11
-30.60894
 21
-64.87628
  0
LINE
  8
別途部材
  6
CONTINUOUS
 10
-25.60894
 20
-64.87628
 11
-26.60894
 21
-64.87628
  0
LINE
  8
別途部材
  6
CONTINUOUS
 10
-21.60894
 20
-64.87628
 11
-22.60894
 21
-64.87628
  0
LINE
  8
別途部材
  6
CONTINUOUS
 10
-17.60894
 20
-64.87628
 11
-18.60894
 21
-64.87628
  0
LINE
  8
別途部材
  6
CONTINUOUS
 10
-14.60894
 20
-64.87628
 11
-13.60894
 21
-64.87628
  0
LINE
  8
別途部材
  6
CONTINUOUS
 10
-56.60894
 20
-63.87628
 11
-56.60894
 21
-70.209613
  0
LINE
  8
別途部材
  6
CONTINUOUS
 10
-57.60894
 20
-64.87628
 11
-57.60894
 21
-70.209613
  0
LINE
  8
別途部材
  6
CONTINUOUS
 10
-55.60894
 20
-63.87628
 11
-55.60894
 21
-70.209613
  0
LINE
  8
別途部材
  6
CONTINUOUS
 10
-54.60894
 20
-64.87628
 11
-54.60894
 21
-70.209613
  0
LINE
  8
別途部材
  6
CONTINUOUS
 10
-52.60894
 20
-63.87628
 11
-52.60894
 21
-70.209613
  0
LINE
  8
別途部材
  6
CONTINUOUS
 10
-53.60894
 20
-64.87628
 11
-53.60894
 21
-70.209613
  0
LINE
  8
別途部材
  6
CONTINUOUS
 10
-49.60894
 20
-64.87628
 11
-49.60894
 21
-70.209613
  0
LINE
  8
別途部材
  6
CONTINUOUS
 10
-50.60894
 20
-64.87628
 11
-50.60894
 21
-70.209613
  0
LINE
  8
別途部材
  6
CONTINUOUS
 10
-51.60894
 20
-63.87628
 11
-51.60894
 21
-70.209613
  0
LINE
  8
別途部材
  6
CONTINUOUS
 10
-48.60894
 20
-63.87628
 11
-48.60894
 21
-70.209613
  0
LINE
  8
別途部材
  6
CONTINUOUS
 10
-47.60894
 20
-63.87628
 11
-47.60894
 21
-70.209613
  0
LINE
  8
別途部材
  6
CONTINUOUS
 10
-46.60894
 20
-64.87628
 11
-46.60894
 21
-70.209613
  0
LINE
  8
別途部材
  6
CONTINUOUS
 10
-44.60894
 20
-63.87628
 11
-44.60894
 21
-70.209613
  0
LINE
  8
別途部材
  6
CONTINUOUS
 10
-40.60894
 20
-63.87628
 11
-40.60894
 21
-70.209613
  0
LINE
  8
別途部材
  6
CONTINUOUS
 10
-41.60894
 20
-64.87628
 11
-41.60894
 21
-70.209613
  0
LINE
  8
別途部材
  6
CONTINUOUS
 10
-42.60894
 20
-64.87628
 11
-42.60894
 21
-70.209613
  0
LINE
  8
別途部材
  6
CONTINUOUS
 10
-43.60894
 20
-63.87628
 11
-43.60894
 21
-70.209613
  0
LINE
  8
別途部材
  6
CONTINUOUS
 10
-45.60894
 20
-64.87628
 11
-45.60894
 21
-70.209613
  0
LINE
  8
別途部材
  6
CONTINUOUS
 10
-38.60894
 20
-64.87628
 11
-38.60894
 21
-70.209613
  0
LINE
  8
別途部材
  6
CONTINUOUS
 10
-39.60894
 20
-63.87628
 11
-39.60894
 21
-70.209613
  0
LINE
  8
別途部材
  6
CONTINUOUS
 10
-37.60894
 20
-64.87628
 11
-37.60894
 21
-70.209613
  0
LINE
  8
別途部材
  6
CONTINUOUS
 10
-36.60894
 20
-63.87628
 11
-36.60894
 21
-70.209613
  0
LINE
  8
別途部材
  6
CONTINUOUS
 10
-32.60894
 20
-63.87628
 11
-32.60894
 21
-70.209613
  0
LINE
  8
別途部材
  6
CONTINUOUS
 10
-31.60894
 20
-63.87628
 11
-31.60894
 21
-70.209613
  0
LINE
  8
別途部材
  6
CONTINUOUS
 10
-33.60894
 20
-64.87628
 11
-33.60894
 21
-70.209613
  0
LINE
  8
別途部材
  6
CONTINUOUS
 10
-34.60894
 20
-64.87628
 11
-34.60894
 21
-70.209613
  0
LINE
  8
別途部材
  6
CONTINUOUS
 10
-35.60894
 20
-63.87628
 11
-35.60894
 21
-70.209613
  0
LINE
  8
別途部材
  6
CONTINUOUS
 10
-30.60894
 20
-64.87628
 11
-30.60894
 21
-70.209613
  0
LINE
  8
別途部材
  6
CONTINUOUS
 10
-28.60894
 20
-63.87628
 11
-28.60894
 21
-70.209613
  0
LINE
  8
別途部材
  6
CONTINUOUS
 10
-27.60894
 20
-63.87628
 11
-27.60894
 21
-70.209613
  0
LINE
  8
別途部材
  6
CONTINUOUS
 10
-26.60894
 20
-64.87628
 11
-26.60894
 21
-70.209613
  0
LINE
  8
別途部材
  6
CONTINUOUS
 10
-25.60894
 20
-64.87628
 11
-25.60894
 21
-70.209613
  0
LINE
  8
別途部材
  6
CONTINUOUS
 10
-24.60894
 20
-63.87628
 11
-24.60894
 21
-70.209613
  0
LINE
  8
別途部材
  6
CONTINUOUS
 10
-29.60894
 20
-64.87628
 11
-29.60894
 21
-70.209613
  0
LINE
  8
別途部材
  6
CONTINUOUS
 10
-23.60894
 20
-63.87628
 11
-23.60894
 21
-70.209613
  0
LINE
  8
別途部材
  6
CONTINUOUS
 10
-22.60894
 20
-64.87628
 11
-22.60894
 21
-70.209613
  0
LINE
  8
別途部材
  6
CONTINUOUS
 10
-21.60894
 20
-64.87628
 11
-21.60894
 21
-70.209613
  0
LINE
  8
別途部材
  6
CONTINUOUS
 10
-19.60894
 20
-63.87628
 11
-19.60894
 21
-70.209613
  0
LINE
  8
別途部材
  6
CONTINUOUS
 10
-17.60894
 20
-64.87628
 11
-17.60894
 21
-70.209613
  0
LINE
  8
別途部材
  6
CONTINUOUS
 10
-16.60894
 20
-63.87628
 11
-16.60894
 21
-70.209613
  0
LINE
  8
別途部材
  6
CONTINUOUS
 10
-14.60894
 20
-64.87628
 11
-14.60894
 21
-70.209613
  0
LINE
  8
別途部材
  6
CONTINUOUS
 10
-13.60894
 20
-64.87628
 11
-13.60894
 21
-70.209613
  0
LINE
  8
別途部材
  6
CONTINUOUS
 10
-12.60894
 20
-63.87628
 11
-12.60894
 21
-70.209613
  0
LINE
  8
別途部材
  6
CONTINUOUS
 10
-15.60894
 20
-63.87628
 11
-15.60894
 21
-70.209613
  0
LINE
  8
別途部材
  6
CONTINUOUS
 10
-18.60894
 20
-64.87628
 11
-18.60894
 21
-70.209613
  0
LINE
  8
別途部材
  6
CONTINUOUS
 10
-20.60894
 20
-63.87628
 11
-20.60894
 21
-70.209613
  0
LINE
  8
別途部材
  6
CONTINUOUS
 10
-57.60894
 20
-64.87628
 11
-60.442273
 21
-64.87628
  0
LINE
  8
別途部材
  6
CONTINUOUS
 62
    96
 10
47.89106
 20
-70.209613
 11
48.29106
 21
-71.209613
  0
ARC
  8
別途部材
  6
CONTINUOUS
 10
36.224392
 20
-76.917946
 40
12.041668
 50
33.855033
 51
90.0
  0
LINE
  8
別途部材
  6
CONTINUOUS
 10
48.29106
 20
-71.209613
 11
-12.10894
 21
-71.209613
  0
LINE
  8
別途部材
  6
CONTINUOUS
 62
    96
 10
47.89106
 20
-70.209613
 11
-12.10894
 21
-70.209613
  0
LINE
  8
別途部材
  6
CONTINUOUS
 10
-11.60894
 20
-63.87628
 11
-10.60894
 21
-64.87628
  0
LINE
  8
別途部材
  6
CONTINUOUS
 10
-9.60894
 20
-64.87628
 11
-8.60894
 21
-63.87628
  0
LINE
  8
別途部材
  6
CONTINUOUS
 10
-7.60894
 20
-63.87628
 11
-6.60894
 21
-64.87628
  0
LINE
  8
別途部材
  6
CONTINUOUS
 10
-8.60894
 20
-63.87628
 11
-7.60894
 21
-63.87628
  0
LINE
  8
別途部材
  6
CONTINUOUS
 10
-11.60894
 20
-63.87628
 11
-12.10894
 21
-63.87628
  0
LINE
  8
別途部材
  6
CONTINUOUS
 10
-5.60894
 20
-64.87628
 11
-4.60894
 21
-63.87628
  0
LINE
  8
別途部材
  6
CONTINUOUS
 10
-3.60894
 20
-63.87628
 11
-2.60894
 21
-64.87628
  0
LINE
  8
別途部材
  6
CONTINUOUS
 10
-4.60894
 20
-63.87628
 11
-3.60894
 21
-63.87628
  0
LINE
  8
別途部材
  6
CONTINUOUS
 10
-1.60894
 20
-64.87628
 11
-0.60894
 21
-63.87628
  0
LINE
  8
別途部材
  6
CONTINUOUS
 10
0.39106
 20
-63.87628
 11
1.39106
 21
-64.87628
  0
LINE
  8
別途部材
  6
CONTINUOUS
 10
-0.60894
 20
-63.87628
 11
0.39106
 21
-63.87628
  0
LINE
  8
別途部材
  6
CONTINUOUS
 10
2.39106
 20
-64.87628
 11
3.39106
 21
-63.87628
  0
LINE
  8
別途部材
  6
CONTINUOUS
 10
4.39106
 20
-63.87628
 11
5.39106
 21
-64.87628
  0
LINE
  8
別途部材
  6
CONTINUOUS
 10
3.39106
 20
-63.87628
 11
4.39106
 21
-63.87628
  0
LINE
  8
別途部材
  6
CONTINUOUS
 10
6.39106
 20
-64.87628
 11
7.39106
 21
-63.87628
  0
LINE
  8
別途部材
  6
CONTINUOUS
 10
8.39106
 20
-63.87628
 11
9.39106
 21
-64.87628
  0
LINE
  8
別途部材
  6
CONTINUOUS
 10
7.39106
 20
-63.87628
 11
8.39106
 21
-63.87628
  0
LINE
  8
別途部材
  6
CONTINUOUS
 10
10.39106
 20
-64.87628
 11
11.39106
 21
-63.87628
  0
LINE
  8
別途部材
  6
CONTINUOUS
 10
12.39106
 20
-63.87628
 11
13.39106
 21
-64.87628
  0
LINE
  8
別途部材
  6
CONTINUOUS
 10
11.39106
 20
-63.87628
 11
12.39106
 21
-63.87628
  0
LINE
  8
別途部材
  6
CONTINUOUS
 10
14.39106
 20
-64.87628
 11
15.39106
 21
-63.87628
  0
LINE
  8
別途部材
  6
CONTINUOUS
 10
16.39106
 20
-63.87628
 11
17.39106
 21
-64.87628
  0
LINE
  8
別途部材
  6
CONTINUOUS
 10
15.39106
 20
-63.87628
 11
16.39106
 21
-63.87628
  0
LINE
  8
別途部材
  6
CONTINUOUS
 10
18.39106
 20
-64.87628
 11
19.39106
 21
-63.87628
  0
LINE
  8
別途部材
  6
CONTINUOUS
 10
20.39106
 20
-63.87628
 11
21.39106
 21
-64.87628
  0
LINE
  8
別途部材
  6
CONTINUOUS
 10
19.39106
 20
-63.87628
 11
20.39106
 21
-63.87628
  0
LINE
  8
別途部材
  6
CONTINUOUS
 10
22.39106
 20
-64.87628
 11
23.39106
 21
-63.87628
  0
LINE
  8
別途部材
  6
CONTINUOUS
 10
24.39106
 20
-63.87628
 11
25.39106
 21
-64.87628
  0
LINE
  8
別途部材
  6
CONTINUOUS
 10
23.39106
 20
-63.87628
 11
24.39106
 21
-63.87628
  0
LINE
  8
別途部材
  6
CONTINUOUS
 10
26.39106
 20
-64.87628
 11
27.39106
 21
-63.87628
  0
LINE
  8
別途部材
  6
CONTINUOUS
 10
28.39106
 20
-63.87628
 11
29.39106
 21
-64.87628
  0
LINE
  8
別途部材
  6
CONTINUOUS
 10
27.39106
 20
-63.87628
 11
28.39106
 21
-63.87628
  0
LINE
  8
別途部材
  6
CONTINUOUS
 10
30.39106
 20
-64.87628
 11
31.39106
 21
-63.87628
  0
LINE
  8
別途部材
  6
CONTINUOUS
 10
32.39106
 20
-63.87628
 11
33.39106
 21
-64.87628
  0
LINE
  8
別途部材
  6
CONTINUOUS
 10
31.39106
 20
-63.87628
 11
32.39106
 21
-63.87628
  0
LINE
  8
別途部材
  6
CONTINUOUS
 10
29.39106
 20
-64.87628
 11
30.39106
 21
-64.87628
  0
LINE
  8
別途部材
  6
CONTINUOUS
 10
25.39106
 20
-64.87628
 11
26.39106
 21
-64.87628
  0
LINE
  8
別途部材
  6
CONTINUOUS
 10
21.39106
 20
-64.87628
 11
22.39106
 21
-64.87628
  0
LINE
  8
別途部材
  6
CONTINUOUS
 10
17.39106
 20
-64.87628
 11
18.39106
 21
-64.87628
  0
LINE
  8
別途部材
  6
CONTINUOUS
 10
13.39106
 20
-64.87628
 11
14.39106
 21
-64.87628
  0
LINE
  8
別途部材
  6
CONTINUOUS
 10
9.39106
 20
-64.87628
 11
10.39106
 21
-64.87628
  0
LINE
  8
別途部材
  6
CONTINUOUS
 10
5.39106
 20
-64.87628
 11
6.39106
 21
-64.87628
  0
LINE
  8
別途部材
  6
CONTINUOUS
 10
1.39106
 20
-64.87628
 11
2.39106
 21
-64.87628
  0
LINE
  8
別途部材
  6
CONTINUOUS
 10
-2.60894
 20
-64.87628
 11
-1.60894
 21
-64.87628
  0
LINE
  8
別途部材
  6
CONTINUOUS
 10
-6.60894
 20
-64.87628
 11
-5.60894
 21
-64.87628
  0
LINE
  8
別途部材
  6
CONTINUOUS
 10
-9.60894
 20
-64.87628
 11
-10.60894
 21
-64.87628
  0
LINE
  8
別途部材
  6
CONTINUOUS
 10
32.39106
 20
-63.87628
 11
32.39106
 21
-70.209613
  0
LINE
  8
別途部材
  6
CONTINUOUS
 10
33.39106
 20
-64.87628
 11
33.39106
 21
-70.209613
  0
LINE
  8
別途部材
  6
CONTINUOUS
 10
31.39106
 20
-63.87628
 11
31.39106
 21
-70.209613
  0
LINE
  8
別途部材
  6
CONTINUOUS
 10
30.39106
 20
-64.87628
 11
30.39106
 21
-70.209613
  0
LINE
  8
別途部材
  6
CONTINUOUS
 10
28.39106
 20
-63.87628
 11
28.39106
 21
-70.209613
  0
LINE
  8
別途部材
  6
CONTINUOUS
 10
29.39106
 20
-64.87628
 11
29.39106
 21
-70.209613
  0
LINE
  8
別途部材
  6
CONTINUOUS
 10
25.39106
 20
-64.87628
 11
25.39106
 21
-70.209613
  0
LINE
  8
別途部材
  6
CONTINUOUS
 10
26.39106
 20
-64.87628
 11
26.39106
 21
-70.209613
  0
LINE
  8
別途部材
  6
CONTINUOUS
 10
27.39106
 20
-63.87628
 11
27.39106
 21
-70.209613
  0
LINE
  8
別途部材
  6
CONTINUOUS
 10
24.39106
 20
-63.87628
 11
24.39106
 21
-70.209613
  0
LINE
  8
別途部材
  6
CONTINUOUS
 10
23.39106
 20
-63.87628
 11
23.39106
 21
-70.209613
  0
LINE
  8
別途部材
  6
CONTINUOUS
 10
22.39106
 20
-64.87628
 11
22.39106
 21
-70.209613
  0
LINE
  8
別途部材
  6
CONTINUOUS
 10
20.39106
 20
-63.87628
 11
20.39106
 21
-70.209613
  0
LINE
  8
別途部材
  6
CONTINUOUS
 10
16.39106
 20
-63.87628
 11
16.39106
 21
-70.209613
  0
LINE
  8
別途部材
  6
CONTINUOUS
 10
17.39106
 20
-64.87628
 11
17.39106
 21
-70.209613
  0
LINE
  8
別途部材
  6
CONTINUOUS
 10
18.39106
 20
-64.87628
 11
18.39106
 21
-70.209613
  0
LINE
  8
別途部材
  6
CONTINUOUS
 10
19.39106
 20
-63.87628
 11
19.39106
 21
-70.209613
  0
LINE
  8
別途部材
  6
CONTINUOUS
 10
21.39106
 20
-64.87628
 11
21.39106
 21
-70.209613
  0
LINE
  8
別途部材
  6
CONTINUOUS
 10
14.39106
 20
-64.87628
 11
14.39106
 21
-70.209613
  0
LINE
  8
別途部材
  6
CONTINUOUS
 10
15.39106
 20
-63.87628
 11
15.39106
 21
-70.209613
  0
LINE
  8
別途部材
  6
CONTINUOUS
 10
13.39106
 20
-64.87628
 11
13.39106
 21
-70.209613
  0
LINE
  8
別途部材
  6
CONTINUOUS
 10
12.39106
 20
-63.87628
 11
12.39106
 21
-70.209613
  0
LINE
  8
別途部材
  6
CONTINUOUS
 10
8.39106
 20
-63.87628
 11
8.39106
 21
-70.209613
  0
LINE
  8
別途部材
  6
CONTINUOUS
 10
7.39106
 20
-63.87628
 11
7.39106
 21
-70.209613
  0
LINE
  8
別途部材
  6
CONTINUOUS
 10
9.39106
 20
-64.87628
 11
9.39106
 21
-70.209613
  0
LINE
  8
別途部材
  6
CONTINUOUS
 10
10.39106
 20
-64.87628
 11
10.39106
 21
-70.209613
  0
LINE
  8
別途部材
  6
CONTINUOUS
 10
11.39106
 20
-63.87628
 11
11.39106
 21
-70.209613
  0
LINE
  8
別途部材
  6
CONTINUOUS
 10
6.39106
 20
-64.87628
 11
6.39106
 21
-70.209613
  0
LINE
  8
別途部材
  6
CONTINUOUS
 10
4.39106
 20
-63.87628
 11
4.39106
 21
-70.209613
  0
LINE
  8
別途部材
  6
CONTINUOUS
 10
3.39106
 20
-63.87628
 11
3.39106
 21
-70.209613
  0
LINE
  8
別途部材
  6
CONTINUOUS
 10
2.39106
 20
-64.87628
 11
2.39106
 21
-70.209613
  0
LINE
  8
別途部材
  6
CONTINUOUS
 10
1.39106
 20
-64.87628
 11
1.39106
 21
-70.209613
  0
LINE
  8
別途部材
  6
CONTINUOUS
 10
0.39106
 20
-63.87628
 11
0.39106
 21
-70.209613
  0
LINE
  8
別途部材
  6
CONTINUOUS
 10
5.39106
 20
-64.87628
 11
5.39106
 21
-70.209613
  0
LINE
  8
別途部材
  6
CONTINUOUS
 10
-0.60894
 20
-63.87628
 11
-0.60894
 21
-70.209613
  0
LINE
  8
別途部材
  6
CONTINUOUS
 10
-1.60894
 20
-64.87628
 11
-1.60894
 21
-70.209613
  0
LINE
  8
別途部材
  6
CONTINUOUS
 10
-2.60894
 20
-64.87628
 11
-2.60894
 21
-70.209613
  0
LINE
  8
別途部材
  6
CONTINUOUS
 10
-4.60894
 20
-63.87628
 11
-4.60894
 21
-70.209613
  0
LINE
  8
別途部材
  6
CONTINUOUS
 10
-6.60894
 20
-64.87628
 11
-6.60894
 21
-70.209613
  0
LINE
  8
別途部材
  6
CONTINUOUS
 10
-7.60894
 20
-63.87628
 11
-7.60894
 21
-70.209613
  0
LINE
  8
別途部材
  6
CONTINUOUS
 10
-9.60894
 20
-64.87628
 11
-9.60894
 21
-70.209613
  0
LINE
  8
別途部材
  6
CONTINUOUS
 10
-10.60894
 20
-64.87628
 11
-10.60894
 21
-70.209613
  0
LINE
  8
別途部材
  6
CONTINUOUS
 10
-11.60894
 20
-63.87628
 11
-11.60894
 21
-70.209613
  0
LINE
  8
別途部材
  6
CONTINUOUS
 10
-8.60894
 20
-63.87628
 11
-8.60894
 21
-70.209613
  0
LINE
  8
別途部材
  6
CONTINUOUS
 10
-5.60894
 20
-64.87628
 11
-5.60894
 21
-70.209613
  0
LINE
  8
別途部材
  6
CONTINUOUS
 10
-3.60894
 20
-63.87628
 11
-3.60894
 21
-70.209613
  0
LINE
  8
別途部材
  6
CONTINUOUS
 10
33.39106
 20
-64.87628
 11
36.224393
 21
-64.87628
  0
ENDBLK
  0
BLOCK
  2
*GRP_0016
 70
    65
 10
0.0
 20
0.0
  0
LINE
  8
補助線
  6
BYBLOCK
 62
    64
 10
-58.701145
 20
-75.132365
 11
-58.85007
 21
-75.20719
  0
LINE
  8
補助線
  6
BYBLOCK
 62
    64
 10
-58.81302
 20
-75.095313
 11
-58.738195
 21
-75.24424
  0
LINE
  8
補助線
  6
BYBLOCK
 62
    64
 10
-48.782665
 20
-70.149007
 11
-48.931592
 21
-70.223833
  0
LINE
  8
補助線
  6
BYBLOCK
 62
    64
 10
-48.894542
 20
-70.111955
 11
-48.819718
 21
-70.260883
  0
LINE
  8
補助線
  6
BYBLOCK
 62
    64
 10
-39.013115
 20
-65.240475
 11
-38.864188
 21
-65.16565
  0
LINE
  8
補助線
  6
BYBLOCK
 62
    64
 10
-38.976065
 20
-65.128597
 11
-38.90124
 21
-65.277525
  0
LINE
  8
型材断面
  6
CONTINUOUS
 10
-59.447585
 20
-74.5748
 11
-59.669888
 21
-75.246053
  0
LINE
  8
型材断面
  6
CONTINUOUS
 10
-59.669888
 20
-75.246053
 11
-59.370585
 21
-75.841758
  0
LINE
  8
型材断面
  6
CONTINUOUS
 10
-59.370585
 20
-75.841758
 11
-58.699333
 21
-76.06406
  0
LINE
  8
型材断面
  6
CONTINUOUS
 10
-39.014927
 20
-64.308782
 11
-38.343672
 21
-64.531085
  0
LINE
  8
型材断面
  6
CONTINUOUS
 10
-38.343672
 20
-64.531085
 11
-38.04437
 21
-65.12679
  0
LINE
  8
型材断面
  6
CONTINUOUS
 10
-38.04437
 20
-65.12679
 11
-38.266675
 21
-65.798042
  0
LINE
  8
型材断面
  6
CONTINUOUS
 10
-59.447585
 20
-74.5748
 11
-39.014927
 21
-64.308782
  0
LINE
  8
型材断面
  6
CONTINUOUS
 10
-58.699333
 20
-76.06406
 11
-38.266675
 21
-65.798042
  0
CIRCLE
  8
ボルト／ビス
  6
CONTINUOUS
 10
-58.775608
 20
-75.169777
 40
0.250185
  0
CIRCLE
  8
ボルト／ビス
  6
CONTINUOUS
 10
-58.775608
 20
-75.169777
 40
0.301025
  0
LINE
  8
ボルト／ビス
  6
CONTINUOUS
 62
    64
 10
-59.025372
 20
-75.155275
 11
-58.887928
 21
-74.946225
  0
LINE
  8
ボルト／ビス
  6
CONTINUOUS
 62
    64
 10
-58.638163
 20
-74.960728
 11
-58.887928
 21
-74.946225
  0
LINE
  8
ボルト／ビス
  6
CONTINUOUS
 62
    64
 10
-58.913052
 20
-75.378827
 11
-58.663288
 21
-75.39333
  0
LINE
  8
ボルト／ビス
  6
CONTINUOUS
 62
    64
 10
-58.525842
 20
-75.18428
 11
-58.663288
 21
-75.39333
  0
LINE
  8
ボルト／ビス
  6
CONTINUOUS
 62
    64
 10
-59.025372
 20
-75.155275
 11
-58.913052
 21
-75.378827
  0
LINE
  8
ボルト／ビス
  6
CONTINUOUS
 62
    64
 10
-58.638163
 20
-74.960728
 11
-58.525842
 21
-75.18428
  0
CIRCLE
  8
ボルト／ビス
  6
CONTINUOUS
 62
    64
 10
-58.775608
 20
-75.169777
 40
0.216668
  0
CIRCLE
  8
ボルト／ビス
  6
CONTINUOUS
 10
-48.85713
 20
-70.18642
 40
0.250185
  0
CIRCLE
  8
ボルト／ビス
  6
CONTINUOUS
 10
-48.85713
 20
-70.18642
 40
0.301025
  0
LINE
  8
ボルト／ビス
  6
CONTINUOUS
 62
    64
 10
-49.106895
 20
-70.171915
 11
-48.96945
 21
-69.962865
  0
LINE
  8
ボルト／ビス
  6
CONTINUOUS
 62
    64
 10
-48.719685
 20
-69.977368
 11
-48.96945
 21
-69.962865
  0
LINE
  8
ボルト／ビス
  6
CONTINUOUS
 62
    64
 10
-48.994575
 20
-70.39547
 11
-48.744808
 21
-70.409975
  0
LINE
  8
ボルト／ビス
  6
CONTINUOUS
 62
    64
 10
-48.607365
 20
-70.200925
 11
-48.744808
 21
-70.409975
  0
LINE
  8
ボルト／ビス
  6
CONTINUOUS
 62
    64
 10
-49.106895
 20
-70.171915
 11
-48.994575
 21
-70.39547
  0
LINE
  8
ボルト／ビス
  6
CONTINUOUS
 62
    64
 10
-48.719685
 20
-69.977368
 11
-48.607365
 21
-70.200925
  0
CIRCLE
  8
ボルト／ビス
  6
CONTINUOUS
 62
    64
 10
-48.85713
 20
-70.18642
 40
0.216668
  0
CIRCLE
  8
ボルト／ビス
  6
CONTINUOUS
 10
-38.938652
 20
-65.203063
 40
0.250185
  0
CIRCLE
  8
ボルト／ビス
  6
CONTINUOUS
 10
-38.938652
 20
-65.203063
 40
0.301025
  0
LINE
  8
ボルト／ビス
  6
CONTINUOUS
 62
    64
 10
-38.801207
 20
-64.994013
 11
-39.050972
 21
-64.97951
  0
LINE
  8
ボルト／ビス
  6
CONTINUOUS
 62
    64
 10
-39.188418
 20
-65.18856
 11
-39.050972
 21
-64.97951
  0
LINE
  8
ボルト／ビス
  6
CONTINUOUS
 62
    64
 10
-38.688887
 20
-65.217568
 11
-38.82633
 21
-65.426615
  0
LINE
  8
ボルト／ビス
  6
CONTINUOUS
 62
    64
 10
-39.076098
 20
-65.412112
 11
-38.82633
 21
-65.426615
  0
LINE
  8
ボルト／ビス
  6
CONTINUOUS
 62
    64
 10
-38.801207
 20
-64.994013
 11
-38.688887
 21
-65.217568
  0
LINE
  8
ボルト／ビス
  6
CONTINUOUS
 62
    64
 10
-39.188418
 20
-65.18856
 11
-39.076098
 21
-65.412112
  0
CIRCLE
  8
ボルト／ビス
  6
CONTINUOUS
 62
    64
 10
-38.938652
 20
-65.203063
 40
0.216668
  0
ENDBLK
  0
BLOCK
  2
*GRP_0017
 70
    65
 10
0.0
 20
0.0
  0
LINE
  8
補助線
  6
BYBLOCK
 62
    64
 10
-39.013115
 20
-75.132365
 11
-38.86419
 21
-75.20719
  0
LINE
  8
補助線
  6
BYBLOCK
 62
    64
 10
-38.90124
 20
-75.095313
 11
-38.976065
 21
-75.24424
  0
LINE
  8
補助線
  6
BYBLOCK
 62
    64
 10
-48.931595
 20
-70.149007
 11
-48.782668
 21
-70.223833
  0
LINE
  8
補助線
  6
BYBLOCK
 62
    64
 10
-48.819718
 20
-70.111955
 11
-48.894542
 21
-70.260883
  0
LINE
  8
補助線
  6
BYBLOCK
 62
    64
 10
-58.701145
 20
-65.240475
 11
-58.850072
 21
-65.16565
  0
LINE
  8
補助線
  6
BYBLOCK
 62
    64
 10
-58.738195
 20
-65.128597
 11
-58.81302
 21
-65.277525
  0
LINE
  8
型材断面
  6
CONTINUOUS
 10
-38.266675
 20
-74.5748
 11
-38.044373
 21
-75.246053
  0
LINE
  8
型材断面
  6
CONTINUOUS
 10
-38.044373
 20
-75.246053
 11
-38.343675
 21
-75.841758
  0
LINE
  8
型材断面
  6
CONTINUOUS
 10
-38.343675
 20
-75.841758
 11
-39.014927
 21
-76.06406
  0
LINE
  8
型材断面
  6
CONTINUOUS
 10
-58.699333
 20
-64.308782
 11
-59.370587
 21
-64.531085
  0
LINE
  8
型材断面
  6
CONTINUOUS
 10
-59.370587
 20
-64.531085
 11
-59.66989
 21
-65.12679
  0
LINE
  8
型材断面
  6
CONTINUOUS
 10
-59.66989
 20
-65.12679
 11
-59.447585
 21
-65.798042
  0
LINE
  8
型材断面
  6
CONTINUOUS
 10
-38.266675
 20
-74.5748
 11
-58.699333
 21
-64.308782
  0
LINE
  8
型材断面
  6
CONTINUOUS
 10
-39.014927
 20
-76.06406
 11
-59.447585
 21
-65.798042
  0
CIRCLE
  8
ボルト／ビス
  6
CONTINUOUS
 10
-38.938652
 20
-75.169777
 40
0.250185
  0
CIRCLE
  8
ボルト／ビス
  6
CONTINUOUS
 10
-38.938652
 20
-75.169777
 40
0.301025
  0
LINE
  8
ボルト／ビス
  6
CONTINUOUS
 62
    64
 10
-38.688887
 20
-75.155275
 11
-38.826332
 21
-74.946225
  0
LINE
  8
ボルト／ビス
  6
CONTINUOUS
 62
    64
 10
-39.076098
 20
-74.960728
 11
-38.826332
 21
-74.946225
  0
LINE
  8
ボルト／ビス
  6
CONTINUOUS
 62
    64
 10
-38.801207
 20
-75.378827
 11
-39.050972
 21
-75.39333
  0
LINE
  8
ボルト／ビス
  6
CONTINUOUS
 62
    64
 10
-39.188418
 20
-75.18428
 11
-39.050972
 21
-75.39333
  0
LINE
  8
ボルト／ビス
  6
CONTINUOUS
 62
    64
 10
-38.688887
 20
-75.155275
 11
-38.801207
 21
-75.378827
  0
LINE
  8
ボルト／ビス
  6
CONTINUOUS
 62
    64
 10
-39.076098
 20
-74.960728
 11
-39.188418
 21
-75.18428
  0
CIRCLE
  8
ボルト／ビス
  6
CONTINUOUS
 62
    64
 10
-38.938652
 20
-75.169777
 40
0.216668
  0
CIRCLE
  8
ボルト／ビス
  6
CONTINUOUS
 10
-48.85713
 20
-70.18642
 40
0.250185
  0
CIRCLE
  8
ボルト／ビス
  6
CONTINUOUS
 10
-48.85713
 20
-70.18642
 40
0.301025
  0
LINE
  8
ボルト／ビス
  6
CONTINUOUS
 62
    64
 10
-48.607365
 20
-70.171915
 11
-48.74481
 21
-69.962865
  0
LINE
  8
ボルト／ビス
  6
CONTINUOUS
 62
    64
 10
-48.994575
 20
-69.977368
 11
-48.74481
 21
-69.962865
  0
LINE
  8
ボルト／ビス
  6
CONTINUOUS
 62
    64
 10
-48.719685
 20
-70.39547
 11
-48.969452
 21
-70.409975
  0
LINE
  8
ボルト／ビス
  6
CONTINUOUS
 62
    64
 10
-49.106895
 20
-70.200925
 11
-48.969452
 21
-70.409975
  0
LINE
  8
ボルト／ビス
  6
CONTINUOUS
 62
    64
 10
-48.607365
 20
-70.171915
 11
-48.719685
 21
-70.39547
  0
LINE
  8
ボルト／ビス
  6
CONTINUOUS
 62
    64
 10
-48.994575
 20
-69.977368
 11
-49.106895
 21
-70.200925
  0
CIRCLE
  8
ボルト／ビス
  6
CONTINUOUS
 62
    64
 10
-48.85713
 20
-70.18642
 40
0.216668
  0
CIRCLE
  8
ボルト／ビス
  6
CONTINUOUS
 10
-58.775608
 20
-65.203063
 40
0.250185
  0
CIRCLE
  8
ボルト／ビス
  6
CONTINUOUS
 10
-58.775608
 20
-65.203063
 40
0.301025
  0
LINE
  8
ボルト／ビス
  6
CONTINUOUS
 62
    64
 10
-58.913052
 20
-64.994013
 11
-58.663288
 21
-64.97951
  0
LINE
  8
ボルト／ビス
  6
CONTINUOUS
 62
    64
 10
-58.525842
 20
-65.18856
 11
-58.663288
 21
-64.97951
  0
LINE
  8
ボルト／ビス
  6
CONTINUOUS
 62
    64
 10
-59.025372
 20
-65.217568
 11
-58.88793
 21
-65.426615
  0
LINE
  8
ボルト／ビス
  6
CONTINUOUS
 62
    64
 10
-58.638163
 20
-65.412112
 11
-58.88793
 21
-65.426615
  0
LINE
  8
ボルト／ビス
  6
CONTINUOUS
 62
    64
 10
-58.913052
 20
-64.994013
 11
-59.025372
 21
-65.217568
  0
LINE
  8
ボルト／ビス
  6
CONTINUOUS
 62
    64
 10
-58.525842
 20
-65.18856
 11
-58.638163
 21
-65.412112
  0
CIRCLE
  8
ボルト／ビス
  6
CONTINUOUS
 62
    64
 10
-58.775608
 20
-65.203063
 40
0.216668
  0
ENDBLK
  0
BLOCK
  2
*GRP_0018
 70
    65
 10
0.0
 20
0.0
  0
LINE
  8
補助線
  6
BYBLOCK
 62
    64
 10
34.483265
 20
-75.132365
 11
34.63219
 21
-75.20719
  0
LINE
  8
補助線
  6
BYBLOCK
 62
    64
 10
34.59514
 20
-75.095313
 11
34.520315
 21
-75.24424
  0
LINE
  8
補助線
  6
BYBLOCK
 62
    64
 10
24.564785
 20
-70.149007
 11
24.713712
 21
-70.223833
  0
LINE
  8
補助線
  6
BYBLOCK
 62
    64
 10
24.676663
 20
-70.111955
 11
24.601837
 21
-70.260883
  0
LINE
  8
補助線
  6
BYBLOCK
 62
    64
 10
14.795235
 20
-65.240475
 11
14.646307
 21
-65.16565
  0
LINE
  8
補助線
  6
BYBLOCK
 62
    64
 10
14.758185
 20
-65.128597
 11
14.68336
 21
-65.277525
  0
LINE
  8
型材断面
  6
CONTINUOUS
 10
35.229705
 20
-74.5748
 11
35.452008
 21
-75.246053
  0
LINE
  8
型材断面
  6
CONTINUOUS
 10
35.452008
 20
-75.246053
 11
35.152705
 21
-75.841758
  0
LINE
  8
型材断面
  6
CONTINUOUS
 10
35.152705
 20
-75.841758
 11
34.481452
 21
-76.06406
  0
LINE
  8
型材断面
  6
CONTINUOUS
 10
14.797048
 20
-64.308782
 11
14.125792
 21
-64.531085
  0
LINE
  8
型材断面
  6
CONTINUOUS
 10
14.125792
 20
-64.531085
 11
13.82649
 21
-65.12679
  0
LINE
  8
型材断面
  6
CONTINUOUS
 10
13.82649
 20
-65.12679
 11
14.048795
 21
-65.798042
  0
LINE
  8
型材断面
  6
CONTINUOUS
 10
35.229705
 20
-74.5748
 11
14.797048
 21
-64.308782
  0
LINE
  8
型材断面
  6
CONTINUOUS
 10
34.481452
 20
-76.06406
 11
14.048795
 21
-65.798042
  0
CIRCLE
  8
ボルト／ビス
  6
CONTINUOUS
 10
34.557727
 20
-75.169777
 40
0.250185
  0
CIRCLE
  8
ボルト／ビス
  6
CONTINUOUS
 10
34.557727
 20
-75.169777
 40
0.301025
  0
LINE
  8
ボルト／ビス
  6
CONTINUOUS
 62
    64
 10
34.807493
 20
-75.155275
 11
34.670047
 21
-74.946225
  0
LINE
  8
ボルト／ビス
  6
CONTINUOUS
 62
    64
 10
34.420283
 20
-74.960728
 11
34.670047
 21
-74.946225
  0
LINE
  8
ボルト／ビス
  6
CONTINUOUS
 62
    64
 10
34.695173
 20
-75.378827
 11
34.445407
 21
-75.39333
  0
LINE
  8
ボルト／ビス
  6
CONTINUOUS
 62
    64
 10
34.307963
 20
-75.18428
 11
34.445407
 21
-75.39333
  0
LINE
  8
ボルト／ビス
  6
CONTINUOUS
 62
    64
 10
34.807493
 20
-75.155275
 11
34.695173
 21
-75.378827
  0
LINE
  8
ボルト／ビス
  6
CONTINUOUS
 62
    64
 10
34.420283
 20
-74.960728
 11
34.307963
 21
-75.18428
  0
CIRCLE
  8
ボルト／ビス
  6
CONTINUOUS
 62
    64
 10
34.557727
 20
-75.169777
 40
0.216668
  0
CIRCLE
  8
ボルト／ビス
  6
CONTINUOUS
 10
24.63925
 20
-70.18642
 40
0.250185
  0
CIRCLE
  8
ボルト／ビス
  6
CONTINUOUS
 10
24.63925
 20
-70.18642
 40
0.301025
  0
LINE
  8
ボルト／ビス
  6
CONTINUOUS
 62
    64
 10
24.889015
 20
-70.171915
 11
24.75157
 21
-69.962865
  0
LINE
  8
ボルト／ビス
  6
CONTINUOUS
 62
    64
 10
24.501805
 20
-69.977368
 11
24.75157
 21
-69.962865
  0
LINE
  8
ボルト／ビス
  6
CONTINUOUS
 62
    64
 10
24.776695
 20
-70.39547
 11
24.526928
 21
-70.409975
  0
LINE
  8
ボルト／ビス
  6
CONTINUOUS
 62
    64
 10
24.389485
 20
-70.200925
 11
24.526928
 21
-70.409975
  0
LINE
  8
ボルト／ビス
  6
CONTINUOUS
 62
    64
 10
24.889015
 20
-70.171915
 11
24.776695
 21
-70.39547
  0
LINE
  8
ボルト／ビス
  6
CONTINUOUS
 62
    64
 10
24.501805
 20
-69.977368
 11
24.389485
 21
-70.200925
  0
CIRCLE
  8
ボルト／ビス
  6
CONTINUOUS
 62
    64
 10
24.63925
 20
-70.18642
 40
0.216668
  0
CIRCLE
  8
ボルト／ビス
  6
CONTINUOUS
 10
14.720773
 20
-65.203063
 40
0.250185
  0
CIRCLE
  8
ボルト／ビス
  6
CONTINUOUS
 10
14.720773
 20
-65.203063
 40
0.301025
  0
LINE
  8
ボルト／ビス
  6
CONTINUOUS
 62
    64
 10
14.583328
 20
-64.994013
 11
14.833093
 21
-64.97951
  0
LINE
  8
ボルト／ビス
  6
CONTINUOUS
 62
    64
 10
14.970537
 20
-65.18856
 11
14.833093
 21
-64.97951
  0
LINE
  8
ボルト／ビス
  6
CONTINUOUS
 62
    64
 10
14.471008
 20
-65.217568
 11
14.60845
 21
-65.426615
  0
LINE
  8
ボルト／ビス
  6
CONTINUOUS
 62
    64
 10
14.858217
 20
-65.412112
 11
14.60845
 21
-65.426615
  0
LINE
  8
ボルト／ビス
  6
CONTINUOUS
 62
    64
 10
14.583328
 20
-64.994013
 11
14.471008
 21
-65.217568
  0
LINE
  8
ボルト／ビス
  6
CONTINUOUS
 62
    64
 10
14.970537
 20
-65.18856
 11
14.858217
 21
-65.412112
  0
CIRCLE
  8
ボルト／ビス
  6
CONTINUOUS
 62
    64
 10
14.720773
 20
-65.203063
 40
0.216668
  0
ENDBLK
  0
BLOCK
  2
*GRP_0019
 70
    65
 10
0.0
 20
0.0
  0
LINE
  8
補助線
  6
BYBLOCK
 62
    64
 10
14.795235
 20
-75.132365
 11
14.64631
 21
-75.20719
  0
LINE
  8
補助線
  6
BYBLOCK
 62
    64
 10
14.68336
 20
-75.095313
 11
14.758185
 21
-75.24424
  0
LINE
  8
補助線
  6
BYBLOCK
 62
    64
 10
24.713715
 20
-70.149007
 11
24.564788
 21
-70.223833
  0
LINE
  8
補助線
  6
BYBLOCK
 62
    64
 10
24.601837
 20
-70.111955
 11
24.676663
 21
-70.260883
  0
LINE
  8
補助線
  6
BYBLOCK
 62
    64
 10
34.483265
 20
-65.240475
 11
34.632193
 21
-65.16565
  0
LINE
  8
補助線
  6
BYBLOCK
 62
    64
 10
34.520315
 20
-65.128597
 11
34.59514
 21
-65.277525
  0
LINE
  8
型材断面
  6
CONTINUOUS
 10
14.048795
 20
-74.5748
 11
13.826492
 21
-75.246053
  0
LINE
  8
型材断面
  6
CONTINUOUS
 10
13.826492
 20
-75.246053
 11
14.125795
 21
-75.841758
  0
LINE
  8
型材断面
  6
CONTINUOUS
 10
14.125795
 20
-75.841758
 11
14.797048
 21
-76.06406
  0
LINE
  8
型材断面
  6
CONTINUOUS
 10
34.481452
 20
-64.308782
 11
35.152707
 21
-64.531085
  0
LINE
  8
型材断面
  6
CONTINUOUS
 10
35.152707
 20
-64.531085
 11
35.45201
 21
-65.12679
  0
LINE
  8
型材断面
  6
CONTINUOUS
 10
35.45201
 20
-65.12679
 11
35.229705
 21
-65.798042
  0
LINE
  8
型材断面
  6
CONTINUOUS
 10
14.048795
 20
-74.5748
 11
34.481452
 21
-64.308782
  0
LINE
  8
型材断面
  6
CONTINUOUS
 10
14.797048
 20
-76.06406
 11
35.229705
 21
-65.798042
  0
CIRCLE
  8
ボルト／ビス
  6
CONTINUOUS
 10
14.720773
 20
-75.169777
 40
0.250185
  0
CIRCLE
  8
ボルト／ビス
  6
CONTINUOUS
 10
14.720773
 20
-75.169777
 40
0.301025
  0
LINE
  8
ボルト／ビス
  6
CONTINUOUS
 62
    64
 10
14.471008
 20
-75.155275
 11
14.608453
 21
-74.946225
  0
LINE
  8
ボルト／ビス
  6
CONTINUOUS
 62
    64
 10
14.858217
 20
-74.960728
 11
14.608453
 21
-74.946225
  0
LINE
  8
ボルト／ビス
  6
CONTINUOUS
 62
    64
 10
14.583328
 20
-75.378827
 11
14.833093
 21
-75.39333
  0
LINE
  8
ボルト／ビス
  6
CONTINUOUS
 62
    64
 10
14.970537
 20
-75.18428
 11
14.833093
 21
-75.39333
  0
LINE
  8
ボルト／ビス
  6
CONTINUOUS
 62
    64
 10
14.471008
 20
-75.155275
 11
14.583328
 21
-75.378827
  0
LINE
  8
ボルト／ビス
  6
CONTINUOUS
 62
    64
 10
14.858217
 20
-74.960728
 11
14.970537
 21
-75.18428
  0
CIRCLE
  8
ボルト／ビス
  6
CONTINUOUS
 62
    64
 10
14.720773
 20
-75.169777
 40
0.216668
  0
CIRCLE
  8
ボルト／ビス
  6
CONTINUOUS
 10
24.63925
 20
-70.18642
 40
0.250185
  0
CIRCLE
  8
ボルト／ビス
  6
CONTINUOUS
 10
24.63925
 20
-70.18642
 40
0.301025
  0
LINE
  8
ボルト／ビス
  6
CONTINUOUS
 62
    64
 10
24.389485
 20
-70.171915
 11
24.52693
 21
-69.962865
  0
LINE
  8
ボルト／ビス
  6
CONTINUOUS
 62
    64
 10
24.776695
 20
-69.977368
 11
24.52693
 21
-69.962865
  0
LINE
  8
ボルト／ビス
  6
CONTINUOUS
 62
    64
 10
24.501805
 20
-70.39547
 11
24.751572
 21
-70.409975
  0
LINE
  8
ボルト／ビス
  6
CONTINUOUS
 62
    64
 10
24.889015
 20
-70.200925
 11
24.751572
 21
-70.409975
  0
LINE
  8
ボルト／ビス
  6
CONTINUOUS
 62
    64
 10
24.389485
 20
-70.171915
 11
24.501805
 21
-70.39547
  0
LINE
  8
ボルト／ビス
  6
CONTINUOUS
 62
    64
 10
24.776695
 20
-69.977368
 11
24.889015
 21
-70.200925
  0
CIRCLE
  8
ボルト／ビス
  6
CONTINUOUS
 62
    64
 10
24.63925
 20
-70.18642
 40
0.216668
  0
CIRCLE
  8
ボルト／ビス
  6
CONTINUOUS
 10
34.557727
 20
-65.203063
 40
0.250185
  0
CIRCLE
  8
ボルト／ビス
  6
CONTINUOUS
 10
34.557727
 20
-65.203063
 40
0.301025
  0
LINE
  8
ボルト／ビス
  6
CONTINUOUS
 62
    64
 10
34.695173
 20
-64.994013
 11
34.445407
 21
-64.97951
  0
LINE
  8
ボルト／ビス
  6
CONTINUOUS
 62
    64
 10
34.307963
 20
-65.18856
 11
34.445407
 21
-64.97951
  0
LINE
  8
ボルト／ビス
  6
CONTINUOUS
 62
    64
 10
34.807493
 20
-65.217568
 11
34.67005
 21
-65.426615
  0
LINE
  8
ボルト／ビス
  6
CONTINUOUS
 62
    64
 10
34.420283
 20
-65.412112
 11
34.67005
 21
-65.426615
  0
LINE
  8
ボルト／ビス
  6
CONTINUOUS
 62
    64
 10
34.695173
 20
-64.994013
 11
34.807493
 21
-65.217568
  0
LINE
  8
ボルト／ビス
  6
CONTINUOUS
 62
    64
 10
34.307963
 20
-65.18856
 11
34.420283
 21
-65.412112
  0
CIRCLE
  8
ボルト／ビス
  6
CONTINUOUS
 62
    64
 10
34.557727
 20
-65.203063
 40
0.216668
  0
ENDBLK
  0
BLOCK
  2
*DIM_0020
 70
    65
 10
0.0
 20
0.0
  0
LINE
  8
寸法
  6
BYBLOCK
 62
     0
 10
-73.442275
 20
39.4807
 11
-86.735113
 21
39.4807
  0
LINE
  8
寸法
  6
BYBLOCK
 62
     0
 10
-73.442275
 20
26.147365
 11
-86.735113
 21
26.147365
  0
LINE
  8
寸法
  6
BYBLOCK
 62
     0
 10
-86.735113
 20
39.4807
 11
-86.735113
 21
26.147365
  0
POINT
  8
寸法
 62
     0
 10
-86.735113
 20
39.4807
  0
POINT
  8
寸法
 62
     0
 10
-86.735113
 20
26.147365
  0
TEXT
  7
TextStyle03
  8
寸法
  6
CONTINUOUS
 62
     0
 10
-87.1
 20
30.3625
  1
400
 40
3.0
 50
90.0
 72
     5
 11
-87.1
 21
35.2375
  0
ENDBLK
  0
BLOCK
  2
*DIM_0021
 70
    65
 10
0.0
 20
0.0
  0
LINE
  8
寸法
  6
BYBLOCK
 62
     0
 10
-65.442273
 20
45.814033
 11
-65.442273
 21
74.922105
  0
LINE
  8
寸法
  6
BYBLOCK
 62
     0
 10
-38.775608
 20
45.814033
 11
-38.775608
 21
74.922105
  0
LINE
  8
寸法
  6
BYBLOCK
 62
     0
 10
-65.442273
 20
74.922105
 11
-38.775608
 21
74.922105
  0
POINT
  8
寸法
 62
     0
 10
-65.442273
 20
74.922105
  0
POINT
  8
寸法
 62
     0
 10
-38.775608
 20
74.922105
  0
TEXT
  7
TextStyle03
  8
寸法
  6
CONTINUOUS
 62
     0
 10
-54.5625
 20
75.3
  1
800
 40
3.0
 72
     5
 11
-49.6875
 21
75.3
  0
ENDBLK
  0
BLOCK
  2
*DIM_0022
 70
    65
 10
0.0
 20
0.0
  0
LINE
  8
寸法
  6
BYBLOCK
 62
     0
 10
-12.10894
 20
45.814033
 11
-12.10894
 21
74.922105
  0
LINE
  8
寸法
  6
BYBLOCK
 62
     0
 10
-38.775608
 20
74.922105
 11
-12.10894
 21
74.922105
  0
POINT
  8
寸法
 62
     0
 10
-12.10894
 20
74.922105
  0
TEXT
  7
TextStyle03
  8
寸法
  6
CONTINUOUS
 62
     0
 10
-27.9125
 20
75.3
  1
800
 40
3.0
 72
     5
 11
-23.0375
 21
75.3
  0
ENDBLK
  0
BLOCK
  2
*DIM_0023
 70
    65
 10
0.0
 20
0.0
  0
LINE
  8
寸法
  6
BYBLOCK
 62
     0
 10
14.557727
 20
45.814033
 11
14.557727
 21
74.922105
  0
LINE
  8
寸法
  6
BYBLOCK
 62
     0
 10
-12.10894
 20
74.922105
 11
14.557727
 21
74.922105
  0
POINT
  8
寸法
 62
     0
 10
14.557727
 20
74.922105
  0
TEXT
  7
TextStyle03
  8
寸法
  6
CONTINUOUS
 62
     0
 10
-1.2375
 20
75.3
  1
800
 40
3.0
 72
     5
 11
3.6375
 21
75.3
  0
ENDBLK
  0
BLOCK
  2
*DIM_0024
 70
    65
 10
0.0
 20
0.0
  0
LINE
  8
寸法
  6
BYBLOCK
 62
     0
 10
41.224393
 20
45.814033
 11
41.224393
 21
74.922105
  0
LINE
  8
寸法
  6
BYBLOCK
 62
     0
 10
14.557727
 20
74.922105
 11
41.224393
 21
74.922105
  0
POINT
  8
寸法
 62
     0
 10
41.224393
 20
74.922105
  0
TEXT
  7
TextStyle03
  8
寸法
  6
CONTINUOUS
 62
     0
 10
25.4375
 20
75.3
  1
800
 40
3.0
 72
     5
 11
30.3125
 21
75.3
  0
ENDBLK
  0
BLOCK
  2
*DIM_0025
 70
    65
 10
0.0
 20
0.0
  0
LINE
  8
寸法
  6
BYBLOCK
 62
     0
 10
142.300948
 20
-63.785395
 11
150.395908
 21
-63.785395
  0
LINE
  8
寸法
  6
BYBLOCK
 62
     0
 10
142.300948
 20
-83.118728
 11
150.395908
 21
-83.118728
  0
LINE
  8
寸法
  6
BYBLOCK
 62
     0
 10
150.395908
 20
-63.785395
 11
150.395908
 21
-83.118728
  0
POINT
  8
寸法
 62
     0
 10
150.395908
 20
-63.785395
  0
POINT
  8
寸法
 62
     0
 10
150.395908
 20
-83.118728
  0
TEXT
  7
TextStyle03
  8
寸法
  6
CONTINUOUS
 62
     0
 10
150.0
 20
-75.9125
  1
580
 40
3.0
 50
90.0
 72
     5
 11
150.0
 21
-71.0375
  0
ENDBLK
  0
BLOCK
  2
*DIM_0026
 70
    65
 10
0.0
 20
0.0
  0
LINE
  8
寸法
  6
CONTINUOUS
 10
141.300948
 20
-54.051605
 11
103.53428
 21
-54.051605
  0
POINT
  8
寸法
 10
141.300948
 20
-54.051605
  0
POINT
  8
寸法
 10
103.53428
 20
-54.051605
  0
TEXT
  7
TextStyle03
  8
寸法
  6
CONTINUOUS
 10
119.11875
 20
-53.7
  1
1133
 40
3.0
 72
     5
 11
125.68125
 21
-53.7
  0
ENDBLK
  0
BLOCK
  2
*DIM_0027
 70
    65
 10
0.0
 20
0.0
  0
LINE
  8
寸法
  6
BYBLOCK
 62
     0
 10
39.224393
 20
-57.542947
 11
62.194043
 21
-57.542947
  0
LINE
  8
寸法
  6
BYBLOCK
 62
     0
 10
62.194043
 20
-64.87628
 11
62.194043
 21
-57.542947
  0
POINT
  8
寸法
 62
     0
 10
62.194043
 20
-64.87628
  0
POINT
  8
寸法
 62
     0
 10
62.194043
 20
-57.542947
  0
TEXT
  7
TextStyle03
  8
寸法
  6
CONTINUOUS
 62
     0
 10
67.9
 20
-70.64375
  1
上昇195以上
 40
3.0
 50
90.0
 72
     5
 11
67.9
 21
-52.45625
  0
ENDBLK
  0
BLOCK
  2
*GRP_0028
 70
    65
 10
0.0
 20
0.0
  0
LINE
  8
ボルト／ビス
  6
CONTINUOUS
 10
135.757657
 20
22.147365
 11
135.290992
 21
22.147365
  0
LINE
  8
ボルト／ビス
  6
CONTINUOUS
 10
135.757657
 20
21.7807
 11
135.690992
 21
21.7807
  0
LINE
  8
ボルト／ビス
  6
CONTINUOUS
 10
135.690992
 20
21.7807
 11
135.690992
 21
22.514033
  0
LINE
  8
ボルト／ビス
  6
CONTINUOUS
 10
135.690992
 20
22.514033
 11
135.757657
 21
22.514033
  0
LINE
  8
ボルト／ビス
  6
CONTINUOUS
 10
135.757657
 20
21.7807
 11
135.757657
 21
22.514033
  0
LINE
  8
ボルト／ビス
  6
CONTINUOUS
 10
135.657657
 20
21.847365
 11
135.690992
 21
21.847365
  0
LINE
  8
ボルト／ビス
  6
CONTINUOUS
 10
135.657657
 20
21.847365
 11
135.657657
 21
22.447365
  0
LINE
  8
ボルト／ビス
  6
CONTINUOUS
 10
135.657657
 20
22.447365
 11
135.690992
 21
22.447365
  0
LINE
  8
ボルト／ビス
  6
CONTINUOUS
 62
    64
 10
135.457657
 20
21.98699
 11
135.469333
 21
21.954915
  0
ARC
  8
ボルト／ビス
  6
CONTINUOUS
 62
    64
 10
135.562634
 20
22.003031
 40
0.104978
 50
152.721967
 51
180.0
  0
ARC
  8
ボルト／ビス
  6
CONTINUOUS
 62
    64
 10
135.860058
 20
22.147368
 40
0.402402
 50
166.165002
 51
193.834985
  0
LINE
  8
ボルト／ビス
  6
CONTINUOUS
 62
    64
 10
135.457657
 20
22.30774
 11
135.469333
 21
22.339815
  0
ARC
  8
ボルト／ビス
  6
CONTINUOUS
 62
    64
 10
135.562634
 20
22.291706
 40
0.104978
 50
180.0
 51
207.278033
  0
LINE
  8
ボルト／ビス
  6
CONTINUOUS
 62
    64
 10
135.457657
 20
21.98699
 11
135.457657
 21
22.30774
  0
LINE
  8
ボルト／ビス
  6
CONTINUOUS
 62
    64
 10
135.469333
 20
22.339815
 11
135.590993
 21
22.339815
  0
LINE
  8
ボルト／ビス
  6
CONTINUOUS
 62
    64
 10
135.469333
 20
22.24359
 11
135.590993
 21
22.24359
  0
LINE
  8
ボルト／ビス
  6
CONTINUOUS
 62
    64
 10
135.469333
 20
21.954915
 11
135.590993
 21
21.954915
  0
LINE
  8
ボルト／ビス
  6
CONTINUOUS
 62
    64
 10
135.469333
 20
22.05114
 11
135.590993
 21
22.05114
  0
LINE
  8
ボルト／ビス
  6
CONTINUOUS
 10
135.590993
 20
21.954915
 11
135.590993
 21
22.339815
  0
LINE
  8
ボルト／ビス
  6
CONTINUOUS
 10
135.590993
 20
21.947365
 11
135.657657
 21
21.947365
  0
LINE
  8
ボルト／ビス
  6
CONTINUOUS
 10
135.590993
 20
21.947365
 11
135.590993
 21
22.347365
  0
LINE
  8
ボルト／ビス
  6
CONTINUOUS
 10
135.590993
 20
22.347365
 11
135.657657
 21
22.347365
  0
ENDBLK
  0
BLOCK
  2
*GRP_0029
 70
    65
 10
0.0
 20
0.0
  0
LINE
  8
ボルト／ビス
  6
CONTINUOUS
 10
135.757657
 20
43.4807
 11
135.290992
 21
43.4807
  0
LINE
  8
ボルト／ビス
  6
CONTINUOUS
 10
135.757657
 20
43.114035
 11
135.690992
 21
43.114035
  0
LINE
  8
ボルト／ビス
  6
CONTINUOUS
 10
135.690992
 20
43.114035
 11
135.690992
 21
43.847367
  0
LINE
  8
ボルト／ビス
  6
CONTINUOUS
 10
135.690992
 20
43.847367
 11
135.757657
 21
43.847367
  0
LINE
  8
ボルト／ビス
  6
CONTINUOUS
 10
135.757657
 20
43.114035
 11
135.757657
 21
43.847367
  0
LINE
  8
ボルト／ビス
  6
CONTINUOUS
 10
135.657657
 20
43.1807
 11
135.690992
 21
43.1807
  0
LINE
  8
ボルト／ビス
  6
CONTINUOUS
 10
135.657657
 20
43.1807
 11
135.657657
 21
43.7807
  0
LINE
  8
ボルト／ビス
  6
CONTINUOUS
 10
135.657657
 20
43.7807
 11
135.690992
 21
43.7807
  0
LINE
  8
ボルト／ビス
  6
CONTINUOUS
 62
    64
 10
135.457657
 20
43.320325
 11
135.469333
 21
43.28825
  0
ARC
  8
ボルト／ビス
  6
CONTINUOUS
 62
    64
 10
135.562634
 20
43.336366
 40
0.104978
 50
152.721967
 51
180.0
  0
ARC
  8
ボルト／ビス
  6
CONTINUOUS
 62
    64
 10
135.860058
 20
43.480703
 40
0.402402
 50
166.165002
 51
193.834985
  0
LINE
  8
ボルト／ビス
  6
CONTINUOUS
 62
    64
 10
135.457657
 20
43.641075
 11
135.469333
 21
43.67315
  0
ARC
  8
ボルト／ビス
  6
CONTINUOUS
 62
    64
 10
135.562634
 20
43.625041
 40
0.104978
 50
180.0
 51
207.278033
  0
LINE
  8
ボルト／ビス
  6
CONTINUOUS
 62
    64
 10
135.457657
 20
43.320325
 11
135.457657
 21
43.641075
  0
LINE
  8
ボルト／ビス
  6
CONTINUOUS
 62
    64
 10
135.469333
 20
43.67315
 11
135.590993
 21
43.67315
  0
LINE
  8
ボルト／ビス
  6
CONTINUOUS
 62
    64
 10
135.469333
 20
43.576925
 11
135.590993
 21
43.576925
  0
LINE
  8
ボルト／ビス
  6
CONTINUOUS
 62
    64
 10
135.469333
 20
43.28825
 11
135.590993
 21
43.28825
  0
LINE
  8
ボルト／ビス
  6
CONTINUOUS
 62
    64
 10
135.469333
 20
43.384475
 11
135.590993
 21
43.384475
  0
LINE
  8
ボルト／ビス
  6
CONTINUOUS
 10
135.590993
 20
43.28825
 11
135.590993
 21
43.67315
  0
LINE
  8
ボルト／ビス
  6
CONTINUOUS
 10
135.590993
 20
43.2807
 11
135.657657
 21
43.2807
  0
LINE
  8
ボルト／ビス
  6
CONTINUOUS
 10
135.590993
 20
43.2807
 11
135.590993
 21
43.6807
  0
LINE
  8
ボルト／ビス
  6
CONTINUOUS
 10
135.590993
 20
43.6807
 11
135.657657
 21
43.6807
  0
ENDBLK
  0
BLOCK
  2
*GRP_0030
 70
    65
 10
0.0
 20
0.0
  0
LINE
  8
ボルト／ビス
  6
CONTINUOUS
 10
46.89106
 20
-70.209613
 11
46.89106
 21
-69.742947
  0
LINE
  8
ボルト／ビス
  6
CONTINUOUS
 10
46.524395
 20
-70.209613
 11
46.524395
 21
-70.142947
  0
LINE
  8
ボルト／ビス
  6
CONTINUOUS
 10
46.524395
 20
-70.142947
 11
47.257727
 21
-70.142947
  0
LINE
  8
ボルト／ビス
  6
CONTINUOUS
 10
47.257727
 20
-70.142947
 11
47.257727
 21
-70.209613
  0
LINE
  8
ボルト／ビス
  6
CONTINUOUS
 10
46.524395
 20
-70.209613
 11
47.257727
 21
-70.209613
  0
LINE
  8
ボルト／ビス
  6
CONTINUOUS
 10
46.59106
 20
-70.109612
 11
46.59106
 21
-70.142947
  0
LINE
  8
ボルト／ビス
  6
CONTINUOUS
 10
46.59106
 20
-70.109612
 11
47.19106
 21
-70.109612
  0
LINE
  8
ボルト／ビス
  6
CONTINUOUS
 10
47.19106
 20
-70.109612
 11
47.19106
 21
-70.142947
  0
LINE
  8
ボルト／ビス
  6
CONTINUOUS
 62
    64
 10
46.730685
 20
-69.909613
 11
46.69861
 21
-69.921288
  0
ARC
  8
ボルト／ビス
  6
CONTINUOUS
 62
    64
 10
46.746725
 20
-70.014591
 40
0.104978
 50
62.721967
 51
90.0
  0
ARC
  8
ボルト／ビス
  6
CONTINUOUS
 62
    64
 10
46.891063
 20
-70.312015
 40
0.402402
 50
76.165002
 51
103.834985
  0
LINE
  8
ボルト／ビス
  6
CONTINUOUS
 62
    64
 10
47.051435
 20
-69.909613
 11
47.08351
 21
-69.921288
  0
ARC
  8
ボルト／ビス
  6
CONTINUOUS
 62
    64
 10
47.0354
 20
-70.014591
 40
0.104978
 50
90.0
 51
117.278033
  0
LINE
  8
ボルト／ビス
  6
CONTINUOUS
 62
    64
 10
46.730685
 20
-69.909613
 11
47.051435
 21
-69.909613
  0
LINE
  8
ボルト／ビス
  6
CONTINUOUS
 62
    64
 10
47.08351
 20
-69.921288
 11
47.08351
 21
-70.042947
  0
LINE
  8
ボルト／ビス
  6
CONTINUOUS
 62
    64
 10
46.987285
 20
-69.921288
 11
46.987285
 21
-70.042947
  0
LINE
  8
ボルト／ビス
  6
CONTINUOUS
 62
    64
 10
46.69861
 20
-69.921288
 11
46.69861
 21
-70.042947
  0
LINE
  8
ボルト／ビス
  6
CONTINUOUS
 62
    64
 10
46.794835
 20
-69.921288
 11
46.794835
 21
-70.042947
  0
LINE
  8
ボルト／ビス
  6
CONTINUOUS
 10
46.69861
 20
-70.042947
 11
47.08351
 21
-70.042947
  0
LINE
  8
ボルト／ビス
  6
CONTINUOUS
 10
46.69106
 20
-70.042947
 11
46.69106
 21
-70.109612
  0
LINE
  8
ボルト／ビス
  6
CONTINUOUS
 10
46.69106
 20
-70.042947
 11
47.09106
 21
-70.042947
  0
LINE
  8
ボルト／ビス
  6
CONTINUOUS
 10
47.09106
 20
-70.042947
 11
47.09106
 21
-70.109612
  0
ENDBLK
  0
BLOCK
  2
*GRP_0031
 70
    65
 10
0.0
 20
0.0
  0
LINE
  8
ボルト／ビス
  6
DOT
 10
46.89106
 20
-62.87628
 11
46.89106
 21
-62.409615
  0
LINE
  8
ボルト／ビス
  6
DOT
 10
46.524395
 20
-62.87628
 11
46.524395
 21
-62.809615
  0
LINE
  8
ボルト／ビス
  6
DOT
 10
46.524395
 20
-62.809615
 11
47.257727
 21
-62.809615
  0
LINE
  8
ボルト／ビス
  6
DOT
 10
47.257727
 20
-62.809615
 11
47.257727
 21
-62.87628
  0
LINE
  8
ボルト／ビス
  6
DOT
 10
46.524395
 20
-62.87628
 11
47.257727
 21
-62.87628
  0
LINE
  8
ボルト／ビス
  6
DOT
 10
46.59106
 20
-62.77628
 11
46.59106
 21
-62.809615
  0
LINE
  8
ボルト／ビス
  6
DOT
 10
46.59106
 20
-62.77628
 11
47.19106
 21
-62.77628
  0
LINE
  8
ボルト／ビス
  6
DOT
 10
47.19106
 20
-62.77628
 11
47.19106
 21
-62.809615
  0
LINE
  8
ボルト／ビス
  6
DOT
 62
    64
 10
46.730685
 20
-62.57628
 11
46.69861
 21
-62.587955
  0
ARC
  8
ボルト／ビス
  6
DOT
 62
    64
 10
46.746725
 20
-62.681258
 40
0.104978
 50
62.721967
 51
90.0
  0
ARC
  8
ボルト／ビス
  6
DOT
 62
    64
 10
46.891063
 20
-62.978682
 40
0.402402
 50
76.165002
 51
103.834985
  0
LINE
  8
ボルト／ビス
  6
DOT
 62
    64
 10
47.051435
 20
-62.57628
 11
47.08351
 21
-62.587955
  0
ARC
  8
ボルト／ビス
  6
DOT
 62
    64
 10
47.0354
 20
-62.681258
 40
0.104978
 50
90.0
 51
117.278033
  0
LINE
  8
ボルト／ビス
  6
DOT
 62
    64
 10
46.730685
 20
-62.57628
 11
47.051435
 21
-62.57628
  0
LINE
  8
ボルト／ビス
  6
DOT
 62
    64
 10
47.08351
 20
-62.587955
 11
47.08351
 21
-62.709615
  0
LINE
  8
ボルト／ビス
  6
DOT
 62
    64
 10
46.987285
 20
-62.587955
 11
46.987285
 21
-62.709615
  0
LINE
  8
ボルト／ビス
  6
DOT
 62
    64
 10
46.69861
 20
-62.587955
 11
46.69861
 21
-62.709615
  0
LINE
  8
ボルト／ビス
  6
DOT
 62
    64
 10
46.794835
 20
-62.587955
 11
46.794835
 21
-62.709615
  0
LINE
  8
ボルト／ビス
  6
DOT
 10
46.69861
 20
-62.709615
 11
47.08351
 21
-62.709615
  0
LINE
  8
ボルト／ビス
  6
DOT
 10
46.69106
 20
-62.709615
 11
46.69106
 21
-62.77628
  0
LINE
  8
ボルト／ビス
  6
DOT
 10
46.69106
 20
-62.709615
 11
47.09106
 21
-62.709615
  0
LINE
  8
ボルト／ビス
  6
DOT
 10
47.09106
 20
-62.709615
 11
47.09106
 21
-62.77628
  0
ENDBLK
  0
BLOCK
  2
*GRP_0032
 70
    65
 10
0.0
 20
0.0
  0
LINE
  8
ボルト／ビス
  6
CONTINUOUS
 10
-71.10894
 20
-70.209613
 11
-71.10894
 21
-69.742947
  0
LINE
  8
ボルト／ビス
  6
CONTINUOUS
 10
-71.475605
 20
-70.209613
 11
-71.475605
 21
-70.142947
  0
LINE
  8
ボルト／ビス
  6
CONTINUOUS
 10
-71.475605
 20
-70.142947
 11
-70.742273
 21
-70.142947
  0
LINE
  8
ボルト／ビス
  6
CONTINUOUS
 10
-70.742273
 20
-70.142947
 11
-70.742273
 21
-70.209613
  0
LINE
  8
ボルト／ビス
  6
CONTINUOUS
 10
-71.475605
 20
-70.209613
 11
-70.742273
 21
-70.209613
  0
LINE
  8
ボルト／ビス
  6
CONTINUOUS
 10
-71.40894
 20
-70.109612
 11
-71.40894
 21
-70.142947
  0
LINE
  8
ボルト／ビス
  6
CONTINUOUS
 10
-71.40894
 20
-70.109612
 11
-70.80894
 21
-70.109612
  0
LINE
  8
ボルト／ビス
  6
CONTINUOUS
 10
-70.80894
 20
-70.109612
 11
-70.80894
 21
-70.142947
  0
LINE
  8
ボルト／ビス
  6
CONTINUOUS
 62
    64
 10
-71.269315
 20
-69.909613
 11
-71.30139
 21
-69.921288
  0
ARC
  8
ボルト／ビス
  6
CONTINUOUS
 62
    64
 10
-71.253275
 20
-70.014591
 40
0.104978
 50
62.721967
 51
90.0
  0
ARC
  8
ボルト／ビス
  6
CONTINUOUS
 62
    64
 10
-71.108937
 20
-70.312015
 40
0.402402
 50
76.165002
 51
103.834985
  0
LINE
  8
ボルト／ビス
  6
CONTINUOUS
 62
    64
 10
-70.948565
 20
-69.909613
 11
-70.91649
 21
-69.921288
  0
ARC
  8
ボルト／ビス
  6
CONTINUOUS
 62
    64
 10
-70.9646
 20
-70.014591
 40
0.104978
 50
90.0
 51
117.278033
  0
LINE
  8
ボルト／ビス
  6
CONTINUOUS
 62
    64
 10
-71.269315
 20
-69.909613
 11
-70.948565
 21
-69.909613
  0
LINE
  8
ボルト／ビス
  6
CONTINUOUS
 62
    64
 10
-70.91649
 20
-69.921288
 11
-70.91649
 21
-70.042947
  0
LINE
  8
ボルト／ビス
  6
CONTINUOUS
 62
    64
 10
-71.012715
 20
-69.921288
 11
-71.012715
 21
-70.042947
  0
LINE
  8
ボルト／ビス
  6
CONTINUOUS
 62
    64
 10
-71.30139
 20
-69.921288
 11
-71.30139
 21
-70.042947
  0
LINE
  8
ボルト／ビス
  6
CONTINUOUS
 62
    64
 10
-71.205165
 20
-69.921288
 11
-71.205165
 21
-70.042947
  0
LINE
  8
ボルト／ビス
  6
CONTINUOUS
 10
-71.30139
 20
-70.042947
 11
-70.91649
 21
-70.042947
  0
LINE
  8
ボルト／ビス
  6
CONTINUOUS
 10
-71.30894
 20
-70.042947
 11
-71.30894
 21
-70.109612
  0
LINE
  8
ボルト／ビス
  6
CONTINUOUS
 10
-71.30894
 20
-70.042947
 11
-70.90894
 21
-70.042947
  0
LINE
  8
ボルト／ビス
  6
CONTINUOUS
 10
-70.90894
 20
-70.042947
 11
-70.90894
 21
-70.109612
  0
ENDBLK
  0
BLOCK
  2
*GRP_0033
 70
    65
 10
0.0
 20
0.0
  0
LINE
  8
ボルト／ビス
  6
DOT
 10
-71.10894
 20
-62.87628
 11
-71.10894
 21
-62.409615
  0
LINE
  8
ボルト／ビス
  6
DOT
 10
-71.475605
 20
-62.87628
 11
-71.475605
 21
-62.809615
  0
LINE
  8
ボルト／ビス
  6
DOT
 10
-71.475605
 20
-62.809615
 11
-70.742273
 21
-62.809615
  0
LINE
  8
ボルト／ビス
  6
DOT
 10
-70.742273
 20
-62.809615
 11
-70.742273
 21
-62.87628
  0
LINE
  8
ボルト／ビス
  6
DOT
 10
-71.475605
 20
-62.87628
 11
-70.742273
 21
-62.87628
  0
LINE
  8
ボルト／ビス
  6
DOT
 10
-71.40894
 20
-62.77628
 11
-71.40894
 21
-62.809615
  0
LINE
  8
ボルト／ビス
  6
DOT
 10
-71.40894
 20
-62.77628
 11
-70.80894
 21
-62.77628
  0
LINE
  8
ボルト／ビス
  6
DOT
 10
-70.80894
 20
-62.77628
 11
-70.80894
 21
-62.809615
  0
LINE
  8
ボルト／ビス
  6
DOT
 62
    64
 10
-71.269315
 20
-62.57628
 11
-71.30139
 21
-62.587955
  0
ARC
  8
ボルト／ビス
  6
DOT
 62
    64
 10
-71.253275
 20
-62.681258
 40
0.104978
 50
62.721967
 51
90.0
  0
ARC
  8
ボルト／ビス
  6
DOT
 62
    64
 10
-71.108937
 20
-62.978682
 40
0.402402
 50
76.165002
 51
103.834985
  0
LINE
  8
ボルト／ビス
  6
DOT
 62
    64
 10
-70.948565
 20
-62.57628
 11
-70.91649
 21
-62.587955
  0
ARC
  8
ボルト／ビス
  6
DOT
 62
    64
 10
-70.9646
 20
-62.681258
 40
0.104978
 50
90.0
 51
117.278033
  0
LINE
  8
ボルト／ビス
  6
DOT
 62
    64
 10
-71.269315
 20
-62.57628
 11
-70.948565
 21
-62.57628
  0
LINE
  8
ボルト／ビス
  6
DOT
 62
    64
 10
-70.91649
 20
-62.587955
 11
-70.91649
 21
-62.709615
  0
LINE
  8
ボルト／ビス
  6
DOT
 62
    64
 10
-71.012715
 20
-62.587955
 11
-71.012715
 21
-62.709615
  0
LINE
  8
ボルト／ビス
  6
DOT
 62
    64
 10
-71.30139
 20
-62.587955
 11
-71.30139
 21
-62.709615
  0
LINE
  8
ボルト／ビス
  6
DOT
 62
    64
 10
-71.205165
 20
-62.587955
 11
-71.205165
 21
-62.709615
  0
LINE
  8
ボルト／ビス
  6
DOT
 10
-71.30139
 20
-62.709615
 11
-70.91649
 21
-62.709615
  0
LINE
  8
ボルト／ビス
  6
DOT
 10
-71.30894
 20
-62.709615
 11
-71.30894
 21
-62.77628
  0
LINE
  8
ボルト／ビス
  6
DOT
 10
-71.30894
 20
-62.709615
 11
-70.90894
 21
-62.709615
  0
LINE
  8
ボルト／ビス
  6
DOT
 10
-70.90894
 20
-62.709615
 11
-70.90894
 21
-62.77628
  0
ENDBLK
  0
ENDSEC
  0
SECTION
  2
ENTITIES
  0
POLYLINE
  8
通り芯
  6
CONTINUOUS
 66
     1
 70
     1
  0
VERTEX
  8
通り芯
 10
-210.0
 20
-148.5
  0
VERTEX
  8
通り芯
 10
210.0
 20
-148.5
  0
VERTEX
  8
通り芯
 10
210.0
 20
148.5
  0
VERTEX
  8
通り芯
 10
-210.0
 20
148.5
  0
SEQEND
  0
INSERT
  2
*GRP_0001
  8
型材断面
  6
CONTINUOUS
 10
0.0
 20
0.0
  0
LINE
  8
型材断面
  6
DASHDOT
 10
46.224393
 20
-77.836442
 11
46.224393
 21
42.814033
  0
LINE
  8
型材断面
  6
DASHDOT
 10
-12.10894
 20
-77.836442
 11
-12.10894
 21
42.814033
  0
LINE
  8
型材断面
  6
DASHDOT
 10
-70.442275
 20
-77.836442
 11
-70.442275
 21
42.814033
  0
LINE
  8
型材断面
  6
DASHDOT
 10
143.901155
 20
42.814033
 11
-70.442275
 21
42.814033
  0
LINE
  8
型材断面
  6
DASHDOT
 10
143.901155
 20
32.814033
 11
-70.442275
 21
32.814033
  0
LINE
  8
型材断面
  6
DASHDOT
 10
143.901155
 20
22.814033
 11
-70.442275
 21
22.814033
  0
POLYLINE
  8
型材断面
  6
CONTINUOUS
 66
     1
 70
     1
  0
VERTEX
  8
型材断面
 10
-2.750177
 20
13.03811
  0
VERTEX
  8
型材断面
 10
-21.522108
 20
13.03811
  0
VERTEX
  8
型材断面
 10
-21.522108
 20
8.301267
  0
VERTEX
  8
型材断面
 10
-2.750177
 20
8.301267
  0
SEQEND
  0
POLYLINE
  8
型材断面
  6
CONTINUOUS
 66
     1
 70
     1
  0
VERTEX
  8
型材断面
 10
-2.750177
 20
52.589955
  0
VERTEX
  8
型材断面
 10
-21.522108
 20
52.589955
  0
VERTEX
  8
型材断面
 10
-21.522108
 20
57.326798
  0
VERTEX
  8
型材断面
 10
-2.750177
 20
57.326798
  0
SEQEND
  0
LINE
  8
型材断面
  6
CONTINUOUS
 10
-53.775608
 20
45.444162
 11
-55.271238
 21
48.03467
  0
LINE
  8
型材断面
  6
CONTINUOUS
 10
-53.775608
 20
45.444162
 11
-52.279978
 21
48.03467
  0
LINE
  8
型材断面
  6
CONTINUOUS
 10
-52.279978
 20
48.03467
 11
-55.271238
 21
48.03467
  0
LINE
  8
型材断面
  6
CONTINUOUS
 10
-111.294482
 20
80.791505
 11
-110.698427
 21
78.200998
  0
LINE
  8
型材断面
  6
CONTINUOUS
 10
-111.294482
 20
80.791505
 11
-111.89054
 21
78.200998
  0
LINE
  8
型材断面
  6
CONTINUOUS
 10
-111.89054
 20
78.200998
 11
-110.698427
 21
78.200998
  0
LINE
  8
型材断面
  6
CONTINUOUS
 10
-117.31707
 20
74.922105
 11
-71.075292
 21
74.922105
  0
LINE
  8
型材断面
  6
CONTINUOUS
 10
-111.294482
 20
87.32138
 11
-112.790113
 21
84.730873
  0
LINE
  8
型材断面
  6
CONTINUOUS
 10
-111.294482
 20
87.32138
 11
-109.798852
 21
84.730873
  0
LINE
  8
型材断面
  6
CONTINUOUS
 10
-109.798852
 20
84.730873
 11
-112.790113
 21
84.730873
  0
LINE
  8
型材断面
  6
CONTINUOUS
 10
-117.31707
 20
83.792277
 11
-71.075292
 21
83.792277
  0
LINE
  8
型材断面
  6
CONTINUOUS
 10
-117.31707
 20
69.134073
 11
-71.075292
 21
69.134073
  0
LINE
  8
型材断面
  6
CONTINUOUS
 10
-73.072405
 20
32.814033
 11
-75.662913
 21
34.309663
  0
LINE
  8
型材断面
  6
CONTINUOUS
 10
-73.072405
 20
32.814033
 11
-75.662913
 21
31.318403
  0
LINE
  8
型材断面
  6
CONTINUOUS
 10
-75.662913
 20
31.318403
 11
-75.662913
 21
34.309663
  0
LINE
  8
型材断面
  6
CONTINUOUS
 10
-53.775608
 20
20.183902
 11
-55.271238
 21
17.593395
  0
LINE
  8
型材断面
  6
CONTINUOUS
 10
-53.775608
 20
20.183902
 11
-52.279978
 21
17.593395
  0
LINE
  8
型材断面
  6
CONTINUOUS
 10
-52.279978
 20
17.593395
 11
-55.271238
 21
17.593395
  0
LINE
  8
型材断面
  6
CONTINUOUS
 10
29.557727
 20
45.444162
 11
31.053357
 21
48.03467
  0
LINE
  8
型材断面
  6
CONTINUOUS
 10
29.557727
 20
45.444162
 11
28.062097
 21
48.03467
  0
LINE
  8
型材断面
  6
CONTINUOUS
 10
28.062097
 20
48.03467
 11
31.053357
 21
48.03467
  0
LINE
  8
型材断面
  6
CONTINUOUS
 10
48.854525
 20
32.814033
 11
51.445032
 21
34.309663
  0
LINE
  8
型材断面
  6
CONTINUOUS
 10
48.854525
 20
32.814033
 11
51.445032
 21
31.318403
  0
LINE
  8
型材断面
  6
CONTINUOUS
 10
51.445032
 20
31.318403
 11
51.445032
 21
34.309663
  0
LINE
  8
型材断面
  6
CONTINUOUS
 10
29.557727
 20
20.183902
 11
31.053357
 21
17.593395
  0
LINE
  8
型材断面
  6
CONTINUOUS
 10
29.557727
 20
20.183902
 11
28.062097
 21
17.593395
  0
LINE
  8
型材断面
  6
CONTINUOUS
 10
28.062097
 20
17.593395
 11
31.053357
 21
17.593395
  0
LINE
  8
型材断面
  6
DASHDOT
 10
136.79094
 20
22.81403
 11
142.811005
 21
22.81403
  0
LINE
  8
型材断面
  6
CONTINUOUS
 62
    47
 10
139.074273
 20
21.417365
 11
139.074273
 21
22.197365
  0
LINE
  8
型材断面
  6
CONTINUOUS
 10
137.24094
 20
21.317365
 11
136.79094
 21
21.317365
  0
LINE
  8
型材断面
  6
CONTINUOUS
 62
    47
 10
139.913632
 20
20.53403
 11
139.580298
 21
20.53403
  0
LINE
  8
型材断面
  6
CONTINUOUS
 62
    47
 10
139.580298
 20
20.53403
 11
139.480298
 21
21.317365
  0
LINE
  8
型材断面
  6
CONTINUOUS
 62
    47
 10
139.074273
 20
21.317365
 11
139.480298
 21
21.317365
  0
LINE
  8
型材断面
  6
CONTINUOUS
 62
    47
 10
139.074273
 20
20.847365
 11
137.24094
 21
20.847365
  0
LINE
  8
型材断面
  6
CONTINUOUS
 62
    47
 10
143.04094
 20
21.41403
 11
142.54094
 21
21.41403
  0
LINE
  8
型材断面
  6
CONTINUOUS
 62
    47
 10
142.54094
 20
20.847365
 11
139.913632
 21
20.847365
  0
LINE
  8
型材断面
  6
CONTINUOUS
 62
    47
 10
142.54094
 20
20.847365
 11
142.54094
 21
32.814033
  0
LINE
  8
型材断面
  6
CONTINUOUS
 62
    47
 10
143.04094
 20
21.41403
 11
143.04094
 21
32.814033
  0
LINE
  8
型材断面
  6
CONTINUOUS
 10
139.480298
 20
21.317365
 11
139.480298
 21
32.814033
  0
LINE
  8
型材断面
  6
CONTINUOUS
 10
139.580298
 20
20.53403
 11
139.580298
 21
32.814033
  0
LINE
  8
型材断面
  6
CONTINUOUS
 62
    47
 10
139.074273
 20
20.847365
 11
139.074273
 21
32.814033
  0
LINE
  8
型材断面
  6
CONTINUOUS
 62
    47
 10
139.913632
 20
20.53403
 11
139.913632
 21
32.814033
  0
LINE
  8
型材断面
  6
CONTINUOUS
 10
137.24094
 20
20.847365
 11
137.24094
 21
32.814033
  0
LINE
  8
型材断面
  6
DASHDOT
 10
136.79094
 20
42.814035
 11
142.811005
 21
42.814035
  0
LINE
  8
型材断面
  6
CONTINUOUS
 62
    47
 10
139.074273
 20
44.2107
 11
139.074273
 21
43.4307
  0
LINE
  8
型材断面
  6
CONTINUOUS
 10
137.24094
 20
44.3107
 11
136.79094
 21
44.3107
  0
LINE
  8
型材断面
  6
CONTINUOUS
 62
    47
 10
139.913632
 20
45.094035
 11
139.580298
 21
45.094035
  0
LINE
  8
型材断面
  6
CONTINUOUS
 62
    47
 10
139.580298
 20
45.094035
 11
139.480298
 21
44.3107
  0
LINE
  8
型材断面
  6
CONTINUOUS
 62
    47
 10
139.074273
 20
44.3107
 11
139.480298
 21
44.3107
  0
LINE
  8
型材断面
  6
CONTINUOUS
 62
    47
 10
139.074273
 20
44.7807
 11
137.24094
 21
44.7807
  0
LINE
  8
型材断面
  6
CONTINUOUS
 62
    47
 10
143.04094
 20
44.214035
 11
142.54094
 21
44.214035
  0
LINE
  8
型材断面
  6
CONTINUOUS
 62
    47
 10
142.54094
 20
44.7807
 11
139.913632
 21
44.7807
  0
LINE
  8
型材断面
  6
CONTINUOUS
 62
    47
 10
142.54094
 20
44.7807
 11
142.54094
 21
32.814033
  0
LINE
  8
型材断面
  6
CONTINUOUS
 62
    47
 10
143.04094
 20
44.214035
 11
143.04094
 21
32.814033
  0
LINE
  8
型材断面
  6
CONTINUOUS
 10
139.480298
 20
44.3107
 11
139.480298
 21
32.814033
  0
LINE
  8
型材断面
  6
CONTINUOUS
 10
139.580298
 20
45.094035
 11
139.580298
 21
32.814033
  0
LINE
  8
型材断面
  6
CONTINUOUS
 62
    47
 10
139.074273
 20
44.7807
 11
139.074273
 21
32.814033
  0
LINE
  8
型材断面
  6
CONTINUOUS
 62
    47
 10
139.913632
 20
45.094035
 11
139.913632
 21
32.814033
  0
LINE
  8
型材断面
  6
CONTINUOUS
 10
137.24094
 20
44.7807
 11
137.24094
 21
32.814033
  0
LINE
  8
型材断面
  6
DASHDOT
 10
46.224395
 20
-71.242895
 11
46.224395
 21
-77.26296
  0
LINE
  8
型材断面
  6
CONTINUOUS
 62
    47
 10
47.62106
 20
-73.526228
 11
46.84106
 21
-73.526228
  0
LINE
  8
型材断面
  6
CONTINUOUS
 10
47.72106
 20
-71.692895
 11
47.72106
 21
-71.242895
  0
LINE
  8
型材断面
  6
CONTINUOUS
 62
    47
 10
48.504395
 20
-74.365588
 11
48.504395
 21
-74.032252
  0
LINE
  8
型材断面
  6
CONTINUOUS
 62
    47
 10
48.504395
 20
-74.032252
 11
47.72106
 21
-73.932252
  0
LINE
  8
型材断面
  6
CONTINUOUS
 62
    47
 10
47.72106
 20
-73.526228
 11
47.72106
 21
-73.932252
  0
LINE
  8
型材断面
  6
CONTINUOUS
 62
    47
 10
48.19106
 20
-73.526228
 11
48.19106
 21
-71.692895
  0
LINE
  8
型材断面
  6
CONTINUOUS
 62
    47
 10
47.624395
 20
-77.492895
 11
47.624395
 21
-76.992895
  0
LINE
  8
型材断面
  6
CONTINUOUS
 62
    47
 10
48.19106
 20
-76.992895
 11
48.19106
 21
-74.365588
  0
LINE
  8
型材断面
  6
CONTINUOUS
 10
48.29106
 20
20.747365
 11
48.504395
 21
20.53403
  0
LINE
  8
型材断面
  6
CONTINUOUS
 10
48.504395
 20
20.53403
 11
48.504395
 21
32.814033
  0
LINE
  8
型材断面
  6
CONTINUOUS
 10
48.19106
 20
-71.692895
 11
-12.10894
 21
-71.692895
  0
LINE
  8
型材断面
  6
CONTINUOUS
 62
    47
 10
48.504395
 20
-74.365588
 11
-12.10894
 21
-74.365588
  0
LINE
  8
型材断面
  6
CONTINUOUS
 62
    47
 10
48.19106
 20
-73.526228
 11
-12.10894
 21
-73.526228
  0
LINE
  8
型材断面
  6
CONTINUOUS
 10
48.504395
 20
-74.032252
 11
-12.10894
 21
-74.032252
  0
LINE
  8
型材断面
  6
CONTINUOUS
 10
47.72106
 20
-73.932252
 11
-12.10894
 21
-73.932252
  0
LINE
  8
型材断面
  6
CONTINUOUS
 62
    47
 10
47.624395
 20
-77.492895
 11
-12.10894
 21
-77.492895
  0
LINE
  8
型材断面
  6
CONTINUOUS
 62
    47
 10
48.19106
 20
-76.992895
 11
-12.10894
 21
-76.992895
  0
LINE
  8
型材断面
  6
DASHDOT
 10
-70.442275
 20
-71.242895
 11
-70.442275
 21
-77.26296
  0
LINE
  8
型材断面
  6
CONTINUOUS
 62
    47
 10
-71.83894
 20
-73.526228
 11
-71.05894
 21
-73.526228
  0
LINE
  8
型材断面
  6
CONTINUOUS
 10
-71.93894
 20
-71.692895
 11
-71.93894
 21
-71.242895
  0
LINE
  8
型材断面
  6
CONTINUOUS
 62
    47
 10
-72.722275
 20
-74.365588
 11
-72.722275
 21
-74.032252
  0
LINE
  8
型材断面
  6
CONTINUOUS
 62
    47
 10
-72.722275
 20
-74.032252
 11
-71.93894
 21
-73.932252
  0
LINE
  8
型材断面
  6
CONTINUOUS
 62
    47
 10
-71.93894
 20
-73.526228
 11
-71.93894
 21
-73.932252
  0
LINE
  8
型材断面
  6
CONTINUOUS
 62
    47
 10
-72.40894
 20
-73.526228
 11
-72.40894
 21
-71.692895
  0
LINE
  8
型材断面
  6
CONTINUOUS
 62
    47
 10
-71.842275
 20
-77.492895
 11
-71.842275
 21
-76.992895
  0
LINE
  8
型材断面
  6
CONTINUOUS
 62
    47
 10
-72.40894
 20
-76.992895
 11
-72.40894
 21
-74.365588
  0
LINE
  8
型材断面
  6
CONTINUOUS
 10
-72.40894
 20
-71.692895
 11
-12.10894
 21
-71.692895
  0
LINE
  8
型材断面
  6
CONTINUOUS
 62
    47
 10
-72.722275
 20
-74.365588
 11
-12.10894
 21
-74.365588
  0
LINE
  8
型材断面
  6
CONTINUOUS
 62
    47
 10
-72.40894
 20
-73.526228
 11
-12.10894
 21
-73.526228
  0
LINE
  8
型材断面
  6
CONTINUOUS
 10
-72.722275
 20
-74.032252
 11
-12.10894
 21
-74.032252
  0
LINE
  8
型材断面
  6
CONTINUOUS
 10
-71.93894
 20
-73.932252
 11
-12.10894
 21
-73.932252
  0
LINE
  8
型材断面
  6
CONTINUOUS
 62
    47
 10
-71.842275
 20
-77.492895
 11
-12.10894
 21
-77.492895
  0
LINE
  8
型材断面
  6
CONTINUOUS
 62
    47
 10
-72.40894
 20
-76.992895
 11
-12.10894
 21
-76.992895
  0
LINE
  8
型材断面
  6
DOT
 62
    47
 10
47.62106
 20
-66.192895
 11
46.84106
 21
-66.192895
  0
LINE
  8
型材断面
  6
DOT
 10
47.72106
 20
-64.359562
 11
47.72106
 21
-63.909562
  0
LINE
  8
型材断面
  6
DOT
 62
    47
 10
48.504395
 20
-67.032255
 11
48.504395
 21
-66.69892
  0
LINE
  8
型材断面
  6
DOT
 62
    47
 10
48.504395
 20
-66.69892
 11
47.72106
 21
-66.59892
  0
LINE
  8
型材断面
  6
DOT
 62
    47
 10
47.72106
 20
-66.192895
 11
47.72106
 21
-66.59892
  0
LINE
  8
型材断面
  6
DOT
 62
    47
 10
48.19106
 20
-66.192895
 11
48.19106
 21
-64.359562
  0
LINE
  8
型材断面
  6
DOT
 10
48.19106
 20
-64.359562
 11
-12.10894
 21
-64.359562
  0
LINE
  8
型材断面
  6
DOT
 62
    47
 10
48.504395
 20
-67.032255
 11
-12.10894
 21
-67.032255
  0
LINE
  8
型材断面
  6
DOT
 62
    47
 10
48.19106
 20
-66.192895
 11
-12.10894
 21
-66.192895
  0
LINE
  8
型材断面
  6
DOT
 10
48.504395
 20
-66.69892
 11
-12.10894
 21
-66.69892
  0
LINE
  8
型材断面
  6
DOT
 10
47.72106
 20
-66.59892
 11
-12.10894
 21
-66.59892
  0
LINE
  8
型材断面
  6
DOT
 62
    47
 10
-71.83894
 20
-66.192895
 11
-71.05894
 21
-66.192895
  0
LINE
  8
型材断面
  6
DOT
 10
-71.93894
 20
-64.359562
 11
-71.93894
 21
-63.909562
  0
LINE
  8
型材断面
  6
DOT
 62
    47
 10
-72.722275
 20
-67.032255
 11
-72.722275
 21
-66.69892
  0
LINE
  8
型材断面
  6
DOT
 62
    47
 10
-72.722275
 20
-66.69892
 11
-71.93894
 21
-66.59892
  0
LINE
  8
型材断面
  6
DOT
 62
    47
 10
-71.93894
 20
-66.192895
 11
-71.93894
 21
-66.59892
  0
LINE
  8
型材断面
  6
DOT
 62
    47
 10
-72.40894
 20
-66.192895
 11
-72.40894
 21
-64.359562
  0
LINE
  8
型材断面
  6
DOT
 10
-72.40894
 20
-64.359562
 11
-12.10894
 21
-64.359562
  0
LINE
  8
型材断面
  6
DOT
 62
    47
 10
-72.722275
 20
-67.032255
 11
-12.10894
 21
-67.032255
  0
LINE
  8
型材断面
  6
DOT
 62
    47
 10
-72.40894
 20
-66.192895
 11
-12.10894
 21
-66.192895
  0
LINE
  8
型材断面
  6
DOT
 10
-72.722275
 20
-66.69892
 11
-12.10894
 21
-66.69892
  0
LINE
  8
型材断面
  6
DOT
 10
-71.93894
 20
-66.59892
 11
-12.10894
 21
-66.59892
  0
LINE
  8
型材断面
  6
CONTINUOUS
 10
48.504395
 20
20.53403
 11
-12.10894
 21
20.53403
  0
LINE
  8
型材断面
  6
CONTINUOUS
 10
48.29106
 20
44.8807
 11
48.504395
 21
45.094035
  0
LINE
  8
型材断面
  6
CONTINUOUS
 10
48.504395
 20
45.094035
 11
48.504395
 21
32.814033
  0
LINE
  8
型材断面
  6
CONTINUOUS
 10
48.504395
 20
45.094035
 11
-12.10894
 21
45.094035
  0
LINE
  8
型材断面
  6
CONTINUOUS
 10
-72.50894
 20
44.8807
 11
-72.722275
 21
45.094035
  0
LINE
  8
型材断面
  6
CONTINUOUS
 10
-72.722275
 20
45.094035
 11
-72.722275
 21
32.814033
  0
LINE
  8
型材断面
  6
CONTINUOUS
 10
-72.722275
 20
45.094035
 11
-12.10894
 21
45.094035
  0
LINE
  8
型材断面
  6
CONTINUOUS
 10
-72.50894
 20
20.747365
 11
-72.722275
 21
20.53403
  0
LINE
  8
型材断面
  6
CONTINUOUS
 10
-72.722275
 20
20.53403
 11
-72.722275
 21
32.814033
  0
LINE
  8
型材断面
  6
CONTINUOUS
 10
-72.722275
 20
20.53403
 11
-12.10894
 21
20.53403
  0
LINE
  8
型材断面
  6
CONTINUOUS
 10
48.85452
 20
38.914033
 11
51.445027
 21
38.317975
  0
LINE
  8
型材断面
  6
CONTINUOUS
 10
48.85452
 20
38.914033
 11
51.445027
 21
39.51009
  0
LINE
  8
型材断面
  6
CONTINUOUS
 10
51.445027
 20
39.51009
 11
51.445027
 21
38.317975
  0
LINE
  8
型材断面
  6
CONTINUOUS
 10
48.85452
 20
26.714033
 11
51.445027
 21
27.31009
  0
LINE
  8
型材断面
  6
CONTINUOUS
 10
48.85452
 20
26.714033
 11
51.445027
 21
26.117975
  0
LINE
  8
型材断面
  6
CONTINUOUS
 10
51.445027
 20
26.117975
 11
51.445027
 21
27.31009
  0
LINE
  8
型材断面
  6
CONTINUOUS
 10
-73.0724
 20
38.914033
 11
-75.662907
 21
38.317975
  0
LINE
  8
型材断面
  6
CONTINUOUS
 10
-73.0724
 20
38.914033
 11
-75.662907
 21
39.51009
  0
LINE
  8
型材断面
  6
CONTINUOUS
 10
-75.662907
 20
39.51009
 11
-75.662907
 21
38.317975
  0
LINE
  8
型材断面
  6
CONTINUOUS
 10
-73.0724
 20
26.714033
 11
-75.662907
 21
27.31009
  0
LINE
  8
型材断面
  6
CONTINUOUS
 10
-73.0724
 20
26.714033
 11
-75.662907
 21
26.117975
  0
LINE
  8
型材断面
  6
CONTINUOUS
 10
-75.662907
 20
26.117975
 11
-75.662907
 21
27.31009
  0
INSERT
  2
*GRP_0016
  8
型材断面
  6
CONTINUOUS
 10
0.0
 20
0.0
  0
INSERT
  2
*GRP_0017
  8
型材断面
  6
CONTINUOUS
 10
0.0
 20
0.0
  0
INSERT
  2
*GRP_0018
  8
型材断面
  6
CONTINUOUS
 10
0.0
 20
0.0
  0
INSERT
  2
*GRP_0019
  8
型材断面
  6
CONTINUOUS
 10
0.0
 20
0.0
  0
LINE
  8
型材断面
  6
CONTINUOUS
 10
-117.31707
 20
63.34604
 11
-71.075292
 21
63.34604
  0
LINE
  8
型材断面
  6
DOT
 10
-30.418942
 20
22.814033
 11
-30.418942
 21
42.814033
  0
LINE
  8
型材断面
  6
DASHDOT
 10
-31.668942
 20
22.814033
 11
-31.668942
 21
42.814033
  0
LINE
  8
型材断面
  6
DOT
 10
-32.918942
 20
22.814033
 11
-32.918942
 21
42.814033
  0
LINE
  8
型材断面
  6
DOT
 10
6.201063
 20
22.814033
 11
6.201063
 21
42.814033
  0
LINE
  8
型材断面
  6
DASHDOT
 10
7.451063
 20
22.814033
 11
7.451063
 21
42.814033
  0
LINE
  8
型材断面
  6
DOT
 10
8.701063
 20
22.814033
 11
8.701063
 21
42.814033
  0
TEXT
  7
TextStyle03
  8
文字
  6
CONTINUOUS
 10
122.775
 20
-76.7
  1
網入り6.8t
 40
3.0
 72
     5
 11
139.4625
 21
-76.7
  0
TEXT
  7
TextStyle03
  8
文字
  6
CONTINUOUS
 10
-20.525
 20
9.325
  1
可動装置側
 40
3.0
 72
     5
 11
-4.025
 21
9.325
  0
TEXT
  7
TextStyle03
  8
文字
  6
CONTINUOUS
 10
-20.525
 20
53.3
  1
可動装置側
 40
3.0
 72
     5
 11
-4.025
 21
53.3
  0
TEXT
  7
TextStyle03
  8
文字
  6
CONTINUOUS
 10
129.45
 20
-81.375
  1
×３枚
 40
3.0
 72
     5
 11
139.2
 21
-81.375
  0
TEXT
  7
TextStyle03
  8
文字
  6
CONTINUOUS
 10
-108.5
 20
79.425
  1
はケーシング位置を示す
 40
3.0
 72
     5
 11
-71.75
 21
79.425
  0
TEXT
  7
TextStyle03
  8
文字
  6
CONTINUOUS
 10
-108.5
 20
76.05
  1
４ヶ所中1ヶ所に設定
 40
3.0
 72
     5
 11
-76.8125
 21
76.05
  0
TEXT
  7
TextStyle03
  8
文字
  6
CONTINUOUS
 10
-108.5
 20
84.95
  1
は排水穴位置を示す
 40
3.0
 72
     5
 11
-78.5
 21
84.95
  0
TEXT
  7
TextStyle03
  8
文字
  6
CONTINUOUS
 10
-91.45
 20
11.275
  1
アンカーピッチ
 40
3.0
 50
90.0
 72
     5
 11
-91.45
 21
34.525
  0
TEXT
  7
TextStyle03
  8
文字
  6
CONTINUOUS
 10
-59.3
 20
79.775
  1
アンカーピッチ
 40
3.0
 72
     5
 11
-36.05
 21
79.775
  0
TEXT
  7
TextStyle03
  8
文字
  6
CONTINUOUS
 10
-112.225
 20
70.075
  1
アンカー数量　１４ヶ所
 40
3.0
 72
     5
 11
-75.475
 21
70.075
  0
TEXT
  7
TextStyle03
  8
文字
  6
CONTINUOUS
 10
-112.3
 20
64.3
  1
アームユニット数　４ヶ所
 40
3.0
 72
     5
 11
-72.175
 21
64.3
  0
LINE
  8
文字
  6
CONTINUOUS
 10
103.53428
 20
-54.051605
 11
103.53428
 21
-61.825803
  0
LINE
  8
文字
  6
CONTINUOUS
 10
141.300948
 20
-54.051605
 11
141.300948
 21
-61.825803
  0
TEXT
  7
TextStyle03
  8
文字
  6
CONTINUOUS
 10
78.1
 20
125.25
  1
シリーズ：ＳＴＤＬ
 40
5.0
 72
     5
 11
128.1
 21
125.25
  0
TEXT
  7
TextStyle03
  8
文字
  6
CONTINUOUS
 10
78.1
 20
119.625
  1
　　　　　（上下可動）600×3500タイプ
 40
5.0
 72
     5
 11
181.5375
 21
119.625
  0
TEXT
  7
TextStyle03
  8
文字
  6
CONTINUOUS
 10
78.1
 20
114.0
  1
図面名　：外観姿図
 40
5.0
 72
     5
 11
128.1
 21
114.0
  0
TEXT
  7
TextStyle03
  8
文字
  6
CONTINUOUS
 10
78.1
 20
108.375
  1
　　　　　　
 40
5.0
 72
     5
 11
111.225
 21
108.375
  0
TEXT
  7
TextStyle03
  8
文字
  6
CONTINUOUS
 10
77.425
 20
103.975
  1
ＮＳコード：ＮＳＤＳＬ
 40
5.0
 72
     5
 11
138.675
 21
103.975
  0
INSERT
  2
*DIM_0002
  8
寸法
  6
CONTINUOUS
 10
0.0
 20
0.0
  0
INSERT
  2
*DIM_0003
  8
寸法
  6
CONTINUOUS
 10
0.0
 20
0.0
  0
INSERT
  2
*DIM_0004
  8
寸法
  6
CONTINUOUS
 10
0.0
 20
0.0
  0
INSERT
  2
*DIM_0005
  8
寸法
  6
CONTINUOUS
 10
0.0
 20
0.0
  0
INSERT
  2
*DIM_0006
  8
寸法
  6
CONTINUOUS
 10
0.0
 20
0.0
  0
INSERT
  2
*DIM_0007
  8
寸法
  6
CONTINUOUS
 10
0.0
 20
0.0
  0
INSERT
  2
*DIM_0008
  8
寸法
  6
CONTINUOUS
 10
0.0
 20
0.0
  0
INSERT
  2
*DIM_0009
  8
寸法
  6
CONTINUOUS
 10
0.0
 20
0.0
  0
INSERT
  2
*DIM_0010
  8
寸法
  6
CONTINUOUS
 10
0.0
 20
0.0
  0
INSERT
  2
*DIM_0011
  8
寸法
  6
CONTINUOUS
 10
0.0
 20
0.0
  0
INSERT
  2
*DIM_0012
  8
寸法
  6
CONTINUOUS
 10
0.0
 20
0.0
  0
INSERT
  2
*DIM_0013
  8
寸法
  6
CONTINUOUS
 10
0.0
 20
0.0
  0
INSERT
  2
*DIM_0014
  8
寸法
  6
CONTINUOUS
 10
0.0
 20
0.0
  0
INSERT
  2
*DIM_0020
  8
寸法
  6
CONTINUOUS
 10
0.0
 20
0.0
  0
INSERT
  2
*DIM_0021
  8
寸法
  6
CONTINUOUS
 10
0.0
 20
0.0
  0
INSERT
  2
*DIM_0022
  8
寸法
  6
CONTINUOUS
 10
0.0
 20
0.0
  0
INSERT
  2
*DIM_0023
  8
寸法
  6
CONTINUOUS
 10
0.0
 20
0.0
  0
INSERT
  2
*DIM_0024
  8
寸法
  6
CONTINUOUS
 10
0.0
 20
0.0
  0
INSERT
  2
*DIM_0025
  8
寸法
  6
CONTINUOUS
 10
0.0
 20
0.0
  0
INSERT
  2
*DIM_0026
  8
寸法
  6
CONTINUOUS
 10
0.0
 20
0.0
  0
INSERT
  2
*DIM_0027
  8
寸法
  6
CONTINUOUS
 10
0.0
 20
0.0
  0
LINE
  8
別途部材
  6
CONTINUOUS
 10
48.29106
 20
20.747365
 11
47.89106
 21
21.147365
  0
LINE
  8
別途部材
  6
CONTINUOUS
 10
46.224393
 20
22.814033
 11
38.165137
 21
30.87329
  0
LINE
  8
別途部材
  6
CONTINUOUS
 10
47.89106
 20
21.147365
 11
47.89106
 21
32.814033
  0
LINE
  8
別途部材
  6
CONTINUOUS
 10
48.29106
 20
20.747365
 11
48.29106
 21
32.814033
  0
LINE
  8
別途部材
  6
CONTINUOUS
 10
48.29106
 20
44.8807
 11
47.89106
 21
44.4807
  0
LINE
  8
別途部材
  6
CONTINUOUS
 10
46.224393
 20
42.814033
 11
38.165137
 21
34.754775
  0
LINE
  8
別途部材
  6
CONTINUOUS
 10
47.89106
 20
44.4807
 11
47.89106
 21
32.814033
  0
LINE
  8
別途部材
  6
CONTINUOUS
 10
48.29106
 20
44.8807
 11
48.29106
 21
32.814033
  0
LINE
  8
別途部材
  6
CONTINUOUS
 10
47.89106
 20
44.4807
 11
-12.10894
 21
44.4807
  0
LINE
  8
別途部材
  6
CONTINUOUS
 10
48.29106
 20
44.8807
 11
-12.10894
 21
44.8807
  0
LINE
  8
別途部材
  6
CONTINUOUS
 10
48.29106
 20
20.747365
 11
-12.10894
 21
20.747365
  0
LINE
  8
別途部材
  6
CONTINUOUS
 10
47.89106
 20
21.147365
 11
-12.10894
 21
21.147365
  0
LINE
  8
別途部材
  6
CONTINUOUS
 10
-72.50894
 20
20.747365
 11
-72.10894
 21
21.147365
  0
LINE
  8
別途部材
  6
CONTINUOUS
 10
-70.442273
 20
22.814033
 11
-62.383018
 21
30.87329
  0
LINE
  8
別途部材
  6
CONTINUOUS
 10
-72.10894
 20
21.147365
 11
-72.10894
 21
32.814033
  0
LINE
  8
別途部材
  6
CONTINUOUS
 10
-72.50894
 20
20.747365
 11
-72.50894
 21
32.814033
  0
LINE
  8
別途部材
  6
CONTINUOUS
 10
-72.50894
 20
44.8807
 11
-72.10894
 21
44.4807
  0
LINE
  8
別途部材
  6
CONTINUOUS
 10
-70.442273
 20
42.814033
 11
-62.383018
 21
34.754775
  0
LINE
  8
別途部材
  6
CONTINUOUS
 10
-72.10894
 20
44.4807
 11
-72.10894
 21
32.814033
  0
LINE
  8
別途部材
  6
CONTINUOUS
 10
-72.50894
 20
44.8807
 11
-72.50894
 21
32.814033
  0
LINE
  8
別途部材
  6
CONTINUOUS
 10
-72.10894
 20
44.4807
 11
-12.10894
 21
44.4807
  0
LINE
  8
別途部材
  6
CONTINUOUS
 10
-72.50894
 20
44.8807
 11
-12.10894
 21
44.8807
  0
LINE
  8
別途部材
  6
CONTINUOUS
 10
-72.50894
 20
20.747365
 11
-12.10894
 21
20.747365
  0
LINE
  8
別途部材
  6
CONTINUOUS
 10
-72.10894
 20
21.147365
 11
-12.10894
 21
21.147365
  0
LINE
  8
別途部材
  6
CONTINUOUS
 62
    96
 10
135.757657
 20
21.147365
 11
136.757657
 21
20.747365
  0
LINE
  8
別途部材
  6
CONTINUOUS
 62
    96
 10
135.757657
 20
21.147365
 11
135.757657
 21
32.814033
  0
LINE
  8
別途部材
  6
CONTINUOUS
 10
136.757657
 20
20.747365
 11
136.757657
 21
32.814033
  0
LINE
  8
別途部材
  6
CONTINUOUS
 62
    96
 10
135.757657
 20
44.4807
 11
136.757657
 21
44.8807
  0
LINE
  8
別途部材
  6
CONTINUOUS
 62
    96
 10
135.757657
 20
44.4807
 11
135.757657
 21
32.814033
  0
LINE
  8
別途部材
  6
CONTINUOUS
 10
136.757657
 20
44.8807
 11
136.757657
 21
32.814033
  0
ARC
  8
別途部材
  6
CONTINUOUS
 10
142.465993
 20
32.814033
 40
12.041667
 50
123.855033
 51
236.144967
  0
LINE
  8
別途部材
  6
DOT
 62
    96
 10
47.89106
 20
-62.87628
 11
48.29106
 21
-63.87628
  0
ARC
  8
別途部材
  6
DOT
 10
36.224392
 20
-69.584615
 40
12.041667
 50
33.855033
 51
90.0
  0
LINE
  8
別途部材
  6
DOT
 10
36.224393
 20
-57.542947
 11
-12.10894
 21
-57.542947
  0
LINE
  8
別途部材
  6
DOT
 10
48.29106
 20
-63.87628
 11
-12.10894
 21
-63.87628
  0
LINE
  8
別途部材
  6
DOT
 62
    96
 10
47.89106
 20
-62.87628
 11
-12.10894
 21
-62.87628
  0
LINE
  8
別途部材
  6
DOT
 62
    96
 10
-72.10894
 20
-62.87628
 11
-72.50894
 21
-63.87628
  0
ARC
  8
別途部材
  6
DOT
 10
-60.442272
 20
-69.584615
 40
12.041667
 50
90.0
 51
146.144967
  0
LINE
  8
別途部材
  6
DOT
 10
-60.442273
 20
-57.542947
 11
-12.10894
 21
-57.542947
  0
LINE
  8
別途部材
  6
DOT
 10
-72.50894
 20
-63.87628
 11
-12.10894
 21
-63.87628
  0
LINE
  8
別途部材
  6
DOT
 62
    96
 10
-72.10894
 20
-62.87628
 11
-12.10894
 21
-62.87628
  0
INSERT
  2
*GRP_0015
  8
別途部材
  6
CONTINUOUS
 10
0.0
 20
0.0
  0
INSERT
  2
*GRP_0028
  8
別途部材
  6
DOT
 10
0.0
 20
0.0
  0
INSERT
  2
*GRP_0029
  8
別途部材
  6
DOT
 10
0.0
 20
0.0
  0
INSERT
  2
*GRP_0030
  8
別途部材
  6
DOT
 10
0.0
 20
0.0
  0
INSERT
  2
*GRP_0031
  8
別途部材
  6
DOT
 10
0.0
 20
0.0
  0
INSERT
  2
*GRP_0032
  8
別途部材
  6
DOT
 10
0.0
 20
0.0
  0
INSERT
  2
*GRP_0033
  8
別途部材
  6
DOT
 10
0.0
 20
0.0
  0
LINE
  8
曲げ物
  6
CONTINUOUS
 10
103.53428
 20
-63.785395
 11
103.53428
 21
-83.118728
  0
LINE
  8
曲げ物
  6
CONTINUOUS
 10
141.300948
 20
-63.785395
 11
141.300948
 21
-83.118728
  0
LINE
  8
曲げ物
  6
CONTINUOUS
 10
103.53428
 20
-63.785395
 11
141.300948
 21
-63.785395
  0
LINE
  8
曲げ物
  6
CONTINUOUS
 10
103.53428
 20
-83.118728
 11
141.300948
 21
-83.118728
  0
ENDSEC
  0
EOF
