  0
SECTION
  2
HEADER
  9
$EXTMIN
 10
-210.0
 20
-148.5
  9
$EXTMAX
 10
210.0
 20
148.5
  9
$PDMODE
 70
    32
  9
$PDSIZE
 40
1.5
  9
$LTSCALE
 40
10.0
  0
ENDSEC
  0
SECTION
  2
TABLES
  0
TABLE
  2
LTYPE
 70
    15
  0
LTYPE
  2
CONTINUOUS
 70
    64
  3
実線
 72
    65
 73
     0
 40
0.0
  0
LTYPE
  2
DASHED
 70
    64
  3
破線A
 72
    65
 73
     2
 40
0.6
 49
0.4
 49
-0.2
  0
LTYPE
  2
DASHEDX2
 70
    64
  3
破線B
 72
    65
 73
     2
 40
1.3
 49
0.9
 49
-0.4
  0
LTYPE
  2
DASHDOT
 70
    64
  3
１点鎖線A
 72
    65
 73
     4
 40
0.5375
 49
0.375
 49
-0.05
 49
0.0625
 49
-0.05
  0
LTYPE
  2
DASHDOTX2
 70
    64
  3
１点鎖線B
 72
    65
 73
     4
 40
1.075
 49
0.75
 49
-0.1
 49
0.125
 49
-0.1
  0
LTYPE
  2
DIVIDE2
 70
    64
  3
２点鎖線A
 72
    65
 73
     6
 40
0.5125
 49
0.3
 49
-0.0375
 49
0.05
 49
-0.0375
 49
0.05
 49
-0.0375
  0
LTYPE
  2
DIVIDE
 70
    64
  3
２点鎖線B
 72
    65
 73
     6
 40
1.05
 49
0.55
 49
-0.1
 49
0.1
 49
-0.1
 49
0.1
 49
-0.1
  0
LTYPE
  2
DOT
 70
    64
  3
点線A
 72
    65
 73
     2
 40
0.1125
 49
0.0625
 49
-0.05
  0
LTYPE
  2
DOTX2
 70
    64
  3
点線B
 72
    65
 73
     2
 40
0.275
 49
0.15
 49
-0.125
  0
LTYPE
  2
CONTINUOUS
 70
    64
  3
実線
 72
    65
 73
     0
 40
0.0
  0
LTYPE
  2
CONTINUOUS
 70
    64
  3
実線
 72
    65
 73
     0
 40
0.0
  0
LTYPE
  2
CONTINUOUS
 70
    64
  3
実線
 72
    65
 73
     0
 40
0.0
  0
LTYPE
  2
CONTINUOUS
 70
    64
  3
実線
 72
    65
 73
     0
 40
0.0
  0
LTYPE
  2
CONTINUOUS
 70
    64
  3
実線
 72
    65
 73
     0
 40
0.0
  0
LTYPE
  2
CONTINUOUS
 70
    64
  3
実線
 72
    65
 73
     0
 40
0.0
  0
ENDTAB
  0
TABLE
  2
LAYER
 70
    34
  0
LAYER
  2
通り芯
 70
     0
 62
    15
  6
CONTINUOUS
  0
LAYER
  2
補助線
 70
     0
 62
    16
  6
DOT
  0
LAYER
  2
躯体
 70
     0
 62
    31
  6
CONTINUOUS
  0
LAYER
  2
型材
 70
     0
 62
    32
  6
CONTINUOUS
  0
LAYER
  2
型材断面
 70
     0
 62
    47
  6
CONTINUOUS
  0
LAYER
  2
ガラス
 70
     0
 62
    48
  6
CONTINUOUS
  0
LAYER
  2
ゴム等
 70
     0
 62
    63
  6
CONTINUOUS
  0
LAYER
  2
ボルト／ビス
 70
     0
 62
    64
  6
CONTINUOUS
  0
LAYER
  2
文字
 70
     0
 62
    79
  6
CONTINUOUS
  0
LAYER
  2
寸法
 70
     0
 62
    80
  6
CONTINUOUS
  0
LAYER
  2
ﾊｯﾁﾝｸﾞ
 70
     0
 62
    95
  6
CONTINUOUS
  0
LAYER
  2
別途部材
 70
     0
 62
    96
  6
CONTINUOUS
  0
LAYER
  2
曲げ物
 70
     0
 62
   111
  6
CONTINUOUS
  0
LAYER
  2
鉄骨等
 70
     0
 62
   112
  6
CONTINUOUS
  0
LAYER
  2
St
 70
     0
 62
   127
  6
CONTINUOUS
  0
LAYER
  2
その他部品等
 70
     0
 62
   128
  6
CONTINUOUS
  0
LAYER
  2
ｶﾞｽｹｯﾄ
 70
     0
 62
   143
  6
CONTINUOUS
  0
LAYER
  2
ｽｹｯﾁ
 70
     0
 62
    14
  6
CONTINUOUS
  0
LAYER
  2
0
 70
     0
 62
    17
  6
CONTINUOUS
  0
LAYER
  2
1
 70
     0
 62
    30
  6
CONTINUOUS
  0
LAYER
  2
4
 70
     0
 62
    33
  6
CONTINUOUS
  0
LAYER
  2
ﾚｲﾔ3
 70
     0
 62
    46
  6
CONTINUOUS
  0
LAYER
  2
外形線
 70
     0
 62
    49
  6
CONTINUOUS
  0
LAYER
  2
部品
 70
     0
 62
    14
  6
CONTINUOUS
  0
LAYER
  2
サッシ芯
 70
     0
 62
    17
  6
DASHDOTX2
  0
LAYER
  2
寸法線
 70
     0
 62
    62
  6
CONTINUOUS
  0
LAYER
  2
姿図外形線
 70
     0
 62
    65
  6
CONTINUOUS
  0
LAYER
  2
姿補助線
 70
     0
 62
    30
  6
CONTINUOUS
  0
LAYER
  2
透視線
 70
     0
 62
    78
  6
DOT
  0
LAYER
  2
用紙
 70
     0
 62
    81
  6
CONTINUOUS
  0
LAYER
  2
実線図枠
 70
     0
 62
    94
  6
CONTINUOUS
  0
LAYER
  2
補助図枠
 70
     0
 62
    97
  6
CONTINUOUS
  0
LAYER
  2
建具記号
 70
     0
 62
   110
  6
CONTINUOUS
  0
LAYER
  2
補助文字
 70
     0
 62
   113
  6
CONTINUOUS
  0
ENDTAB
  0
TABLE
  2
STYLE
 70
    10
  0
STYLE
  2
STANDARD
 70
     0
 40
1.0
 41
1.0
 42
1.0
 50
0.0
 71
     0
  3
TXT
  4
BIGFONT
  0
STYLE
  2
TATE
 70
     4
 40
1.0
 41
1.0
 42
1.0
 50
0.0
 71
     0
  3
TXT
  4
BIGFONT
  0
STYLE
  2
TextStyle03
 70
     0
 40
1.0
 41
1.0
 42
1.0
 50
0.0
 71
     0
  3
MONOTXT
  4
BIGFONT
  0
STYLE
  2
TextStyle04
 70
     0
 40
1.0
 41
1.0
 42
1.0
 50
0.0
 71
     0
  3
MONOTXT
  4
BIGFONT
  0
STYLE
  2
TextStyle05
 70
     0
 40
1.0
 41
1.0
 42
1.0
 50
0.0
 71
     0
  3
MONOTXT
  4
BIGFONT
  0
STYLE
  2
TextStyle06
 70
     0
 40
1.0
 41
1.0
 42
1.0
 50
0.0
 71
     0
  3
MONOTXT
  4
BIGFONT
  0
STYLE
  2
TextStyle07
 70
     0
 40
1.0
 41
1.0
 42
1.0
 50
0.0
 71
     0
  3
MONOTXT
  4
BIGFONT
  0
STYLE
  2
TextStyle08
 70
     0
 40
1.0
 41
1.0
 42
1.0
 50
0.0
 71
     0
  3
MONOTXT
  4
BIGFONT
  0
STYLE
  2
TextStyle09
 70
     0
 40
1.0
 41
1.0
 42
1.0
 50
0.0
 71
     0
  3
MONOTXT
  4
BIGFONT
  0
STYLE
  2
TextStyle10
 70
     0
 40
1.0
 41
1.0
 42
1.0
 50
0.0
 71
     0
  3
MONOTXT
  4
BIGFONT
  0
ENDTAB
  0
ENDSEC
  0
SECTION
  2
BLOCKS
  0
BLOCK
  2
*GRP_0001
 70
    65
 10
0.0
 20
0.0
  0
LINE
  8
型材断面
  6
CONTINUOUS
 10
195.0
 20
133.5
 11
195.0
 21
-133.5
  0
LINE
  8
型材断面
  6
CONTINUOUS
 10
195.0
 20
-133.5
 11
-185.0
 21
-133.5
  0
LINE
  8
型材断面
  6
CONTINUOUS
 10
-185.0
 20
-133.5
 11
-185.0
 21
133.5
  0
LINE
  8
型材断面
  6
CONTINUOUS
 10
195.0
 20
133.5
 11
-185.0
 21
133.5
  0
LINE
  8
型材断面
  6
CONTINUOUS
 10
145.0
 20
-133.5
 11
145.0
 21
-118.5
  0
LINE
  8
型材断面
  6
CONTINUOUS
 10
195.0
 20
-118.5
 11
145.0
 21
-118.5
  0
ENDBLK
  0
BLOCK
  2
*DIM_0002
 70
    65
 10
0.0
 20
0.0
  0
LINE
  8
寸法
  6
BYBLOCK
 62
     0
 10
37.224393
 20
-64.87628
 11
62.194043
 21
-64.87628
  0
LINE
  8
寸法
  6
BYBLOCK
 62
     0
 10
62.194043
 20
-70.209613
 11
62.194043
 21
-64.87628
  0
POINT
  8
寸法
 62
     0
 10
62.194043
 20
-70.209613
  0
POINT
  8
寸法
 62
     0
 10
62.194043
 20
-64.87628
  0
TEXT
  7
TextStyle03
  8
寸法
  6
CONTINUOUS
 62
     0
 10
61.8
 20
-69.9875
  1
160
 40
3.0
 50
90.0
 72
     5
 11
61.8
 21
-65.1125
  0
ENDBLK
  0
BLOCK
  2
*DIM_0003
 70
    65
 10
0.0
 20
0.0
  0
LINE
  8
寸法
  6
BYBLOCK
 62
     0
 10
142.310947
 20
-63.785395
 11
150.422478
 21
-63.785395
  0
LINE
  8
寸法
  6
BYBLOCK
 62
     0
 10
142.310947
 20
-83.118728
 11
150.422478
 21
-83.118728
  0
LINE
  8
寸法
  6
BYBLOCK
 62
     0
 10
150.422478
 20
-63.785395
 11
150.422478
 21
-83.118728
  0
POINT
  8
寸法
 62
     0
 10
150.422478
 20
-63.785395
  0
POINT
  8
寸法
 62
     0
 10
150.422478
 20
-83.118728
  0
TEXT
  7
TextStyle03
  8
寸法
  6
CONTINUOUS
 62
     0
 10
150.025
 20
-75.9125
  1
580
 40
3.0
 50
90.0
 72
     5
 11
150.025
 21
-71.0375
  0
ENDBLK
  0
BLOCK
  2
*DIM_0004
 70
    65
 10
0.0
 20
0.0
  0
LINE
  8
寸法
  6
BYBLOCK
 62
     0
 10
46.224393
 20
-13.121378
 11
-87.10894
 21
-13.121378
  0
POINT
  8
寸法
 62
     0
 10
46.224393
 20
-13.121378
  0
POINT
  8
寸法
 62
     0
 10
-87.10894
 20
-13.121378
  0
TEXT
  7
TextStyle03
  8
寸法
  6
CONTINUOUS
 62
     0
 10
-32.16875
 20
-12.75
  1
呼称寸法　4000
 40
3.0
 72
     5
 11
-8.73125
 21
-12.75
  0
ENDBLK
  0
BLOCK
  2
*DIM_0005
 70
    65
 10
0.0
 20
0.0
  0
LINE
  8
寸法
  6
BYBLOCK
 62
     0
 10
-70.442273
 20
19.183902
 11
-70.442273
 21
14.13158
  0
LINE
  8
寸法
  6
BYBLOCK
 62
     0
 10
29.557723
 20
19.183902
 11
29.557723
 21
14.13158
  0
LINE
  8
寸法
  6
BYBLOCK
 62
     0
 10
-70.442273
 20
14.13158
 11
29.557723
 21
14.13158
  0
POINT
  8
寸法
 62
     0
 10
-70.442273
 20
14.13158
  0
POINT
  8
寸法
 62
     0
 10
29.557723
 20
14.13158
  0
TEXT
  7
TextStyle03
  8
寸法
  6
CONTINUOUS
 62
     0
 10
-23.73125
 20
14.5
  1
3000
 40
3.0
 72
     5
 11
-17.16875
 21
14.5
  0
ENDBLK
  0
BLOCK
  2
*DIM_0006
 70
    65
 10
0.0
 20
0.0
  0
LINE
  8
寸法
  6
BYBLOCK
 62
     0
 10
80.244043
 20
22.814033
 11
80.244043
 21
42.814033
  0
POINT
  8
寸法
 62
     0
 10
80.244043
 20
22.814033
  0
POINT
  8
寸法
 62
     0
 10
80.244043
 20
42.814033
  0
TEXT
  7
TextStyle03
  8
寸法
  6
CONTINUOUS
 62
     0
 10
79.85
 20
21.925
  1
呼称寸法　600
 40
3.0
 50
90.0
 72
     5
 11
79.85
 21
43.675
  0
ENDBLK
  0
BLOCK
  2
*DIM_0007
 70
    65
 10
0.0
 20
0.0
  0
LINE
  8
寸法
  6
BYBLOCK
 62
     0
 10
130.424325
 20
33.814033
 11
130.424325
 21
60.666798
  0
LINE
  8
寸法
  6
BYBLOCK
 62
     0
 10
135.757657
 20
60.666798
 11
130.424325
 21
60.666798
  0
POINT
  8
寸法
 62
     0
 10
135.757657
 20
60.666798
  0
POINT
  8
寸法
 62
     0
 10
130.424325
 20
60.666798
  0
TEXT
  7
TextStyle03
  8
寸法
  6
CONTINUOUS
 62
     0
 10
130.6375
 20
61.025
  1
160
 40
3.0
 72
     5
 11
135.5125
 21
61.025
  0
ENDBLK
  0
BLOCK
  2
*DIM_0008
 70
    65
 10
0.0
 20
0.0
  0
LINE
  8
寸法
  6
BYBLOCK
 62
     0
 10
135.757657
 20
45.4807
 11
135.757657
 21
60.666798
  0
LINE
  8
寸法
  6
BYBLOCK
 62
     0
 10
142.54094
 20
45.7807
 11
142.54094
 21
60.666798
  0
LINE
  8
寸法
  6
BYBLOCK
 62
     0
 10
135.757657
 20
60.666798
 11
142.54094
 21
60.666798
  0
POINT
  8
寸法
 62
     0
 10
135.757657
 20
60.666798
  0
POINT
  8
寸法
 62
     0
 10
142.54094
 20
60.666798
  0
TEXT
  7
TextStyle03
  8
寸法
  6
CONTINUOUS
 62
     0
 10
143.425
 20
61.025
  1
203.5
 40
3.0
 72
     5
 11
151.675
 21
61.025
  0
ENDBLK
  0
BLOCK
  2
*DIM_0009
 70
    65
 10
0.0
 20
0.0
  0
LINE
  8
寸法
  6
BYBLOCK
 62
     0
 10
138.580298
 20
45.094035
 11
80.244043
 21
45.094035
  0
LINE
  8
寸法
  6
BYBLOCK
 62
     0
 10
80.244043
 20
42.814033
 11
80.244043
 21
45.094035
  0
POINT
  8
寸法
 62
     0
 10
80.244043
 20
42.814033
  0
POINT
  8
寸法
 62
     0
 10
80.244043
 20
45.094035
  0
TEXT
  7
TextStyle03
  8
寸法
  6
CONTINUOUS
 62
     0
 10
79.85
 20
47.41875
  1
68.4
 40
3.0
 50
90.0
 72
     5
 11
79.85
 21
53.98125
  0
ENDBLK
  0
BLOCK
  2
*DIM_0010
 70
    65
 10
0.0
 20
0.0
  0
LINE
  8
寸法
  6
BYBLOCK
 62
     0
 10
138.580298
 20
20.53403
 11
80.244043
 21
20.53403
  0
LINE
  8
寸法
  6
BYBLOCK
 62
     0
 10
80.244043
 20
22.814033
 11
80.244043
 21
20.53403
  0
POINT
  8
寸法
 62
     0
 10
80.244043
 20
22.814033
  0
POINT
  8
寸法
 62
     0
 10
80.244043
 20
20.53403
  0
TEXT
  7
TextStyle03
  8
寸法
  6
CONTINUOUS
 62
     0
 10
79.85
 20
11.61875
  1
68.4
 40
3.0
 50
90.0
 72
     5
 11
79.85
 21
18.18125
  0
ENDBLK
  0
BLOCK
  2
*DIM_0011
 70
    65
 10
0.0
 20
0.0
  0
LINE
  8
寸法
  6
BYBLOCK
 62
     0
 10
48.89106
 20
-70.209613
 11
62.194043
 21
-70.209613
  0
LINE
  8
寸法
  6
BYBLOCK
 62
     0
 10
49.19106
 20
-76.992895
 11
62.194043
 21
-76.992895
  0
LINE
  8
寸法
  6
BYBLOCK
 62
     0
 10
62.194043
 20
-70.209613
 11
62.194043
 21
-76.992895
  0
POINT
  8
寸法
 62
     0
 10
62.194043
 20
-70.209613
  0
POINT
  8
寸法
 62
     0
 10
62.194043
 20
-76.992895
  0
TEXT
  7
TextStyle03
  8
寸法
  6
CONTINUOUS
 62
     0
 10
61.8
 20
-86.175
  1
203.5
 40
3.0
 50
90.0
 72
     5
 11
61.8
 21
-77.925
  0
ENDBLK
  0
BLOCK
  2
*DIM_0012
 70
    65
 10
0.0
 20
0.0
  0
LINE
  8
寸法
  6
BYBLOCK
 62
     0
 10
48.504395
 20
-73.032252
 11
48.504395
 21
-13.121378
  0
LINE
  8
寸法
  6
BYBLOCK
 62
     0
 10
46.224393
 20
-13.121378
 11
48.504395
 21
-13.121378
  0
POINT
  8
寸法
 62
     0
 10
46.224393
 20
-13.121378
  0
POINT
  8
寸法
 62
     0
 10
48.504395
 20
-13.121378
  0
TEXT
  7
TextStyle03
  8
寸法
  6
CONTINUOUS
 62
     0
 10
50.81875
 20
-12.75
  1
68.4
 40
3.0
 72
     5
 11
57.38125
 21
-12.75
  0
ENDBLK
  0
BLOCK
  2
*DIM_0013
 70
    65
 10
0.0
 20
0.0
  0
LINE
  8
寸法
  6
BYBLOCK
 62
     0
 10
-89.388945
 20
-73.032252
 11
-89.388945
 21
-13.121378
  0
LINE
  8
寸法
  6
BYBLOCK
 62
     0
 10
-87.10894
 20
-13.121378
 11
-89.388945
 21
-13.121378
  0
POINT
  8
寸法
 62
     0
 10
-87.10894
 20
-13.121378
  0
POINT
  8
寸法
 62
     0
 10
-89.388945
 20
-13.121378
  0
TEXT
  7
TextStyle03
  8
寸法
  6
CONTINUOUS
 62
     0
 10
-98.28125
 20
-12.75
  1
68.4
 40
3.0
 72
     5
 11
-91.71875
 21
-12.75
  0
ENDBLK
  0
BLOCK
  2
*DIM_0014
 70
    65
 10
0.0
 20
0.0
  0
LINE
  8
寸法
  6
BYBLOCK
 62
     0
 10
109.14428
 20
-62.785395
 11
109.14428
 21
-56.639483
  0
LINE
  8
寸法
  6
BYBLOCK
 62
     0
 10
141.310947
 20
-62.785395
 11
141.310947
 21
-56.639483
  0
LINE
  8
寸法
  6
BYBLOCK
 62
     0
 10
109.14428
 20
-56.639483
 11
141.310947
 21
-56.639483
  0
POINT
  8
寸法
 62
     0
 10
109.14428
 20
-56.639483
  0
POINT
  8
寸法
 62
     0
 10
141.310947
 20
-56.639483
  0
TEXT
  7
TextStyle03
  8
寸法
  6
CONTINUOUS
 62
     0
 10
122.7875
 20
-56.275
  1
965
 40
3.0
 72
     5
 11
127.6625
 21
-56.275
  0
ENDBLK
  0
BLOCK
  2
*DIM_0015
 70
    65
 10
0.0
 20
0.0
  0
LINE
  8
寸法
  6
BYBLOCK
 62
     0
 10
49.85452
 20
38.914033
 11
56.631812
 21
38.914033
  0
LINE
  8
寸法
  6
BYBLOCK
 62
     0
 10
56.631812
 20
42.814033
 11
56.631812
 21
38.914033
  0
POINT
  8
寸法
 62
     0
 10
56.631812
 20
42.814033
  0
POINT
  8
寸法
 62
     0
 10
56.631812
 20
38.914033
  0
TEXT
  7
TextStyle03
  8
寸法
  6
CONTINUOUS
 62
     0
 10
56.375
 20
43.4875
  1
117
 40
3.0
 50
90.0
 72
     5
 11
56.375
 21
48.3625
  0
ENDBLK
  0
BLOCK
  2
*DIM_0016
 70
    65
 10
0.0
 20
0.0
  0
LINE
  8
寸法
  6
BYBLOCK
 62
     0
 10
49.85452
 20
26.714033
 11
56.631812
 21
26.714033
  0
LINE
  8
寸法
  6
BYBLOCK
 62
     0
 10
56.631812
 20
22.814033
 11
56.631812
 21
26.714033
  0
POINT
  8
寸法
 62
     0
 10
56.631812
 20
22.814033
  0
POINT
  8
寸法
 62
     0
 10
56.631812
 20
26.714033
  0
TEXT
  7
TextStyle03
  8
寸法
  6
CONTINUOUS
 62
     0
 10
56.55
 20
17.0125
  1
117
 40
3.0
 50
90.0
 72
     5
 11
56.55
 21
21.8875
  0
ENDBLK
  0
BLOCK
  2
*GRP_0017
 70
    65
 10
0.0
 20
0.0
  0
LINE
  8
別途部材
  6
CONTINUOUS
 62
    96
 10
-88.775608
 20
-70.209613
 11
-89.175608
 21
-71.209613
  0
LINE
  8
別途部材
  6
CONTINUOUS
 62
    96
 10
-88.775608
 20
-70.209613
 11
-20.442273
 21
-70.209613
  0
LINE
  8
別途部材
  6
CONTINUOUS
 10
-89.175608
 20
-71.209613
 11
-20.442273
 21
-71.209613
  0
LINE
  8
別途部材
  6
CONTINUOUS
 10
-20.942273
 20
-63.87628
 11
-21.942273
 21
-64.87628
  0
LINE
  8
別途部材
  6
CONTINUOUS
 10
-22.942273
 20
-64.87628
 11
-23.942273
 21
-63.87628
  0
LINE
  8
別途部材
  6
CONTINUOUS
 10
-24.942273
 20
-63.87628
 11
-25.942273
 21
-64.87628
  0
LINE
  8
別途部材
  6
CONTINUOUS
 10
-23.942273
 20
-63.87628
 11
-24.942273
 21
-63.87628
  0
LINE
  8
別途部材
  6
CONTINUOUS
 10
-20.942273
 20
-63.87628
 11
-20.442273
 21
-63.87628
  0
LINE
  8
別途部材
  6
CONTINUOUS
 10
-26.942273
 20
-64.87628
 11
-27.942273
 21
-63.87628
  0
LINE
  8
別途部材
  6
CONTINUOUS
 10
-28.942273
 20
-63.87628
 11
-29.942273
 21
-64.87628
  0
LINE
  8
別途部材
  6
CONTINUOUS
 10
-27.942273
 20
-63.87628
 11
-28.942273
 21
-63.87628
  0
LINE
  8
別途部材
  6
CONTINUOUS
 10
-30.942273
 20
-64.87628
 11
-31.942273
 21
-63.87628
  0
LINE
  8
別途部材
  6
CONTINUOUS
 10
-32.942273
 20
-63.87628
 11
-33.942273
 21
-64.87628
  0
LINE
  8
別途部材
  6
CONTINUOUS
 10
-31.942273
 20
-63.87628
 11
-32.942273
 21
-63.87628
  0
LINE
  8
別途部材
  6
CONTINUOUS
 10
-34.942273
 20
-64.87628
 11
-35.942273
 21
-63.87628
  0
LINE
  8
別途部材
  6
CONTINUOUS
 10
-36.942273
 20
-63.87628
 11
-37.942273
 21
-64.87628
  0
LINE
  8
別途部材
  6
CONTINUOUS
 10
-35.942273
 20
-63.87628
 11
-36.942273
 21
-63.87628
  0
LINE
  8
別途部材
  6
CONTINUOUS
 10
-38.942273
 20
-64.87628
 11
-39.942273
 21
-63.87628
  0
LINE
  8
別途部材
  6
CONTINUOUS
 10
-40.942273
 20
-63.87628
 11
-41.942273
 21
-64.87628
  0
LINE
  8
別途部材
  6
CONTINUOUS
 10
-39.942273
 20
-63.87628
 11
-40.942273
 21
-63.87628
  0
LINE
  8
別途部材
  6
CONTINUOUS
 10
-42.942273
 20
-64.87628
 11
-43.942273
 21
-63.87628
  0
LINE
  8
別途部材
  6
CONTINUOUS
 10
-44.942273
 20
-63.87628
 11
-45.942273
 21
-64.87628
  0
LINE
  8
別途部材
  6
CONTINUOUS
 10
-43.942273
 20
-63.87628
 11
-44.942273
 21
-63.87628
  0
LINE
  8
別途部材
  6
CONTINUOUS
 10
-46.942273
 20
-64.87628
 11
-47.942273
 21
-63.87628
  0
LINE
  8
別途部材
  6
CONTINUOUS
 10
-48.942273
 20
-63.87628
 11
-49.942273
 21
-64.87628
  0
LINE
  8
別途部材
  6
CONTINUOUS
 10
-47.942273
 20
-63.87628
 11
-48.942273
 21
-63.87628
  0
LINE
  8
別途部材
  6
CONTINUOUS
 10
-50.942273
 20
-64.87628
 11
-51.942273
 21
-63.87628
  0
LINE
  8
別途部材
  6
CONTINUOUS
 10
-52.942273
 20
-63.87628
 11
-53.942273
 21
-64.87628
  0
LINE
  8
別途部材
  6
CONTINUOUS
 10
-51.942273
 20
-63.87628
 11
-52.942273
 21
-63.87628
  0
LINE
  8
別途部材
  6
CONTINUOUS
 10
-54.942273
 20
-64.87628
 11
-55.942273
 21
-63.87628
  0
LINE
  8
別途部材
  6
CONTINUOUS
 10
-56.942273
 20
-63.87628
 11
-57.942273
 21
-64.87628
  0
LINE
  8
別途部材
  6
CONTINUOUS
 10
-55.942273
 20
-63.87628
 11
-56.942273
 21
-63.87628
  0
LINE
  8
別途部材
  6
CONTINUOUS
 10
-58.942273
 20
-64.87628
 11
-59.942273
 21
-63.87628
  0
LINE
  8
別途部材
  6
CONTINUOUS
 10
-60.942273
 20
-63.87628
 11
-61.942273
 21
-64.87628
  0
LINE
  8
別途部材
  6
CONTINUOUS
 10
-59.942273
 20
-63.87628
 11
-60.942273
 21
-63.87628
  0
LINE
  8
別途部材
  6
CONTINUOUS
 10
-62.942273
 20
-64.87628
 11
-63.942273
 21
-63.87628
  0
LINE
  8
別途部材
  6
CONTINUOUS
 10
-64.942273
 20
-63.87628
 11
-65.942273
 21
-64.87628
  0
LINE
  8
別途部材
  6
CONTINUOUS
 10
-63.942273
 20
-63.87628
 11
-64.942273
 21
-63.87628
  0
LINE
  8
別途部材
  6
CONTINUOUS
 10
-61.942273
 20
-64.87628
 11
-62.942273
 21
-64.87628
  0
LINE
  8
別途部材
  6
CONTINUOUS
 10
-57.942273
 20
-64.87628
 11
-58.942273
 21
-64.87628
  0
LINE
  8
別途部材
  6
CONTINUOUS
 10
-53.942273
 20
-64.87628
 11
-54.942273
 21
-64.87628
  0
LINE
  8
別途部材
  6
CONTINUOUS
 10
-49.942273
 20
-64.87628
 11
-50.942273
 21
-64.87628
  0
LINE
  8
別途部材
  6
CONTINUOUS
 10
-45.942273
 20
-64.87628
 11
-46.942273
 21
-64.87628
  0
LINE
  8
別途部材
  6
CONTINUOUS
 10
-41.942273
 20
-64.87628
 11
-42.942273
 21
-64.87628
  0
LINE
  8
別途部材
  6
CONTINUOUS
 10
-37.942273
 20
-64.87628
 11
-38.942273
 21
-64.87628
  0
LINE
  8
別途部材
  6
CONTINUOUS
 10
-33.942273
 20
-64.87628
 11
-34.942273
 21
-64.87628
  0
LINE
  8
別途部材
  6
CONTINUOUS
 10
-29.942273
 20
-64.87628
 11
-30.942273
 21
-64.87628
  0
LINE
  8
別途部材
  6
CONTINUOUS
 10
-25.942273
 20
-64.87628
 11
-26.942273
 21
-64.87628
  0
LINE
  8
別途部材
  6
CONTINUOUS
 10
-22.942273
 20
-64.87628
 11
-21.942273
 21
-64.87628
  0
LINE
  8
別途部材
  6
CONTINUOUS
 10
-66.942273
 20
-64.87628
 11
-67.942273
 21
-63.87628
  0
LINE
  8
別途部材
  6
CONTINUOUS
 10
-68.942273
 20
-63.87628
 11
-69.942273
 21
-64.87628
  0
LINE
  8
別途部材
  6
CONTINUOUS
 10
-67.942273
 20
-63.87628
 11
-68.942273
 21
-63.87628
  0
LINE
  8
別途部材
  6
CONTINUOUS
 10
-70.942273
 20
-64.87628
 11
-71.942273
 21
-63.87628
  0
LINE
  8
別途部材
  6
CONTINUOUS
 10
-72.942273
 20
-63.87628
 11
-73.942273
 21
-64.87628
  0
LINE
  8
別途部材
  6
CONTINUOUS
 10
-71.942273
 20
-63.87628
 11
-72.942273
 21
-63.87628
  0
LINE
  8
別途部材
  6
CONTINUOUS
 10
-74.942273
 20
-64.87628
 11
-75.942273
 21
-63.87628
  0
LINE
  8
別途部材
  6
CONTINUOUS
 10
-76.942273
 20
-63.87628
 11
-77.942273
 21
-64.87628
  0
LINE
  8
別途部材
  6
CONTINUOUS
 10
-75.942273
 20
-63.87628
 11
-76.942273
 21
-63.87628
  0
LINE
  8
別途部材
  6
CONTINUOUS
 10
-73.942273
 20
-64.87628
 11
-74.942273
 21
-64.87628
  0
LINE
  8
別途部材
  6
CONTINUOUS
 10
-69.942273
 20
-64.87628
 11
-70.942273
 21
-64.87628
  0
LINE
  8
別途部材
  6
CONTINUOUS
 10
-65.942273
 20
-64.87628
 11
-66.942273
 21
-64.87628
  0
LINE
  8
別途部材
  6
CONTINUOUS
 10
-77.942273
 20
-64.87628
 11
-77.942273
 21
-70.209613
  0
LINE
  8
別途部材
  6
CONTINUOUS
 10
-76.942273
 20
-63.87628
 11
-76.942273
 21
-70.209613
  0
LINE
  8
別途部材
  6
CONTINUOUS
 10
-75.942273
 20
-63.87628
 11
-75.942273
 21
-70.209613
  0
LINE
  8
別途部材
  6
CONTINUOUS
 10
-72.942273
 20
-63.87628
 11
-72.942273
 21
-70.209613
  0
LINE
  8
別途部材
  6
CONTINUOUS
 10
-70.942273
 20
-64.87628
 11
-70.942273
 21
-70.209613
  0
LINE
  8
別途部材
  6
CONTINUOUS
 10
-71.942273
 20
-63.87628
 11
-71.942273
 21
-70.209613
  0
LINE
  8
別途部材
  6
CONTINUOUS
 10
-73.942273
 20
-64.87628
 11
-73.942273
 21
-70.209613
  0
LINE
  8
別途部材
  6
CONTINUOUS
 10
-74.942273
 20
-64.87628
 11
-74.942273
 21
-70.209613
  0
LINE
  8
別途部材
  6
CONTINUOUS
 10
-69.942273
 20
-64.87628
 11
-69.942273
 21
-70.209613
  0
LINE
  8
別途部材
  6
CONTINUOUS
 10
-67.942273
 20
-63.87628
 11
-67.942273
 21
-70.209613
  0
LINE
  8
別途部材
  6
CONTINUOUS
 10
-68.942273
 20
-63.87628
 11
-68.942273
 21
-70.209613
  0
LINE
  8
別途部材
  6
CONTINUOUS
 10
-66.942273
 20
-64.87628
 11
-66.942273
 21
-70.209613
  0
LINE
  8
別途部材
  6
CONTINUOUS
 10
-64.942273
 20
-63.87628
 11
-64.942273
 21
-70.209613
  0
LINE
  8
別途部材
  6
CONTINUOUS
 10
-65.942273
 20
-64.87628
 11
-65.942273
 21
-70.209613
  0
LINE
  8
別途部材
  6
CONTINUOUS
 10
-63.942273
 20
-63.87628
 11
-63.942273
 21
-70.209613
  0
LINE
  8
別途部材
  6
CONTINUOUS
 10
-62.942273
 20
-64.87628
 11
-62.942273
 21
-70.209613
  0
LINE
  8
別途部材
  6
CONTINUOUS
 10
-60.942273
 20
-63.87628
 11
-60.942273
 21
-70.209613
  0
LINE
  8
別途部材
  6
CONTINUOUS
 10
-61.942273
 20
-64.87628
 11
-61.942273
 21
-70.209613
  0
LINE
  8
別途部材
  6
CONTINUOUS
 10
-57.942273
 20
-64.87628
 11
-57.942273
 21
-70.209613
  0
LINE
  8
別途部材
  6
CONTINUOUS
 10
-58.942273
 20
-64.87628
 11
-58.942273
 21
-70.209613
  0
LINE
  8
別途部材
  6
CONTINUOUS
 10
-59.942273
 20
-63.87628
 11
-59.942273
 21
-70.209613
  0
LINE
  8
別途部材
  6
CONTINUOUS
 10
-56.942273
 20
-63.87628
 11
-56.942273
 21
-70.209613
  0
LINE
  8
別途部材
  6
CONTINUOUS
 10
-55.942273
 20
-63.87628
 11
-55.942273
 21
-70.209613
  0
LINE
  8
別途部材
  6
CONTINUOUS
 10
-54.942273
 20
-64.87628
 11
-54.942273
 21
-70.209613
  0
LINE
  8
別途部材
  6
CONTINUOUS
 10
-52.942273
 20
-63.87628
 11
-52.942273
 21
-70.209613
  0
LINE
  8
別途部材
  6
CONTINUOUS
 10
-48.942273
 20
-63.87628
 11
-48.942273
 21
-70.209613
  0
LINE
  8
別途部材
  6
CONTINUOUS
 10
-49.942273
 20
-64.87628
 11
-49.942273
 21
-70.209613
  0
LINE
  8
別途部材
  6
CONTINUOUS
 10
-50.942273
 20
-64.87628
 11
-50.942273
 21
-70.209613
  0
LINE
  8
別途部材
  6
CONTINUOUS
 10
-51.942273
 20
-63.87628
 11
-51.942273
 21
-70.209613
  0
LINE
  8
別途部材
  6
CONTINUOUS
 10
-53.942273
 20
-64.87628
 11
-53.942273
 21
-70.209613
  0
LINE
  8
別途部材
  6
CONTINUOUS
 10
-46.942273
 20
-64.87628
 11
-46.942273
 21
-70.209613
  0
LINE
  8
別途部材
  6
CONTINUOUS
 10
-47.942273
 20
-63.87628
 11
-47.942273
 21
-70.209613
  0
LINE
  8
別途部材
  6
CONTINUOUS
 10
-45.942273
 20
-64.87628
 11
-45.942273
 21
-70.209613
  0
LINE
  8
別途部材
  6
CONTINUOUS
 10
-44.942273
 20
-63.87628
 11
-44.942273
 21
-70.209613
  0
LINE
  8
別途部材
  6
CONTINUOUS
 10
-40.942273
 20
-63.87628
 11
-40.942273
 21
-70.209613
  0
LINE
  8
別途部材
  6
CONTINUOUS
 10
-39.942273
 20
-63.87628
 11
-39.942273
 21
-70.209613
  0
LINE
  8
別途部材
  6
CONTINUOUS
 10
-41.942273
 20
-64.87628
 11
-41.942273
 21
-70.209613
  0
LINE
  8
別途部材
  6
CONTINUOUS
 10
-42.942273
 20
-64.87628
 11
-42.942273
 21
-70.209613
  0
LINE
  8
別途部材
  6
CONTINUOUS
 10
-43.942273
 20
-63.87628
 11
-43.942273
 21
-70.209613
  0
LINE
  8
別途部材
  6
CONTINUOUS
 10
-38.942273
 20
-64.87628
 11
-38.942273
 21
-70.209613
  0
LINE
  8
別途部材
  6
CONTINUOUS
 10
-36.942273
 20
-63.87628
 11
-36.942273
 21
-70.209613
  0
LINE
  8
別途部材
  6
CONTINUOUS
 10
-35.942273
 20
-63.87628
 11
-35.942273
 21
-70.209613
  0
LINE
  8
別途部材
  6
CONTINUOUS
 10
-34.942273
 20
-64.87628
 11
-34.942273
 21
-70.209613
  0
LINE
  8
別途部材
  6
CONTINUOUS
 10
-33.942273
 20
-64.87628
 11
-33.942273
 21
-70.209613
  0
LINE
  8
別途部材
  6
CONTINUOUS
 10
-32.942273
 20
-63.87628
 11
-32.942273
 21
-70.209613
  0
LINE
  8
別途部材
  6
CONTINUOUS
 10
-37.942273
 20
-64.87628
 11
-37.942273
 21
-70.209613
  0
LINE
  8
別途部材
  6
CONTINUOUS
 10
-31.942273
 20
-63.87628
 11
-31.942273
 21
-70.209613
  0
LINE
  8
別途部材
  6
CONTINUOUS
 10
-30.942273
 20
-64.87628
 11
-30.942273
 21
-70.209613
  0
LINE
  8
別途部材
  6
CONTINUOUS
 10
-29.942273
 20
-64.87628
 11
-29.942273
 21
-70.209613
  0
LINE
  8
別途部材
  6
CONTINUOUS
 10
-27.942273
 20
-63.87628
 11
-27.942273
 21
-70.209613
  0
LINE
  8
別途部材
  6
CONTINUOUS
 10
-25.942273
 20
-64.87628
 11
-25.942273
 21
-70.209613
  0
LINE
  8
別途部材
  6
CONTINUOUS
 10
-24.942273
 20
-63.87628
 11
-24.942273
 21
-70.209613
  0
LINE
  8
別途部材
  6
CONTINUOUS
 10
-22.942273
 20
-64.87628
 11
-22.942273
 21
-70.209613
  0
LINE
  8
別途部材
  6
CONTINUOUS
 10
-21.942273
 20
-64.87628
 11
-21.942273
 21
-70.209613
  0
LINE
  8
別途部材
  6
CONTINUOUS
 10
-20.942273
 20
-63.87628
 11
-20.942273
 21
-70.209613
  0
LINE
  8
別途部材
  6
CONTINUOUS
 10
-23.942273
 20
-63.87628
 11
-23.942273
 21
-70.209613
  0
LINE
  8
別途部材
  6
CONTINUOUS
 10
-26.942273
 20
-64.87628
 11
-26.942273
 21
-70.209613
  0
LINE
  8
別途部材
  6
CONTINUOUS
 10
-28.942273
 20
-63.87628
 11
-28.942273
 21
-70.209613
  0
ARC
  8
別途部材
  6
CONTINUOUS
 10
-77.108943
 20
-76.917952
 40
12.041668
 50
93.968265
 51
146.144967
  0
LINE
  8
別途部材
  6
CONTINUOUS
 62
    96
 10
47.89106
 20
-70.209613
 11
48.29106
 21
-71.209613
  0
LINE
  8
別途部材
  6
CONTINUOUS
 62
    96
 10
47.89106
 20
-70.209613
 11
-20.442273
 21
-70.209613
  0
LINE
  8
別途部材
  6
CONTINUOUS
 10
48.29106
 20
-71.209613
 11
-20.442273
 21
-71.209613
  0
LINE
  8
別途部材
  6
CONTINUOUS
 10
-19.942273
 20
-63.87628
 11
-18.942273
 21
-64.87628
  0
LINE
  8
別途部材
  6
CONTINUOUS
 10
-17.942273
 20
-64.87628
 11
-16.942273
 21
-63.87628
  0
LINE
  8
別途部材
  6
CONTINUOUS
 10
-15.942273
 20
-63.87628
 11
-14.942273
 21
-64.87628
  0
LINE
  8
別途部材
  6
CONTINUOUS
 10
-16.942273
 20
-63.87628
 11
-15.942273
 21
-63.87628
  0
LINE
  8
別途部材
  6
CONTINUOUS
 10
-19.942273
 20
-63.87628
 11
-20.442273
 21
-63.87628
  0
LINE
  8
別途部材
  6
CONTINUOUS
 10
-13.942273
 20
-64.87628
 11
-12.942273
 21
-63.87628
  0
LINE
  8
別途部材
  6
CONTINUOUS
 10
-11.942273
 20
-63.87628
 11
-10.942273
 21
-64.87628
  0
LINE
  8
別途部材
  6
CONTINUOUS
 10
-12.942273
 20
-63.87628
 11
-11.942273
 21
-63.87628
  0
LINE
  8
別途部材
  6
CONTINUOUS
 10
-9.942273
 20
-64.87628
 11
-8.942273
 21
-63.87628
  0
LINE
  8
別途部材
  6
CONTINUOUS
 10
-7.942273
 20
-63.87628
 11
-6.942273
 21
-64.87628
  0
LINE
  8
別途部材
  6
CONTINUOUS
 10
-8.942273
 20
-63.87628
 11
-7.942273
 21
-63.87628
  0
LINE
  8
別途部材
  6
CONTINUOUS
 10
-5.942273
 20
-64.87628
 11
-4.942273
 21
-63.87628
  0
LINE
  8
別途部材
  6
CONTINUOUS
 10
-3.942273
 20
-63.87628
 11
-2.942273
 21
-64.87628
  0
LINE
  8
別途部材
  6
CONTINUOUS
 10
-4.942273
 20
-63.87628
 11
-3.942273
 21
-63.87628
  0
LINE
  8
別途部材
  6
CONTINUOUS
 10
-1.942273
 20
-64.87628
 11
-0.942273
 21
-63.87628
  0
LINE
  8
別途部材
  6
CONTINUOUS
 10
0.057727
 20
-63.87628
 11
1.057727
 21
-64.87628
  0
LINE
  8
別途部材
  6
CONTINUOUS
 10
-0.942273
 20
-63.87628
 11
0.057727
 21
-63.87628
  0
LINE
  8
別途部材
  6
CONTINUOUS
 10
2.057727
 20
-64.87628
 11
3.057727
 21
-63.87628
  0
LINE
  8
別途部材
  6
CONTINUOUS
 10
4.057727
 20
-63.87628
 11
5.057727
 21
-64.87628
  0
LINE
  8
別途部材
  6
CONTINUOUS
 10
3.057727
 20
-63.87628
 11
4.057727
 21
-63.87628
  0
LINE
  8
別途部材
  6
CONTINUOUS
 10
6.057727
 20
-64.87628
 11
7.057727
 21
-63.87628
  0
LINE
  8
別途部材
  6
CONTINUOUS
 10
8.057727
 20
-63.87628
 11
9.057727
 21
-64.87628
  0
LINE
  8
別途部材
  6
CONTINUOUS
 10
7.057727
 20
-63.87628
 11
8.057727
 21
-63.87628
  0
LINE
  8
別途部材
  6
CONTINUOUS
 10
10.057727
 20
-64.87628
 11
11.057727
 21
-63.87628
  0
LINE
  8
別途部材
  6
CONTINUOUS
 10
12.057727
 20
-63.87628
 11
13.057727
 21
-64.87628
  0
LINE
  8
別途部材
  6
CONTINUOUS
 10
11.057727
 20
-63.87628
 11
12.057727
 21
-63.87628
  0
LINE
  8
別途部材
  6
CONTINUOUS
 10
14.057727
 20
-64.87628
 11
15.057727
 21
-63.87628
  0
LINE
  8
別途部材
  6
CONTINUOUS
 10
16.057727
 20
-63.87628
 11
17.057727
 21
-64.87628
  0
LINE
  8
別途部材
  6
CONTINUOUS
 10
15.057727
 20
-63.87628
 11
16.057727
 21
-63.87628
  0
LINE
  8
別途部材
  6
CONTINUOUS
 10
18.057727
 20
-64.87628
 11
19.057727
 21
-63.87628
  0
LINE
  8
別途部材
  6
CONTINUOUS
 10
20.057727
 20
-63.87628
 11
21.057727
 21
-64.87628
  0
LINE
  8
別途部材
  6
CONTINUOUS
 10
19.057727
 20
-63.87628
 11
20.057727
 21
-63.87628
  0
LINE
  8
別途部材
  6
CONTINUOUS
 10
22.057727
 20
-64.87628
 11
23.057727
 21
-63.87628
  0
LINE
  8
別途部材
  6
CONTINUOUS
 10
24.057727
 20
-63.87628
 11
25.057727
 21
-64.87628
  0
LINE
  8
別途部材
  6
CONTINUOUS
 10
23.057727
 20
-63.87628
 11
24.057727
 21
-63.87628
  0
LINE
  8
別途部材
  6
CONTINUOUS
 10
21.057727
 20
-64.87628
 11
22.057727
 21
-64.87628
  0
LINE
  8
別途部材
  6
CONTINUOUS
 10
17.057727
 20
-64.87628
 11
18.057727
 21
-64.87628
  0
LINE
  8
別途部材
  6
CONTINUOUS
 10
13.057727
 20
-64.87628
 11
14.057727
 21
-64.87628
  0
LINE
  8
別途部材
  6
CONTINUOUS
 10
9.057727
 20
-64.87628
 11
10.057727
 21
-64.87628
  0
LINE
  8
別途部材
  6
CONTINUOUS
 10
5.057727
 20
-64.87628
 11
6.057727
 21
-64.87628
  0
LINE
  8
別途部材
  6
CONTINUOUS
 10
1.057727
 20
-64.87628
 11
2.057727
 21
-64.87628
  0
LINE
  8
別途部材
  6
CONTINUOUS
 10
-2.942273
 20
-64.87628
 11
-1.942273
 21
-64.87628
  0
LINE
  8
別途部材
  6
CONTINUOUS
 10
-6.942273
 20
-64.87628
 11
-5.942273
 21
-64.87628
  0
LINE
  8
別途部材
  6
CONTINUOUS
 10
-10.942273
 20
-64.87628
 11
-9.942273
 21
-64.87628
  0
LINE
  8
別途部材
  6
CONTINUOUS
 10
-14.942273
 20
-64.87628
 11
-13.942273
 21
-64.87628
  0
LINE
  8
別途部材
  6
CONTINUOUS
 10
-17.942273
 20
-64.87628
 11
-18.942273
 21
-64.87628
  0
LINE
  8
別途部材
  6
CONTINUOUS
 10
26.057727
 20
-64.87628
 11
27.057727
 21
-63.87628
  0
LINE
  8
別途部材
  6
CONTINUOUS
 10
28.057727
 20
-63.87628
 11
29.057727
 21
-64.87628
  0
LINE
  8
別途部材
  6
CONTINUOUS
 10
27.057727
 20
-63.87628
 11
28.057727
 21
-63.87628
  0
LINE
  8
別途部材
  6
CONTINUOUS
 10
30.057727
 20
-64.87628
 11
31.057727
 21
-63.87628
  0
LINE
  8
別途部材
  6
CONTINUOUS
 10
32.057727
 20
-63.87628
 11
33.057727
 21
-64.87628
  0
LINE
  8
別途部材
  6
CONTINUOUS
 10
31.057727
 20
-63.87628
 11
32.057727
 21
-63.87628
  0
LINE
  8
別途部材
  6
CONTINUOUS
 10
34.057727
 20
-64.87628
 11
35.057727
 21
-63.87628
  0
LINE
  8
別途部材
  6
CONTINUOUS
 10
36.057727
 20
-63.87628
 11
37.057727
 21
-64.87628
  0
LINE
  8
別途部材
  6
CONTINUOUS
 10
35.057727
 20
-63.87628
 11
36.057727
 21
-63.87628
  0
LINE
  8
別途部材
  6
CONTINUOUS
 10
33.057727
 20
-64.87628
 11
34.057727
 21
-64.87628
  0
LINE
  8
別途部材
  6
CONTINUOUS
 10
29.057727
 20
-64.87628
 11
30.057727
 21
-64.87628
  0
LINE
  8
別途部材
  6
CONTINUOUS
 10
25.057727
 20
-64.87628
 11
26.057727
 21
-64.87628
  0
LINE
  8
別途部材
  6
CONTINUOUS
 10
37.057727
 20
-64.87628
 11
37.057727
 21
-70.209613
  0
LINE
  8
別途部材
  6
CONTINUOUS
 10
36.057727
 20
-63.87628
 11
36.057727
 21
-70.209613
  0
LINE
  8
別途部材
  6
CONTINUOUS
 10
35.057727
 20
-63.87628
 11
35.057727
 21
-70.209613
  0
LINE
  8
別途部材
  6
CONTINUOUS
 10
32.057727
 20
-63.87628
 11
32.057727
 21
-70.209613
  0
LINE
  8
別途部材
  6
CONTINUOUS
 10
30.057727
 20
-64.87628
 11
30.057727
 21
-70.209613
  0
LINE
  8
別途部材
  6
CONTINUOUS
 10
31.057727
 20
-63.87628
 11
31.057727
 21
-70.209613
  0
LINE
  8
別途部材
  6
CONTINUOUS
 10
33.057727
 20
-64.87628
 11
33.057727
 21
-70.209613
  0
LINE
  8
別途部材
  6
CONTINUOUS
 10
34.057727
 20
-64.87628
 11
34.057727
 21
-70.209613
  0
LINE
  8
別途部材
  6
CONTINUOUS
 10
29.057727
 20
-64.87628
 11
29.057727
 21
-70.209613
  0
LINE
  8
別途部材
  6
CONTINUOUS
 10
27.057727
 20
-63.87628
 11
27.057727
 21
-70.209613
  0
LINE
  8
別途部材
  6
CONTINUOUS
 10
28.057727
 20
-63.87628
 11
28.057727
 21
-70.209613
  0
LINE
  8
別途部材
  6
CONTINUOUS
 10
26.057727
 20
-64.87628
 11
26.057727
 21
-70.209613
  0
LINE
  8
別途部材
  6
CONTINUOUS
 10
24.057727
 20
-63.87628
 11
24.057727
 21
-70.209613
  0
LINE
  8
別途部材
  6
CONTINUOUS
 10
25.057727
 20
-64.87628
 11
25.057727
 21
-70.209613
  0
LINE
  8
別途部材
  6
CONTINUOUS
 10
23.057727
 20
-63.87628
 11
23.057727
 21
-70.209613
  0
LINE
  8
別途部材
  6
CONTINUOUS
 10
22.057727
 20
-64.87628
 11
22.057727
 21
-70.209613
  0
LINE
  8
別途部材
  6
CONTINUOUS
 10
20.057727
 20
-63.87628
 11
20.057727
 21
-70.209613
  0
LINE
  8
別途部材
  6
CONTINUOUS
 10
21.057727
 20
-64.87628
 11
21.057727
 21
-70.209613
  0
LINE
  8
別途部材
  6
CONTINUOUS
 10
17.057727
 20
-64.87628
 11
17.057727
 21
-70.209613
  0
LINE
  8
別途部材
  6
CONTINUOUS
 10
18.057727
 20
-64.87628
 11
18.057727
 21
-70.209613
  0
LINE
  8
別途部材
  6
CONTINUOUS
 10
19.057727
 20
-63.87628
 11
19.057727
 21
-70.209613
  0
LINE
  8
別途部材
  6
CONTINUOUS
 10
16.057727
 20
-63.87628
 11
16.057727
 21
-70.209613
  0
LINE
  8
別途部材
  6
CONTINUOUS
 10
15.057727
 20
-63.87628
 11
15.057727
 21
-70.209613
  0
LINE
  8
別途部材
  6
CONTINUOUS
 10
14.057727
 20
-64.87628
 11
14.057727
 21
-70.209613
  0
LINE
  8
別途部材
  6
CONTINUOUS
 10
12.057727
 20
-63.87628
 11
12.057727
 21
-70.209613
  0
LINE
  8
別途部材
  6
CONTINUOUS
 10
8.057727
 20
-63.87628
 11
8.057727
 21
-70.209613
  0
LINE
  8
別途部材
  6
CONTINUOUS
 10
9.057727
 20
-64.87628
 11
9.057727
 21
-70.209613
  0
LINE
  8
別途部材
  6
CONTINUOUS
 10
10.057727
 20
-64.87628
 11
10.057727
 21
-70.209613
  0
LINE
  8
別途部材
  6
CONTINUOUS
 10
11.057727
 20
-63.87628
 11
11.057727
 21
-70.209613
  0
LINE
  8
別途部材
  6
CONTINUOUS
 10
13.057727
 20
-64.87628
 11
13.057727
 21
-70.209613
  0
LINE
  8
別途部材
  6
CONTINUOUS
 10
6.057727
 20
-64.87628
 11
6.057727
 21
-70.209613
  0
LINE
  8
別途部材
  6
CONTINUOUS
 10
7.057727
 20
-63.87628
 11
7.057727
 21
-70.209613
  0
LINE
  8
別途部材
  6
CONTINUOUS
 10
5.057727
 20
-64.87628
 11
5.057727
 21
-70.209613
  0
LINE
  8
別途部材
  6
CONTINUOUS
 10
4.057727
 20
-63.87628
 11
4.057727
 21
-70.209613
  0
LINE
  8
別途部材
  6
CONTINUOUS
 10
0.057727
 20
-63.87628
 11
0.057727
 21
-70.209613
  0
LINE
  8
別途部材
  6
CONTINUOUS
 10
-0.942273
 20
-63.87628
 11
-0.942273
 21
-70.209613
  0
LINE
  8
別途部材
  6
CONTINUOUS
 10
1.057727
 20
-64.87628
 11
1.057727
 21
-70.209613
  0
LINE
  8
別途部材
  6
CONTINUOUS
 10
2.057727
 20
-64.87628
 11
2.057727
 21
-70.209613
  0
LINE
  8
別途部材
  6
CONTINUOUS
 10
3.057727
 20
-63.87628
 11
3.057727
 21
-70.209613
  0
LINE
  8
別途部材
  6
CONTINUOUS
 10
-1.942273
 20
-64.87628
 11
-1.942273
 21
-70.209613
  0
LINE
  8
別途部材
  6
CONTINUOUS
 10
-3.942273
 20
-63.87628
 11
-3.942273
 21
-70.209613
  0
LINE
  8
別途部材
  6
CONTINUOUS
 10
-4.942273
 20
-63.87628
 11
-4.942273
 21
-70.209613
  0
LINE
  8
別途部材
  6
CONTINUOUS
 10
-5.942273
 20
-64.87628
 11
-5.942273
 21
-70.209613
  0
LINE
  8
別途部材
  6
CONTINUOUS
 10
-6.942273
 20
-64.87628
 11
-6.942273
 21
-70.209613
  0
LINE
  8
別途部材
  6
CONTINUOUS
 10
-7.942273
 20
-63.87628
 11
-7.942273
 21
-70.209613
  0
LINE
  8
別途部材
  6
CONTINUOUS
 10
-2.942273
 20
-64.87628
 11
-2.942273
 21
-70.209613
  0
LINE
  8
別途部材
  6
CONTINUOUS
 10
-8.942273
 20
-63.87628
 11
-8.942273
 21
-70.209613
  0
LINE
  8
別途部材
  6
CONTINUOUS
 10
-9.942273
 20
-64.87628
 11
-9.942273
 21
-70.209613
  0
LINE
  8
別途部材
  6
CONTINUOUS
 10
-10.942273
 20
-64.87628
 11
-10.942273
 21
-70.209613
  0
LINE
  8
別途部材
  6
CONTINUOUS
 10
-12.942273
 20
-63.87628
 11
-12.942273
 21
-70.209613
  0
LINE
  8
別途部材
  6
CONTINUOUS
 10
-14.942273
 20
-64.87628
 11
-14.942273
 21
-70.209613
  0
LINE
  8
別途部材
  6
CONTINUOUS
 10
-15.942273
 20
-63.87628
 11
-15.942273
 21
-70.209613
  0
LINE
  8
別途部材
  6
CONTINUOUS
 10
-17.942273
 20
-64.87628
 11
-17.942273
 21
-70.209613
  0
LINE
  8
別途部材
  6
CONTINUOUS
 10
-18.942273
 20
-64.87628
 11
-18.942273
 21
-70.209613
  0
LINE
  8
別途部材
  6
CONTINUOUS
 10
-19.942273
 20
-63.87628
 11
-19.942273
 21
-70.209613
  0
LINE
  8
別途部材
  6
CONTINUOUS
 10
-16.942273
 20
-63.87628
 11
-16.942273
 21
-70.209613
  0
LINE
  8
別途部材
  6
CONTINUOUS
 10
-13.942273
 20
-64.87628
 11
-13.942273
 21
-70.209613
  0
LINE
  8
別途部材
  6
CONTINUOUS
 10
-11.942273
 20
-63.87628
 11
-11.942273
 21
-70.209613
  0
ARC
  8
別途部材
  6
CONTINUOUS
 10
36.224396
 20
-76.917952
 40
12.041668
 50
33.855033
 51
86.031735
  0
ENDBLK
  0
BLOCK
  2
*GRP_0018
 70
    65
 10
0.0
 20
0.0
  0
LINE
  8
補助線
  6
BYBLOCK
 62
    64
 10
-75.367813
 20
-75.132365
 11
-75.516738
 21
-75.20719
  0
LINE
  8
補助線
  6
BYBLOCK
 62
    64
 10
-75.479687
 20
-75.095313
 11
-75.404863
 21
-75.24424
  0
LINE
  8
補助線
  6
BYBLOCK
 62
    64
 10
-65.449333
 20
-70.149007
 11
-65.59826
 21
-70.223833
  0
LINE
  8
補助線
  6
BYBLOCK
 62
    64
 10
-65.56121
 20
-70.111955
 11
-65.486385
 21
-70.260883
  0
LINE
  8
補助線
  6
BYBLOCK
 62
    64
 10
-55.679782
 20
-65.240475
 11
-55.530855
 21
-65.16565
  0
LINE
  8
補助線
  6
BYBLOCK
 62
    64
 10
-55.642732
 20
-65.128597
 11
-55.567908
 21
-65.277525
  0
LINE
  8
型材断面
  6
CONTINUOUS
 10
-76.114253
 20
-74.5748
 11
-76.336555
 21
-75.246053
  0
LINE
  8
型材断面
  6
CONTINUOUS
 10
-76.336555
 20
-75.246053
 11
-76.037252
 21
-75.841758
  0
LINE
  8
型材断面
  6
CONTINUOUS
 10
-76.037252
 20
-75.841758
 11
-75.366
 21
-76.06406
  0
LINE
  8
型材断面
  6
CONTINUOUS
 10
-55.681595
 20
-64.308782
 11
-55.01034
 21
-64.531085
  0
LINE
  8
型材断面
  6
CONTINUOUS
 10
-55.01034
 20
-64.531085
 11
-54.711038
 21
-65.12679
  0
LINE
  8
型材断面
  6
CONTINUOUS
 10
-54.711038
 20
-65.12679
 11
-54.933342
 21
-65.798042
  0
LINE
  8
型材断面
  6
CONTINUOUS
 10
-76.114253
 20
-74.5748
 11
-55.681595
 21
-64.308782
  0
LINE
  8
型材断面
  6
CONTINUOUS
 10
-75.366
 20
-76.06406
 11
-54.933342
 21
-65.798042
  0
CIRCLE
  8
ボルト／ビス
  6
CONTINUOUS
 10
-75.442275
 20
-75.169777
 40
0.250185
  0
CIRCLE
  8
ボルト／ビス
  6
CONTINUOUS
 10
-75.442275
 20
-75.169777
 40
0.301025
  0
LINE
  8
ボルト／ビス
  6
CONTINUOUS
 62
    64
 10
-75.69204
 20
-75.155275
 11
-75.554595
 21
-74.946225
  0
LINE
  8
ボルト／ビス
  6
CONTINUOUS
 62
    64
 10
-75.30483
 20
-74.960728
 11
-75.554595
 21
-74.946225
  0
LINE
  8
ボルト／ビス
  6
CONTINUOUS
 62
    64
 10
-75.57972
 20
-75.378827
 11
-75.329955
 21
-75.39333
  0
LINE
  8
ボルト／ビス
  6
CONTINUOUS
 62
    64
 10
-75.19251
 20
-75.18428
 11
-75.329955
 21
-75.39333
  0
LINE
  8
ボルト／ビス
  6
CONTINUOUS
 62
    64
 10
-75.69204
 20
-75.155275
 11
-75.57972
 21
-75.378827
  0
LINE
  8
ボルト／ビス
  6
CONTINUOUS
 62
    64
 10
-75.30483
 20
-74.960728
 11
-75.19251
 21
-75.18428
  0
CIRCLE
  8
ボルト／ビス
  6
CONTINUOUS
 62
    64
 10
-75.442275
 20
-75.169777
 40
0.216668
  0
CIRCLE
  8
ボルト／ビス
  6
CONTINUOUS
 10
-65.523798
 20
-70.18642
 40
0.250185
  0
CIRCLE
  8
ボルト／ビス
  6
CONTINUOUS
 10
-65.523798
 20
-70.18642
 40
0.301025
  0
LINE
  8
ボルト／ビス
  6
CONTINUOUS
 62
    64
 10
-65.773563
 20
-70.171915
 11
-65.636117
 21
-69.962865
  0
LINE
  8
ボルト／ビス
  6
CONTINUOUS
 62
    64
 10
-65.386352
 20
-69.977368
 11
-65.636117
 21
-69.962865
  0
LINE
  8
ボルト／ビス
  6
CONTINUOUS
 62
    64
 10
-65.661243
 20
-70.39547
 11
-65.411475
 21
-70.409975
  0
LINE
  8
ボルト／ビス
  6
CONTINUOUS
 62
    64
 10
-65.274032
 20
-70.200925
 11
-65.411475
 21
-70.409975
  0
LINE
  8
ボルト／ビス
  6
CONTINUOUS
 62
    64
 10
-65.773563
 20
-70.171915
 11
-65.661243
 21
-70.39547
  0
LINE
  8
ボルト／ビス
  6
CONTINUOUS
 62
    64
 10
-65.386352
 20
-69.977368
 11
-65.274032
 21
-70.200925
  0
CIRCLE
  8
ボルト／ビス
  6
CONTINUOUS
 62
    64
 10
-65.523798
 20
-70.18642
 40
0.216668
  0
CIRCLE
  8
ボルト／ビス
  6
CONTINUOUS
 10
-55.60532
 20
-65.203063
 40
0.250185
  0
CIRCLE
  8
ボルト／ビス
  6
CONTINUOUS
 10
-55.60532
 20
-65.203063
 40
0.301025
  0
LINE
  8
ボルト／ビス
  6
CONTINUOUS
 62
    64
 10
-55.467875
 20
-64.994013
 11
-55.71764
 21
-64.97951
  0
LINE
  8
ボルト／ビス
  6
CONTINUOUS
 62
    64
 10
-55.855085
 20
-65.18856
 11
-55.71764
 21
-64.97951
  0
LINE
  8
ボルト／ビス
  6
CONTINUOUS
 62
    64
 10
-55.355555
 20
-65.217568
 11
-55.492998
 21
-65.426615
  0
LINE
  8
ボルト／ビス
  6
CONTINUOUS
 62
    64
 10
-55.742765
 20
-65.412112
 11
-55.492998
 21
-65.426615
  0
LINE
  8
ボルト／ビス
  6
CONTINUOUS
 62
    64
 10
-55.467875
 20
-64.994013
 11
-55.355555
 21
-65.217568
  0
LINE
  8
ボルト／ビス
  6
CONTINUOUS
 62
    64
 10
-55.855085
 20
-65.18856
 11
-55.742765
 21
-65.412112
  0
CIRCLE
  8
ボルト／ビス
  6
CONTINUOUS
 62
    64
 10
-55.60532
 20
-65.203063
 40
0.216668
  0
ENDBLK
  0
BLOCK
  2
*GRP_0019
 70
    65
 10
0.0
 20
0.0
  0
LINE
  8
補助線
  6
BYBLOCK
 62
    64
 10
-55.679782
 20
-75.132365
 11
-55.530858
 21
-75.20719
  0
LINE
  8
補助線
  6
BYBLOCK
 62
    64
 10
-55.567908
 20
-75.095313
 11
-55.642732
 21
-75.24424
  0
LINE
  8
補助線
  6
BYBLOCK
 62
    64
 10
-65.598262
 20
-70.149007
 11
-65.449335
 21
-70.223833
  0
LINE
  8
補助線
  6
BYBLOCK
 62
    64
 10
-65.486385
 20
-70.111955
 11
-65.56121
 21
-70.260883
  0
LINE
  8
補助線
  6
BYBLOCK
 62
    64
 10
-75.367813
 20
-65.240475
 11
-75.51674
 21
-65.16565
  0
LINE
  8
補助線
  6
BYBLOCK
 62
    64
 10
-75.404863
 20
-65.128597
 11
-75.479687
 21
-65.277525
  0
LINE
  8
型材断面
  6
CONTINUOUS
 10
-54.933342
 20
-74.5748
 11
-54.71104
 21
-75.246053
  0
LINE
  8
型材断面
  6
CONTINUOUS
 10
-54.71104
 20
-75.246053
 11
-55.010343
 21
-75.841758
  0
LINE
  8
型材断面
  6
CONTINUOUS
 10
-55.010343
 20
-75.841758
 11
-55.681595
 21
-76.06406
  0
LINE
  8
型材断面
  6
CONTINUOUS
 10
-75.366
 20
-64.308782
 11
-76.037255
 21
-64.531085
  0
LINE
  8
型材断面
  6
CONTINUOUS
 10
-76.037255
 20
-64.531085
 11
-76.336557
 21
-65.12679
  0
LINE
  8
型材断面
  6
CONTINUOUS
 10
-76.336557
 20
-65.12679
 11
-76.114253
 21
-65.798042
  0
LINE
  8
型材断面
  6
CONTINUOUS
 10
-54.933342
 20
-74.5748
 11
-75.366
 21
-64.308782
  0
LINE
  8
型材断面
  6
CONTINUOUS
 10
-55.681595
 20
-76.06406
 11
-76.114253
 21
-65.798042
  0
CIRCLE
  8
ボルト／ビス
  6
CONTINUOUS
 10
-55.60532
 20
-75.169777
 40
0.250185
  0
CIRCLE
  8
ボルト／ビス
  6
CONTINUOUS
 10
-55.60532
 20
-75.169777
 40
0.301025
  0
LINE
  8
ボルト／ビス
  6
CONTINUOUS
 62
    64
 10
-55.355555
 20
-75.155275
 11
-55.493
 21
-74.946225
  0
LINE
  8
ボルト／ビス
  6
CONTINUOUS
 62
    64
 10
-55.742765
 20
-74.960728
 11
-55.493
 21
-74.946225
  0
LINE
  8
ボルト／ビス
  6
CONTINUOUS
 62
    64
 10
-55.467875
 20
-75.378827
 11
-55.71764
 21
-75.39333
  0
LINE
  8
ボルト／ビス
  6
CONTINUOUS
 62
    64
 10
-55.855085
 20
-75.18428
 11
-55.71764
 21
-75.39333
  0
LINE
  8
ボルト／ビス
  6
CONTINUOUS
 62
    64
 10
-55.355555
 20
-75.155275
 11
-55.467875
 21
-75.378827
  0
LINE
  8
ボルト／ビス
  6
CONTINUOUS
 62
    64
 10
-55.742765
 20
-74.960728
 11
-55.855085
 21
-75.18428
  0
CIRCLE
  8
ボルト／ビス
  6
CONTINUOUS
 62
    64
 10
-55.60532
 20
-75.169777
 40
0.216668
  0
CIRCLE
  8
ボルト／ビス
  6
CONTINUOUS
 10
-65.523798
 20
-70.18642
 40
0.250185
  0
CIRCLE
  8
ボルト／ビス
  6
CONTINUOUS
 10
-65.523798
 20
-70.18642
 40
0.301025
  0
LINE
  8
ボルト／ビス
  6
CONTINUOUS
 62
    64
 10
-65.274032
 20
-70.171915
 11
-65.411478
 21
-69.962865
  0
LINE
  8
ボルト／ビス
  6
CONTINUOUS
 62
    64
 10
-65.661243
 20
-69.977368
 11
-65.411478
 21
-69.962865
  0
LINE
  8
ボルト／ビス
  6
CONTINUOUS
 62
    64
 10
-65.386352
 20
-70.39547
 11
-65.63612
 21
-70.409975
  0
LINE
  8
ボルト／ビス
  6
CONTINUOUS
 62
    64
 10
-65.773563
 20
-70.200925
 11
-65.63612
 21
-70.409975
  0
LINE
  8
ボルト／ビス
  6
CONTINUOUS
 62
    64
 10
-65.274032
 20
-70.171915
 11
-65.386352
 21
-70.39547
  0
LINE
  8
ボルト／ビス
  6
CONTINUOUS
 62
    64
 10
-65.661243
 20
-69.977368
 11
-65.773563
 21
-70.200925
  0
CIRCLE
  8
ボルト／ビス
  6
CONTINUOUS
 62
    64
 10
-65.523798
 20
-70.18642
 40
0.216668
  0
CIRCLE
  8
ボルト／ビス
  6
CONTINUOUS
 10
-75.442275
 20
-65.203063
 40
0.250185
  0
CIRCLE
  8
ボルト／ビス
  6
CONTINUOUS
 10
-75.442275
 20
-65.203063
 40
0.301025
  0
LINE
  8
ボルト／ビス
  6
CONTINUOUS
 62
    64
 10
-75.57972
 20
-64.994013
 11
-75.329955
 21
-64.97951
  0
LINE
  8
ボルト／ビス
  6
CONTINUOUS
 62
    64
 10
-75.19251
 20
-65.18856
 11
-75.329955
 21
-64.97951
  0
LINE
  8
ボルト／ビス
  6
CONTINUOUS
 62
    64
 10
-75.69204
 20
-65.217568
 11
-75.554598
 21
-65.426615
  0
LINE
  8
ボルト／ビス
  6
CONTINUOUS
 62
    64
 10
-75.30483
 20
-65.412112
 11
-75.554598
 21
-65.426615
  0
LINE
  8
ボルト／ビス
  6
CONTINUOUS
 62
    64
 10
-75.57972
 20
-64.994013
 11
-75.69204
 21
-65.217568
  0
LINE
  8
ボルト／ビス
  6
CONTINUOUS
 62
    64
 10
-75.19251
 20
-65.18856
 11
-75.30483
 21
-65.412112
  0
CIRCLE
  8
ボルト／ビス
  6
CONTINUOUS
 62
    64
 10
-75.442275
 20
-65.203063
 40
0.216668
  0
ENDBLK
  0
BLOCK
  2
*GRP_0020
 70
    65
 10
0.0
 20
0.0
  0
LINE
  8
補助線
  6
BYBLOCK
 62
    64
 10
34.483262
 20
-75.132365
 11
34.632187
 21
-75.20719
  0
LINE
  8
補助線
  6
BYBLOCK
 62
    64
 10
34.595138
 20
-75.095313
 11
34.520313
 21
-75.24424
  0
LINE
  8
補助線
  6
BYBLOCK
 62
    64
 10
24.564783
 20
-70.149007
 11
24.71371
 21
-70.223833
  0
LINE
  8
補助線
  6
BYBLOCK
 62
    64
 10
24.67666
 20
-70.111955
 11
24.601835
 21
-70.260883
  0
LINE
  8
補助線
  6
BYBLOCK
 62
    64
 10
14.795233
 20
-65.240475
 11
14.646305
 21
-65.16565
  0
LINE
  8
補助線
  6
BYBLOCK
 62
    64
 10
14.758182
 20
-65.128597
 11
14.683358
 21
-65.277525
  0
LINE
  8
型材断面
  6
CONTINUOUS
 10
35.229702
 20
-74.5748
 11
35.452005
 21
-75.246053
  0
LINE
  8
型材断面
  6
CONTINUOUS
 10
35.452005
 20
-75.246053
 11
35.152702
 21
-75.841758
  0
LINE
  8
型材断面
  6
CONTINUOUS
 10
35.152702
 20
-75.841758
 11
34.48145
 21
-76.06406
  0
LINE
  8
型材断面
  6
CONTINUOUS
 10
14.797045
 20
-64.308782
 11
14.12579
 21
-64.531085
  0
LINE
  8
型材断面
  6
CONTINUOUS
 10
14.12579
 20
-64.531085
 11
13.826488
 21
-65.12679
  0
LINE
  8
型材断面
  6
CONTINUOUS
 10
13.826488
 20
-65.12679
 11
14.048792
 21
-65.798042
  0
LINE
  8
型材断面
  6
CONTINUOUS
 10
35.229702
 20
-74.5748
 11
14.797045
 21
-64.308782
  0
LINE
  8
型材断面
  6
CONTINUOUS
 10
34.48145
 20
-76.06406
 11
14.048792
 21
-65.798042
  0
CIRCLE
  8
ボルト／ビス
  6
CONTINUOUS
 10
34.557725
 20
-75.169777
 40
0.250185
  0
CIRCLE
  8
ボルト／ビス
  6
CONTINUOUS
 10
34.557725
 20
-75.169777
 40
0.301025
  0
LINE
  8
ボルト／ビス
  6
CONTINUOUS
 62
    64
 10
34.80749
 20
-75.155275
 11
34.670045
 21
-74.946225
  0
LINE
  8
ボルト／ビス
  6
CONTINUOUS
 62
    64
 10
34.42028
 20
-74.960728
 11
34.670045
 21
-74.946225
  0
LINE
  8
ボルト／ビス
  6
CONTINUOUS
 62
    64
 10
34.69517
 20
-75.378827
 11
34.445405
 21
-75.39333
  0
LINE
  8
ボルト／ビス
  6
CONTINUOUS
 62
    64
 10
34.30796
 20
-75.18428
 11
34.445405
 21
-75.39333
  0
LINE
  8
ボルト／ビス
  6
CONTINUOUS
 62
    64
 10
34.80749
 20
-75.155275
 11
34.69517
 21
-75.378827
  0
LINE
  8
ボルト／ビス
  6
CONTINUOUS
 62
    64
 10
34.42028
 20
-74.960728
 11
34.30796
 21
-75.18428
  0
CIRCLE
  8
ボルト／ビス
  6
CONTINUOUS
 62
    64
 10
34.557725
 20
-75.169777
 40
0.216668
  0
CIRCLE
  8
ボルト／ビス
  6
CONTINUOUS
 10
24.639248
 20
-70.18642
 40
0.250185
  0
CIRCLE
  8
ボルト／ビス
  6
CONTINUOUS
 10
24.639248
 20
-70.18642
 40
0.301025
  0
LINE
  8
ボルト／ビス
  6
CONTINUOUS
 62
    64
 10
24.889012
 20
-70.171915
 11
24.751568
 21
-69.962865
  0
LINE
  8
ボルト／ビス
  6
CONTINUOUS
 62
    64
 10
24.501802
 20
-69.977368
 11
24.751568
 21
-69.962865
  0
LINE
  8
ボルト／ビス
  6
CONTINUOUS
 62
    64
 10
24.776692
 20
-70.39547
 11
24.526925
 21
-70.409975
  0
LINE
  8
ボルト／ビス
  6
CONTINUOUS
 62
    64
 10
24.389482
 20
-70.200925
 11
24.526925
 21
-70.409975
  0
LINE
  8
ボルト／ビス
  6
CONTINUOUS
 62
    64
 10
24.889012
 20
-70.171915
 11
24.776692
 21
-70.39547
  0
LINE
  8
ボルト／ビス
  6
CONTINUOUS
 62
    64
 10
24.501802
 20
-69.977368
 11
24.389482
 21
-70.200925
  0
CIRCLE
  8
ボルト／ビス
  6
CONTINUOUS
 62
    64
 10
24.639248
 20
-70.18642
 40
0.216668
  0
CIRCLE
  8
ボルト／ビス
  6
CONTINUOUS
 10
14.72077
 20
-65.203063
 40
0.250185
  0
CIRCLE
  8
ボルト／ビス
  6
CONTINUOUS
 10
14.72077
 20
-65.203063
 40
0.301025
  0
LINE
  8
ボルト／ビス
  6
CONTINUOUS
 62
    64
 10
14.583325
 20
-64.994013
 11
14.83309
 21
-64.97951
  0
LINE
  8
ボルト／ビス
  6
CONTINUOUS
 62
    64
 10
14.970535
 20
-65.18856
 11
14.83309
 21
-64.97951
  0
LINE
  8
ボルト／ビス
  6
CONTINUOUS
 62
    64
 10
14.471005
 20
-65.217568
 11
14.608447
 21
-65.426615
  0
LINE
  8
ボルト／ビス
  6
CONTINUOUS
 62
    64
 10
14.858215
 20
-65.412112
 11
14.608447
 21
-65.426615
  0
LINE
  8
ボルト／ビス
  6
CONTINUOUS
 62
    64
 10
14.583325
 20
-64.994013
 11
14.471005
 21
-65.217568
  0
LINE
  8
ボルト／ビス
  6
CONTINUOUS
 62
    64
 10
14.970535
 20
-65.18856
 11
14.858215
 21
-65.412112
  0
CIRCLE
  8
ボルト／ビス
  6
CONTINUOUS
 62
    64
 10
14.72077
 20
-65.203063
 40
0.216668
  0
ENDBLK
  0
BLOCK
  2
*GRP_0021
 70
    65
 10
0.0
 20
0.0
  0
LINE
  8
補助線
  6
BYBLOCK
 62
    64
 10
14.795233
 20
-75.132365
 11
14.646307
 21
-75.20719
  0
LINE
  8
補助線
  6
BYBLOCK
 62
    64
 10
14.683358
 20
-75.095313
 11
14.758182
 21
-75.24424
  0
LINE
  8
補助線
  6
BYBLOCK
 62
    64
 10
24.713712
 20
-70.149007
 11
24.564785
 21
-70.223833
  0
LINE
  8
補助線
  6
BYBLOCK
 62
    64
 10
24.601835
 20
-70.111955
 11
24.67666
 21
-70.260883
  0
LINE
  8
補助線
  6
BYBLOCK
 62
    64
 10
34.483262
 20
-65.240475
 11
34.63219
 21
-65.16565
  0
LINE
  8
補助線
  6
BYBLOCK
 62
    64
 10
34.520313
 20
-65.128597
 11
34.595138
 21
-65.277525
  0
LINE
  8
型材断面
  6
CONTINUOUS
 10
14.048792
 20
-74.5748
 11
13.82649
 21
-75.246053
  0
LINE
  8
型材断面
  6
CONTINUOUS
 10
13.82649
 20
-75.246053
 11
14.125792
 21
-75.841758
  0
LINE
  8
型材断面
  6
CONTINUOUS
 10
14.125792
 20
-75.841758
 11
14.797045
 21
-76.06406
  0
LINE
  8
型材断面
  6
CONTINUOUS
 10
34.48145
 20
-64.308782
 11
35.152705
 21
-64.531085
  0
LINE
  8
型材断面
  6
CONTINUOUS
 10
35.152705
 20
-64.531085
 11
35.452008
 21
-65.12679
  0
LINE
  8
型材断面
  6
CONTINUOUS
 10
35.452008
 20
-65.12679
 11
35.229702
 21
-65.798042
  0
LINE
  8
型材断面
  6
CONTINUOUS
 10
14.048792
 20
-74.5748
 11
34.48145
 21
-64.308782
  0
LINE
  8
型材断面
  6
CONTINUOUS
 10
14.797045
 20
-76.06406
 11
35.229702
 21
-65.798042
  0
CIRCLE
  8
ボルト／ビス
  6
CONTINUOUS
 10
14.72077
 20
-75.169777
 40
0.250185
  0
CIRCLE
  8
ボルト／ビス
  6
CONTINUOUS
 10
14.72077
 20
-75.169777
 40
0.301025
  0
LINE
  8
ボルト／ビス
  6
CONTINUOUS
 62
    64
 10
14.471005
 20
-75.155275
 11
14.60845
 21
-74.946225
  0
LINE
  8
ボルト／ビス
  6
CONTINUOUS
 62
    64
 10
14.858215
 20
-74.960728
 11
14.60845
 21
-74.946225
  0
LINE
  8
ボルト／ビス
  6
CONTINUOUS
 62
    64
 10
14.583325
 20
-75.378827
 11
14.83309
 21
-75.39333
  0
LINE
  8
ボルト／ビス
  6
CONTINUOUS
 62
    64
 10
14.970535
 20
-75.18428
 11
14.83309
 21
-75.39333
  0
LINE
  8
ボルト／ビス
  6
CONTINUOUS
 62
    64
 10
14.471005
 20
-75.155275
 11
14.583325
 21
-75.378827
  0
LINE
  8
ボルト／ビス
  6
CONTINUOUS
 62
    64
 10
14.858215
 20
-74.960728
 11
14.970535
 21
-75.18428
  0
CIRCLE
  8
ボルト／ビス
  6
CONTINUOUS
 62
    64
 10
14.72077
 20
-75.169777
 40
0.216668
  0
CIRCLE
  8
ボルト／ビス
  6
CONTINUOUS
 10
24.639248
 20
-70.18642
 40
0.250185
  0
CIRCLE
  8
ボルト／ビス
  6
CONTINUOUS
 10
24.639248
 20
-70.18642
 40
0.301025
  0
LINE
  8
ボルト／ビス
  6
CONTINUOUS
 62
    64
 10
24.389482
 20
-70.171915
 11
24.526928
 21
-69.962865
  0
LINE
  8
ボルト／ビス
  6
CONTINUOUS
 62
    64
 10
24.776692
 20
-69.977368
 11
24.526928
 21
-69.962865
  0
LINE
  8
ボルト／ビス
  6
CONTINUOUS
 62
    64
 10
24.501802
 20
-70.39547
 11
24.75157
 21
-70.409975
  0
LINE
  8
ボルト／ビス
  6
CONTINUOUS
 62
    64
 10
24.889012
 20
-70.200925
 11
24.75157
 21
-70.409975
  0
LINE
  8
ボルト／ビス
  6
CONTINUOUS
 62
    64
 10
24.389482
 20
-70.171915
 11
24.501802
 21
-70.39547
  0
LINE
  8
ボルト／ビス
  6
CONTINUOUS
 62
    64
 10
24.776692
 20
-69.977368
 11
24.889012
 21
-70.200925
  0
CIRCLE
  8
ボルト／ビス
  6
CONTINUOUS
 62
    64
 10
24.639248
 20
-70.18642
 40
0.216668
  0
CIRCLE
  8
ボルト／ビス
  6
CONTINUOUS
 10
34.557725
 20
-65.203063
 40
0.250185
  0
CIRCLE
  8
ボルト／ビス
  6
CONTINUOUS
 10
34.557725
 20
-65.203063
 40
0.301025
  0
LINE
  8
ボルト／ビス
  6
CONTINUOUS
 62
    64
 10
34.69517
 20
-64.994013
 11
34.445405
 21
-64.97951
  0
LINE
  8
ボルト／ビス
  6
CONTINUOUS
 62
    64
 10
34.30796
 20
-65.18856
 11
34.445405
 21
-64.97951
  0
LINE
  8
ボルト／ビス
  6
CONTINUOUS
 62
    64
 10
34.80749
 20
-65.217568
 11
34.670047
 21
-65.426615
  0
LINE
  8
ボルト／ビス
  6
CONTINUOUS
 62
    64
 10
34.42028
 20
-65.412112
 11
34.670047
 21
-65.426615
  0
LINE
  8
ボルト／ビス
  6
CONTINUOUS
 62
    64
 10
34.69517
 20
-64.994013
 11
34.80749
 21
-65.217568
  0
LINE
  8
ボルト／ビス
  6
CONTINUOUS
 62
    64
 10
34.30796
 20
-65.18856
 11
34.42028
 21
-65.412112
  0
CIRCLE
  8
ボルト／ビス
  6
CONTINUOUS
 62
    64
 10
34.557725
 20
-65.203063
 40
0.216668
  0
ENDBLK
  0
BLOCK
  2
*DIM_0022
 70
    65
 10
0.0
 20
0.0
  0
LINE
  8
寸法
  6
BYBLOCK
 62
     0
 10
-90.10894
 20
39.4807
 11
-103.401778
 21
39.4807
  0
LINE
  8
寸法
  6
BYBLOCK
 62
     0
 10
-90.10894
 20
26.147365
 11
-103.401778
 21
26.147365
  0
LINE
  8
寸法
  6
BYBLOCK
 62
     0
 10
-103.401778
 20
39.4807
 11
-103.401778
 21
26.147365
  0
POINT
  8
寸法
 62
     0
 10
-103.401778
 20
39.4807
  0
POINT
  8
寸法
 62
     0
 10
-103.401778
 20
26.147365
  0
TEXT
  7
TextStyle03
  8
寸法
  6
CONTINUOUS
 62
     0
 10
-103.75
 20
30.3625
  1
400
 40
3.0
 50
90.0
 72
     5
 11
-103.75
 21
35.2375
  0
ENDBLK
  0
BLOCK
  2
*DIM_0023
 70
    65
 10
0.0
 20
0.0
  0
LINE
  8
寸法
  6
BYBLOCK
 62
     0
 10
-78.775608
 20
45.814033
 11
-78.775608
 21
74.922105
  0
LINE
  8
寸法
  6
BYBLOCK
 62
     0
 10
-55.442275
 20
45.814033
 11
-55.442275
 21
74.922105
  0
LINE
  8
寸法
  6
BYBLOCK
 62
     0
 10
-78.775608
 20
74.922105
 11
-55.442275
 21
74.922105
  0
POINT
  8
寸法
 62
     0
 10
-78.775608
 20
74.922105
  0
POINT
  8
寸法
 62
     0
 10
-55.442275
 20
74.922105
  0
TEXT
  7
TextStyle03
  8
寸法
  6
CONTINUOUS
 62
     0
 10
-69.5625
 20
75.3
  1
700
 40
3.0
 72
     5
 11
-64.6875
 21
75.3
  0
ENDBLK
  0
BLOCK
  2
*DIM_0024
 70
    65
 10
0.0
 20
0.0
  0
LINE
  8
寸法
  6
BYBLOCK
 62
     0
 10
-32.108943
 20
45.814033
 11
-32.108943
 21
74.922105
  0
LINE
  8
寸法
  6
BYBLOCK
 62
     0
 10
-55.442275
 20
74.922105
 11
-32.108943
 21
74.922105
  0
POINT
  8
寸法
 62
     0
 10
-32.108943
 20
74.922105
  0
TEXT
  7
TextStyle03
  8
寸法
  6
CONTINUOUS
 62
     0
 10
-46.2375
 20
75.3
  1
700
 40
3.0
 72
     5
 11
-41.3625
 21
75.3
  0
ENDBLK
  0
BLOCK
  2
*DIM_0025
 70
    65
 10
0.0
 20
0.0
  0
LINE
  8
寸法
  6
BYBLOCK
 62
     0
 10
-8.775608
 20
45.814033
 11
-8.775608
 21
74.922105
  0
LINE
  8
寸法
  6
BYBLOCK
 62
     0
 10
-32.108943
 20
74.922105
 11
-8.775608
 21
74.922105
  0
POINT
  8
寸法
 62
     0
 10
-8.775608
 20
74.922105
  0
TEXT
  7
TextStyle03
  8
寸法
  6
CONTINUOUS
 62
     0
 10
-22.9125
 20
75.3
  1
700
 40
3.0
 72
     5
 11
-18.0375
 21
75.3
  0
ENDBLK
  0
BLOCK
  2
*DIM_0026
 70
    65
 10
0.0
 20
0.0
  0
LINE
  8
寸法
  6
BYBLOCK
 62
     0
 10
14.557725
 20
45.814033
 11
14.557725
 21
74.922105
  0
LINE
  8
寸法
  6
BYBLOCK
 62
     0
 10
-8.775608
 20
74.922105
 11
14.557725
 21
74.922105
  0
POINT
  8
寸法
 62
     0
 10
14.557725
 20
74.922105
  0
TEXT
  7
TextStyle03
  8
寸法
  6
CONTINUOUS
 62
     0
 10
0.4375
 20
75.3
  1
700
 40
3.0
 72
     5
 11
5.3125
 21
75.3
  0
ENDBLK
  0
BLOCK
  2
*DIM_0027
 70
    65
 10
0.0
 20
0.0
  0
LINE
  8
寸法
  6
BYBLOCK
 62
     0
 10
37.891057
 20
45.814033
 11
37.891057
 21
74.922105
  0
LINE
  8
寸法
  6
BYBLOCK
 62
     0
 10
14.557725
 20
74.922105
 11
37.891057
 21
74.922105
  0
POINT
  8
寸法
 62
     0
 10
37.891057
 20
74.922105
  0
TEXT
  7
TextStyle03
  8
寸法
  6
CONTINUOUS
 62
     0
 10
23.7625
 20
75.3
  1
700
 40
3.0
 72
     5
 11
28.6375
 21
75.3
  0
ENDBLK
  0
BLOCK
  2
*DIM_0028
 70
    65
 10
0.0
 20
0.0
  0
LINE
  8
寸法
  6
BYBLOCK
 62
     0
 10
39.224393
 20
-57.542947
 11
62.194043
 21
-57.542947
  0
LINE
  8
寸法
  6
BYBLOCK
 62
     0
 10
62.194043
 20
-64.87628
 11
62.194043
 21
-57.542947
  0
POINT
  8
寸法
 62
     0
 10
62.194043
 20
-64.87628
  0
POINT
  8
寸法
 62
     0
 10
62.194043
 20
-57.542947
  0
TEXT
  7
TextStyle03
  8
寸法
  6
CONTINUOUS
 62
     0
 10
67.725
 20
-70.44375
  1
上昇199以上
 40
3.0
 50
90.0
 72
     5
 11
67.725
 21
-52.25625
  0
ENDBLK
  0
BLOCK
  2
*GRP_0029
 70
    65
 10
0.0
 20
0.0
  0
LINE
  8
ボルト／ビス
  6
CONTINUOUS
 10
135.757657
 20
22.147365
 11
135.290992
 21
22.147365
  0
LINE
  8
ボルト／ビス
  6
CONTINUOUS
 10
135.757657
 20
21.7807
 11
135.690992
 21
21.7807
  0
LINE
  8
ボルト／ビス
  6
CONTINUOUS
 10
135.690992
 20
21.7807
 11
135.690992
 21
22.514033
  0
LINE
  8
ボルト／ビス
  6
CONTINUOUS
 10
135.690992
 20
22.514033
 11
135.757657
 21
22.514033
  0
LINE
  8
ボルト／ビス
  6
CONTINUOUS
 10
135.757657
 20
21.7807
 11
135.757657
 21
22.514033
  0
LINE
  8
ボルト／ビス
  6
CONTINUOUS
 10
135.657657
 20
21.847365
 11
135.690992
 21
21.847365
  0
LINE
  8
ボルト／ビス
  6
CONTINUOUS
 10
135.657657
 20
21.847365
 11
135.657657
 21
22.447365
  0
LINE
  8
ボルト／ビス
  6
CONTINUOUS
 10
135.657657
 20
22.447365
 11
135.690992
 21
22.447365
  0
LINE
  8
ボルト／ビス
  6
CONTINUOUS
 62
    64
 10
135.457657
 20
21.98699
 11
135.469333
 21
21.954915
  0
ARC
  8
ボルト／ビス
  6
CONTINUOUS
 62
    64
 10
135.562634
 20
22.003031
 40
0.104978
 50
152.721967
 51
180.0
  0
ARC
  8
ボルト／ビス
  6
CONTINUOUS
 62
    64
 10
135.860058
 20
22.147368
 40
0.402402
 50
166.165002
 51
193.834985
  0
LINE
  8
ボルト／ビス
  6
CONTINUOUS
 62
    64
 10
135.457657
 20
22.30774
 11
135.469333
 21
22.339815
  0
ARC
  8
ボルト／ビス
  6
CONTINUOUS
 62
    64
 10
135.562634
 20
22.291706
 40
0.104978
 50
180.0
 51
207.278033
  0
LINE
  8
ボルト／ビス
  6
CONTINUOUS
 62
    64
 10
135.457657
 20
21.98699
 11
135.457657
 21
22.30774
  0
LINE
  8
ボルト／ビス
  6
CONTINUOUS
 62
    64
 10
135.469333
 20
22.339815
 11
135.590993
 21
22.339815
  0
LINE
  8
ボルト／ビス
  6
CONTINUOUS
 62
    64
 10
135.469333
 20
22.24359
 11
135.590993
 21
22.24359
  0
LINE
  8
ボルト／ビス
  6
CONTINUOUS
 62
    64
 10
135.469333
 20
21.954915
 11
135.590993
 21
21.954915
  0
LINE
  8
ボルト／ビス
  6
CONTINUOUS
 62
    64
 10
135.469333
 20
22.05114
 11
135.590993
 21
22.05114
  0
LINE
  8
ボルト／ビス
  6
CONTINUOUS
 10
135.590993
 20
21.954915
 11
135.590993
 21
22.339815
  0
LINE
  8
ボルト／ビス
  6
CONTINUOUS
 10
135.590993
 20
21.947365
 11
135.657657
 21
21.947365
  0
LINE
  8
ボルト／ビス
  6
CONTINUOUS
 10
135.590993
 20
21.947365
 11
135.590993
 21
22.347365
  0
LINE
  8
ボルト／ビス
  6
CONTINUOUS
 10
135.590993
 20
22.347365
 11
135.657657
 21
22.347365
  0
ENDBLK
  0
BLOCK
  2
*GRP_0030
 70
    65
 10
0.0
 20
0.0
  0
LINE
  8
ボルト／ビス
  6
CONTINUOUS
 10
135.757657
 20
43.4807
 11
135.290992
 21
43.4807
  0
LINE
  8
ボルト／ビス
  6
CONTINUOUS
 10
135.757657
 20
43.114035
 11
135.690992
 21
43.114035
  0
LINE
  8
ボルト／ビス
  6
CONTINUOUS
 10
135.690992
 20
43.114035
 11
135.690992
 21
43.847367
  0
LINE
  8
ボルト／ビス
  6
CONTINUOUS
 10
135.690992
 20
43.847367
 11
135.757657
 21
43.847367
  0
LINE
  8
ボルト／ビス
  6
CONTINUOUS
 10
135.757657
 20
43.114035
 11
135.757657
 21
43.847367
  0
LINE
  8
ボルト／ビス
  6
CONTINUOUS
 10
135.657657
 20
43.1807
 11
135.690992
 21
43.1807
  0
LINE
  8
ボルト／ビス
  6
CONTINUOUS
 10
135.657657
 20
43.1807
 11
135.657657
 21
43.7807
  0
LINE
  8
ボルト／ビス
  6
CONTINUOUS
 10
135.657657
 20
43.7807
 11
135.690992
 21
43.7807
  0
LINE
  8
ボルト／ビス
  6
CONTINUOUS
 62
    64
 10
135.457657
 20
43.320325
 11
135.469333
 21
43.28825
  0
ARC
  8
ボルト／ビス
  6
CONTINUOUS
 62
    64
 10
135.562634
 20
43.336366
 40
0.104978
 50
152.721967
 51
180.0
  0
ARC
  8
ボルト／ビス
  6
CONTINUOUS
 62
    64
 10
135.860058
 20
43.480703
 40
0.402402
 50
166.165002
 51
193.834985
  0
LINE
  8
ボルト／ビス
  6
CONTINUOUS
 62
    64
 10
135.457657
 20
43.641075
 11
135.469333
 21
43.67315
  0
ARC
  8
ボルト／ビス
  6
CONTINUOUS
 62
    64
 10
135.562634
 20
43.625041
 40
0.104978
 50
180.0
 51
207.278033
  0
LINE
  8
ボルト／ビス
  6
CONTINUOUS
 62
    64
 10
135.457657
 20
43.320325
 11
135.457657
 21
43.641075
  0
LINE
  8
ボルト／ビス
  6
CONTINUOUS
 62
    64
 10
135.469333
 20
43.67315
 11
135.590993
 21
43.67315
  0
LINE
  8
ボルト／ビス
  6
CONTINUOUS
 62
    64
 10
135.469333
 20
43.576925
 11
135.590993
 21
43.576925
  0
LINE
  8
ボルト／ビス
  6
CONTINUOUS
 62
    64
 10
135.469333
 20
43.28825
 11
135.590993
 21
43.28825
  0
LINE
  8
ボルト／ビス
  6
CONTINUOUS
 62
    64
 10
135.469333
 20
43.384475
 11
135.590993
 21
43.384475
  0
LINE
  8
ボルト／ビス
  6
CONTINUOUS
 10
135.590993
 20
43.28825
 11
135.590993
 21
43.67315
  0
LINE
  8
ボルト／ビス
  6
CONTINUOUS
 10
135.590993
 20
43.2807
 11
135.657657
 21
43.2807
  0
LINE
  8
ボルト／ビス
  6
CONTINUOUS
 10
135.590993
 20
43.2807
 11
135.590993
 21
43.6807
  0
LINE
  8
ボルト／ビス
  6
CONTINUOUS
 10
135.590993
 20
43.6807
 11
135.657657
 21
43.6807
  0
ENDBLK
  0
BLOCK
  2
*GRP_0031
 70
    65
 10
0.0
 20
0.0
  0
LINE
  8
ボルト／ビス
  6
CONTINUOUS
 10
46.89106
 20
-70.209613
 11
46.89106
 21
-69.742947
  0
LINE
  8
ボルト／ビス
  6
CONTINUOUS
 10
46.524395
 20
-70.209613
 11
46.524395
 21
-70.142947
  0
LINE
  8
ボルト／ビス
  6
CONTINUOUS
 10
46.524395
 20
-70.142947
 11
47.257727
 21
-70.142947
  0
LINE
  8
ボルト／ビス
  6
CONTINUOUS
 10
47.257727
 20
-70.142947
 11
47.257727
 21
-70.209613
  0
LINE
  8
ボルト／ビス
  6
CONTINUOUS
 10
46.524395
 20
-70.209613
 11
47.257727
 21
-70.209613
  0
LINE
  8
ボルト／ビス
  6
CONTINUOUS
 10
46.59106
 20
-70.109612
 11
46.59106
 21
-70.142947
  0
LINE
  8
ボルト／ビス
  6
CONTINUOUS
 10
46.59106
 20
-70.109612
 11
47.19106
 21
-70.109612
  0
LINE
  8
ボルト／ビス
  6
CONTINUOUS
 10
47.19106
 20
-70.109612
 11
47.19106
 21
-70.142947
  0
LINE
  8
ボルト／ビス
  6
CONTINUOUS
 62
    64
 10
46.730685
 20
-69.909613
 11
46.69861
 21
-69.921288
  0
ARC
  8
ボルト／ビス
  6
CONTINUOUS
 62
    64
 10
46.746725
 20
-70.014591
 40
0.104978
 50
62.721967
 51
90.0
  0
ARC
  8
ボルト／ビス
  6
CONTINUOUS
 62
    64
 10
46.891063
 20
-70.312015
 40
0.402402
 50
76.165002
 51
103.834985
  0
LINE
  8
ボルト／ビス
  6
CONTINUOUS
 62
    64
 10
47.051435
 20
-69.909613
 11
47.08351
 21
-69.921288
  0
ARC
  8
ボルト／ビス
  6
CONTINUOUS
 62
    64
 10
47.0354
 20
-70.014591
 40
0.104978
 50
90.0
 51
117.278033
  0
LINE
  8
ボルト／ビス
  6
CONTINUOUS
 62
    64
 10
46.730685
 20
-69.909613
 11
47.051435
 21
-69.909613
  0
LINE
  8
ボルト／ビス
  6
CONTINUOUS
 62
    64
 10
47.08351
 20
-69.921288
 11
47.08351
 21
-70.042947
  0
LINE
  8
ボルト／ビス
  6
CONTINUOUS
 62
    64
 10
46.987285
 20
-69.921288
 11
46.987285
 21
-70.042947
  0
LINE
  8
ボルト／ビス
  6
CONTINUOUS
 62
    64
 10
46.69861
 20
-69.921288
 11
46.69861
 21
-70.042947
  0
LINE
  8
ボルト／ビス
  6
CONTINUOUS
 62
    64
 10
46.794835
 20
-69.921288
 11
46.794835
 21
-70.042947
  0
LINE
  8
ボルト／ビス
  6
CONTINUOUS
 10
46.69861
 20
-70.042947
 11
47.08351
 21
-70.042947
  0
LINE
  8
ボルト／ビス
  6
CONTINUOUS
 10
46.69106
 20
-70.042947
 11
46.69106
 21
-70.109612
  0
LINE
  8
ボルト／ビス
  6
CONTINUOUS
 10
46.69106
 20
-70.042947
 11
47.09106
 21
-70.042947
  0
LINE
  8
ボルト／ビス
  6
CONTINUOUS
 10
47.09106
 20
-70.042947
 11
47.09106
 21
-70.109612
  0
ENDBLK
  0
BLOCK
  2
*GRP_0032
 70
    65
 10
0.0
 20
0.0
  0
LINE
  8
ボルト／ビス
  6
DOT
 10
46.89106
 20
-62.87628
 11
46.89106
 21
-62.409615
  0
LINE
  8
ボルト／ビス
  6
DOT
 10
46.524395
 20
-62.87628
 11
46.524395
 21
-62.809615
  0
LINE
  8
ボルト／ビス
  6
DOT
 10
46.524395
 20
-62.809615
 11
47.257727
 21
-62.809615
  0
LINE
  8
ボルト／ビス
  6
DOT
 10
47.257727
 20
-62.809615
 11
47.257727
 21
-62.87628
  0
LINE
  8
ボルト／ビス
  6
DOT
 10
46.524395
 20
-62.87628
 11
47.257727
 21
-62.87628
  0
LINE
  8
ボルト／ビス
  6
DOT
 10
46.59106
 20
-62.77628
 11
46.59106
 21
-62.809615
  0
LINE
  8
ボルト／ビス
  6
DOT
 10
46.59106
 20
-62.77628
 11
47.19106
 21
-62.77628
  0
LINE
  8
ボルト／ビス
  6
DOT
 10
47.19106
 20
-62.77628
 11
47.19106
 21
-62.809615
  0
LINE
  8
ボルト／ビス
  6
DOT
 62
    64
 10
46.730685
 20
-62.57628
 11
46.69861
 21
-62.587955
  0
ARC
  8
ボルト／ビス
  6
DOT
 62
    64
 10
46.746725
 20
-62.681258
 40
0.104978
 50
62.721967
 51
90.0
  0
ARC
  8
ボルト／ビス
  6
DOT
 62
    64
 10
46.891063
 20
-62.978682
 40
0.402402
 50
76.165002
 51
103.834985
  0
LINE
  8
ボルト／ビス
  6
DOT
 62
    64
 10
47.051435
 20
-62.57628
 11
47.08351
 21
-62.587955
  0
ARC
  8
ボルト／ビス
  6
DOT
 62
    64
 10
47.0354
 20
-62.681258
 40
0.104978
 50
90.0
 51
117.278033
  0
LINE
  8
ボルト／ビス
  6
DOT
 62
    64
 10
46.730685
 20
-62.57628
 11
47.051435
 21
-62.57628
  0
LINE
  8
ボルト／ビス
  6
DOT
 62
    64
 10
47.08351
 20
-62.587955
 11
47.08351
 21
-62.709615
  0
LINE
  8
ボルト／ビス
  6
DOT
 62
    64
 10
46.987285
 20
-62.587955
 11
46.987285
 21
-62.709615
  0
LINE
  8
ボルト／ビス
  6
DOT
 62
    64
 10
46.69861
 20
-62.587955
 11
46.69861
 21
-62.709615
  0
LINE
  8
ボルト／ビス
  6
DOT
 62
    64
 10
46.794835
 20
-62.587955
 11
46.794835
 21
-62.709615
  0
LINE
  8
ボルト／ビス
  6
DOT
 10
46.69861
 20
-62.709615
 11
47.08351
 21
-62.709615
  0
LINE
  8
ボルト／ビス
  6
DOT
 10
46.69106
 20
-62.709615
 11
46.69106
 21
-62.77628
  0
LINE
  8
ボルト／ビス
  6
DOT
 10
46.69106
 20
-62.709615
 11
47.09106
 21
-62.709615
  0
LINE
  8
ボルト／ビス
  6
DOT
 10
47.09106
 20
-62.709615
 11
47.09106
 21
-62.77628
  0
ENDBLK
  0
BLOCK
  2
*GRP_0033
 70
    65
 10
0.0
 20
0.0
  0
LINE
  8
ボルト／ビス
  6
CONTINUOUS
 10
-87.77561
 20
-70.209613
 11
-87.77561
 21
-69.742947
  0
LINE
  8
ボルト／ビス
  6
CONTINUOUS
 10
-88.142275
 20
-70.209613
 11
-88.142275
 21
-70.142947
  0
LINE
  8
ボルト／ビス
  6
CONTINUOUS
 10
-88.142275
 20
-70.142947
 11
-87.408943
 21
-70.142947
  0
LINE
  8
ボルト／ビス
  6
CONTINUOUS
 10
-87.408943
 20
-70.142947
 11
-87.408943
 21
-70.209613
  0
LINE
  8
ボルト／ビス
  6
CONTINUOUS
 10
-88.142275
 20
-70.209613
 11
-87.408943
 21
-70.209613
  0
LINE
  8
ボルト／ビス
  6
CONTINUOUS
 10
-88.07561
 20
-70.109612
 11
-88.07561
 21
-70.142947
  0
LINE
  8
ボルト／ビス
  6
CONTINUOUS
 10
-88.07561
 20
-70.109612
 11
-87.47561
 21
-70.109612
  0
LINE
  8
ボルト／ビス
  6
CONTINUOUS
 10
-87.47561
 20
-70.109612
 11
-87.47561
 21
-70.142947
  0
LINE
  8
ボルト／ビス
  6
CONTINUOUS
 62
    64
 10
-87.935985
 20
-69.909613
 11
-87.96806
 21
-69.921288
  0
ARC
  8
ボルト／ビス
  6
CONTINUOUS
 62
    64
 10
-87.919945
 20
-70.014591
 40
0.104978
 50
62.721967
 51
90.0
  0
ARC
  8
ボルト／ビス
  6
CONTINUOUS
 62
    64
 10
-87.775607
 20
-70.312015
 40
0.402402
 50
76.165002
 51
103.834985
  0
LINE
  8
ボルト／ビス
  6
CONTINUOUS
 62
    64
 10
-87.615235
 20
-69.909613
 11
-87.58316
 21
-69.921288
  0
ARC
  8
ボルト／ビス
  6
CONTINUOUS
 62
    64
 10
-87.63127
 20
-70.014591
 40
0.104978
 50
90.0
 51
117.278033
  0
LINE
  8
ボルト／ビス
  6
CONTINUOUS
 62
    64
 10
-87.935985
 20
-69.909613
 11
-87.615235
 21
-69.909613
  0
LINE
  8
ボルト／ビス
  6
CONTINUOUS
 62
    64
 10
-87.58316
 20
-69.921288
 11
-87.58316
 21
-70.042947
  0
LINE
  8
ボルト／ビス
  6
CONTINUOUS
 62
    64
 10
-87.679385
 20
-69.921288
 11
-87.679385
 21
-70.042947
  0
LINE
  8
ボルト／ビス
  6
CONTINUOUS
 62
    64
 10
-87.96806
 20
-69.921288
 11
-87.96806
 21
-70.042947
  0
LINE
  8
ボルト／ビス
  6
CONTINUOUS
 62
    64
 10
-87.871835
 20
-69.921288
 11
-87.871835
 21
-70.042947
  0
LINE
  8
ボルト／ビス
  6
CONTINUOUS
 10
-87.96806
 20
-70.042947
 11
-87.58316
 21
-70.042947
  0
LINE
  8
ボルト／ビス
  6
CONTINUOUS
 10
-87.97561
 20
-70.042947
 11
-87.97561
 21
-70.109612
  0
LINE
  8
ボルト／ビス
  6
CONTINUOUS
 10
-87.97561
 20
-70.042947
 11
-87.57561
 21
-70.042947
  0
LINE
  8
ボルト／ビス
  6
CONTINUOUS
 10
-87.57561
 20
-70.042947
 11
-87.57561
 21
-70.109612
  0
ENDBLK
  0
BLOCK
  2
*GRP_0034
 70
    65
 10
0.0
 20
0.0
  0
LINE
  8
ボルト／ビス
  6
DOT
 10
-87.77561
 20
-62.87628
 11
-87.77561
 21
-62.409615
  0
LINE
  8
ボルト／ビス
  6
DOT
 10
-88.142275
 20
-62.87628
 11
-88.142275
 21
-62.809615
  0
LINE
  8
ボルト／ビス
  6
DOT
 10
-88.142275
 20
-62.809615
 11
-87.408943
 21
-62.809615
  0
LINE
  8
ボルト／ビス
  6
DOT
 10
-87.408943
 20
-62.809615
 11
-87.408943
 21
-62.87628
  0
LINE
  8
ボルト／ビス
  6
DOT
 10
-88.142275
 20
-62.87628
 11
-87.408943
 21
-62.87628
  0
LINE
  8
ボルト／ビス
  6
DOT
 10
-88.07561
 20
-62.77628
 11
-88.07561
 21
-62.809615
  0
LINE
  8
ボルト／ビス
  6
DOT
 10
-88.07561
 20
-62.77628
 11
-87.47561
 21
-62.77628
  0
LINE
  8
ボルト／ビス
  6
DOT
 10
-87.47561
 20
-62.77628
 11
-87.47561
 21
-62.809615
  0
LINE
  8
ボルト／ビス
  6
DOT
 62
    64
 10
-87.935985
 20
-62.57628
 11
-87.96806
 21
-62.587955
  0
ARC
  8
ボルト／ビス
  6
DOT
 62
    64
 10
-87.919945
 20
-62.681258
 40
0.104978
 50
62.721967
 51
90.0
  0
ARC
  8
ボルト／ビス
  6
DOT
 62
    64
 10
-87.775607
 20
-62.978682
 40
0.402402
 50
76.165002
 51
103.834985
  0
LINE
  8
ボルト／ビス
  6
DOT
 62
    64
 10
-87.615235
 20
-62.57628
 11
-87.58316
 21
-62.587955
  0
ARC
  8
ボルト／ビス
  6
DOT
 62
    64
 10
-87.63127
 20
-62.681258
 40
0.104978
 50
90.0
 51
117.278033
  0
LINE
  8
ボルト／ビス
  6
DOT
 62
    64
 10
-87.935985
 20
-62.57628
 11
-87.615235
 21
-62.57628
  0
LINE
  8
ボルト／ビス
  6
DOT
 62
    64
 10
-87.58316
 20
-62.587955
 11
-87.58316
 21
-62.709615
  0
LINE
  8
ボルト／ビス
  6
DOT
 62
    64
 10
-87.679385
 20
-62.587955
 11
-87.679385
 21
-62.709615
  0
LINE
  8
ボルト／ビス
  6
DOT
 62
    64
 10
-87.96806
 20
-62.587955
 11
-87.96806
 21
-62.709615
  0
LINE
  8
ボルト／ビス
  6
DOT
 62
    64
 10
-87.871835
 20
-62.587955
 11
-87.871835
 21
-62.709615
  0
LINE
  8
ボルト／ビス
  6
DOT
 10
-87.96806
 20
-62.709615
 11
-87.58316
 21
-62.709615
  0
LINE
  8
ボルト／ビス
  6
DOT
 10
-87.97561
 20
-62.709615
 11
-87.97561
 21
-62.77628
  0
LINE
  8
ボルト／ビス
  6
DOT
 10
-87.97561
 20
-62.709615
 11
-87.57561
 21
-62.709615
  0
LINE
  8
ボルト／ビス
  6
DOT
 10
-87.57561
 20
-62.709615
 11
-87.57561
 21
-62.77628
  0
ENDBLK
  0
ENDSEC
  0
SECTION
  2
ENTITIES
  0
POLYLINE
  8
通り芯
  6
CONTINUOUS
 66
     1
 70
     1
  0
VERTEX
  8
通り芯
 10
-210.0
 20
-148.5
  0
VERTEX
  8
通り芯
 10
210.0
 20
-148.5
  0
VERTEX
  8
通り芯
 10
210.0
 20
148.5
  0
VERTEX
  8
通り芯
 10
-210.0
 20
148.5
  0
SEQEND
  0
INSERT
  2
*GRP_0001
  8
型材断面
  6
CONTINUOUS
 10
0.0
 20
0.0
  0
LINE
  8
型材断面
  6
DASHDOT
 10
46.224393
 20
-77.836442
 11
46.224393
 21
42.814033
  0
LINE
  8
型材断面
  6
DASHDOT
 10
-20.442275
 20
-77.836442
 11
-20.442275
 21
42.814033
  0
LINE
  8
型材断面
  6
DASHDOT
 10
-87.10894
 20
-77.836442
 11
-87.10894
 21
42.814033
  0
POLYLINE
  8
型材断面
  6
CONTINUOUS
 66
     1
 70
     1
  0
VERTEX
  8
型材断面
 10
-10.770633
 20
13.03811
  0
VERTEX
  8
型材断面
 10
-29.542562
 20
13.03811
  0
VERTEX
  8
型材断面
 10
-29.542562
 20
8.301267
  0
VERTEX
  8
型材断面
 10
-10.770633
 20
8.301267
  0
SEQEND
  0
POLYLINE
  8
型材断面
  6
CONTINUOUS
 66
     1
 70
     1
  0
VERTEX
  8
型材断面
 10
-10.770633
 20
52.589955
  0
VERTEX
  8
型材断面
 10
-29.542562
 20
52.589955
  0
VERTEX
  8
型材断面
 10
-29.542562
 20
57.326798
  0
VERTEX
  8
型材断面
 10
-10.770633
 20
57.326798
  0
SEQEND
  0
LINE
  8
型材断面
  6
DASHDOT
 10
143.901155
 20
22.814033
 11
-87.10894
 21
22.814033
  0
LINE
  8
型材断面
  6
DASHDOT
 10
143.901155
 20
32.814033
 11
-87.10894
 21
32.814033
  0
LINE
  8
型材断面
  6
DASHDOT
 10
143.901155
 20
42.814033
 11
-87.10894
 21
42.814033
  0
LINE
  8
型材断面
  6
DOT
 10
-21.692275
 20
22.814033
 11
-21.692275
 21
42.814033
  0
LINE
  8
型材断面
  6
DASHDOT
 10
-20.442275
 20
22.814033
 11
-20.442275
 21
42.814033
  0
LINE
  8
型材断面
  6
DOT
 10
-19.192275
 20
22.814033
 11
-19.192275
 21
42.814033
  0
LINE
  8
型材断面
  6
CONTINUOUS
 10
-70.442273
 20
45.444162
 11
-71.937903
 21
48.03467
  0
LINE
  8
型材断面
  6
CONTINUOUS
 10
-70.442273
 20
45.444162
 11
-68.946642
 21
48.03467
  0
LINE
  8
型材断面
  6
CONTINUOUS
 10
-68.946642
 20
48.03467
 11
-71.937903
 21
48.03467
  0
LINE
  8
型材断面
  6
CONTINUOUS
 10
-127.961147
 20
80.791505
 11
-127.365092
 21
78.200998
  0
LINE
  8
型材断面
  6
CONTINUOUS
 10
-127.961147
 20
80.791505
 11
-128.557205
 21
78.200998
  0
LINE
  8
型材断面
  6
CONTINUOUS
 10
-128.557205
 20
78.200998
 11
-127.365092
 21
78.200998
  0
LINE
  8
型材断面
  6
CONTINUOUS
 10
-133.983735
 20
74.922105
 11
-87.741957
 21
74.922105
  0
LINE
  8
型材断面
  6
CONTINUOUS
 10
-127.961147
 20
87.32138
 11
-129.456778
 21
84.730873
  0
LINE
  8
型材断面
  6
CONTINUOUS
 10
-127.961147
 20
87.32138
 11
-126.465517
 21
84.730873
  0
LINE
  8
型材断面
  6
CONTINUOUS
 10
-126.465517
 20
84.730873
 11
-129.456778
 21
84.730873
  0
LINE
  8
型材断面
  6
CONTINUOUS
 10
-133.983735
 20
83.792277
 11
-87.741957
 21
83.792277
  0
LINE
  8
型材断面
  6
CONTINUOUS
 10
-133.983735
 20
69.134073
 11
-87.741957
 21
69.134073
  0
LINE
  8
型材断面
  6
CONTINUOUS
 10
-89.73907
 20
32.814033
 11
-92.329577
 21
34.309663
  0
LINE
  8
型材断面
  6
CONTINUOUS
 10
-89.73907
 20
32.814033
 11
-92.329577
 21
31.318403
  0
LINE
  8
型材断面
  6
CONTINUOUS
 10
-92.329577
 20
31.318403
 11
-92.329577
 21
34.309663
  0
LINE
  8
型材断面
  6
CONTINUOUS
 10
-70.442273
 20
20.183902
 11
-71.937903
 21
17.593395
  0
LINE
  8
型材断面
  6
CONTINUOUS
 10
-70.442273
 20
20.183902
 11
-68.946642
 21
17.593395
  0
LINE
  8
型材断面
  6
CONTINUOUS
 10
-68.946642
 20
17.593395
 11
-71.937903
 21
17.593395
  0
LINE
  8
型材断面
  6
CONTINUOUS
 10
29.557723
 20
45.444162
 11
31.053353
 21
48.03467
  0
LINE
  8
型材断面
  6
CONTINUOUS
 10
29.557723
 20
45.444162
 11
28.062092
 21
48.03467
  0
LINE
  8
型材断面
  6
CONTINUOUS
 10
28.062092
 20
48.03467
 11
31.053353
 21
48.03467
  0
LINE
  8
型材断面
  6
CONTINUOUS
 10
48.85452
 20
32.814033
 11
51.445027
 21
34.309663
  0
LINE
  8
型材断面
  6
CONTINUOUS
 10
48.85452
 20
32.814033
 11
51.445027
 21
31.318403
  0
LINE
  8
型材断面
  6
CONTINUOUS
 10
51.445027
 20
31.318403
 11
51.445027
 21
34.309663
  0
LINE
  8
型材断面
  6
CONTINUOUS
 10
29.557723
 20
20.183902
 11
31.053353
 21
17.593395
  0
LINE
  8
型材断面
  6
CONTINUOUS
 10
29.557723
 20
20.183902
 11
28.062092
 21
17.593395
  0
LINE
  8
型材断面
  6
CONTINUOUS
 10
28.062092
 20
17.593395
 11
31.053353
 21
17.593395
  0
LINE
  8
型材断面
  6
DASHDOT
 10
136.79094
 20
22.81403
 11
142.811005
 21
22.81403
  0
LINE
  8
型材断面
  6
CONTINUOUS
 62
    47
 10
139.074273
 20
21.417365
 11
139.074273
 21
22.197365
  0
LINE
  8
型材断面
  6
CONTINUOUS
 10
137.24094
 20
21.317365
 11
136.79094
 21
21.317365
  0
LINE
  8
型材断面
  6
CONTINUOUS
 62
    47
 10
139.913632
 20
20.53403
 11
139.580298
 21
20.53403
  0
LINE
  8
型材断面
  6
CONTINUOUS
 62
    47
 10
139.580298
 20
20.53403
 11
139.480298
 21
21.317365
  0
LINE
  8
型材断面
  6
CONTINUOUS
 62
    47
 10
139.074273
 20
21.317365
 11
139.480298
 21
21.317365
  0
LINE
  8
型材断面
  6
CONTINUOUS
 62
    47
 10
139.074273
 20
20.847365
 11
137.24094
 21
20.847365
  0
LINE
  8
型材断面
  6
CONTINUOUS
 62
    47
 10
143.04094
 20
21.41403
 11
142.54094
 21
21.41403
  0
LINE
  8
型材断面
  6
CONTINUOUS
 62
    47
 10
142.54094
 20
20.847365
 11
139.913632
 21
20.847365
  0
LINE
  8
型材断面
  6
CONTINUOUS
 62
    47
 10
142.54094
 20
20.847365
 11
142.54094
 21
32.814033
  0
LINE
  8
型材断面
  6
CONTINUOUS
 62
    47
 10
143.04094
 20
21.41403
 11
143.04094
 21
32.814033
  0
LINE
  8
型材断面
  6
CONTINUOUS
 10
139.480298
 20
21.317365
 11
139.480298
 21
32.814033
  0
LINE
  8
型材断面
  6
CONTINUOUS
 10
139.580298
 20
20.53403
 11
139.580298
 21
32.814033
  0
LINE
  8
型材断面
  6
CONTINUOUS
 62
    47
 10
139.074273
 20
20.847365
 11
139.074273
 21
32.814033
  0
LINE
  8
型材断面
  6
CONTINUOUS
 62
    47
 10
139.913632
 20
20.53403
 11
139.913632
 21
32.814033
  0
LINE
  8
型材断面
  6
CONTINUOUS
 10
137.24094
 20
20.847365
 11
137.24094
 21
32.814033
  0
LINE
  8
型材断面
  6
DASHDOT
 10
136.79094
 20
42.814035
 11
142.811005
 21
42.814035
  0
LINE
  8
型材断面
  6
CONTINUOUS
 62
    47
 10
139.074273
 20
44.2107
 11
139.074273
 21
43.4307
  0
LINE
  8
型材断面
  6
CONTINUOUS
 10
137.24094
 20
44.3107
 11
136.79094
 21
44.3107
  0
LINE
  8
型材断面
  6
CONTINUOUS
 62
    47
 10
139.913632
 20
45.094035
 11
139.580298
 21
45.094035
  0
LINE
  8
型材断面
  6
CONTINUOUS
 62
    47
 10
139.580298
 20
45.094035
 11
139.480298
 21
44.3107
  0
LINE
  8
型材断面
  6
CONTINUOUS
 62
    47
 10
139.074273
 20
44.3107
 11
139.480298
 21
44.3107
  0
LINE
  8
型材断面
  6
CONTINUOUS
 62
    47
 10
139.074273
 20
44.7807
 11
137.24094
 21
44.7807
  0
LINE
  8
型材断面
  6
CONTINUOUS
 62
    47
 10
143.04094
 20
44.214035
 11
142.54094
 21
44.214035
  0
LINE
  8
型材断面
  6
CONTINUOUS
 62
    47
 10
142.54094
 20
44.7807
 11
139.913632
 21
44.7807
  0
LINE
  8
型材断面
  6
CONTINUOUS
 62
    47
 10
142.54094
 20
44.7807
 11
142.54094
 21
32.814033
  0
LINE
  8
型材断面
  6
CONTINUOUS
 62
    47
 10
143.04094
 20
44.214035
 11
143.04094
 21
32.814033
  0
LINE
  8
型材断面
  6
CONTINUOUS
 10
139.480298
 20
44.3107
 11
139.480298
 21
32.814033
  0
LINE
  8
型材断面
  6
CONTINUOUS
 10
139.580298
 20
45.094035
 11
139.580298
 21
32.814033
  0
LINE
  8
型材断面
  6
CONTINUOUS
 62
    47
 10
139.074273
 20
44.7807
 11
139.074273
 21
32.814033
  0
LINE
  8
型材断面
  6
CONTINUOUS
 62
    47
 10
139.913632
 20
45.094035
 11
139.913632
 21
32.814033
  0
LINE
  8
型材断面
  6
CONTINUOUS
 10
137.24094
 20
44.7807
 11
137.24094
 21
32.814033
  0
LINE
  8
型材断面
  6
DASHDOT
 10
46.224395
 20
-71.242895
 11
46.224395
 21
-77.26296
  0
LINE
  8
型材断面
  6
CONTINUOUS
 62
    47
 10
47.62106
 20
-73.526228
 11
46.84106
 21
-73.526228
  0
LINE
  8
型材断面
  6
CONTINUOUS
 10
47.72106
 20
-71.692895
 11
47.72106
 21
-71.242895
  0
LINE
  8
型材断面
  6
CONTINUOUS
 62
    47
 10
48.504395
 20
-74.365588
 11
48.504395
 21
-74.032252
  0
LINE
  8
型材断面
  6
CONTINUOUS
 62
    47
 10
48.504395
 20
-74.032252
 11
47.72106
 21
-73.932252
  0
LINE
  8
型材断面
  6
CONTINUOUS
 62
    47
 10
47.72106
 20
-73.526228
 11
47.72106
 21
-73.932252
  0
LINE
  8
型材断面
  6
CONTINUOUS
 62
    47
 10
48.19106
 20
-73.526228
 11
48.19106
 21
-71.692895
  0
LINE
  8
型材断面
  6
CONTINUOUS
 62
    47
 10
47.624395
 20
-77.492895
 11
47.624395
 21
-76.992895
  0
LINE
  8
型材断面
  6
CONTINUOUS
 62
    47
 10
48.19106
 20
-76.992895
 11
48.19106
 21
-74.365588
  0
LINE
  8
型材断面
  6
CONTINUOUS
 10
48.29106
 20
20.747365
 11
48.504395
 21
20.53403
  0
LINE
  8
型材断面
  6
CONTINUOUS
 10
48.504395
 20
20.53403
 11
48.504395
 21
32.814033
  0
LINE
  8
型材断面
  6
CONTINUOUS
 10
48.504395
 20
20.53403
 11
-20.442275
 21
20.53403
  0
LINE
  8
型材断面
  6
CONTINUOUS
 10
48.29106
 20
44.8807
 11
48.504395
 21
45.094035
  0
LINE
  8
型材断面
  6
CONTINUOUS
 10
48.504395
 20
45.094035
 11
48.504395
 21
32.814033
  0
LINE
  8
型材断面
  6
CONTINUOUS
 10
48.504395
 20
45.094035
 11
-20.442275
 21
45.094035
  0
LINE
  8
型材断面
  6
CONTINUOUS
 10
-89.17561
 20
44.8807
 11
-89.388945
 21
45.094035
  0
LINE
  8
型材断面
  6
CONTINUOUS
 10
-89.388945
 20
45.094035
 11
-89.388945
 21
32.814033
  0
LINE
  8
型材断面
  6
CONTINUOUS
 10
-89.388945
 20
45.094035
 11
-20.442275
 21
45.094035
  0
LINE
  8
型材断面
  6
CONTINUOUS
 10
-89.17561
 20
20.747365
 11
-89.388945
 21
20.53403
  0
LINE
  8
型材断面
  6
CONTINUOUS
 10
-89.388945
 20
20.53403
 11
-89.388945
 21
32.814033
  0
LINE
  8
型材断面
  6
CONTINUOUS
 10
-89.388945
 20
20.53403
 11
-20.442275
 21
20.53403
  0
LINE
  8
型材断面
  6
CONTINUOUS
 10
48.19106
 20
-71.692895
 11
-20.442275
 21
-71.692895
  0
LINE
  8
型材断面
  6
CONTINUOUS
 62
    47
 10
48.19106
 20
-73.526228
 11
-20.442275
 21
-73.526228
  0
LINE
  8
型材断面
  6
CONTINUOUS
 10
47.72106
 20
-73.932252
 11
-20.442275
 21
-73.932252
  0
LINE
  8
型材断面
  6
CONTINUOUS
 62
    47
 10
48.504395
 20
-74.365588
 11
-20.442275
 21
-74.365588
  0
LINE
  8
型材断面
  6
CONTINUOUS
 10
48.504395
 20
-74.032252
 11
-20.442275
 21
-74.032252
  0
LINE
  8
型材断面
  6
CONTINUOUS
 62
    47
 10
47.624395
 20
-77.492895
 11
-20.442275
 21
-77.492895
  0
LINE
  8
型材断面
  6
CONTINUOUS
 62
    47
 10
48.19106
 20
-76.992895
 11
-20.442275
 21
-76.992895
  0
LINE
  8
型材断面
  6
DASHDOT
 10
-87.108945
 20
-71.242895
 11
-87.108945
 21
-77.26296
  0
LINE
  8
型材断面
  6
CONTINUOUS
 62
    47
 10
-88.50561
 20
-73.526228
 11
-87.72561
 21
-73.526228
  0
LINE
  8
型材断面
  6
CONTINUOUS
 10
-88.60561
 20
-71.692895
 11
-88.60561
 21
-71.242895
  0
LINE
  8
型材断面
  6
CONTINUOUS
 62
    47
 10
-89.388945
 20
-74.365588
 11
-89.388945
 21
-74.032252
  0
LINE
  8
型材断面
  6
CONTINUOUS
 62
    47
 10
-89.388945
 20
-74.032252
 11
-88.60561
 21
-73.932252
  0
LINE
  8
型材断面
  6
CONTINUOUS
 62
    47
 10
-88.60561
 20
-73.526228
 11
-88.60561
 21
-73.932252
  0
LINE
  8
型材断面
  6
CONTINUOUS
 62
    47
 10
-89.07561
 20
-73.526228
 11
-89.07561
 21
-71.692895
  0
LINE
  8
型材断面
  6
CONTINUOUS
 62
    47
 10
-88.508945
 20
-77.492895
 11
-88.508945
 21
-76.992895
  0
LINE
  8
型材断面
  6
CONTINUOUS
 62
    47
 10
-89.07561
 20
-76.992895
 11
-89.07561
 21
-74.365588
  0
LINE
  8
型材断面
  6
CONTINUOUS
 10
-89.07561
 20
-71.692895
 11
-20.442275
 21
-71.692895
  0
LINE
  8
型材断面
  6
CONTINUOUS
 62
    47
 10
-89.07561
 20
-73.526228
 11
-20.442275
 21
-73.526228
  0
LINE
  8
型材断面
  6
CONTINUOUS
 10
-88.60561
 20
-73.932252
 11
-20.442275
 21
-73.932252
  0
LINE
  8
型材断面
  6
CONTINUOUS
 62
    47
 10
-89.388945
 20
-74.365588
 11
-20.442275
 21
-74.365588
  0
LINE
  8
型材断面
  6
CONTINUOUS
 10
-89.388945
 20
-74.032252
 11
-20.442275
 21
-74.032252
  0
LINE
  8
型材断面
  6
CONTINUOUS
 62
    47
 10
-88.508945
 20
-77.492895
 11
-20.442275
 21
-77.492895
  0
LINE
  8
型材断面
  6
CONTINUOUS
 62
    47
 10
-89.07561
 20
-76.992895
 11
-20.442275
 21
-76.992895
  0
LINE
  8
型材断面
  6
DOT
 62
    47
 10
47.62106
 20
-66.192895
 11
46.84106
 21
-66.192895
  0
LINE
  8
型材断面
  6
DOT
 10
47.72106
 20
-64.359562
 11
47.72106
 21
-63.909562
  0
LINE
  8
型材断面
  6
DOT
 62
    47
 10
48.504395
 20
-67.032255
 11
48.504395
 21
-66.69892
  0
LINE
  8
型材断面
  6
DOT
 62
    47
 10
48.504395
 20
-66.69892
 11
47.72106
 21
-66.59892
  0
LINE
  8
型材断面
  6
DOT
 62
    47
 10
47.72106
 20
-66.192895
 11
47.72106
 21
-66.59892
  0
LINE
  8
型材断面
  6
DOT
 62
    47
 10
48.19106
 20
-66.192895
 11
48.19106
 21
-64.359562
  0
LINE
  8
型材断面
  6
DOT
 10
48.19106
 20
-64.359562
 11
-20.442275
 21
-64.359562
  0
LINE
  8
型材断面
  6
DOT
 62
    47
 10
48.19106
 20
-66.192895
 11
-20.442275
 21
-66.192895
  0
LINE
  8
型材断面
  6
DOT
 10
47.72106
 20
-66.59892
 11
-20.442275
 21
-66.59892
  0
LINE
  8
型材断面
  6
DOT
 62
    47
 10
48.504395
 20
-67.032255
 11
-20.442275
 21
-67.032255
  0
LINE
  8
型材断面
  6
DOT
 10
48.504395
 20
-66.69892
 11
-20.442275
 21
-66.69892
  0
LINE
  8
型材断面
  6
DOT
 62
    47
 10
-88.50561
 20
-66.192895
 11
-87.72561
 21
-66.192895
  0
LINE
  8
型材断面
  6
DOT
 10
-88.60561
 20
-64.359562
 11
-88.60561
 21
-63.909562
  0
LINE
  8
型材断面
  6
DOT
 62
    47
 10
-89.388945
 20
-67.032255
 11
-89.388945
 21
-66.69892
  0
LINE
  8
型材断面
  6
DOT
 62
    47
 10
-89.388945
 20
-66.69892
 11
-88.60561
 21
-66.59892
  0
LINE
  8
型材断面
  6
DOT
 62
    47
 10
-88.60561
 20
-66.192895
 11
-88.60561
 21
-66.59892
  0
LINE
  8
型材断面
  6
DOT
 62
    47
 10
-89.07561
 20
-66.192895
 11
-89.07561
 21
-64.359562
  0
LINE
  8
型材断面
  6
DOT
 10
-89.07561
 20
-64.359562
 11
-20.442275
 21
-64.359562
  0
LINE
  8
型材断面
  6
DOT
 62
    47
 10
-89.07561
 20
-66.192895
 11
-20.442275
 21
-66.192895
  0
LINE
  8
型材断面
  6
DOT
 10
-88.60561
 20
-66.59892
 11
-20.442275
 21
-66.59892
  0
LINE
  8
型材断面
  6
DOT
 62
    47
 10
-89.388945
 20
-67.032255
 11
-20.442275
 21
-67.032255
  0
LINE
  8
型材断面
  6
DOT
 10
-89.388945
 20
-66.69892
 11
-20.442275
 21
-66.69892
  0
LINE
  8
型材断面
  6
CONTINUOUS
 10
48.85452
 20
38.914033
 11
51.445027
 21
38.317975
  0
LINE
  8
型材断面
  6
CONTINUOUS
 10
48.85452
 20
38.914033
 11
51.445027
 21
39.51009
  0
LINE
  8
型材断面
  6
CONTINUOUS
 10
51.445027
 20
39.51009
 11
51.445027
 21
38.317975
  0
LINE
  8
型材断面
  6
CONTINUOUS
 10
48.85452
 20
26.714033
 11
51.445027
 21
27.31009
  0
LINE
  8
型材断面
  6
CONTINUOUS
 10
48.85452
 20
26.714033
 11
51.445027
 21
26.117975
  0
LINE
  8
型材断面
  6
CONTINUOUS
 10
51.445027
 20
26.117975
 11
51.445027
 21
27.31009
  0
LINE
  8
型材断面
  6
CONTINUOUS
 10
-89.73907
 20
38.914033
 11
-92.329577
 21
38.317975
  0
LINE
  8
型材断面
  6
CONTINUOUS
 10
-89.73907
 20
38.914033
 11
-92.329577
 21
39.51009
  0
LINE
  8
型材断面
  6
CONTINUOUS
 10
-92.329577
 20
39.51009
 11
-92.329577
 21
38.317975
  0
LINE
  8
型材断面
  6
CONTINUOUS
 10
-89.73907
 20
26.714033
 11
-92.329577
 21
27.31009
  0
LINE
  8
型材断面
  6
CONTINUOUS
 10
-89.73907
 20
26.714033
 11
-92.329577
 21
26.117975
  0
LINE
  8
型材断面
  6
CONTINUOUS
 10
-92.329577
 20
26.117975
 11
-92.329577
 21
27.31009
  0
INSERT
  2
*GRP_0018
  8
型材断面
  6
CONTINUOUS
 10
0.0
 20
0.0
  0
INSERT
  2
*GRP_0019
  8
型材断面
  6
CONTINUOUS
 10
0.0
 20
0.0
  0
INSERT
  2
*GRP_0020
  8
型材断面
  6
CONTINUOUS
 10
0.0
 20
0.0
  0
INSERT
  2
*GRP_0021
  8
型材断面
  6
CONTINUOUS
 10
0.0
 20
0.0
  0
LINE
  8
型材断面
  6
CONTINUOUS
 10
-133.983735
 20
63.34604
 11
-87.741957
 21
63.34604
  0
LINE
  8
型材断面
  6
DOT
 10
-52.695608
 20
22.814033
 11
-52.695608
 21
42.814033
  0
LINE
  8
型材断面
  6
DASHDOT
 10
-53.945608
 20
22.814033
 11
-53.945608
 21
42.814033
  0
LINE
  8
型材断面
  6
DOT
 10
-55.195608
 20
22.814033
 11
-55.195608
 21
42.814033
  0
LINE
  8
型材断面
  6
DOT
 10
11.811058
 20
22.814033
 11
11.811058
 21
42.814033
  0
LINE
  8
型材断面
  6
DASHDOT
 10
13.061058
 20
22.814033
 11
13.061058
 21
42.814033
  0
LINE
  8
型材断面
  6
DOT
 10
14.311058
 20
22.814033
 11
14.311058
 21
42.814033
  0
TEXT
  7
TextStyle03
  8
文字
  6
CONTINUOUS
 10
122.775
 20
-76.7
  1
網入り6.8t
 40
3.0
 72
     5
 11
139.4625
 21
-76.7
  0
TEXT
  7
TextStyle03
  8
文字
  6
CONTINUOUS
 10
-28.525
 20
9.325
  1
可動装置側
 40
3.0
 72
     5
 11
-12.025
 21
9.325
  0
TEXT
  7
TextStyle03
  8
文字
  6
CONTINUOUS
 10
-28.525
 20
53.3
  1
可動装置側
 40
3.0
 72
     5
 11
-12.025
 21
53.3
  0
TEXT
  7
TextStyle03
  8
文字
  6
CONTINUOUS
 10
129.45
 20
-81.375
  1
×４枚
 40
3.0
 72
     5
 11
139.2
 21
-81.375
  0
TEXT
  7
TextStyle03
  8
文字
  6
CONTINUOUS
 10
-125.15
 20
79.425
  1
はケーシング位置を示す
 40
3.0
 72
     5
 11
-88.4
 21
79.425
  0
TEXT
  7
TextStyle03
  8
文字
  6
CONTINUOUS
 10
-125.15
 20
76.05
  1
４ヶ所中1ヶ所に設定
 40
3.0
 72
     5
 11
-93.4625
 21
76.05
  0
TEXT
  7
TextStyle03
  8
文字
  6
CONTINUOUS
 10
-125.15
 20
84.95
  1
は排水穴位置を示す
 40
3.0
 72
     5
 11
-95.15
 21
84.95
  0
TEXT
  7
TextStyle03
  8
文字
  6
CONTINUOUS
 10
-108.1
 20
11.275
  1
アンカーピッチ
 40
3.0
 50
90.0
 72
     5
 11
-108.1
 21
34.525
  0
TEXT
  7
TextStyle03
  8
文字
  6
CONTINUOUS
 10
-79.025
 20
80.85
  1
アンカーピッチ
 40
3.0
 72
     5
 11
-55.775
 21
80.85
  0
TEXT
  7
TextStyle03
  8
文字
  6
CONTINUOUS
 10
-128.875
 20
70.075
  1
アンカー数量　１６ヶ所
 40
3.0
 72
     5
 11
-92.125
 21
70.075
  0
TEXT
  7
TextStyle03
  8
文字
  6
CONTINUOUS
 10
-128.95
 20
64.3
  1
アームユニット数　４ヶ所
 40
3.0
 72
     5
 11
-88.825
 21
64.3
  0
TEXT
  7
TextStyle03
  8
文字
  6
CONTINUOUS
 10
78.1
 20
125.25
  1
シリーズ：ＳＴＤＬ
 40
5.0
 72
     5
 11
128.1
 21
125.25
  0
TEXT
  7
TextStyle03
  8
文字
  6
CONTINUOUS
 10
78.1
 20
119.625
  1
　　　　　（上下可動）600×4000タイプ
 40
5.0
 72
     5
 11
181.5375
 21
119.625
  0
TEXT
  7
TextStyle03
  8
文字
  6
CONTINUOUS
 10
78.1
 20
114.0
  1
図面名　：外観姿図
 40
5.0
 72
     5
 11
128.1
 21
114.0
  0
TEXT
  7
TextStyle03
  8
文字
  6
CONTINUOUS
 10
78.1
 20
108.375
  1
　　　　　　
 40
5.0
 72
     5
 11
111.225
 21
108.375
  0
TEXT
  7
TextStyle03
  8
文字
  6
CONTINUOUS
 10
77.425
 20
103.975
  1
ＮＳコード：ＮＳＤＳＬ
 40
5.0
 72
     5
 11
138.675
 21
103.975
  0
INSERT
  2
*DIM_0002
  8
寸法
  6
CONTINUOUS
 10
0.0
 20
0.0
  0
INSERT
  2
*DIM_0003
  8
寸法
  6
CONTINUOUS
 10
0.0
 20
0.0
  0
INSERT
  2
*DIM_0004
  8
寸法
  6
CONTINUOUS
 10
0.0
 20
0.0
  0
INSERT
  2
*DIM_0005
  8
寸法
  6
CONTINUOUS
 10
0.0
 20
0.0
  0
INSERT
  2
*DIM_0006
  8
寸法
  6
CONTINUOUS
 10
0.0
 20
0.0
  0
INSERT
  2
*DIM_0007
  8
寸法
  6
CONTINUOUS
 10
0.0
 20
0.0
  0
INSERT
  2
*DIM_0008
  8
寸法
  6
CONTINUOUS
 10
0.0
 20
0.0
  0
INSERT
  2
*DIM_0009
  8
寸法
  6
CONTINUOUS
 10
0.0
 20
0.0
  0
INSERT
  2
*DIM_0010
  8
寸法
  6
CONTINUOUS
 10
0.0
 20
0.0
  0
INSERT
  2
*DIM_0011
  8
寸法
  6
CONTINUOUS
 10
0.0
 20
0.0
  0
INSERT
  2
*DIM_0012
  8
寸法
  6
CONTINUOUS
 10
0.0
 20
0.0
  0
INSERT
  2
*DIM_0013
  8
寸法
  6
CONTINUOUS
 10
0.0
 20
0.0
  0
INSERT
  2
*DIM_0014
  8
寸法
  6
CONTINUOUS
 10
0.0
 20
0.0
  0
INSERT
  2
*DIM_0015
  8
寸法
  6
CONTINUOUS
 10
0.0
 20
0.0
  0
INSERT
  2
*DIM_0016
  8
寸法
  6
CONTINUOUS
 10
0.0
 20
0.0
  0
INSERT
  2
*DIM_0022
  8
寸法
  6
CONTINUOUS
 10
0.0
 20
0.0
  0
INSERT
  2
*DIM_0023
  8
寸法
  6
CONTINUOUS
 10
0.0
 20
0.0
  0
INSERT
  2
*DIM_0024
  8
寸法
  6
CONTINUOUS
 10
0.0
 20
0.0
  0
INSERT
  2
*DIM_0025
  8
寸法
  6
CONTINUOUS
 10
0.0
 20
0.0
  0
INSERT
  2
*DIM_0026
  8
寸法
  6
CONTINUOUS
 10
0.0
 20
0.0
  0
INSERT
  2
*DIM_0027
  8
寸法
  6
CONTINUOUS
 10
0.0
 20
0.0
  0
INSERT
  2
*DIM_0028
  8
寸法
  6
CONTINUOUS
 10
0.0
 20
0.0
  0
LINE
  8
別途部材
  6
CONTINUOUS
 10
48.29106
 20
20.747365
 11
47.89106
 21
21.147365
  0
LINE
  8
別途部材
  6
CONTINUOUS
 10
46.224393
 20
22.814033
 11
38.165137
 21
30.87329
  0
LINE
  8
別途部材
  6
CONTINUOUS
 10
47.89106
 20
21.147365
 11
47.89106
 21
32.814033
  0
LINE
  8
別途部材
  6
CONTINUOUS
 10
48.29106
 20
20.747365
 11
48.29106
 21
32.814033
  0
LINE
  8
別途部材
  6
CONTINUOUS
 10
48.29106
 20
44.8807
 11
47.89106
 21
44.4807
  0
LINE
  8
別途部材
  6
CONTINUOUS
 10
46.224393
 20
42.814033
 11
38.165137
 21
34.754775
  0
LINE
  8
別途部材
  6
CONTINUOUS
 10
47.89106
 20
44.4807
 11
47.89106
 21
32.814033
  0
LINE
  8
別途部材
  6
CONTINUOUS
 10
48.29106
 20
44.8807
 11
48.29106
 21
32.814033
  0
LINE
  8
別途部材
  6
CONTINUOUS
 10
47.89106
 20
44.4807
 11
-20.442275
 21
44.4807
  0
LINE
  8
別途部材
  6
CONTINUOUS
 10
48.29106
 20
44.8807
 11
-20.442275
 21
44.8807
  0
LINE
  8
別途部材
  6
CONTINUOUS
 10
48.29106
 20
20.747365
 11
-20.442275
 21
20.747365
  0
LINE
  8
別途部材
  6
CONTINUOUS
 10
47.89106
 20
21.147365
 11
-20.442275
 21
21.147365
  0
LINE
  8
別途部材
  6
CONTINUOUS
 10
-89.17561
 20
20.747365
 11
-88.77561
 21
21.147365
  0
LINE
  8
別途部材
  6
CONTINUOUS
 10
-87.108943
 20
22.814033
 11
-79.049687
 21
30.87329
  0
LINE
  8
別途部材
  6
CONTINUOUS
 10
-88.77561
 20
21.147365
 11
-88.77561
 21
32.814033
  0
LINE
  8
別途部材
  6
CONTINUOUS
 10
-89.17561
 20
20.747365
 11
-89.17561
 21
32.814033
  0
LINE
  8
別途部材
  6
CONTINUOUS
 10
-89.17561
 20
44.8807
 11
-88.77561
 21
44.4807
  0
LINE
  8
別途部材
  6
CONTINUOUS
 10
-87.108943
 20
42.814033
 11
-79.049687
 21
34.754775
  0
LINE
  8
別途部材
  6
CONTINUOUS
 10
-88.77561
 20
44.4807
 11
-88.77561
 21
32.814033
  0
LINE
  8
別途部材
  6
CONTINUOUS
 10
-89.17561
 20
44.8807
 11
-89.17561
 21
32.814033
  0
LINE
  8
別途部材
  6
CONTINUOUS
 10
-88.77561
 20
44.4807
 11
-20.442275
 21
44.4807
  0
LINE
  8
別途部材
  6
CONTINUOUS
 10
-89.17561
 20
44.8807
 11
-20.442275
 21
44.8807
  0
LINE
  8
別途部材
  6
CONTINUOUS
 10
-89.17561
 20
20.747365
 11
-20.442275
 21
20.747365
  0
LINE
  8
別途部材
  6
CONTINUOUS
 10
-88.77561
 20
21.147365
 11
-20.442275
 21
21.147365
  0
LINE
  8
別途部材
  6
CONTINUOUS
 62
    96
 10
135.757657
 20
21.147365
 11
136.757657
 21
20.747365
  0
LINE
  8
別途部材
  6
CONTINUOUS
 62
    96
 10
135.757657
 20
21.147365
 11
135.757657
 21
32.814033
  0
LINE
  8
別途部材
  6
CONTINUOUS
 10
136.757657
 20
20.747365
 11
136.757657
 21
32.814033
  0
LINE
  8
別途部材
  6
CONTINUOUS
 62
    96
 10
135.757657
 20
44.4807
 11
136.757657
 21
44.8807
  0
LINE
  8
別途部材
  6
CONTINUOUS
 62
    96
 10
135.757657
 20
44.4807
 11
135.757657
 21
32.814033
  0
LINE
  8
別途部材
  6
CONTINUOUS
 10
136.757657
 20
44.8807
 11
136.757657
 21
32.814033
  0
ARC
  8
別途部材
  6
CONTINUOUS
 10
142.465993
 20
32.814033
 40
12.041667
 50
123.855033
 51
236.144967
  0
LINE
  8
別途部材
  6
DOT
 62
    96
 10
47.89106
 20
-62.87628
 11
48.29106
 21
-63.87628
  0
ARC
  8
別途部材
  6
DOT
 10
36.224392
 20
-69.584615
 40
12.041667
 50
33.855033
 51
90.0
  0
LINE
  8
別途部材
  6
DOT
 10
36.224393
 20
-57.542947
 11
-20.442275
 21
-57.542947
  0
LINE
  8
別途部材
  6
DOT
 62
    96
 10
47.89106
 20
-62.87628
 11
-20.442275
 21
-62.87628
  0
LINE
  8
別途部材
  6
DOT
 10
48.29106
 20
-63.87628
 11
-20.442275
 21
-63.87628
  0
LINE
  8
別途部材
  6
DOT
 62
    96
 10
-88.77561
 20
-62.87628
 11
-89.17561
 21
-63.87628
  0
ARC
  8
別途部材
  6
DOT
 10
-77.108942
 20
-69.584615
 40
12.041667
 50
90.0
 51
146.144967
  0
LINE
  8
別途部材
  6
DOT
 10
-77.108943
 20
-57.542947
 11
-20.442275
 21
-57.542947
  0
LINE
  8
別途部材
  6
DOT
 62
    96
 10
-88.77561
 20
-62.87628
 11
-20.442275
 21
-62.87628
  0
LINE
  8
別途部材
  6
DOT
 10
-89.17561
 20
-63.87628
 11
-20.442275
 21
-63.87628
  0
INSERT
  2
*GRP_0017
  8
別途部材
  6
CONTINUOUS
 10
0.0
 20
0.0
  0
INSERT
  2
*GRP_0029
  8
別途部材
  6
DOT
 10
0.0
 20
0.0
  0
INSERT
  2
*GRP_0030
  8
別途部材
  6
DOT
 10
0.0
 20
0.0
  0
INSERT
  2
*GRP_0031
  8
別途部材
  6
DOT
 10
0.0
 20
0.0
  0
INSERT
  2
*GRP_0032
  8
別途部材
  6
DOT
 10
0.0
 20
0.0
  0
INSERT
  2
*GRP_0033
  8
別途部材
  6
DOT
 10
0.0
 20
0.0
  0
INSERT
  2
*GRP_0034
  8
別途部材
  6
DOT
 10
0.0
 20
0.0
  0
LINE
  8
曲げ物
  6
CONTINUOUS
 10
141.310947
 20
-83.118728
 11
141.310947
 21
-63.785395
  0
LINE
  8
曲げ物
  6
CONTINUOUS
 10
109.14428
 20
-63.785395
 11
109.14428
 21
-83.118728
  0
LINE
  8
曲げ物
  6
CONTINUOUS
 10
141.310947
 20
-83.118728
 11
109.14428
 21
-83.118728
  0
LINE
  8
曲げ物
  6
CONTINUOUS
 10
141.310947
 20
-63.785395
 11
109.14428
 21
-63.785395
  0
ENDSEC
  0
EOF
