  0
SECTION
  2
HEADER
  9
$EXTMIN
 10
-210.0
 20
-148.5
  9
$EXTMAX
 10
210.0
 20
148.5
  9
$PDMODE
 70
    32
  9
$PDSIZE
 40
1.5
  9
$LTSCALE
 40
10.0
  0
ENDSEC
  0
SECTION
  2
TABLES
  0
TABLE
  2
LTYPE
 70
    15
  0
LTYPE
  2
CONTINUOUS
 70
    64
  3
実線
 72
    65
 73
     0
 40
0.0
  0
LTYPE
  2
DASHED
 70
    64
  3
破線A
 72
    65
 73
     2
 40
0.6
 49
0.4
 49
-0.2
  0
LTYPE
  2
DASHEDX2
 70
    64
  3
破線B
 72
    65
 73
     2
 40
1.3
 49
0.9
 49
-0.4
  0
LTYPE
  2
DASHDOT
 70
    64
  3
１点鎖線A
 72
    65
 73
     4
 40
0.5375
 49
0.375
 49
-0.05
 49
0.0625
 49
-0.05
  0
LTYPE
  2
DASHDOTX2
 70
    64
  3
１点鎖線B
 72
    65
 73
     4
 40
1.075
 49
0.75
 49
-0.1
 49
0.125
 49
-0.1
  0
LTYPE
  2
DIVIDE2
 70
    64
  3
２点鎖線A
 72
    65
 73
     6
 40
0.5125
 49
0.3
 49
-0.0375
 49
0.05
 49
-0.0375
 49
0.05
 49
-0.0375
  0
LTYPE
  2
DIVIDE
 70
    64
  3
２点鎖線B
 72
    65
 73
     6
 40
1.05
 49
0.55
 49
-0.1
 49
0.1
 49
-0.1
 49
0.1
 49
-0.1
  0
LTYPE
  2
DOT
 70
    64
  3
点線A
 72
    65
 73
     2
 40
0.1125
 49
0.0625
 49
-0.05
  0
LTYPE
  2
DOTX2
 70
    64
  3
点線B
 72
    65
 73
     2
 40
0.275
 49
0.15
 49
-0.125
  0
LTYPE
  2
CONTINUOUS
 70
    64
  3
実線
 72
    65
 73
     0
 40
0.0
  0
LTYPE
  2
CONTINUOUS
 70
    64
  3
実線
 72
    65
 73
     0
 40
0.0
  0
LTYPE
  2
CONTINUOUS
 70
    64
  3
実線
 72
    65
 73
     0
 40
0.0
  0
LTYPE
  2
CONTINUOUS
 70
    64
  3
実線
 72
    65
 73
     0
 40
0.0
  0
LTYPE
  2
CONTINUOUS
 70
    64
  3
実線
 72
    65
 73
     0
 40
0.0
  0
LTYPE
  2
CONTINUOUS
 70
    64
  3
実線
 72
    65
 73
     0
 40
0.0
  0
ENDTAB
  0
TABLE
  2
LAYER
 70
    34
  0
LAYER
  2
通り芯
 70
     0
 62
    15
  6
CONTINUOUS
  0
LAYER
  2
補助線
 70
     0
 62
    16
  6
DOT
  0
LAYER
  2
躯体
 70
     0
 62
    31
  6
CONTINUOUS
  0
LAYER
  2
型材
 70
     0
 62
    32
  6
CONTINUOUS
  0
LAYER
  2
型材断面
 70
     0
 62
    47
  6
CONTINUOUS
  0
LAYER
  2
ガラス
 70
     0
 62
    48
  6
CONTINUOUS
  0
LAYER
  2
ゴム等
 70
     0
 62
    63
  6
CONTINUOUS
  0
LAYER
  2
ボルト／ビス
 70
     0
 62
    64
  6
CONTINUOUS
  0
LAYER
  2
文字
 70
     0
 62
    79
  6
CONTINUOUS
  0
LAYER
  2
寸法
 70
     0
 62
    80
  6
CONTINUOUS
  0
LAYER
  2
ﾊｯﾁﾝｸﾞ
 70
     0
 62
    95
  6
CONTINUOUS
  0
LAYER
  2
別途部材
 70
     0
 62
    96
  6
CONTINUOUS
  0
LAYER
  2
曲げ物
 70
     0
 62
   111
  6
CONTINUOUS
  0
LAYER
  2
鉄骨等
 70
     0
 62
   112
  6
CONTINUOUS
  0
LAYER
  2
St
 70
     0
 62
   127
  6
CONTINUOUS
  0
LAYER
  2
その他部品等
 70
     0
 62
   128
  6
CONTINUOUS
  0
LAYER
  2
ｶﾞｽｹｯﾄ
 70
     0
 62
   143
  6
CONTINUOUS
  0
LAYER
  2
ｽｹｯﾁ
 70
     0
 62
    14
  6
CONTINUOUS
  0
LAYER
  2
0
 70
     0
 62
    17
  6
CONTINUOUS
  0
LAYER
  2
1
 70
     0
 62
    30
  6
CONTINUOUS
  0
LAYER
  2
4
 70
     0
 62
    33
  6
CONTINUOUS
  0
LAYER
  2
ﾚｲﾔ3
 70
     0
 62
    46
  6
CONTINUOUS
  0
LAYER
  2
外形線
 70
     0
 62
    49
  6
CONTINUOUS
  0
LAYER
  2
部品
 70
     0
 62
    14
  6
CONTINUOUS
  0
LAYER
  2
サッシ芯
 70
     0
 62
    17
  6
DASHDOTX2
  0
LAYER
  2
寸法線
 70
     0
 62
    62
  6
CONTINUOUS
  0
LAYER
  2
姿図外形線
 70
     0
 62
    65
  6
CONTINUOUS
  0
LAYER
  2
姿補助線
 70
     0
 62
    30
  6
CONTINUOUS
  0
LAYER
  2
透視線
 70
     0
 62
    78
  6
DOT
  0
LAYER
  2
用紙
 70
     0
 62
    81
  6
CONTINUOUS
  0
LAYER
  2
実線図枠
 70
     0
 62
    94
  6
CONTINUOUS
  0
LAYER
  2
補助図枠
 70
     0
 62
    97
  6
CONTINUOUS
  0
LAYER
  2
建具記号
 70
     0
 62
   110
  6
CONTINUOUS
  0
LAYER
  2
補助文字
 70
     0
 62
   113
  6
CONTINUOUS
  0
ENDTAB
  0
TABLE
  2
STYLE
 70
    10
  0
STYLE
  2
STANDARD
 70
     0
 40
1.0
 41
1.0
 42
1.0
 50
0.0
 71
     0
  3
TXT
  4
BIGFONT
  0
STYLE
  2
TATE
 70
     4
 40
1.0
 41
1.0
 42
1.0
 50
0.0
 71
     0
  3
TXT
  4
BIGFONT
  0
STYLE
  2
TextStyle03
 70
     0
 40
1.0
 41
1.0
 42
1.0
 50
0.0
 71
     0
  3
MONOTXT
  4
BIGFONT
  0
STYLE
  2
TextStyle04
 70
     0
 40
1.0
 41
1.0
 42
1.0
 50
0.0
 71
     0
  3
MONOTXT
  4
BIGFONT
  0
STYLE
  2
TextStyle05
 70
     0
 40
1.0
 41
1.0
 42
1.0
 50
0.0
 71
     0
  3
MONOTXT
  4
BIGFONT
  0
STYLE
  2
TextStyle06
 70
     0
 40
1.0
 41
1.0
 42
1.0
 50
0.0
 71
     0
  3
MONOTXT
  4
BIGFONT
  0
STYLE
  2
TextStyle07
 70
     0
 40
1.0
 41
1.0
 42
1.0
 50
0.0
 71
     0
  3
MONOTXT
  4
BIGFONT
  0
STYLE
  2
TextStyle08
 70
     0
 40
1.0
 41
1.0
 42
1.0
 50
0.0
 71
     0
  3
MONOTXT
  4
BIGFONT
  0
STYLE
  2
TextStyle09
 70
     0
 40
1.0
 41
1.0
 42
1.0
 50
0.0
 71
     0
  3
MONOTXT
  4
BIGFONT
  0
STYLE
  2
TextStyle10
 70
     0
 40
1.0
 41
1.0
 42
1.0
 50
0.0
 71
     0
  3
MONOTXT
  4
BIGFONT
  0
ENDTAB
  0
ENDSEC
  0
SECTION
  2
BLOCKS
  0
BLOCK
  2
*GRP_0001
 70
    65
 10
0.0
 20
0.0
  0
LINE
  8
型材断面
  6
CONTINUOUS
 10
195.0
 20
133.5
 11
195.0
 21
-133.5
  0
LINE
  8
型材断面
  6
CONTINUOUS
 10
195.0
 20
-133.5
 11
-185.0
 21
-133.5
  0
LINE
  8
型材断面
  6
CONTINUOUS
 10
-185.0
 20
-133.5
 11
-185.0
 21
133.5
  0
LINE
  8
型材断面
  6
CONTINUOUS
 10
195.0
 20
133.5
 11
-185.0
 21
133.5
  0
LINE
  8
型材断面
  6
CONTINUOUS
 10
145.0
 20
-133.5
 11
145.0
 21
-118.5
  0
LINE
  8
型材断面
  6
CONTINUOUS
 10
195.0
 20
-118.5
 11
145.0
 21
-118.5
  0
ENDBLK
  0
BLOCK
  2
*DIM_0002
 70
    65
 10
0.0
 20
0.0
  0
LINE
  8
寸法
  6
BYBLOCK
 62
     0
 10
57.089525
 20
-64.87628
 11
82.059175
 21
-64.87628
  0
LINE
  8
寸法
  6
BYBLOCK
 62
     0
 10
82.059175
 20
-70.209613
 11
82.059175
 21
-64.87628
  0
POINT
  8
寸法
 62
     0
 10
82.059175
 20
-70.209613
  0
POINT
  8
寸法
 62
     0
 10
82.059175
 20
-64.87628
  0
TEXT
  7
TextStyle03
  8
寸法
  6
CONTINUOUS
 62
     0
 10
81.65
 20
-69.9875
  1
160
 40
3.0
 50
90.0
 72
     5
 11
81.65
 21
-65.1125
  0
ENDBLK
  0
BLOCK
  2
*DIM_0003
 70
    65
 10
0.0
 20
0.0
  0
LINE
  8
寸法
  6
BYBLOCK
 62
     0
 10
162.17608
 20
-63.785395
 11
170.28761
 21
-63.785395
  0
LINE
  8
寸法
  6
BYBLOCK
 62
     0
 10
162.17608
 20
-83.118728
 11
170.28761
 21
-83.118728
  0
LINE
  8
寸法
  6
BYBLOCK
 62
     0
 10
170.28761
 20
-63.785395
 11
170.28761
 21
-83.118728
  0
POINT
  8
寸法
 62
     0
 10
170.28761
 20
-63.785395
  0
POINT
  8
寸法
 62
     0
 10
170.28761
 20
-83.118728
  0
TEXT
  7
TextStyle03
  8
寸法
  6
CONTINUOUS
 62
     0
 10
169.875
 20
-75.9125
  1
580
 40
3.0
 50
90.0
 72
     5
 11
169.875
 21
-71.0375
  0
ENDBLK
  0
BLOCK
  2
*DIM_0004
 70
    65
 10
0.0
 20
0.0
  0
LINE
  8
寸法
  6
BYBLOCK
 62
     0
 10
-117.243808
 20
-16.511205
 11
-117.243808
 21
-13.121378
  0
LINE
  8
寸法
  6
BYBLOCK
 62
     0
 10
66.089525
 20
-13.121378
 11
-117.243808
 21
-13.121378
  0
POINT
  8
寸法
 62
     0
 10
66.089525
 20
-13.121378
  0
POINT
  8
寸法
 62
     0
 10
-117.243808
 20
-13.121378
  0
TEXT
  7
TextStyle03
  8
寸法
  6
CONTINUOUS
 62
     0
 10
-37.31875
 20
-12.75
  1
呼称寸法　5500
 40
3.0
 72
     5
 11
-13.88125
 21
-12.75
  0
ENDBLK
  0
BLOCK
  2
*DIM_0005
 70
    65
 10
0.0
 20
0.0
  0
LINE
  8
寸法
  6
BYBLOCK
 62
     0
 10
-100.57714
 20
19.183902
 11
-100.57714
 21
13.885527
  0
LINE
  8
寸法
  6
BYBLOCK
 62
     0
 10
-25.577142
 20
19.183905
 11
-25.577142
 21
13.885527
  0
LINE
  8
寸法
  6
BYBLOCK
 62
     0
 10
-100.57714
 20
13.885527
 11
-25.577142
 21
13.885527
  0
POINT
  8
寸法
 62
     0
 10
-100.57714
 20
13.885527
  0
POINT
  8
寸法
 62
     0
 10
-25.577142
 20
13.885527
  0
TEXT
  7
TextStyle03
  8
寸法
  6
CONTINUOUS
 62
     0
 10
-66.38125
 20
14.25
  1
2250
 40
3.0
 72
     5
 11
-59.81875
 21
14.25
  0
ENDBLK
  0
BLOCK
  2
*DIM_0006
 70
    65
 10
0.0
 20
0.0
  0
LINE
  8
寸法
  6
BYBLOCK
 62
     0
 10
49.422855
 20
19.183902
 11
49.422855
 21
13.885527
  0
LINE
  8
寸法
  6
BYBLOCK
 62
     0
 10
-25.577142
 20
13.885527
 11
49.422855
 21
13.885527
  0
POINT
  8
寸法
 62
     0
 10
49.422855
 20
13.885527
  0
TEXT
  7
TextStyle03
  8
寸法
  6
CONTINUOUS
 62
     0
 10
8.61875
 20
14.25
  1
2250
 40
3.0
 72
     5
 11
15.18125
 21
14.25
  0
ENDBLK
  0
BLOCK
  2
*DIM_0007
 70
    65
 10
0.0
 20
0.0
  0
LINE
  8
寸法
  6
BYBLOCK
 62
     0
 10
100.109175
 20
22.814033
 11
100.109175
 21
42.814033
  0
POINT
  8
寸法
 62
     0
 10
100.109175
 20
22.814033
  0
POINT
  8
寸法
 62
     0
 10
100.109175
 20
42.814033
  0
TEXT
  7
TextStyle03
  8
寸法
  6
CONTINUOUS
 62
     0
 10
99.7
 20
21.925
  1
呼称寸法　600
 40
3.0
 50
90.0
 72
     5
 11
99.7
 21
43.675
  0
ENDBLK
  0
BLOCK
  2
*DIM_0008
 70
    65
 10
0.0
 20
0.0
  0
LINE
  8
寸法
  6
BYBLOCK
 62
     0
 10
150.289458
 20
33.814033
 11
150.289458
 21
60.666798
  0
LINE
  8
寸法
  6
BYBLOCK
 62
     0
 10
155.62279
 20
60.666798
 11
150.289458
 21
60.666798
  0
POINT
  8
寸法
 62
     0
 10
155.62279
 20
60.666798
  0
POINT
  8
寸法
 62
     0
 10
150.289458
 20
60.666798
  0
TEXT
  7
TextStyle03
  8
寸法
  6
CONTINUOUS
 62
     0
 10
150.4875
 20
61.025
  1
160
 40
3.0
 72
     5
 11
155.3625
 21
61.025
  0
ENDBLK
  0
BLOCK
  2
*DIM_0009
 70
    65
 10
0.0
 20
0.0
  0
LINE
  8
寸法
  6
BYBLOCK
 62
     0
 10
155.62279
 20
45.4807
 11
155.62279
 21
60.666798
  0
LINE
  8
寸法
  6
BYBLOCK
 62
     0
 10
162.406072
 20
45.7807
 11
162.406072
 21
60.666798
  0
LINE
  8
寸法
  6
BYBLOCK
 62
     0
 10
155.62279
 20
60.666798
 11
162.406072
 21
60.666798
  0
POINT
  8
寸法
 62
     0
 10
155.62279
 20
60.666798
  0
POINT
  8
寸法
 62
     0
 10
162.406072
 20
60.666798
  0
TEXT
  7
TextStyle03
  8
寸法
  6
CONTINUOUS
 62
     0
 10
163.275
 20
61.025
  1
203.5
 40
3.0
 72
     5
 11
171.525
 21
61.025
  0
ENDBLK
  0
BLOCK
  2
*DIM_0010
 70
    65
 10
0.0
 20
0.0
  0
LINE
  8
寸法
  6
BYBLOCK
 62
     0
 10
158.44543
 20
45.094035
 11
100.109175
 21
45.094035
  0
LINE
  8
寸法
  6
BYBLOCK
 62
     0
 10
100.109175
 20
42.814033
 11
100.109175
 21
45.094035
  0
POINT
  8
寸法
 62
     0
 10
100.109175
 20
42.814033
  0
POINT
  8
寸法
 62
     0
 10
100.109175
 20
45.094035
  0
TEXT
  7
TextStyle03
  8
寸法
  6
CONTINUOUS
 62
     0
 10
99.7
 20
47.41875
  1
68.4
 40
3.0
 50
90.0
 72
     5
 11
99.7
 21
53.98125
  0
ENDBLK
  0
BLOCK
  2
*DIM_0011
 70
    65
 10
0.0
 20
0.0
  0
LINE
  8
寸法
  6
BYBLOCK
 62
     0
 10
158.44543
 20
20.53403
 11
100.109175
 21
20.53403
  0
LINE
  8
寸法
  6
BYBLOCK
 62
     0
 10
100.109175
 20
22.814033
 11
100.109175
 21
20.53403
  0
POINT
  8
寸法
 62
     0
 10
100.109175
 20
22.814033
  0
POINT
  8
寸法
 62
     0
 10
100.109175
 20
20.53403
  0
TEXT
  7
TextStyle03
  8
寸法
  6
CONTINUOUS
 62
     0
 10
99.7
 20
11.61875
  1
68.4
 40
3.0
 50
90.0
 72
     5
 11
99.7
 21
18.18125
  0
ENDBLK
  0
BLOCK
  2
*DIM_0012
 70
    65
 10
0.0
 20
0.0
  0
LINE
  8
寸法
  6
BYBLOCK
 62
     0
 10
68.756192
 20
-70.209613
 11
82.059175
 21
-70.209613
  0
LINE
  8
寸法
  6
BYBLOCK
 62
     0
 10
69.056192
 20
-76.992895
 11
82.059175
 21
-76.992895
  0
LINE
  8
寸法
  6
BYBLOCK
 62
     0
 10
82.059175
 20
-70.209613
 11
82.059175
 21
-76.992895
  0
POINT
  8
寸法
 62
     0
 10
82.059175
 20
-70.209613
  0
POINT
  8
寸法
 62
     0
 10
82.059175
 20
-76.992895
  0
TEXT
  7
TextStyle03
  8
寸法
  6
CONTINUOUS
 62
     0
 10
81.65
 20
-86.175
  1
203.5
 40
3.0
 50
90.0
 72
     5
 11
81.65
 21
-77.925
  0
ENDBLK
  0
BLOCK
  2
*DIM_0013
 70
    65
 10
0.0
 20
0.0
  0
LINE
  8
寸法
  6
BYBLOCK
 62
     0
 10
68.369528
 20
-73.032252
 11
68.369528
 21
-13.121378
  0
LINE
  8
寸法
  6
BYBLOCK
 62
     0
 10
66.089525
 20
-13.121378
 11
68.369528
 21
-13.121378
  0
POINT
  8
寸法
 62
     0
 10
66.089525
 20
-13.121378
  0
POINT
  8
寸法
 62
     0
 10
68.369528
 20
-13.121378
  0
TEXT
  7
TextStyle03
  8
寸法
  6
CONTINUOUS
 62
     0
 10
70.66875
 20
-12.75
  1
68.4
 40
3.0
 72
     5
 11
77.23125
 21
-12.75
  0
ENDBLK
  0
BLOCK
  2
*DIM_0014
 70
    65
 10
0.0
 20
0.0
  0
LINE
  8
寸法
  6
BYBLOCK
 62
     0
 10
-119.523812
 20
-73.032252
 11
-119.523812
 21
-13.121378
  0
LINE
  8
寸法
  6
BYBLOCK
 62
     0
 10
-117.243808
 20
-13.121378
 11
-119.523812
 21
-13.121378
  0
POINT
  8
寸法
 62
     0
 10
-117.243808
 20
-13.121378
  0
POINT
  8
寸法
 62
     0
 10
-119.523812
 20
-13.121378
  0
TEXT
  7
TextStyle03
  8
寸法
  6
CONTINUOUS
 62
     0
 10
-128.43125
 20
-12.75
  1
68.4
 40
3.0
 72
     5
 11
-121.86875
 21
-12.75
  0
ENDBLK
  0
BLOCK
  2
*DIM_0015
 70
    65
 10
0.0
 20
0.0
  0
LINE
  8
寸法
  6
BYBLOCK
 62
     0
 10
125.709412
 20
-62.785395
 11
125.709412
 21
-56.25389
  0
LINE
  8
寸法
  6
BYBLOCK
 62
     0
 10
161.17608
 20
-62.785395
 11
161.17608
 21
-56.25389
  0
LINE
  8
寸法
  6
BYBLOCK
 62
     0
 10
125.709412
 20
-56.25389
 11
161.17608
 21
-56.25389
  0
POINT
  8
寸法
 62
     0
 10
125.709412
 20
-56.25389
  0
POINT
  8
寸法
 62
     0
 10
161.17608
 20
-56.25389
  0
TEXT
  7
TextStyle03
  8
寸法
  6
CONTINUOUS
 62
     0
 10
140.14375
 20
-55.9
  1
1064
 40
3.0
 72
     5
 11
146.70625
 21
-55.9
  0
ENDBLK
  0
BLOCK
  2
*DIM_0016
 70
    65
 10
0.0
 20
0.0
  0
LINE
  8
寸法
  6
BYBLOCK
 62
     0
 10
69.719652
 20
38.914033
 11
76.496945
 21
38.914033
  0
LINE
  8
寸法
  6
BYBLOCK
 62
     0
 10
76.496945
 20
42.814033
 11
76.496945
 21
38.914033
  0
POINT
  8
寸法
 62
     0
 10
76.496945
 20
42.814033
  0
POINT
  8
寸法
 62
     0
 10
76.496945
 20
38.914033
  0
TEXT
  7
TextStyle03
  8
寸法
  6
CONTINUOUS
 62
     0
 10
76.225
 20
43.4875
  1
117
 40
3.0
 50
90.0
 72
     5
 11
76.225
 21
48.3625
  0
ENDBLK
  0
BLOCK
  2
*DIM_0017
 70
    65
 10
0.0
 20
0.0
  0
LINE
  8
寸法
  6
BYBLOCK
 62
     0
 10
69.719652
 20
26.714033
 11
76.496945
 21
26.714033
  0
LINE
  8
寸法
  6
BYBLOCK
 62
     0
 10
76.496945
 20
22.814033
 11
76.496945
 21
26.714033
  0
POINT
  8
寸法
 62
     0
 10
76.496945
 20
22.814033
  0
POINT
  8
寸法
 62
     0
 10
76.496945
 20
26.714033
  0
TEXT
  7
TextStyle03
  8
寸法
  6
CONTINUOUS
 62
     0
 10
76.4
 20
17.0125
  1
117
 40
3.0
 50
90.0
 72
     5
 11
76.4
 21
21.8875
  0
ENDBLK
  0
BLOCK
  2
*GRP_0018
 70
    65
 10
0.0
 20
0.0
  0
LINE
  8
別途部材
  6
CONTINUOUS
 62
    96
 10
-118.910475
 20
-70.209613
 11
-119.310475
 21
-71.209613
  0
ARC
  8
別途部材
  6
CONTINUOUS
 10
-107.243809
 20
-76.917943
 40
12.041668
 50
90.0
 51
146.144967
  0
LINE
  8
別途部材
  6
CONTINUOUS
 10
-119.310475
 20
-71.209613
 11
-25.57714
 21
-71.209613
  0
LINE
  8
別途部材
  6
CONTINUOUS
 62
    96
 10
-118.910475
 20
-70.209613
 11
-25.57714
 21
-70.209613
  0
LINE
  8
別途部材
  6
CONTINUOUS
 10
-26.07714
 20
-63.87628
 11
-27.07714
 21
-64.87628
  0
LINE
  8
別途部材
  6
CONTINUOUS
 10
-28.07714
 20
-64.87628
 11
-29.07714
 21
-63.87628
  0
LINE
  8
別途部材
  6
CONTINUOUS
 10
-30.07714
 20
-63.87628
 11
-31.07714
 21
-64.87628
  0
LINE
  8
別途部材
  6
CONTINUOUS
 10
-29.07714
 20
-63.87628
 11
-30.07714
 21
-63.87628
  0
LINE
  8
別途部材
  6
CONTINUOUS
 10
-26.07714
 20
-63.87628
 11
-25.57714
 21
-63.87628
  0
LINE
  8
別途部材
  6
CONTINUOUS
 10
-32.07714
 20
-64.87628
 11
-33.07714
 21
-63.87628
  0
LINE
  8
別途部材
  6
CONTINUOUS
 10
-34.07714
 20
-63.87628
 11
-35.07714
 21
-64.87628
  0
LINE
  8
別途部材
  6
CONTINUOUS
 10
-33.07714
 20
-63.87628
 11
-34.07714
 21
-63.87628
  0
LINE
  8
別途部材
  6
CONTINUOUS
 10
-36.07714
 20
-64.87628
 11
-37.07714
 21
-63.87628
  0
LINE
  8
別途部材
  6
CONTINUOUS
 10
-38.07714
 20
-63.87628
 11
-39.07714
 21
-64.87628
  0
LINE
  8
別途部材
  6
CONTINUOUS
 10
-37.07714
 20
-63.87628
 11
-38.07714
 21
-63.87628
  0
LINE
  8
別途部材
  6
CONTINUOUS
 10
-40.07714
 20
-64.87628
 11
-41.07714
 21
-63.87628
  0
LINE
  8
別途部材
  6
CONTINUOUS
 10
-42.07714
 20
-63.87628
 11
-43.07714
 21
-64.87628
  0
LINE
  8
別途部材
  6
CONTINUOUS
 10
-41.07714
 20
-63.87628
 11
-42.07714
 21
-63.87628
  0
LINE
  8
別途部材
  6
CONTINUOUS
 10
-44.07714
 20
-64.87628
 11
-45.07714
 21
-63.87628
  0
LINE
  8
別途部材
  6
CONTINUOUS
 10
-46.07714
 20
-63.87628
 11
-47.07714
 21
-64.87628
  0
LINE
  8
別途部材
  6
CONTINUOUS
 10
-45.07714
 20
-63.87628
 11
-46.07714
 21
-63.87628
  0
LINE
  8
別途部材
  6
CONTINUOUS
 10
-48.07714
 20
-64.87628
 11
-49.07714
 21
-63.87628
  0
LINE
  8
別途部材
  6
CONTINUOUS
 10
-50.07714
 20
-63.87628
 11
-51.07714
 21
-64.87628
  0
LINE
  8
別途部材
  6
CONTINUOUS
 10
-49.07714
 20
-63.87628
 11
-50.07714
 21
-63.87628
  0
LINE
  8
別途部材
  6
CONTINUOUS
 10
-52.07714
 20
-64.87628
 11
-53.07714
 21
-63.87628
  0
LINE
  8
別途部材
  6
CONTINUOUS
 10
-54.07714
 20
-63.87628
 11
-55.07714
 21
-64.87628
  0
LINE
  8
別途部材
  6
CONTINUOUS
 10
-53.07714
 20
-63.87628
 11
-54.07714
 21
-63.87628
  0
LINE
  8
別途部材
  6
CONTINUOUS
 10
-56.07714
 20
-64.87628
 11
-57.07714
 21
-63.87628
  0
LINE
  8
別途部材
  6
CONTINUOUS
 10
-58.07714
 20
-63.87628
 11
-59.07714
 21
-64.87628
  0
LINE
  8
別途部材
  6
CONTINUOUS
 10
-57.07714
 20
-63.87628
 11
-58.07714
 21
-63.87628
  0
LINE
  8
別途部材
  6
CONTINUOUS
 10
-60.07714
 20
-64.87628
 11
-61.07714
 21
-63.87628
  0
LINE
  8
別途部材
  6
CONTINUOUS
 10
-62.07714
 20
-63.87628
 11
-63.07714
 21
-64.87628
  0
LINE
  8
別途部材
  6
CONTINUOUS
 10
-61.07714
 20
-63.87628
 11
-62.07714
 21
-63.87628
  0
LINE
  8
別途部材
  6
CONTINUOUS
 10
-64.07714
 20
-64.87628
 11
-65.07714
 21
-63.87628
  0
LINE
  8
別途部材
  6
CONTINUOUS
 10
-66.07714
 20
-63.87628
 11
-67.07714
 21
-64.87628
  0
LINE
  8
別途部材
  6
CONTINUOUS
 10
-65.07714
 20
-63.87628
 11
-66.07714
 21
-63.87628
  0
LINE
  8
別途部材
  6
CONTINUOUS
 10
-68.07714
 20
-64.87628
 11
-69.07714
 21
-63.87628
  0
LINE
  8
別途部材
  6
CONTINUOUS
 10
-70.07714
 20
-63.87628
 11
-71.07714
 21
-64.87628
  0
LINE
  8
別途部材
  6
CONTINUOUS
 10
-69.07714
 20
-63.87628
 11
-70.07714
 21
-63.87628
  0
LINE
  8
別途部材
  6
CONTINUOUS
 10
-67.07714
 20
-64.87628
 11
-68.07714
 21
-64.87628
  0
LINE
  8
別途部材
  6
CONTINUOUS
 10
-63.07714
 20
-64.87628
 11
-64.07714
 21
-64.87628
  0
LINE
  8
別途部材
  6
CONTINUOUS
 10
-59.07714
 20
-64.87628
 11
-60.07714
 21
-64.87628
  0
LINE
  8
別途部材
  6
CONTINUOUS
 10
-55.07714
 20
-64.87628
 11
-56.07714
 21
-64.87628
  0
LINE
  8
別途部材
  6
CONTINUOUS
 10
-51.07714
 20
-64.87628
 11
-52.07714
 21
-64.87628
  0
LINE
  8
別途部材
  6
CONTINUOUS
 10
-47.07714
 20
-64.87628
 11
-48.07714
 21
-64.87628
  0
LINE
  8
別途部材
  6
CONTINUOUS
 10
-43.07714
 20
-64.87628
 11
-44.07714
 21
-64.87628
  0
LINE
  8
別途部材
  6
CONTINUOUS
 10
-39.07714
 20
-64.87628
 11
-40.07714
 21
-64.87628
  0
LINE
  8
別途部材
  6
CONTINUOUS
 10
-35.07714
 20
-64.87628
 11
-36.07714
 21
-64.87628
  0
LINE
  8
別途部材
  6
CONTINUOUS
 10
-31.07714
 20
-64.87628
 11
-32.07714
 21
-64.87628
  0
LINE
  8
別途部材
  6
CONTINUOUS
 10
-28.07714
 20
-64.87628
 11
-27.07714
 21
-64.87628
  0
LINE
  8
別途部材
  6
CONTINUOUS
 10
-72.07714
 20
-64.87628
 11
-73.07714
 21
-63.87628
  0
LINE
  8
別途部材
  6
CONTINUOUS
 10
-74.07714
 20
-63.87628
 11
-75.07714
 21
-64.87628
  0
LINE
  8
別途部材
  6
CONTINUOUS
 10
-73.07714
 20
-63.87628
 11
-74.07714
 21
-63.87628
  0
LINE
  8
別途部材
  6
CONTINUOUS
 10
-76.07714
 20
-64.87628
 11
-77.07714
 21
-63.87628
  0
LINE
  8
別途部材
  6
CONTINUOUS
 10
-78.07714
 20
-63.87628
 11
-79.07714
 21
-64.87628
  0
LINE
  8
別途部材
  6
CONTINUOUS
 10
-77.07714
 20
-63.87628
 11
-78.07714
 21
-63.87628
  0
LINE
  8
別途部材
  6
CONTINUOUS
 10
-80.07714
 20
-64.87628
 11
-81.07714
 21
-63.87628
  0
LINE
  8
別途部材
  6
CONTINUOUS
 10
-82.07714
 20
-63.87628
 11
-83.07714
 21
-64.87628
  0
LINE
  8
別途部材
  6
CONTINUOUS
 10
-81.07714
 20
-63.87628
 11
-82.07714
 21
-63.87628
  0
LINE
  8
別途部材
  6
CONTINUOUS
 10
-84.07714
 20
-64.87628
 11
-85.07714
 21
-63.87628
  0
LINE
  8
別途部材
  6
CONTINUOUS
 10
-86.07714
 20
-63.87628
 11
-87.07714
 21
-64.87628
  0
LINE
  8
別途部材
  6
CONTINUOUS
 10
-85.07714
 20
-63.87628
 11
-86.07714
 21
-63.87628
  0
LINE
  8
別途部材
  6
CONTINUOUS
 10
-88.07714
 20
-64.87628
 11
-89.07714
 21
-63.87628
  0
LINE
  8
別途部材
  6
CONTINUOUS
 10
-90.07714
 20
-63.87628
 11
-91.07714
 21
-64.87628
  0
LINE
  8
別途部材
  6
CONTINUOUS
 10
-89.07714
 20
-63.87628
 11
-90.07714
 21
-63.87628
  0
LINE
  8
別途部材
  6
CONTINUOUS
 10
-92.07714
 20
-64.87628
 11
-93.07714
 21
-63.87628
  0
LINE
  8
別途部材
  6
CONTINUOUS
 10
-94.07714
 20
-63.87628
 11
-95.07714
 21
-64.87628
  0
LINE
  8
別途部材
  6
CONTINUOUS
 10
-93.07714
 20
-63.87628
 11
-94.07714
 21
-63.87628
  0
LINE
  8
別途部材
  6
CONTINUOUS
 10
-96.07714
 20
-64.87628
 11
-97.07714
 21
-63.87628
  0
LINE
  8
別途部材
  6
CONTINUOUS
 10
-98.07714
 20
-63.87628
 11
-99.07714
 21
-64.87628
  0
LINE
  8
別途部材
  6
CONTINUOUS
 10
-97.07714
 20
-63.87628
 11
-98.07714
 21
-63.87628
  0
LINE
  8
別途部材
  6
CONTINUOUS
 10
-100.07714
 20
-64.87628
 11
-101.07714
 21
-63.87628
  0
LINE
  8
別途部材
  6
CONTINUOUS
 10
-102.07714
 20
-63.87628
 11
-103.07714
 21
-64.87628
  0
LINE
  8
別途部材
  6
CONTINUOUS
 10
-101.07714
 20
-63.87628
 11
-102.07714
 21
-63.87628
  0
LINE
  8
別途部材
  6
CONTINUOUS
 10
-99.07714
 20
-64.87628
 11
-100.07714
 21
-64.87628
  0
LINE
  8
別途部材
  6
CONTINUOUS
 10
-95.07714
 20
-64.87628
 11
-96.07714
 21
-64.87628
  0
LINE
  8
別途部材
  6
CONTINUOUS
 10
-91.07714
 20
-64.87628
 11
-92.07714
 21
-64.87628
  0
LINE
  8
別途部材
  6
CONTINUOUS
 10
-87.07714
 20
-64.87628
 11
-88.07714
 21
-64.87628
  0
LINE
  8
別途部材
  6
CONTINUOUS
 10
-83.07714
 20
-64.87628
 11
-84.07714
 21
-64.87628
  0
LINE
  8
別途部材
  6
CONTINUOUS
 10
-79.07714
 20
-64.87628
 11
-80.07714
 21
-64.87628
  0
LINE
  8
別途部材
  6
CONTINUOUS
 10
-75.07714
 20
-64.87628
 11
-76.07714
 21
-64.87628
  0
LINE
  8
別途部材
  6
CONTINUOUS
 10
-71.07714
 20
-64.87628
 11
-72.07714
 21
-64.87628
  0
LINE
  8
別途部材
  6
CONTINUOUS
 10
-104.07714
 20
-64.87628
 11
-105.07714
 21
-63.87628
  0
LINE
  8
別途部材
  6
CONTINUOUS
 10
-106.07714
 20
-63.87628
 11
-107.07714
 21
-64.87628
  0
LINE
  8
別途部材
  6
CONTINUOUS
 10
-105.07714
 20
-63.87628
 11
-106.07714
 21
-63.87628
  0
LINE
  8
別途部材
  6
CONTINUOUS
 10
-103.07714
 20
-64.87628
 11
-104.07714
 21
-64.87628
  0
LINE
  8
別途部材
  6
CONTINUOUS
 10
-107.07714
 20
-64.87628
 11
-107.07714
 21
-70.209613
  0
LINE
  8
別途部材
  6
CONTINUOUS
 10
-106.07714
 20
-63.87628
 11
-106.07714
 21
-70.209613
  0
LINE
  8
別途部材
  6
CONTINUOUS
 10
-105.07714
 20
-63.87628
 11
-105.07714
 21
-70.209613
  0
LINE
  8
別途部材
  6
CONTINUOUS
 10
-103.07714
 20
-64.87628
 11
-103.07714
 21
-70.209613
  0
LINE
  8
別途部材
  6
CONTINUOUS
 10
-101.07714
 20
-63.87628
 11
-101.07714
 21
-70.209613
  0
LINE
  8
別途部材
  6
CONTINUOUS
 10
-100.07714
 20
-64.87628
 11
-100.07714
 21
-70.209613
  0
LINE
  8
別途部材
  6
CONTINUOUS
 10
-102.07714
 20
-63.87628
 11
-102.07714
 21
-70.209613
  0
LINE
  8
別途部材
  6
CONTINUOUS
 10
-104.07714
 20
-64.87628
 11
-104.07714
 21
-70.209613
  0
LINE
  8
別途部材
  6
CONTINUOUS
 10
-99.07714
 20
-64.87628
 11
-99.07714
 21
-70.209613
  0
LINE
  8
別途部材
  6
CONTINUOUS
 10
-98.07714
 20
-63.87628
 11
-98.07714
 21
-70.209613
  0
LINE
  8
別途部材
  6
CONTINUOUS
 10
-96.07714
 20
-64.87628
 11
-96.07714
 21
-70.209613
  0
LINE
  8
別途部材
  6
CONTINUOUS
 10
-97.07714
 20
-63.87628
 11
-97.07714
 21
-70.209613
  0
LINE
  8
別途部材
  6
CONTINUOUS
 10
-94.07714
 20
-63.87628
 11
-94.07714
 21
-70.209613
  0
LINE
  8
別途部材
  6
CONTINUOUS
 10
-95.07714
 20
-64.87628
 11
-95.07714
 21
-70.209613
  0
LINE
  8
別途部材
  6
CONTINUOUS
 10
-93.07714
 20
-63.87628
 11
-93.07714
 21
-70.209613
  0
LINE
  8
別途部材
  6
CONTINUOUS
 10
-92.07714
 20
-64.87628
 11
-92.07714
 21
-70.209613
  0
LINE
  8
別途部材
  6
CONTINUOUS
 10
-90.07714
 20
-63.87628
 11
-90.07714
 21
-70.209613
  0
LINE
  8
別途部材
  6
CONTINUOUS
 10
-91.07714
 20
-64.87628
 11
-91.07714
 21
-70.209613
  0
LINE
  8
別途部材
  6
CONTINUOUS
 10
-88.07714
 20
-64.87628
 11
-88.07714
 21
-70.209613
  0
LINE
  8
別途部材
  6
CONTINUOUS
 10
-89.07714
 20
-63.87628
 11
-89.07714
 21
-70.209613
  0
LINE
  8
別途部材
  6
CONTINUOUS
 10
-87.07714
 20
-64.87628
 11
-87.07714
 21
-70.209613
  0
LINE
  8
別途部材
  6
CONTINUOUS
 10
-85.07714
 20
-63.87628
 11
-85.07714
 21
-70.209613
  0
LINE
  8
別途部材
  6
CONTINUOUS
 10
-86.07714
 20
-63.87628
 11
-86.07714
 21
-70.209613
  0
LINE
  8
別途部材
  6
CONTINUOUS
 10
-84.07714
 20
-64.87628
 11
-84.07714
 21
-70.209613
  0
LINE
  8
別途部材
  6
CONTINUOUS
 10
-83.07714
 20
-64.87628
 11
-83.07714
 21
-70.209613
  0
LINE
  8
別途部材
  6
CONTINUOUS
 10
-82.07714
 20
-63.87628
 11
-82.07714
 21
-70.209613
  0
LINE
  8
別途部材
  6
CONTINUOUS
 10
-81.07714
 20
-63.87628
 11
-81.07714
 21
-70.209613
  0
LINE
  8
別途部材
  6
CONTINUOUS
 10
-78.07714
 20
-63.87628
 11
-78.07714
 21
-70.209613
  0
LINE
  8
別途部材
  6
CONTINUOUS
 10
-76.07714
 20
-64.87628
 11
-76.07714
 21
-70.209613
  0
LINE
  8
別途部材
  6
CONTINUOUS
 10
-77.07714
 20
-63.87628
 11
-77.07714
 21
-70.209613
  0
LINE
  8
別途部材
  6
CONTINUOUS
 10
-79.07714
 20
-64.87628
 11
-79.07714
 21
-70.209613
  0
LINE
  8
別途部材
  6
CONTINUOUS
 10
-80.07714
 20
-64.87628
 11
-80.07714
 21
-70.209613
  0
LINE
  8
別途部材
  6
CONTINUOUS
 10
-75.07714
 20
-64.87628
 11
-75.07714
 21
-70.209613
  0
LINE
  8
別途部材
  6
CONTINUOUS
 10
-73.07714
 20
-63.87628
 11
-73.07714
 21
-70.209613
  0
LINE
  8
別途部材
  6
CONTINUOUS
 10
-74.07714
 20
-63.87628
 11
-74.07714
 21
-70.209613
  0
LINE
  8
別途部材
  6
CONTINUOUS
 10
-72.07714
 20
-64.87628
 11
-72.07714
 21
-70.209613
  0
LINE
  8
別途部材
  6
CONTINUOUS
 10
-70.07714
 20
-63.87628
 11
-70.07714
 21
-70.209613
  0
LINE
  8
別途部材
  6
CONTINUOUS
 10
-71.07714
 20
-64.87628
 11
-71.07714
 21
-70.209613
  0
LINE
  8
別途部材
  6
CONTINUOUS
 10
-69.07714
 20
-63.87628
 11
-69.07714
 21
-70.209613
  0
LINE
  8
別途部材
  6
CONTINUOUS
 10
-68.07714
 20
-64.87628
 11
-68.07714
 21
-70.209613
  0
LINE
  8
別途部材
  6
CONTINUOUS
 10
-66.07714
 20
-63.87628
 11
-66.07714
 21
-70.209613
  0
LINE
  8
別途部材
  6
CONTINUOUS
 10
-67.07714
 20
-64.87628
 11
-67.07714
 21
-70.209613
  0
LINE
  8
別途部材
  6
CONTINUOUS
 10
-63.07714
 20
-64.87628
 11
-63.07714
 21
-70.209613
  0
LINE
  8
別途部材
  6
CONTINUOUS
 10
-64.07714
 20
-64.87628
 11
-64.07714
 21
-70.209613
  0
LINE
  8
別途部材
  6
CONTINUOUS
 10
-65.07714
 20
-63.87628
 11
-65.07714
 21
-70.209613
  0
LINE
  8
別途部材
  6
CONTINUOUS
 10
-62.07714
 20
-63.87628
 11
-62.07714
 21
-70.209613
  0
LINE
  8
別途部材
  6
CONTINUOUS
 10
-61.07714
 20
-63.87628
 11
-61.07714
 21
-70.209613
  0
LINE
  8
別途部材
  6
CONTINUOUS
 10
-60.07714
 20
-64.87628
 11
-60.07714
 21
-70.209613
  0
LINE
  8
別途部材
  6
CONTINUOUS
 10
-58.07714
 20
-63.87628
 11
-58.07714
 21
-70.209613
  0
LINE
  8
別途部材
  6
CONTINUOUS
 10
-54.07714
 20
-63.87628
 11
-54.07714
 21
-70.209613
  0
LINE
  8
別途部材
  6
CONTINUOUS
 10
-55.07714
 20
-64.87628
 11
-55.07714
 21
-70.209613
  0
LINE
  8
別途部材
  6
CONTINUOUS
 10
-56.07714
 20
-64.87628
 11
-56.07714
 21
-70.209613
  0
LINE
  8
別途部材
  6
CONTINUOUS
 10
-57.07714
 20
-63.87628
 11
-57.07714
 21
-70.209613
  0
LINE
  8
別途部材
  6
CONTINUOUS
 10
-59.07714
 20
-64.87628
 11
-59.07714
 21
-70.209613
  0
LINE
  8
別途部材
  6
CONTINUOUS
 10
-52.07714
 20
-64.87628
 11
-52.07714
 21
-70.209613
  0
LINE
  8
別途部材
  6
CONTINUOUS
 10
-53.07714
 20
-63.87628
 11
-53.07714
 21
-70.209613
  0
LINE
  8
別途部材
  6
CONTINUOUS
 10
-51.07714
 20
-64.87628
 11
-51.07714
 21
-70.209613
  0
LINE
  8
別途部材
  6
CONTINUOUS
 10
-50.07714
 20
-63.87628
 11
-50.07714
 21
-70.209613
  0
LINE
  8
別途部材
  6
CONTINUOUS
 10
-46.07714
 20
-63.87628
 11
-46.07714
 21
-70.209613
  0
LINE
  8
別途部材
  6
CONTINUOUS
 10
-45.07714
 20
-63.87628
 11
-45.07714
 21
-70.209613
  0
LINE
  8
別途部材
  6
CONTINUOUS
 10
-47.07714
 20
-64.87628
 11
-47.07714
 21
-70.209613
  0
LINE
  8
別途部材
  6
CONTINUOUS
 10
-48.07714
 20
-64.87628
 11
-48.07714
 21
-70.209613
  0
LINE
  8
別途部材
  6
CONTINUOUS
 10
-49.07714
 20
-63.87628
 11
-49.07714
 21
-70.209613
  0
LINE
  8
別途部材
  6
CONTINUOUS
 10
-44.07714
 20
-64.87628
 11
-44.07714
 21
-70.209613
  0
LINE
  8
別途部材
  6
CONTINUOUS
 10
-42.07714
 20
-63.87628
 11
-42.07714
 21
-70.209613
  0
LINE
  8
別途部材
  6
CONTINUOUS
 10
-41.07714
 20
-63.87628
 11
-41.07714
 21
-70.209613
  0
LINE
  8
別途部材
  6
CONTINUOUS
 10
-40.07714
 20
-64.87628
 11
-40.07714
 21
-70.209613
  0
LINE
  8
別途部材
  6
CONTINUOUS
 10
-39.07714
 20
-64.87628
 11
-39.07714
 21
-70.209613
  0
LINE
  8
別途部材
  6
CONTINUOUS
 10
-38.07714
 20
-63.87628
 11
-38.07714
 21
-70.209613
  0
LINE
  8
別途部材
  6
CONTINUOUS
 10
-43.07714
 20
-64.87628
 11
-43.07714
 21
-70.209613
  0
LINE
  8
別途部材
  6
CONTINUOUS
 10
-37.07714
 20
-63.87628
 11
-37.07714
 21
-70.209613
  0
LINE
  8
別途部材
  6
CONTINUOUS
 10
-36.07714
 20
-64.87628
 11
-36.07714
 21
-70.209613
  0
LINE
  8
別途部材
  6
CONTINUOUS
 10
-35.07714
 20
-64.87628
 11
-35.07714
 21
-70.209613
  0
LINE
  8
別途部材
  6
CONTINUOUS
 10
-33.07714
 20
-63.87628
 11
-33.07714
 21
-70.209613
  0
LINE
  8
別途部材
  6
CONTINUOUS
 10
-31.07714
 20
-64.87628
 11
-31.07714
 21
-70.209613
  0
LINE
  8
別途部材
  6
CONTINUOUS
 10
-30.07714
 20
-63.87628
 11
-30.07714
 21
-70.209613
  0
LINE
  8
別途部材
  6
CONTINUOUS
 10
-28.07714
 20
-64.87628
 11
-28.07714
 21
-70.209613
  0
LINE
  8
別途部材
  6
CONTINUOUS
 10
-27.07714
 20
-64.87628
 11
-27.07714
 21
-70.209613
  0
LINE
  8
別途部材
  6
CONTINUOUS
 10
-26.07714
 20
-63.87628
 11
-26.07714
 21
-70.209613
  0
LINE
  8
別途部材
  6
CONTINUOUS
 10
-29.07714
 20
-63.87628
 11
-29.07714
 21
-70.209613
  0
LINE
  8
別途部材
  6
CONTINUOUS
 10
-32.07714
 20
-64.87628
 11
-32.07714
 21
-70.209613
  0
LINE
  8
別途部材
  6
CONTINUOUS
 10
-34.07714
 20
-63.87628
 11
-34.07714
 21
-70.209613
  0
LINE
  8
別途部材
  6
CONTINUOUS
 62
    96
 10
67.756192
 20
-70.209613
 11
68.156193
 21
-71.209613
  0
ARC
  8
別途部材
  6
CONTINUOUS
 10
56.089528
 20
-76.917943
 40
12.041668
 50
33.855033
 51
90.0
  0
LINE
  8
別途部材
  6
CONTINUOUS
 10
68.156193
 20
-71.209613
 11
-25.57714
 21
-71.209613
  0
LINE
  8
別途部材
  6
CONTINUOUS
 62
    96
 10
67.756192
 20
-70.209613
 11
-25.57714
 21
-70.209613
  0
LINE
  8
別途部材
  6
CONTINUOUS
 10
-25.07714
 20
-63.87628
 11
-24.07714
 21
-64.87628
  0
LINE
  8
別途部材
  6
CONTINUOUS
 10
-23.07714
 20
-64.87628
 11
-22.07714
 21
-63.87628
  0
LINE
  8
別途部材
  6
CONTINUOUS
 10
-21.07714
 20
-63.87628
 11
-20.07714
 21
-64.87628
  0
LINE
  8
別途部材
  6
CONTINUOUS
 10
-22.07714
 20
-63.87628
 11
-21.07714
 21
-63.87628
  0
LINE
  8
別途部材
  6
CONTINUOUS
 10
-25.07714
 20
-63.87628
 11
-25.57714
 21
-63.87628
  0
LINE
  8
別途部材
  6
CONTINUOUS
 10
-19.07714
 20
-64.87628
 11
-18.07714
 21
-63.87628
  0
LINE
  8
別途部材
  6
CONTINUOUS
 10
-17.07714
 20
-63.87628
 11
-16.07714
 21
-64.87628
  0
LINE
  8
別途部材
  6
CONTINUOUS
 10
-18.07714
 20
-63.87628
 11
-17.07714
 21
-63.87628
  0
LINE
  8
別途部材
  6
CONTINUOUS
 10
-15.07714
 20
-64.87628
 11
-14.07714
 21
-63.87628
  0
LINE
  8
別途部材
  6
CONTINUOUS
 10
-13.07714
 20
-63.87628
 11
-12.07714
 21
-64.87628
  0
LINE
  8
別途部材
  6
CONTINUOUS
 10
-14.07714
 20
-63.87628
 11
-13.07714
 21
-63.87628
  0
LINE
  8
別途部材
  6
CONTINUOUS
 10
-11.07714
 20
-64.87628
 11
-10.07714
 21
-63.87628
  0
LINE
  8
別途部材
  6
CONTINUOUS
 10
-9.07714
 20
-63.87628
 11
-8.07714
 21
-64.87628
  0
LINE
  8
別途部材
  6
CONTINUOUS
 10
-10.07714
 20
-63.87628
 11
-9.07714
 21
-63.87628
  0
LINE
  8
別途部材
  6
CONTINUOUS
 10
-7.07714
 20
-64.87628
 11
-6.07714
 21
-63.87628
  0
LINE
  8
別途部材
  6
CONTINUOUS
 10
-5.07714
 20
-63.87628
 11
-4.07714
 21
-64.87628
  0
LINE
  8
別途部材
  6
CONTINUOUS
 10
-6.07714
 20
-63.87628
 11
-5.07714
 21
-63.87628
  0
LINE
  8
別途部材
  6
CONTINUOUS
 10
-3.07714
 20
-64.87628
 11
-2.07714
 21
-63.87628
  0
LINE
  8
別途部材
  6
CONTINUOUS
 10
-1.07714
 20
-63.87628
 11
-0.07714
 21
-64.87628
  0
LINE
  8
別途部材
  6
CONTINUOUS
 10
-2.07714
 20
-63.87628
 11
-1.07714
 21
-63.87628
  0
LINE
  8
別途部材
  6
CONTINUOUS
 10
0.92286
 20
-64.87628
 11
1.92286
 21
-63.87628
  0
LINE
  8
別途部材
  6
CONTINUOUS
 10
2.92286
 20
-63.87628
 11
3.92286
 21
-64.87628
  0
LINE
  8
別途部材
  6
CONTINUOUS
 10
1.92286
 20
-63.87628
 11
2.92286
 21
-63.87628
  0
LINE
  8
別途部材
  6
CONTINUOUS
 10
4.92286
 20
-64.87628
 11
5.92286
 21
-63.87628
  0
LINE
  8
別途部材
  6
CONTINUOUS
 10
6.92286
 20
-63.87628
 11
7.92286
 21
-64.87628
  0
LINE
  8
別途部材
  6
CONTINUOUS
 10
5.92286
 20
-63.87628
 11
6.92286
 21
-63.87628
  0
LINE
  8
別途部材
  6
CONTINUOUS
 10
8.92286
 20
-64.87628
 11
9.92286
 21
-63.87628
  0
LINE
  8
別途部材
  6
CONTINUOUS
 10
10.92286
 20
-63.87628
 11
11.92286
 21
-64.87628
  0
LINE
  8
別途部材
  6
CONTINUOUS
 10
9.92286
 20
-63.87628
 11
10.92286
 21
-63.87628
  0
LINE
  8
別途部材
  6
CONTINUOUS
 10
12.92286
 20
-64.87628
 11
13.92286
 21
-63.87628
  0
LINE
  8
別途部材
  6
CONTINUOUS
 10
14.92286
 20
-63.87628
 11
15.92286
 21
-64.87628
  0
LINE
  8
別途部材
  6
CONTINUOUS
 10
13.92286
 20
-63.87628
 11
14.92286
 21
-63.87628
  0
LINE
  8
別途部材
  6
CONTINUOUS
 10
16.92286
 20
-64.87628
 11
17.92286
 21
-63.87628
  0
LINE
  8
別途部材
  6
CONTINUOUS
 10
18.92286
 20
-63.87628
 11
19.92286
 21
-64.87628
  0
LINE
  8
別途部材
  6
CONTINUOUS
 10
17.92286
 20
-63.87628
 11
18.92286
 21
-63.87628
  0
LINE
  8
別途部材
  6
CONTINUOUS
 10
15.92286
 20
-64.87628
 11
16.92286
 21
-64.87628
  0
LINE
  8
別途部材
  6
CONTINUOUS
 10
11.92286
 20
-64.87628
 11
12.92286
 21
-64.87628
  0
LINE
  8
別途部材
  6
CONTINUOUS
 10
7.92286
 20
-64.87628
 11
8.92286
 21
-64.87628
  0
LINE
  8
別途部材
  6
CONTINUOUS
 10
3.92286
 20
-64.87628
 11
4.92286
 21
-64.87628
  0
LINE
  8
別途部材
  6
CONTINUOUS
 10
-0.07714
 20
-64.87628
 11
0.92286
 21
-64.87628
  0
LINE
  8
別途部材
  6
CONTINUOUS
 10
-4.07714
 20
-64.87628
 11
-3.07714
 21
-64.87628
  0
LINE
  8
別途部材
  6
CONTINUOUS
 10
-8.07714
 20
-64.87628
 11
-7.07714
 21
-64.87628
  0
LINE
  8
別途部材
  6
CONTINUOUS
 10
-12.07714
 20
-64.87628
 11
-11.07714
 21
-64.87628
  0
LINE
  8
別途部材
  6
CONTINUOUS
 10
-16.07714
 20
-64.87628
 11
-15.07714
 21
-64.87628
  0
LINE
  8
別途部材
  6
CONTINUOUS
 10
-20.07714
 20
-64.87628
 11
-19.07714
 21
-64.87628
  0
LINE
  8
別途部材
  6
CONTINUOUS
 10
-23.07714
 20
-64.87628
 11
-24.07714
 21
-64.87628
  0
LINE
  8
別途部材
  6
CONTINUOUS
 10
20.92286
 20
-64.87628
 11
21.92286
 21
-63.87628
  0
LINE
  8
別途部材
  6
CONTINUOUS
 10
22.92286
 20
-63.87628
 11
23.92286
 21
-64.87628
  0
LINE
  8
別途部材
  6
CONTINUOUS
 10
21.92286
 20
-63.87628
 11
22.92286
 21
-63.87628
  0
LINE
  8
別途部材
  6
CONTINUOUS
 10
24.92286
 20
-64.87628
 11
25.92286
 21
-63.87628
  0
LINE
  8
別途部材
  6
CONTINUOUS
 10
26.92286
 20
-63.87628
 11
27.92286
 21
-64.87628
  0
LINE
  8
別途部材
  6
CONTINUOUS
 10
25.92286
 20
-63.87628
 11
26.92286
 21
-63.87628
  0
LINE
  8
別途部材
  6
CONTINUOUS
 10
28.92286
 20
-64.87628
 11
29.92286
 21
-63.87628
  0
LINE
  8
別途部材
  6
CONTINUOUS
 10
30.92286
 20
-63.87628
 11
31.92286
 21
-64.87628
  0
LINE
  8
別途部材
  6
CONTINUOUS
 10
29.92286
 20
-63.87628
 11
30.92286
 21
-63.87628
  0
LINE
  8
別途部材
  6
CONTINUOUS
 10
32.92286
 20
-64.87628
 11
33.92286
 21
-63.87628
  0
LINE
  8
別途部材
  6
CONTINUOUS
 10
34.92286
 20
-63.87628
 11
35.92286
 21
-64.87628
  0
LINE
  8
別途部材
  6
CONTINUOUS
 10
33.92286
 20
-63.87628
 11
34.92286
 21
-63.87628
  0
LINE
  8
別途部材
  6
CONTINUOUS
 10
36.92286
 20
-64.87628
 11
37.92286
 21
-63.87628
  0
LINE
  8
別途部材
  6
CONTINUOUS
 10
38.92286
 20
-63.87628
 11
39.92286
 21
-64.87628
  0
LINE
  8
別途部材
  6
CONTINUOUS
 10
37.92286
 20
-63.87628
 11
38.92286
 21
-63.87628
  0
LINE
  8
別途部材
  6
CONTINUOUS
 10
40.92286
 20
-64.87628
 11
41.92286
 21
-63.87628
  0
LINE
  8
別途部材
  6
CONTINUOUS
 10
42.92286
 20
-63.87628
 11
43.92286
 21
-64.87628
  0
LINE
  8
別途部材
  6
CONTINUOUS
 10
41.92286
 20
-63.87628
 11
42.92286
 21
-63.87628
  0
LINE
  8
別途部材
  6
CONTINUOUS
 10
44.92286
 20
-64.87628
 11
45.92286
 21
-63.87628
  0
LINE
  8
別途部材
  6
CONTINUOUS
 10
46.92286
 20
-63.87628
 11
47.92286
 21
-64.87628
  0
LINE
  8
別途部材
  6
CONTINUOUS
 10
45.92286
 20
-63.87628
 11
46.92286
 21
-63.87628
  0
LINE
  8
別途部材
  6
CONTINUOUS
 10
48.92286
 20
-64.87628
 11
49.92286
 21
-63.87628
  0
LINE
  8
別途部材
  6
CONTINUOUS
 10
50.92286
 20
-63.87628
 11
51.92286
 21
-64.87628
  0
LINE
  8
別途部材
  6
CONTINUOUS
 10
49.92286
 20
-63.87628
 11
50.92286
 21
-63.87628
  0
LINE
  8
別途部材
  6
CONTINUOUS
 10
47.92286
 20
-64.87628
 11
48.92286
 21
-64.87628
  0
LINE
  8
別途部材
  6
CONTINUOUS
 10
43.92286
 20
-64.87628
 11
44.92286
 21
-64.87628
  0
LINE
  8
別途部材
  6
CONTINUOUS
 10
39.92286
 20
-64.87628
 11
40.92286
 21
-64.87628
  0
LINE
  8
別途部材
  6
CONTINUOUS
 10
35.92286
 20
-64.87628
 11
36.92286
 21
-64.87628
  0
LINE
  8
別途部材
  6
CONTINUOUS
 10
31.92286
 20
-64.87628
 11
32.92286
 21
-64.87628
  0
LINE
  8
別途部材
  6
CONTINUOUS
 10
27.92286
 20
-64.87628
 11
28.92286
 21
-64.87628
  0
LINE
  8
別途部材
  6
CONTINUOUS
 10
23.92286
 20
-64.87628
 11
24.92286
 21
-64.87628
  0
LINE
  8
別途部材
  6
CONTINUOUS
 10
19.92286
 20
-64.87628
 11
20.92286
 21
-64.87628
  0
LINE
  8
別途部材
  6
CONTINUOUS
 10
52.92286
 20
-64.87628
 11
53.92286
 21
-63.87628
  0
LINE
  8
別途部材
  6
CONTINUOUS
 10
54.92286
 20
-63.87628
 11
55.92286
 21
-64.87628
  0
LINE
  8
別途部材
  6
CONTINUOUS
 10
53.92286
 20
-63.87628
 11
54.92286
 21
-63.87628
  0
LINE
  8
別途部材
  6
CONTINUOUS
 10
51.92286
 20
-64.87628
 11
52.92286
 21
-64.87628
  0
LINE
  8
別途部材
  6
CONTINUOUS
 10
55.92286
 20
-64.87628
 11
55.92286
 21
-70.209613
  0
LINE
  8
別途部材
  6
CONTINUOUS
 10
54.92286
 20
-63.87628
 11
54.92286
 21
-70.209613
  0
LINE
  8
別途部材
  6
CONTINUOUS
 10
53.92286
 20
-63.87628
 11
53.92286
 21
-70.209613
  0
LINE
  8
別途部材
  6
CONTINUOUS
 10
51.92286
 20
-64.87628
 11
51.92286
 21
-70.209613
  0
LINE
  8
別途部材
  6
CONTINUOUS
 10
49.92286
 20
-63.87628
 11
49.92286
 21
-70.209613
  0
LINE
  8
別途部材
  6
CONTINUOUS
 10
48.92286
 20
-64.87628
 11
48.92286
 21
-70.209613
  0
LINE
  8
別途部材
  6
CONTINUOUS
 10
50.92286
 20
-63.87628
 11
50.92286
 21
-70.209613
  0
LINE
  8
別途部材
  6
CONTINUOUS
 10
52.92286
 20
-64.87628
 11
52.92286
 21
-70.209613
  0
LINE
  8
別途部材
  6
CONTINUOUS
 10
47.92286
 20
-64.87628
 11
47.92286
 21
-70.209613
  0
LINE
  8
別途部材
  6
CONTINUOUS
 10
46.92286
 20
-63.87628
 11
46.92286
 21
-70.209613
  0
LINE
  8
別途部材
  6
CONTINUOUS
 10
44.92286
 20
-64.87628
 11
44.92286
 21
-70.209613
  0
LINE
  8
別途部材
  6
CONTINUOUS
 10
45.92286
 20
-63.87628
 11
45.92286
 21
-70.209613
  0
LINE
  8
別途部材
  6
CONTINUOUS
 10
42.92286
 20
-63.87628
 11
42.92286
 21
-70.209613
  0
LINE
  8
別途部材
  6
CONTINUOUS
 10
43.92286
 20
-64.87628
 11
43.92286
 21
-70.209613
  0
LINE
  8
別途部材
  6
CONTINUOUS
 10
41.92286
 20
-63.87628
 11
41.92286
 21
-70.209613
  0
LINE
  8
別途部材
  6
CONTINUOUS
 10
40.92286
 20
-64.87628
 11
40.92286
 21
-70.209613
  0
LINE
  8
別途部材
  6
CONTINUOUS
 10
38.92286
 20
-63.87628
 11
38.92286
 21
-70.209613
  0
LINE
  8
別途部材
  6
CONTINUOUS
 10
39.92286
 20
-64.87628
 11
39.92286
 21
-70.209613
  0
LINE
  8
別途部材
  6
CONTINUOUS
 10
36.92286
 20
-64.87628
 11
36.92286
 21
-70.209613
  0
LINE
  8
別途部材
  6
CONTINUOUS
 10
37.92286
 20
-63.87628
 11
37.92286
 21
-70.209613
  0
LINE
  8
別途部材
  6
CONTINUOUS
 10
35.92286
 20
-64.87628
 11
35.92286
 21
-70.209613
  0
LINE
  8
別途部材
  6
CONTINUOUS
 10
33.92286
 20
-63.87628
 11
33.92286
 21
-70.209613
  0
LINE
  8
別途部材
  6
CONTINUOUS
 10
34.92286
 20
-63.87628
 11
34.92286
 21
-70.209613
  0
LINE
  8
別途部材
  6
CONTINUOUS
 10
32.92286
 20
-64.87628
 11
32.92286
 21
-70.209613
  0
LINE
  8
別途部材
  6
CONTINUOUS
 10
31.92286
 20
-64.87628
 11
31.92286
 21
-70.209613
  0
LINE
  8
別途部材
  6
CONTINUOUS
 10
30.92286
 20
-63.87628
 11
30.92286
 21
-70.209613
  0
LINE
  8
別途部材
  6
CONTINUOUS
 10
29.92286
 20
-63.87628
 11
29.92286
 21
-70.209613
  0
LINE
  8
別途部材
  6
CONTINUOUS
 10
26.92286
 20
-63.87628
 11
26.92286
 21
-70.209613
  0
LINE
  8
別途部材
  6
CONTINUOUS
 10
24.92286
 20
-64.87628
 11
24.92286
 21
-70.209613
  0
LINE
  8
別途部材
  6
CONTINUOUS
 10
25.92286
 20
-63.87628
 11
25.92286
 21
-70.209613
  0
LINE
  8
別途部材
  6
CONTINUOUS
 10
27.92286
 20
-64.87628
 11
27.92286
 21
-70.209613
  0
LINE
  8
別途部材
  6
CONTINUOUS
 10
28.92286
 20
-64.87628
 11
28.92286
 21
-70.209613
  0
LINE
  8
別途部材
  6
CONTINUOUS
 10
23.92286
 20
-64.87628
 11
23.92286
 21
-70.209613
  0
LINE
  8
別途部材
  6
CONTINUOUS
 10
21.92286
 20
-63.87628
 11
21.92286
 21
-70.209613
  0
LINE
  8
別途部材
  6
CONTINUOUS
 10
22.92286
 20
-63.87628
 11
22.92286
 21
-70.209613
  0
LINE
  8
別途部材
  6
CONTINUOUS
 10
20.92286
 20
-64.87628
 11
20.92286
 21
-70.209613
  0
LINE
  8
別途部材
  6
CONTINUOUS
 10
18.92286
 20
-63.87628
 11
18.92286
 21
-70.209613
  0
LINE
  8
別途部材
  6
CONTINUOUS
 10
19.92286
 20
-64.87628
 11
19.92286
 21
-70.209613
  0
LINE
  8
別途部材
  6
CONTINUOUS
 10
17.92286
 20
-63.87628
 11
17.92286
 21
-70.209613
  0
LINE
  8
別途部材
  6
CONTINUOUS
 10
16.92286
 20
-64.87628
 11
16.92286
 21
-70.209613
  0
LINE
  8
別途部材
  6
CONTINUOUS
 10
14.92286
 20
-63.87628
 11
14.92286
 21
-70.209613
  0
LINE
  8
別途部材
  6
CONTINUOUS
 10
15.92286
 20
-64.87628
 11
15.92286
 21
-70.209613
  0
LINE
  8
別途部材
  6
CONTINUOUS
 10
11.92286
 20
-64.87628
 11
11.92286
 21
-70.209613
  0
LINE
  8
別途部材
  6
CONTINUOUS
 10
12.92286
 20
-64.87628
 11
12.92286
 21
-70.209613
  0
LINE
  8
別途部材
  6
CONTINUOUS
 10
13.92286
 20
-63.87628
 11
13.92286
 21
-70.209613
  0
LINE
  8
別途部材
  6
CONTINUOUS
 10
10.92286
 20
-63.87628
 11
10.92286
 21
-70.209613
  0
LINE
  8
別途部材
  6
CONTINUOUS
 10
9.92286
 20
-63.87628
 11
9.92286
 21
-70.209613
  0
LINE
  8
別途部材
  6
CONTINUOUS
 10
8.92286
 20
-64.87628
 11
8.92286
 21
-70.209613
  0
LINE
  8
別途部材
  6
CONTINUOUS
 10
6.92286
 20
-63.87628
 11
6.92286
 21
-70.209613
  0
LINE
  8
別途部材
  6
CONTINUOUS
 10
2.92286
 20
-63.87628
 11
2.92286
 21
-70.209613
  0
LINE
  8
別途部材
  6
CONTINUOUS
 10
3.92286
 20
-64.87628
 11
3.92286
 21
-70.209613
  0
LINE
  8
別途部材
  6
CONTINUOUS
 10
4.92286
 20
-64.87628
 11
4.92286
 21
-70.209613
  0
LINE
  8
別途部材
  6
CONTINUOUS
 10
5.92286
 20
-63.87628
 11
5.92286
 21
-70.209613
  0
LINE
  8
別途部材
  6
CONTINUOUS
 10
7.92286
 20
-64.87628
 11
7.92286
 21
-70.209613
  0
LINE
  8
別途部材
  6
CONTINUOUS
 10
0.92286
 20
-64.87628
 11
0.92286
 21
-70.209613
  0
LINE
  8
別途部材
  6
CONTINUOUS
 10
1.92286
 20
-63.87628
 11
1.92286
 21
-70.209613
  0
LINE
  8
別途部材
  6
CONTINUOUS
 10
-0.07714
 20
-64.87628
 11
-0.07714
 21
-70.209613
  0
LINE
  8
別途部材
  6
CONTINUOUS
 10
-1.07714
 20
-63.87628
 11
-1.07714
 21
-70.209613
  0
LINE
  8
別途部材
  6
CONTINUOUS
 10
-5.07714
 20
-63.87628
 11
-5.07714
 21
-70.209613
  0
LINE
  8
別途部材
  6
CONTINUOUS
 10
-6.07714
 20
-63.87628
 11
-6.07714
 21
-70.209613
  0
LINE
  8
別途部材
  6
CONTINUOUS
 10
-4.07714
 20
-64.87628
 11
-4.07714
 21
-70.209613
  0
LINE
  8
別途部材
  6
CONTINUOUS
 10
-3.07714
 20
-64.87628
 11
-3.07714
 21
-70.209613
  0
LINE
  8
別途部材
  6
CONTINUOUS
 10
-2.07714
 20
-63.87628
 11
-2.07714
 21
-70.209613
  0
LINE
  8
別途部材
  6
CONTINUOUS
 10
-7.07714
 20
-64.87628
 11
-7.07714
 21
-70.209613
  0
LINE
  8
別途部材
  6
CONTINUOUS
 10
-9.07714
 20
-63.87628
 11
-9.07714
 21
-70.209613
  0
LINE
  8
別途部材
  6
CONTINUOUS
 10
-10.07714
 20
-63.87628
 11
-10.07714
 21
-70.209613
  0
LINE
  8
別途部材
  6
CONTINUOUS
 10
-11.07714
 20
-64.87628
 11
-11.07714
 21
-70.209613
  0
LINE
  8
別途部材
  6
CONTINUOUS
 10
-12.07714
 20
-64.87628
 11
-12.07714
 21
-70.209613
  0
LINE
  8
別途部材
  6
CONTINUOUS
 10
-13.07714
 20
-63.87628
 11
-13.07714
 21
-70.209613
  0
LINE
  8
別途部材
  6
CONTINUOUS
 10
-8.07714
 20
-64.87628
 11
-8.07714
 21
-70.209613
  0
LINE
  8
別途部材
  6
CONTINUOUS
 10
-14.07714
 20
-63.87628
 11
-14.07714
 21
-70.209613
  0
LINE
  8
別途部材
  6
CONTINUOUS
 10
-15.07714
 20
-64.87628
 11
-15.07714
 21
-70.209613
  0
LINE
  8
別途部材
  6
CONTINUOUS
 10
-16.07714
 20
-64.87628
 11
-16.07714
 21
-70.209613
  0
LINE
  8
別途部材
  6
CONTINUOUS
 10
-18.07714
 20
-63.87628
 11
-18.07714
 21
-70.209613
  0
LINE
  8
別途部材
  6
CONTINUOUS
 10
-20.07714
 20
-64.87628
 11
-20.07714
 21
-70.209613
  0
LINE
  8
別途部材
  6
CONTINUOUS
 10
-21.07714
 20
-63.87628
 11
-21.07714
 21
-70.209613
  0
LINE
  8
別途部材
  6
CONTINUOUS
 10
-23.07714
 20
-64.87628
 11
-23.07714
 21
-70.209613
  0
LINE
  8
別途部材
  6
CONTINUOUS
 10
-24.07714
 20
-64.87628
 11
-24.07714
 21
-70.209613
  0
LINE
  8
別途部材
  6
CONTINUOUS
 10
-25.07714
 20
-63.87628
 11
-25.07714
 21
-70.209613
  0
LINE
  8
別途部材
  6
CONTINUOUS
 10
-22.07714
 20
-63.87628
 11
-22.07714
 21
-70.209613
  0
LINE
  8
別途部材
  6
CONTINUOUS
 10
-19.07714
 20
-64.87628
 11
-19.07714
 21
-70.209613
  0
LINE
  8
別途部材
  6
CONTINUOUS
 10
-17.07714
 20
-63.87628
 11
-17.07714
 21
-70.209613
  0
ENDBLK
  0
BLOCK
  2
*GRP_0019
 70
    65
 10
0.0
 20
0.0
  0
LINE
  8
補助線
  6
BYBLOCK
 62
    64
 10
-113.836015
 20
-75.132365
 11
-113.98494
 21
-75.20719
  0
LINE
  8
補助線
  6
BYBLOCK
 62
    64
 10
-113.94789
 20
-75.095313
 11
-113.873065
 21
-75.24424
  0
LINE
  8
補助線
  6
BYBLOCK
 62
    64
 10
-103.917535
 20
-70.149007
 11
-104.066463
 21
-70.223833
  0
LINE
  8
補助線
  6
BYBLOCK
 62
    64
 10
-104.029413
 20
-70.111955
 11
-103.954587
 21
-70.260883
  0
LINE
  8
補助線
  6
BYBLOCK
 62
    64
 10
-94.147985
 20
-65.240475
 11
-93.999057
 21
-65.16565
  0
LINE
  8
補助線
  6
BYBLOCK
 62
    64
 10
-94.110935
 20
-65.128597
 11
-94.03611
 21
-65.277525
  0
LINE
  8
型材断面
  6
CONTINUOUS
 10
-114.582455
 20
-74.5748
 11
-114.804757
 21
-75.246053
  0
LINE
  8
型材断面
  6
CONTINUOUS
 10
-114.804757
 20
-75.246053
 11
-114.505455
 21
-75.841758
  0
LINE
  8
型材断面
  6
CONTINUOUS
 10
-114.505455
 20
-75.841758
 11
-113.834202
 21
-76.06406
  0
LINE
  8
型材断面
  6
CONTINUOUS
 10
-94.149798
 20
-64.308782
 11
-93.478543
 21
-64.531085
  0
LINE
  8
型材断面
  6
CONTINUOUS
 10
-93.478543
 20
-64.531085
 11
-93.17924
 21
-65.12679
  0
LINE
  8
型材断面
  6
CONTINUOUS
 10
-93.17924
 20
-65.12679
 11
-93.401545
 21
-65.798042
  0
LINE
  8
型材断面
  6
CONTINUOUS
 10
-114.582455
 20
-74.5748
 11
-94.149798
 21
-64.308782
  0
LINE
  8
型材断面
  6
CONTINUOUS
 10
-113.834202
 20
-76.06406
 11
-93.401545
 21
-65.798042
  0
CIRCLE
  8
ボルト／ビス
  6
CONTINUOUS
 10
-113.910477
 20
-75.169777
 40
0.250185
  0
CIRCLE
  8
ボルト／ビス
  6
CONTINUOUS
 10
-113.910477
 20
-75.169777
 40
0.301025
  0
LINE
  8
ボルト／ビス
  6
CONTINUOUS
 62
    64
 10
-114.160243
 20
-75.155275
 11
-114.022797
 21
-74.946225
  0
LINE
  8
ボルト／ビス
  6
CONTINUOUS
 62
    64
 10
-113.773033
 20
-74.960728
 11
-114.022797
 21
-74.946225
  0
LINE
  8
ボルト／ビス
  6
CONTINUOUS
 62
    64
 10
-114.047923
 20
-75.378827
 11
-113.798157
 21
-75.39333
  0
LINE
  8
ボルト／ビス
  6
CONTINUOUS
 62
    64
 10
-113.660713
 20
-75.18428
 11
-113.798157
 21
-75.39333
  0
LINE
  8
ボルト／ビス
  6
CONTINUOUS
 62
    64
 10
-114.160243
 20
-75.155275
 11
-114.047923
 21
-75.378827
  0
LINE
  8
ボルト／ビス
  6
CONTINUOUS
 62
    64
 10
-113.773033
 20
-74.960728
 11
-113.660713
 21
-75.18428
  0
CIRCLE
  8
ボルト／ビス
  6
CONTINUOUS
 62
    64
 10
-113.910477
 20
-75.169777
 40
0.216668
  0
CIRCLE
  8
ボルト／ビス
  6
CONTINUOUS
 10
-103.992
 20
-70.18642
 40
0.250185
  0
CIRCLE
  8
ボルト／ビス
  6
CONTINUOUS
 10
-103.992
 20
-70.18642
 40
0.301025
  0
LINE
  8
ボルト／ビス
  6
CONTINUOUS
 62
    64
 10
-104.241765
 20
-70.171915
 11
-104.10432
 21
-69.962865
  0
LINE
  8
ボルト／ビス
  6
CONTINUOUS
 62
    64
 10
-103.854555
 20
-69.977368
 11
-104.10432
 21
-69.962865
  0
LINE
  8
ボルト／ビス
  6
CONTINUOUS
 62
    64
 10
-104.129445
 20
-70.39547
 11
-103.879677
 21
-70.409975
  0
LINE
  8
ボルト／ビス
  6
CONTINUOUS
 62
    64
 10
-103.742235
 20
-70.200925
 11
-103.879677
 21
-70.409975
  0
LINE
  8
ボルト／ビス
  6
CONTINUOUS
 62
    64
 10
-104.241765
 20
-70.171915
 11
-104.129445
 21
-70.39547
  0
LINE
  8
ボルト／ビス
  6
CONTINUOUS
 62
    64
 10
-103.854555
 20
-69.977368
 11
-103.742235
 21
-70.200925
  0
CIRCLE
  8
ボルト／ビス
  6
CONTINUOUS
 62
    64
 10
-103.992
 20
-70.18642
 40
0.216668
  0
CIRCLE
  8
ボルト／ビス
  6
CONTINUOUS
 10
-94.073523
 20
-65.203063
 40
0.250185
  0
CIRCLE
  8
ボルト／ビス
  6
CONTINUOUS
 10
-94.073523
 20
-65.203063
 40
0.301025
  0
LINE
  8
ボルト／ビス
  6
CONTINUOUS
 62
    64
 10
-93.936078
 20
-64.994013
 11
-94.185843
 21
-64.97951
  0
LINE
  8
ボルト／ビス
  6
CONTINUOUS
 62
    64
 10
-94.323287
 20
-65.18856
 11
-94.185843
 21
-64.97951
  0
LINE
  8
ボルト／ビス
  6
CONTINUOUS
 62
    64
 10
-93.823758
 20
-65.217568
 11
-93.9612
 21
-65.426615
  0
LINE
  8
ボルト／ビス
  6
CONTINUOUS
 62
    64
 10
-94.210967
 20
-65.412112
 11
-93.9612
 21
-65.426615
  0
LINE
  8
ボルト／ビス
  6
CONTINUOUS
 62
    64
 10
-93.936078
 20
-64.994013
 11
-93.823758
 21
-65.217568
  0
LINE
  8
ボルト／ビス
  6
CONTINUOUS
 62
    64
 10
-94.323287
 20
-65.18856
 11
-94.210967
 21
-65.412112
  0
CIRCLE
  8
ボルト／ビス
  6
CONTINUOUS
 62
    64
 10
-94.073523
 20
-65.203063
 40
0.216668
  0
ENDBLK
  0
BLOCK
  2
*GRP_0020
 70
    65
 10
0.0
 20
0.0
  0
LINE
  8
補助線
  6
BYBLOCK
 62
    64
 10
-94.147985
 20
-75.132365
 11
-93.99906
 21
-75.20719
  0
LINE
  8
補助線
  6
BYBLOCK
 62
    64
 10
-94.03611
 20
-75.095313
 11
-94.110935
 21
-75.24424
  0
LINE
  8
補助線
  6
BYBLOCK
 62
    64
 10
-104.066465
 20
-70.149007
 11
-103.917537
 21
-70.223833
  0
LINE
  8
補助線
  6
BYBLOCK
 62
    64
 10
-103.954587
 20
-70.111955
 11
-104.029413
 21
-70.260883
  0
LINE
  8
補助線
  6
BYBLOCK
 62
    64
 10
-113.836015
 20
-65.240475
 11
-113.984943
 21
-65.16565
  0
LINE
  8
補助線
  6
BYBLOCK
 62
    64
 10
-113.873065
 20
-65.128597
 11
-113.94789
 21
-65.277525
  0
LINE
  8
型材断面
  6
CONTINUOUS
 10
-93.401545
 20
-74.5748
 11
-93.179242
 21
-75.246053
  0
LINE
  8
型材断面
  6
CONTINUOUS
 10
-93.179242
 20
-75.246053
 11
-93.478545
 21
-75.841758
  0
LINE
  8
型材断面
  6
CONTINUOUS
 10
-93.478545
 20
-75.841758
 11
-94.149798
 21
-76.06406
  0
LINE
  8
型材断面
  6
CONTINUOUS
 10
-113.834202
 20
-64.308782
 11
-114.505458
 21
-64.531085
  0
LINE
  8
型材断面
  6
CONTINUOUS
 10
-114.505458
 20
-64.531085
 11
-114.80476
 21
-65.12679
  0
LINE
  8
型材断面
  6
CONTINUOUS
 10
-114.80476
 20
-65.12679
 11
-114.582455
 21
-65.798042
  0
LINE
  8
型材断面
  6
CONTINUOUS
 10
-93.401545
 20
-74.5748
 11
-113.834202
 21
-64.308782
  0
LINE
  8
型材断面
  6
CONTINUOUS
 10
-94.149798
 20
-76.06406
 11
-114.582455
 21
-65.798042
  0
CIRCLE
  8
ボルト／ビス
  6
CONTINUOUS
 10
-94.073523
 20
-75.169777
 40
0.250185
  0
CIRCLE
  8
ボルト／ビス
  6
CONTINUOUS
 10
-94.073523
 20
-75.169777
 40
0.301025
  0
LINE
  8
ボルト／ビス
  6
CONTINUOUS
 62
    64
 10
-93.823758
 20
-75.155275
 11
-93.961203
 21
-74.946225
  0
LINE
  8
ボルト／ビス
  6
CONTINUOUS
 62
    64
 10
-94.210967
 20
-74.960728
 11
-93.961203
 21
-74.946225
  0
LINE
  8
ボルト／ビス
  6
CONTINUOUS
 62
    64
 10
-93.936078
 20
-75.378827
 11
-94.185843
 21
-75.39333
  0
LINE
  8
ボルト／ビス
  6
CONTINUOUS
 62
    64
 10
-94.323287
 20
-75.18428
 11
-94.185843
 21
-75.39333
  0
LINE
  8
ボルト／ビス
  6
CONTINUOUS
 62
    64
 10
-93.823758
 20
-75.155275
 11
-93.936078
 21
-75.378827
  0
LINE
  8
ボルト／ビス
  6
CONTINUOUS
 62
    64
 10
-94.210967
 20
-74.960728
 11
-94.323287
 21
-75.18428
  0
CIRCLE
  8
ボルト／ビス
  6
CONTINUOUS
 62
    64
 10
-94.073523
 20
-75.169777
 40
0.216668
  0
CIRCLE
  8
ボルト／ビス
  6
CONTINUOUS
 10
-103.992
 20
-70.18642
 40
0.250185
  0
CIRCLE
  8
ボルト／ビス
  6
CONTINUOUS
 10
-103.992
 20
-70.18642
 40
0.301025
  0
LINE
  8
ボルト／ビス
  6
CONTINUOUS
 62
    64
 10
-103.742235
 20
-70.171915
 11
-103.87968
 21
-69.962865
  0
LINE
  8
ボルト／ビス
  6
CONTINUOUS
 62
    64
 10
-104.129445
 20
-69.977368
 11
-103.87968
 21
-69.962865
  0
LINE
  8
ボルト／ビス
  6
CONTINUOUS
 62
    64
 10
-103.854555
 20
-70.39547
 11
-104.104323
 21
-70.409975
  0
LINE
  8
ボルト／ビス
  6
CONTINUOUS
 62
    64
 10
-104.241765
 20
-70.200925
 11
-104.104323
 21
-70.409975
  0
LINE
  8
ボルト／ビス
  6
CONTINUOUS
 62
    64
 10
-103.742235
 20
-70.171915
 11
-103.854555
 21
-70.39547
  0
LINE
  8
ボルト／ビス
  6
CONTINUOUS
 62
    64
 10
-104.129445
 20
-69.977368
 11
-104.241765
 21
-70.200925
  0
CIRCLE
  8
ボルト／ビス
  6
CONTINUOUS
 62
    64
 10
-103.992
 20
-70.18642
 40
0.216668
  0
CIRCLE
  8
ボルト／ビス
  6
CONTINUOUS
 10
-113.910477
 20
-65.203063
 40
0.250185
  0
CIRCLE
  8
ボルト／ビス
  6
CONTINUOUS
 10
-113.910477
 20
-65.203063
 40
0.301025
  0
LINE
  8
ボルト／ビス
  6
CONTINUOUS
 62
    64
 10
-114.047923
 20
-64.994013
 11
-113.798157
 21
-64.97951
  0
LINE
  8
ボルト／ビス
  6
CONTINUOUS
 62
    64
 10
-113.660713
 20
-65.18856
 11
-113.798157
 21
-64.97951
  0
LINE
  8
ボルト／ビス
  6
CONTINUOUS
 62
    64
 10
-114.160243
 20
-65.217568
 11
-114.0228
 21
-65.426615
  0
LINE
  8
ボルト／ビス
  6
CONTINUOUS
 62
    64
 10
-113.773033
 20
-65.412112
 11
-114.0228
 21
-65.426615
  0
LINE
  8
ボルト／ビス
  6
CONTINUOUS
 62
    64
 10
-114.047923
 20
-64.994013
 11
-114.160243
 21
-65.217568
  0
LINE
  8
ボルト／ビス
  6
CONTINUOUS
 62
    64
 10
-113.660713
 20
-65.18856
 11
-113.773033
 21
-65.412112
  0
CIRCLE
  8
ボルト／ビス
  6
CONTINUOUS
 62
    64
 10
-113.910477
 20
-65.203063
 40
0.216668
  0
ENDBLK
  0
BLOCK
  2
*GRP_0021
 70
    65
 10
0.0
 20
0.0
  0
LINE
  8
補助線
  6
BYBLOCK
 62
    64
 10
62.68173
 20
-75.132365
 11
62.830655
 21
-75.20719
  0
LINE
  8
補助線
  6
BYBLOCK
 62
    64
 10
62.793605
 20
-75.095313
 11
62.71878
 21
-75.24424
  0
LINE
  8
補助線
  6
BYBLOCK
 62
    64
 10
52.76325
 20
-70.149007
 11
52.912177
 21
-70.223833
  0
LINE
  8
補助線
  6
BYBLOCK
 62
    64
 10
52.875128
 20
-70.111955
 11
52.800303
 21
-70.260883
  0
LINE
  8
補助線
  6
BYBLOCK
 62
    64
 10
42.9937
 20
-65.240475
 11
42.844772
 21
-65.16565
  0
LINE
  8
補助線
  6
BYBLOCK
 62
    64
 10
42.95665
 20
-65.128597
 11
42.881825
 21
-65.277525
  0
LINE
  8
型材断面
  6
CONTINUOUS
 10
63.42817
 20
-74.5748
 11
63.650473
 21
-75.246053
  0
LINE
  8
型材断面
  6
CONTINUOUS
 10
63.650473
 20
-75.246053
 11
63.35117
 21
-75.841758
  0
LINE
  8
型材断面
  6
CONTINUOUS
 10
63.35117
 20
-75.841758
 11
62.679918
 21
-76.06406
  0
LINE
  8
型材断面
  6
CONTINUOUS
 10
42.995513
 20
-64.308782
 11
42.324258
 21
-64.531085
  0
LINE
  8
型材断面
  6
CONTINUOUS
 10
42.324258
 20
-64.531085
 11
42.024955
 21
-65.12679
  0
LINE
  8
型材断面
  6
CONTINUOUS
 10
42.024955
 20
-65.12679
 11
42.24726
 21
-65.798042
  0
LINE
  8
型材断面
  6
CONTINUOUS
 10
63.42817
 20
-74.5748
 11
42.995513
 21
-64.308782
  0
LINE
  8
型材断面
  6
CONTINUOUS
 10
62.679918
 20
-76.06406
 11
42.24726
 21
-65.798042
  0
CIRCLE
  8
ボルト／ビス
  6
CONTINUOUS
 10
62.756192
 20
-75.169777
 40
0.250185
  0
CIRCLE
  8
ボルト／ビス
  6
CONTINUOUS
 10
62.756192
 20
-75.169777
 40
0.301025
  0
LINE
  8
ボルト／ビス
  6
CONTINUOUS
 62
    64
 10
63.005957
 20
-75.155275
 11
62.868512
 21
-74.946225
  0
LINE
  8
ボルト／ビス
  6
CONTINUOUS
 62
    64
 10
62.618748
 20
-74.960728
 11
62.868512
 21
-74.946225
  0
LINE
  8
ボルト／ビス
  6
CONTINUOUS
 62
    64
 10
62.893637
 20
-75.378827
 11
62.643873
 21
-75.39333
  0
LINE
  8
ボルト／ビス
  6
CONTINUOUS
 62
    64
 10
62.506428
 20
-75.18428
 11
62.643873
 21
-75.39333
  0
LINE
  8
ボルト／ビス
  6
CONTINUOUS
 62
    64
 10
63.005957
 20
-75.155275
 11
62.893637
 21
-75.378827
  0
LINE
  8
ボルト／ビス
  6
CONTINUOUS
 62
    64
 10
62.618748
 20
-74.960728
 11
62.506428
 21
-75.18428
  0
CIRCLE
  8
ボルト／ビス
  6
CONTINUOUS
 62
    64
 10
62.756192
 20
-75.169777
 40
0.216668
  0
CIRCLE
  8
ボルト／ビス
  6
CONTINUOUS
 10
52.837715
 20
-70.18642
 40
0.250185
  0
CIRCLE
  8
ボルト／ビス
  6
CONTINUOUS
 10
52.837715
 20
-70.18642
 40
0.301025
  0
LINE
  8
ボルト／ビス
  6
CONTINUOUS
 62
    64
 10
53.08748
 20
-70.171915
 11
52.950035
 21
-69.962865
  0
LINE
  8
ボルト／ビス
  6
CONTINUOUS
 62
    64
 10
52.70027
 20
-69.977368
 11
52.950035
 21
-69.962865
  0
LINE
  8
ボルト／ビス
  6
CONTINUOUS
 62
    64
 10
52.97516
 20
-70.39547
 11
52.725393
 21
-70.409975
  0
LINE
  8
ボルト／ビス
  6
CONTINUOUS
 62
    64
 10
52.58795
 20
-70.200925
 11
52.725393
 21
-70.409975
  0
LINE
  8
ボルト／ビス
  6
CONTINUOUS
 62
    64
 10
53.08748
 20
-70.171915
 11
52.97516
 21
-70.39547
  0
LINE
  8
ボルト／ビス
  6
CONTINUOUS
 62
    64
 10
52.70027
 20
-69.977368
 11
52.58795
 21
-70.200925
  0
CIRCLE
  8
ボルト／ビス
  6
CONTINUOUS
 62
    64
 10
52.837715
 20
-70.18642
 40
0.216668
  0
CIRCLE
  8
ボルト／ビス
  6
CONTINUOUS
 10
42.919238
 20
-65.203063
 40
0.250185
  0
CIRCLE
  8
ボルト／ビス
  6
CONTINUOUS
 10
42.919238
 20
-65.203063
 40
0.301025
  0
LINE
  8
ボルト／ビス
  6
CONTINUOUS
 62
    64
 10
42.781792
 20
-64.994013
 11
43.031558
 21
-64.97951
  0
LINE
  8
ボルト／ビス
  6
CONTINUOUS
 62
    64
 10
43.169002
 20
-65.18856
 11
43.031558
 21
-64.97951
  0
LINE
  8
ボルト／ビス
  6
CONTINUOUS
 62
    64
 10
42.669472
 20
-65.217568
 11
42.806915
 21
-65.426615
  0
LINE
  8
ボルト／ビス
  6
CONTINUOUS
 62
    64
 10
43.056682
 20
-65.412112
 11
42.806915
 21
-65.426615
  0
LINE
  8
ボルト／ビス
  6
CONTINUOUS
 62
    64
 10
42.781792
 20
-64.994013
 11
42.669472
 21
-65.217568
  0
LINE
  8
ボルト／ビス
  6
CONTINUOUS
 62
    64
 10
43.169002
 20
-65.18856
 11
43.056682
 21
-65.412112
  0
CIRCLE
  8
ボルト／ビス
  6
CONTINUOUS
 62
    64
 10
42.919238
 20
-65.203063
 40
0.216668
  0
ENDBLK
  0
BLOCK
  2
*GRP_0022
 70
    65
 10
0.0
 20
0.0
  0
LINE
  8
補助線
  6
BYBLOCK
 62
    64
 10
42.9937
 20
-75.132365
 11
42.844775
 21
-75.20719
  0
LINE
  8
補助線
  6
BYBLOCK
 62
    64
 10
42.881825
 20
-75.095313
 11
42.95665
 21
-75.24424
  0
LINE
  8
補助線
  6
BYBLOCK
 62
    64
 10
52.91218
 20
-70.149007
 11
52.763253
 21
-70.223833
  0
LINE
  8
補助線
  6
BYBLOCK
 62
    64
 10
52.800303
 20
-70.111955
 11
52.875128
 21
-70.260883
  0
LINE
  8
補助線
  6
BYBLOCK
 62
    64
 10
62.68173
 20
-65.240475
 11
62.830658
 21
-65.16565
  0
LINE
  8
補助線
  6
BYBLOCK
 62
    64
 10
62.71878
 20
-65.128597
 11
62.793605
 21
-65.277525
  0
LINE
  8
型材断面
  6
CONTINUOUS
 10
42.24726
 20
-74.5748
 11
42.024957
 21
-75.246053
  0
LINE
  8
型材断面
  6
CONTINUOUS
 10
42.024957
 20
-75.246053
 11
42.32426
 21
-75.841758
  0
LINE
  8
型材断面
  6
CONTINUOUS
 10
42.32426
 20
-75.841758
 11
42.995513
 21
-76.06406
  0
LINE
  8
型材断面
  6
CONTINUOUS
 10
62.679918
 20
-64.308782
 11
63.351173
 21
-64.531085
  0
LINE
  8
型材断面
  6
CONTINUOUS
 10
63.351173
 20
-64.531085
 11
63.650475
 21
-65.12679
  0
LINE
  8
型材断面
  6
CONTINUOUS
 10
63.650475
 20
-65.12679
 11
63.42817
 21
-65.798042
  0
LINE
  8
型材断面
  6
CONTINUOUS
 10
42.24726
 20
-74.5748
 11
62.679918
 21
-64.308782
  0
LINE
  8
型材断面
  6
CONTINUOUS
 10
42.995513
 20
-76.06406
 11
63.42817
 21
-65.798042
  0
CIRCLE
  8
ボルト／ビス
  6
CONTINUOUS
 10
42.919238
 20
-75.169777
 40
0.250185
  0
CIRCLE
  8
ボルト／ビス
  6
CONTINUOUS
 10
42.919238
 20
-75.169777
 40
0.301025
  0
LINE
  8
ボルト／ビス
  6
CONTINUOUS
 62
    64
 10
42.669472
 20
-75.155275
 11
42.806918
 21
-74.946225
  0
LINE
  8
ボルト／ビス
  6
CONTINUOUS
 62
    64
 10
43.056682
 20
-74.960728
 11
42.806918
 21
-74.946225
  0
LINE
  8
ボルト／ビス
  6
CONTINUOUS
 62
    64
 10
42.781792
 20
-75.378827
 11
43.031558
 21
-75.39333
  0
LINE
  8
ボルト／ビス
  6
CONTINUOUS
 62
    64
 10
43.169002
 20
-75.18428
 11
43.031558
 21
-75.39333
  0
LINE
  8
ボルト／ビス
  6
CONTINUOUS
 62
    64
 10
42.669472
 20
-75.155275
 11
42.781792
 21
-75.378827
  0
LINE
  8
ボルト／ビス
  6
CONTINUOUS
 62
    64
 10
43.056682
 20
-74.960728
 11
43.169002
 21
-75.18428
  0
CIRCLE
  8
ボルト／ビス
  6
CONTINUOUS
 62
    64
 10
42.919238
 20
-75.169777
 40
0.216668
  0
CIRCLE
  8
ボルト／ビス
  6
CONTINUOUS
 10
52.837715
 20
-70.18642
 40
0.250185
  0
CIRCLE
  8
ボルト／ビス
  6
CONTINUOUS
 10
52.837715
 20
-70.18642
 40
0.301025
  0
LINE
  8
ボルト／ビス
  6
CONTINUOUS
 62
    64
 10
52.58795
 20
-70.171915
 11
52.725395
 21
-69.962865
  0
LINE
  8
ボルト／ビス
  6
CONTINUOUS
 62
    64
 10
52.97516
 20
-69.977368
 11
52.725395
 21
-69.962865
  0
LINE
  8
ボルト／ビス
  6
CONTINUOUS
 62
    64
 10
52.70027
 20
-70.39547
 11
52.950037
 21
-70.409975
  0
LINE
  8
ボルト／ビス
  6
CONTINUOUS
 62
    64
 10
53.08748
 20
-70.200925
 11
52.950037
 21
-70.409975
  0
LINE
  8
ボルト／ビス
  6
CONTINUOUS
 62
    64
 10
52.58795
 20
-70.171915
 11
52.70027
 21
-70.39547
  0
LINE
  8
ボルト／ビス
  6
CONTINUOUS
 62
    64
 10
52.97516
 20
-69.977368
 11
53.08748
 21
-70.200925
  0
CIRCLE
  8
ボルト／ビス
  6
CONTINUOUS
 62
    64
 10
52.837715
 20
-70.18642
 40
0.216668
  0
CIRCLE
  8
ボルト／ビス
  6
CONTINUOUS
 10
62.756192
 20
-65.203063
 40
0.250185
  0
CIRCLE
  8
ボルト／ビス
  6
CONTINUOUS
 10
62.756192
 20
-65.203063
 40
0.301025
  0
LINE
  8
ボルト／ビス
  6
CONTINUOUS
 62
    64
 10
62.893637
 20
-64.994013
 11
62.643873
 21
-64.97951
  0
LINE
  8
ボルト／ビス
  6
CONTINUOUS
 62
    64
 10
62.506428
 20
-65.18856
 11
62.643873
 21
-64.97951
  0
LINE
  8
ボルト／ビス
  6
CONTINUOUS
 62
    64
 10
63.005957
 20
-65.217568
 11
62.868515
 21
-65.426615
  0
LINE
  8
ボルト／ビス
  6
CONTINUOUS
 62
    64
 10
62.618748
 20
-65.412112
 11
62.868515
 21
-65.426615
  0
LINE
  8
ボルト／ビス
  6
CONTINUOUS
 62
    64
 10
62.893637
 20
-64.994013
 11
63.005957
 21
-65.217568
  0
LINE
  8
ボルト／ビス
  6
CONTINUOUS
 62
    64
 10
62.506428
 20
-65.18856
 11
62.618748
 21
-65.412112
  0
CIRCLE
  8
ボルト／ビス
  6
CONTINUOUS
 62
    64
 10
62.756192
 20
-65.203063
 40
0.216668
  0
ENDBLK
  0
BLOCK
  2
*GRP_0023
 70
    65
 10
0.0
 20
0.0
  0
LINE
  8
補助線
  6
BYBLOCK
 62
    64
 10
-15.733127
 20
-75.132365
 11
-15.584202
 21
-75.20719
  0
LINE
  8
補助線
  6
BYBLOCK
 62
    64
 10
-15.621252
 20
-75.095313
 11
-15.696077
 21
-75.24424
  0
LINE
  8
補助線
  6
BYBLOCK
 62
    64
 10
-25.651607
 20
-70.149007
 11
-25.50268
 21
-70.223833
  0
LINE
  8
補助線
  6
BYBLOCK
 62
    64
 10
-25.53973
 20
-70.111955
 11
-25.614555
 21
-70.260883
  0
LINE
  8
補助線
  6
BYBLOCK
 62
    64
 10
-35.421158
 20
-65.240475
 11
-35.570085
 21
-65.16565
  0
LINE
  8
補助線
  6
BYBLOCK
 62
    64
 10
-35.458208
 20
-65.128597
 11
-35.533032
 21
-65.277525
  0
LINE
  8
型材断面
  6
CONTINUOUS
 10
-14.986687
 20
-74.5748
 11
-14.764385
 21
-75.246053
  0
LINE
  8
型材断面
  6
CONTINUOUS
 10
-14.764385
 20
-75.246053
 11
-15.063688
 21
-75.841758
  0
LINE
  8
型材断面
  6
CONTINUOUS
 10
-15.063688
 20
-75.841758
 11
-15.73494
 21
-76.06406
  0
LINE
  8
型材断面
  6
CONTINUOUS
 10
-35.419345
 20
-64.308782
 11
-36.0906
 21
-64.531085
  0
LINE
  8
型材断面
  6
CONTINUOUS
 10
-36.0906
 20
-64.531085
 11
-36.389902
 21
-65.12679
  0
LINE
  8
型材断面
  6
CONTINUOUS
 10
-36.389902
 20
-65.12679
 11
-36.167598
 21
-65.798042
  0
LINE
  8
型材断面
  6
CONTINUOUS
 10
-14.986687
 20
-74.5748
 11
-35.419345
 21
-64.308782
  0
LINE
  8
型材断面
  6
CONTINUOUS
 10
-15.73494
 20
-76.06406
 11
-36.167598
 21
-65.798042
  0
CIRCLE
  8
ボルト／ビス
  6
CONTINUOUS
 10
-15.658665
 20
-75.169777
 40
0.250185
  0
CIRCLE
  8
ボルト／ビス
  6
CONTINUOUS
 10
-15.658665
 20
-75.169777
 40
0.301025
  0
LINE
  8
ボルト／ビス
  6
CONTINUOUS
 62
    64
 10
-15.4089
 20
-75.155275
 11
-15.546345
 21
-74.946225
  0
LINE
  8
ボルト／ビス
  6
CONTINUOUS
 62
    64
 10
-15.79611
 20
-74.960728
 11
-15.546345
 21
-74.946225
  0
LINE
  8
ボルト／ビス
  6
CONTINUOUS
 62
    64
 10
-15.52122
 20
-75.378827
 11
-15.770985
 21
-75.39333
  0
LINE
  8
ボルト／ビス
  6
CONTINUOUS
 62
    64
 10
-15.90843
 20
-75.18428
 11
-15.770985
 21
-75.39333
  0
LINE
  8
ボルト／ビス
  6
CONTINUOUS
 62
    64
 10
-15.4089
 20
-75.155275
 11
-15.52122
 21
-75.378827
  0
LINE
  8
ボルト／ビス
  6
CONTINUOUS
 62
    64
 10
-15.79611
 20
-74.960728
 11
-15.90843
 21
-75.18428
  0
CIRCLE
  8
ボルト／ビス
  6
CONTINUOUS
 62
    64
 10
-15.658665
 20
-75.169777
 40
0.216668
  0
CIRCLE
  8
ボルト／ビス
  6
CONTINUOUS
 10
-25.577142
 20
-70.18642
 40
0.250185
  0
CIRCLE
  8
ボルト／ビス
  6
CONTINUOUS
 10
-25.577142
 20
-70.18642
 40
0.301025
  0
LINE
  8
ボルト／ビス
  6
CONTINUOUS
 62
    64
 10
-25.327377
 20
-70.171915
 11
-25.464822
 21
-69.962865
  0
LINE
  8
ボルト／ビス
  6
CONTINUOUS
 62
    64
 10
-25.714588
 20
-69.977368
 11
-25.464822
 21
-69.962865
  0
LINE
  8
ボルト／ビス
  6
CONTINUOUS
 62
    64
 10
-25.439697
 20
-70.39547
 11
-25.689465
 21
-70.409975
  0
LINE
  8
ボルト／ビス
  6
CONTINUOUS
 62
    64
 10
-25.826908
 20
-70.200925
 11
-25.689465
 21
-70.409975
  0
LINE
  8
ボルト／ビス
  6
CONTINUOUS
 62
    64
 10
-25.327377
 20
-70.171915
 11
-25.439697
 21
-70.39547
  0
LINE
  8
ボルト／ビス
  6
CONTINUOUS
 62
    64
 10
-25.714588
 20
-69.977368
 11
-25.826908
 21
-70.200925
  0
CIRCLE
  8
ボルト／ビス
  6
CONTINUOUS
 62
    64
 10
-25.577142
 20
-70.18642
 40
0.216668
  0
CIRCLE
  8
ボルト／ビス
  6
CONTINUOUS
 10
-35.49562
 20
-65.203063
 40
0.250185
  0
CIRCLE
  8
ボルト／ビス
  6
CONTINUOUS
 10
-35.49562
 20
-65.203063
 40
0.301025
  0
LINE
  8
ボルト／ビス
  6
CONTINUOUS
 62
    64
 10
-35.633065
 20
-64.994013
 11
-35.3833
 21
-64.97951
  0
LINE
  8
ボルト／ビス
  6
CONTINUOUS
 62
    64
 10
-35.245855
 20
-65.18856
 11
-35.3833
 21
-64.97951
  0
LINE
  8
ボルト／ビス
  6
CONTINUOUS
 62
    64
 10
-35.745385
 20
-65.217568
 11
-35.607942
 21
-65.426615
  0
LINE
  8
ボルト／ビス
  6
CONTINUOUS
 62
    64
 10
-35.358175
 20
-65.412112
 11
-35.607942
 21
-65.426615
  0
LINE
  8
ボルト／ビス
  6
CONTINUOUS
 62
    64
 10
-35.633065
 20
-64.994013
 11
-35.745385
 21
-65.217568
  0
LINE
  8
ボルト／ビス
  6
CONTINUOUS
 62
    64
 10
-35.245855
 20
-65.18856
 11
-35.358175
 21
-65.412112
  0
CIRCLE
  8
ボルト／ビス
  6
CONTINUOUS
 62
    64
 10
-35.49562
 20
-65.203063
 40
0.216668
  0
ENDBLK
  0
BLOCK
  2
*GRP_0024
 70
    65
 10
0.0
 20
0.0
  0
LINE
  8
補助線
  6
BYBLOCK
 62
    64
 10
-35.421158
 20
-75.132365
 11
-35.570082
 21
-75.20719
  0
LINE
  8
補助線
  6
BYBLOCK
 62
    64
 10
-35.533032
 20
-75.095313
 11
-35.458208
 21
-75.24424
  0
LINE
  8
補助線
  6
BYBLOCK
 62
    64
 10
-25.502678
 20
-70.149007
 11
-25.651605
 21
-70.223833
  0
LINE
  8
補助線
  6
BYBLOCK
 62
    64
 10
-25.614555
 20
-70.111955
 11
-25.53973
 21
-70.260883
  0
LINE
  8
補助線
  6
BYBLOCK
 62
    64
 10
-15.733127
 20
-65.240475
 11
-15.5842
 21
-65.16565
  0
LINE
  8
補助線
  6
BYBLOCK
 62
    64
 10
-15.696077
 20
-65.128597
 11
-15.621252
 21
-65.277525
  0
LINE
  8
型材断面
  6
CONTINUOUS
 10
-36.167598
 20
-74.5748
 11
-36.3899
 21
-75.246053
  0
LINE
  8
型材断面
  6
CONTINUOUS
 10
-36.3899
 20
-75.246053
 11
-36.090597
 21
-75.841758
  0
LINE
  8
型材断面
  6
CONTINUOUS
 10
-36.090597
 20
-75.841758
 11
-35.419345
 21
-76.06406
  0
LINE
  8
型材断面
  6
CONTINUOUS
 10
-15.73494
 20
-64.308782
 11
-15.063685
 21
-64.531085
  0
LINE
  8
型材断面
  6
CONTINUOUS
 10
-15.063685
 20
-64.531085
 11
-14.764383
 21
-65.12679
  0
LINE
  8
型材断面
  6
CONTINUOUS
 10
-14.764383
 20
-65.12679
 11
-14.986687
 21
-65.798042
  0
LINE
  8
型材断面
  6
CONTINUOUS
 10
-36.167598
 20
-74.5748
 11
-15.73494
 21
-64.308782
  0
LINE
  8
型材断面
  6
CONTINUOUS
 10
-35.419345
 20
-76.06406
 11
-14.986687
 21
-65.798042
  0
CIRCLE
  8
ボルト／ビス
  6
CONTINUOUS
 10
-35.49562
 20
-75.169777
 40
0.250185
  0
CIRCLE
  8
ボルト／ビス
  6
CONTINUOUS
 10
-35.49562
 20
-75.169777
 40
0.301025
  0
LINE
  8
ボルト／ビス
  6
CONTINUOUS
 62
    64
 10
-35.745385
 20
-75.155275
 11
-35.60794
 21
-74.946225
  0
LINE
  8
ボルト／ビス
  6
CONTINUOUS
 62
    64
 10
-35.358175
 20
-74.960728
 11
-35.60794
 21
-74.946225
  0
LINE
  8
ボルト／ビス
  6
CONTINUOUS
 62
    64
 10
-35.633065
 20
-75.378827
 11
-35.3833
 21
-75.39333
  0
LINE
  8
ボルト／ビス
  6
CONTINUOUS
 62
    64
 10
-35.245855
 20
-75.18428
 11
-35.3833
 21
-75.39333
  0
LINE
  8
ボルト／ビス
  6
CONTINUOUS
 62
    64
 10
-35.745385
 20
-75.155275
 11
-35.633065
 21
-75.378827
  0
LINE
  8
ボルト／ビス
  6
CONTINUOUS
 62
    64
 10
-35.358175
 20
-74.960728
 11
-35.245855
 21
-75.18428
  0
CIRCLE
  8
ボルト／ビス
  6
CONTINUOUS
 62
    64
 10
-35.49562
 20
-75.169777
 40
0.216668
  0
CIRCLE
  8
ボルト／ビス
  6
CONTINUOUS
 10
-25.577142
 20
-70.18642
 40
0.250185
  0
CIRCLE
  8
ボルト／ビス
  6
CONTINUOUS
 10
-25.577142
 20
-70.18642
 40
0.301025
  0
LINE
  8
ボルト／ビス
  6
CONTINUOUS
 62
    64
 10
-25.826908
 20
-70.171915
 11
-25.689462
 21
-69.962865
  0
LINE
  8
ボルト／ビス
  6
CONTINUOUS
 62
    64
 10
-25.439697
 20
-69.977368
 11
-25.689462
 21
-69.962865
  0
LINE
  8
ボルト／ビス
  6
CONTINUOUS
 62
    64
 10
-25.714588
 20
-70.39547
 11
-25.46482
 21
-70.409975
  0
LINE
  8
ボルト／ビス
  6
CONTINUOUS
 62
    64
 10
-25.327377
 20
-70.200925
 11
-25.46482
 21
-70.409975
  0
LINE
  8
ボルト／ビス
  6
CONTINUOUS
 62
    64
 10
-25.826908
 20
-70.171915
 11
-25.714588
 21
-70.39547
  0
LINE
  8
ボルト／ビス
  6
CONTINUOUS
 62
    64
 10
-25.439697
 20
-69.977368
 11
-25.327377
 21
-70.200925
  0
CIRCLE
  8
ボルト／ビス
  6
CONTINUOUS
 62
    64
 10
-25.577142
 20
-70.18642
 40
0.216668
  0
CIRCLE
  8
ボルト／ビス
  6
CONTINUOUS
 10
-15.658665
 20
-65.203063
 40
0.250185
  0
CIRCLE
  8
ボルト／ビス
  6
CONTINUOUS
 10
-15.658665
 20
-65.203063
 40
0.301025
  0
LINE
  8
ボルト／ビス
  6
CONTINUOUS
 62
    64
 10
-15.52122
 20
-64.994013
 11
-15.770985
 21
-64.97951
  0
LINE
  8
ボルト／ビス
  6
CONTINUOUS
 62
    64
 10
-15.90843
 20
-65.18856
 11
-15.770985
 21
-64.97951
  0
LINE
  8
ボルト／ビス
  6
CONTINUOUS
 62
    64
 10
-15.4089
 20
-65.217568
 11
-15.546342
 21
-65.426615
  0
LINE
  8
ボルト／ビス
  6
CONTINUOUS
 62
    64
 10
-15.79611
 20
-65.412112
 11
-15.546342
 21
-65.426615
  0
LINE
  8
ボルト／ビス
  6
CONTINUOUS
 62
    64
 10
-15.52122
 20
-64.994013
 11
-15.4089
 21
-65.217568
  0
LINE
  8
ボルト／ビス
  6
CONTINUOUS
 62
    64
 10
-15.90843
 20
-65.18856
 11
-15.79611
 21
-65.412112
  0
CIRCLE
  8
ボルト／ビス
  6
CONTINUOUS
 62
    64
 10
-15.658665
 20
-65.203063
 40
0.216668
  0
ENDBLK
  0
BLOCK
  2
*DIM_0025
 70
    65
 10
0.0
 20
0.0
  0
LINE
  8
寸法
  6
BYBLOCK
 62
     0
 10
-120.243808
 20
39.4807
 11
-133.536645
 21
39.4807
  0
LINE
  8
寸法
  6
BYBLOCK
 62
     0
 10
-120.243808
 20
26.147365
 11
-133.536645
 21
26.147365
  0
LINE
  8
寸法
  6
BYBLOCK
 62
     0
 10
-133.536645
 20
39.4807
 11
-133.536645
 21
26.147365
  0
POINT
  8
寸法
 62
     0
 10
-133.536645
 20
39.4807
  0
POINT
  8
寸法
 62
     0
 10
-133.536645
 20
26.147365
  0
TEXT
  7
TextStyle03
  8
寸法
  6
CONTINUOUS
 62
     0
 10
-133.875
 20
30.3625
  1
400
 40
3.0
 50
90.0
 72
     5
 11
-133.875
 21
35.2375
  0
ENDBLK
  0
BLOCK
  2
*DIM_0026
 70
    65
 10
0.0
 20
0.0
  0
LINE
  8
寸法
  6
BYBLOCK
 62
     0
 10
-105.577142
 20
45.814033
 11
-105.577142
 21
74.922105
  0
LINE
  8
寸法
  6
BYBLOCK
 62
     0
 10
-78.910475
 20
45.814033
 11
-78.910475
 21
74.922105
  0
LINE
  8
寸法
  6
BYBLOCK
 62
     0
 10
-105.577142
 20
74.922105
 11
-78.910475
 21
74.922105
  0
POINT
  8
寸法
 62
     0
 10
-105.577142
 20
74.922105
  0
POINT
  8
寸法
 62
     0
 10
-78.910475
 20
74.922105
  0
TEXT
  7
TextStyle03
  8
寸法
  6
CONTINUOUS
 62
     0
 10
-94.6875
 20
75.3
  1
800
 40
3.0
 72
     5
 11
-89.8125
 21
75.3
  0
ENDBLK
  0
BLOCK
  2
*DIM_0027
 70
    65
 10
0.0
 20
0.0
  0
LINE
  8
寸法
  6
BYBLOCK
 62
     0
 10
-52.24381
 20
45.814033
 11
-52.24381
 21
74.922105
  0
LINE
  8
寸法
  6
BYBLOCK
 62
     0
 10
-78.910475
 20
74.922105
 11
-52.24381
 21
74.922105
  0
POINT
  8
寸法
 62
     0
 10
-52.24381
 20
74.922105
  0
TEXT
  7
TextStyle03
  8
寸法
  6
CONTINUOUS
 62
     0
 10
-68.0125
 20
75.3
  1
800
 40
3.0
 72
     5
 11
-63.1375
 21
75.3
  0
ENDBLK
  0
BLOCK
  2
*DIM_0028
 70
    65
 10
0.0
 20
0.0
  0
LINE
  8
寸法
  6
BYBLOCK
 62
     0
 10
-25.577142
 20
45.814033
 11
-25.577142
 21
74.922105
  0
LINE
  8
寸法
  6
BYBLOCK
 62
     0
 10
-52.24381
 20
74.922105
 11
-25.577142
 21
74.922105
  0
POINT
  8
寸法
 62
     0
 10
-25.577142
 20
74.922105
  0
TEXT
  7
TextStyle03
  8
寸法
  6
CONTINUOUS
 62
     0
 10
-41.3375
 20
75.3
  1
800
 40
3.0
 72
     5
 11
-36.4625
 21
75.3
  0
ENDBLK
  0
BLOCK
  2
*DIM_0029
 70
    65
 10
0.0
 20
0.0
  0
LINE
  8
寸法
  6
BYBLOCK
 62
     0
 10
1.089525
 20
45.814033
 11
1.089525
 21
74.922105
  0
LINE
  8
寸法
  6
BYBLOCK
 62
     0
 10
-25.577142
 20
74.922105
 11
1.089525
 21
74.922105
  0
POINT
  8
寸法
 62
     0
 10
1.089525
 20
74.922105
  0
TEXT
  7
TextStyle03
  8
寸法
  6
CONTINUOUS
 62
     0
 10
-14.6875
 20
75.3
  1
800
 40
3.0
 72
     5
 11
-9.8125
 21
75.3
  0
ENDBLK
  0
BLOCK
  2
*DIM_0030
 70
    65
 10
0.0
 20
0.0
  0
LINE
  8
寸法
  6
BYBLOCK
 62
     0
 10
27.75619
 20
45.814033
 11
27.75619
 21
74.922105
  0
LINE
  8
寸法
  6
BYBLOCK
 62
     0
 10
1.089525
 20
74.922105
 11
27.75619
 21
74.922105
  0
POINT
  8
寸法
 62
     0
 10
27.75619
 20
74.922105
  0
TEXT
  7
TextStyle03
  8
寸法
  6
CONTINUOUS
 62
     0
 10
11.9875
 20
75.3
  1
800
 40
3.0
 72
     5
 11
16.8625
 21
75.3
  0
ENDBLK
  0
BLOCK
  2
*DIM_0031
 70
    65
 10
0.0
 20
0.0
  0
LINE
  8
寸法
  6
BYBLOCK
 62
     0
 10
54.422857
 20
45.814033
 11
54.422857
 21
74.922105
  0
LINE
  8
寸法
  6
BYBLOCK
 62
     0
 10
27.75619
 20
74.922105
 11
54.422857
 21
74.922105
  0
POINT
  8
寸法
 62
     0
 10
54.422857
 20
74.922105
  0
TEXT
  7
TextStyle03
  8
寸法
  6
CONTINUOUS
 62
     0
 10
38.6625
 20
75.3
  1
800
 40
3.0
 72
     5
 11
43.5375
 21
75.3
  0
ENDBLK
  0
BLOCK
  2
*DIM_0032
 70
    65
 10
0.0
 20
0.0
  0
LINE
  8
寸法
  6
BYBLOCK
 62
     0
 10
59.089525
 20
-57.542947
 11
82.059175
 21
-57.542947
  0
LINE
  8
寸法
  6
BYBLOCK
 62
     0
 10
82.059175
 20
-64.87628
 11
82.059175
 21
-57.542947
  0
POINT
  8
寸法
 62
     0
 10
82.059175
 20
-64.87628
  0
POINT
  8
寸法
 62
     0
 10
82.059175
 20
-57.542947
  0
TEXT
  7
TextStyle03
  8
寸法
  6
CONTINUOUS
 62
     0
 10
87.95
 20
-70.21875
  1
上昇210以上
 40
3.0
 50
90.0
 72
     5
 11
87.95
 21
-52.03125
  0
ENDBLK
  0
BLOCK
  2
*GRP_0033
 70
    65
 10
0.0
 20
0.0
  0
LINE
  8
ボルト／ビス
  6
CONTINUOUS
 10
155.62279
 20
22.147365
 11
155.156125
 21
22.147365
  0
LINE
  8
ボルト／ビス
  6
CONTINUOUS
 10
155.62279
 20
21.7807
 11
155.556125
 21
21.7807
  0
LINE
  8
ボルト／ビス
  6
CONTINUOUS
 10
155.556125
 20
21.7807
 11
155.556125
 21
22.514033
  0
LINE
  8
ボルト／ビス
  6
CONTINUOUS
 10
155.556125
 20
22.514033
 11
155.62279
 21
22.514033
  0
LINE
  8
ボルト／ビス
  6
CONTINUOUS
 10
155.62279
 20
21.7807
 11
155.62279
 21
22.514033
  0
LINE
  8
ボルト／ビス
  6
CONTINUOUS
 10
155.52279
 20
21.847365
 11
155.556125
 21
21.847365
  0
LINE
  8
ボルト／ビス
  6
CONTINUOUS
 10
155.52279
 20
21.847365
 11
155.52279
 21
22.447365
  0
LINE
  8
ボルト／ビス
  6
CONTINUOUS
 10
155.52279
 20
22.447365
 11
155.556125
 21
22.447365
  0
LINE
  8
ボルト／ビス
  6
CONTINUOUS
 62
    64
 10
155.32279
 20
21.98699
 11
155.334465
 21
21.954915
  0
ARC
  8
ボルト／ビス
  6
CONTINUOUS
 62
    64
 10
155.427767
 20
22.003031
 40
0.104978
 50
152.721967
 51
180.0
  0
ARC
  8
ボルト／ビス
  6
CONTINUOUS
 62
    64
 10
155.725191
 20
22.147368
 40
0.402402
 50
166.165002
 51
193.834985
  0
LINE
  8
ボルト／ビス
  6
CONTINUOUS
 62
    64
 10
155.32279
 20
22.30774
 11
155.334465
 21
22.339815
  0
ARC
  8
ボルト／ビス
  6
CONTINUOUS
 62
    64
 10
155.427767
 20
22.291706
 40
0.104978
 50
180.0
 51
207.278033
  0
LINE
  8
ボルト／ビス
  6
CONTINUOUS
 62
    64
 10
155.32279
 20
21.98699
 11
155.32279
 21
22.30774
  0
LINE
  8
ボルト／ビス
  6
CONTINUOUS
 62
    64
 10
155.334465
 20
22.339815
 11
155.456125
 21
22.339815
  0
LINE
  8
ボルト／ビス
  6
CONTINUOUS
 62
    64
 10
155.334465
 20
22.24359
 11
155.456125
 21
22.24359
  0
LINE
  8
ボルト／ビス
  6
CONTINUOUS
 62
    64
 10
155.334465
 20
21.954915
 11
155.456125
 21
21.954915
  0
LINE
  8
ボルト／ビス
  6
CONTINUOUS
 62
    64
 10
155.334465
 20
22.05114
 11
155.456125
 21
22.05114
  0
LINE
  8
ボルト／ビス
  6
CONTINUOUS
 10
155.456125
 20
21.954915
 11
155.456125
 21
22.339815
  0
LINE
  8
ボルト／ビス
  6
CONTINUOUS
 10
155.456125
 20
21.947365
 11
155.52279
 21
21.947365
  0
LINE
  8
ボルト／ビス
  6
CONTINUOUS
 10
155.456125
 20
21.947365
 11
155.456125
 21
22.347365
  0
LINE
  8
ボルト／ビス
  6
CONTINUOUS
 10
155.456125
 20
22.347365
 11
155.52279
 21
22.347365
  0
ENDBLK
  0
BLOCK
  2
*GRP_0034
 70
    65
 10
0.0
 20
0.0
  0
LINE
  8
ボルト／ビス
  6
CONTINUOUS
 10
155.62279
 20
43.4807
 11
155.156125
 21
43.4807
  0
LINE
  8
ボルト／ビス
  6
CONTINUOUS
 10
155.62279
 20
43.114035
 11
155.556125
 21
43.114035
  0
LINE
  8
ボルト／ビス
  6
CONTINUOUS
 10
155.556125
 20
43.114035
 11
155.556125
 21
43.847367
  0
LINE
  8
ボルト／ビス
  6
CONTINUOUS
 10
155.556125
 20
43.847367
 11
155.62279
 21
43.847367
  0
LINE
  8
ボルト／ビス
  6
CONTINUOUS
 10
155.62279
 20
43.114035
 11
155.62279
 21
43.847367
  0
LINE
  8
ボルト／ビス
  6
CONTINUOUS
 10
155.52279
 20
43.1807
 11
155.556125
 21
43.1807
  0
LINE
  8
ボルト／ビス
  6
CONTINUOUS
 10
155.52279
 20
43.1807
 11
155.52279
 21
43.7807
  0
LINE
  8
ボルト／ビス
  6
CONTINUOUS
 10
155.52279
 20
43.7807
 11
155.556125
 21
43.7807
  0
LINE
  8
ボルト／ビス
  6
CONTINUOUS
 62
    64
 10
155.32279
 20
43.320325
 11
155.334465
 21
43.28825
  0
ARC
  8
ボルト／ビス
  6
CONTINUOUS
 62
    64
 10
155.427767
 20
43.336366
 40
0.104978
 50
152.721967
 51
180.0
  0
ARC
  8
ボルト／ビス
  6
CONTINUOUS
 62
    64
 10
155.725191
 20
43.480703
 40
0.402402
 50
166.165002
 51
193.834985
  0
LINE
  8
ボルト／ビス
  6
CONTINUOUS
 62
    64
 10
155.32279
 20
43.641075
 11
155.334465
 21
43.67315
  0
ARC
  8
ボルト／ビス
  6
CONTINUOUS
 62
    64
 10
155.427767
 20
43.625041
 40
0.104978
 50
180.0
 51
207.278033
  0
LINE
  8
ボルト／ビス
  6
CONTINUOUS
 62
    64
 10
155.32279
 20
43.320325
 11
155.32279
 21
43.641075
  0
LINE
  8
ボルト／ビス
  6
CONTINUOUS
 62
    64
 10
155.334465
 20
43.67315
 11
155.456125
 21
43.67315
  0
LINE
  8
ボルト／ビス
  6
CONTINUOUS
 62
    64
 10
155.334465
 20
43.576925
 11
155.456125
 21
43.576925
  0
LINE
  8
ボルト／ビス
  6
CONTINUOUS
 62
    64
 10
155.334465
 20
43.28825
 11
155.456125
 21
43.28825
  0
LINE
  8
ボルト／ビス
  6
CONTINUOUS
 62
    64
 10
155.334465
 20
43.384475
 11
155.456125
 21
43.384475
  0
LINE
  8
ボルト／ビス
  6
CONTINUOUS
 10
155.456125
 20
43.28825
 11
155.456125
 21
43.67315
  0
LINE
  8
ボルト／ビス
  6
CONTINUOUS
 10
155.456125
 20
43.2807
 11
155.52279
 21
43.2807
  0
LINE
  8
ボルト／ビス
  6
CONTINUOUS
 10
155.456125
 20
43.2807
 11
155.456125
 21
43.6807
  0
LINE
  8
ボルト／ビス
  6
CONTINUOUS
 10
155.456125
 20
43.6807
 11
155.52279
 21
43.6807
  0
ENDBLK
  0
BLOCK
  2
*GRP_0035
 70
    65
 10
0.0
 20
0.0
  0
LINE
  8
ボルト／ビス
  6
CONTINUOUS
 10
66.756192
 20
-70.209613
 11
66.756192
 21
-69.742947
  0
LINE
  8
ボルト／ビス
  6
CONTINUOUS
 10
66.389528
 20
-70.209613
 11
66.389528
 21
-70.142947
  0
LINE
  8
ボルト／ビス
  6
CONTINUOUS
 10
66.389528
 20
-70.142947
 11
67.12286
 21
-70.142947
  0
LINE
  8
ボルト／ビス
  6
CONTINUOUS
 10
67.12286
 20
-70.142947
 11
67.12286
 21
-70.209613
  0
LINE
  8
ボルト／ビス
  6
CONTINUOUS
 10
66.389528
 20
-70.209613
 11
67.12286
 21
-70.209613
  0
LINE
  8
ボルト／ビス
  6
CONTINUOUS
 10
66.456193
 20
-70.109612
 11
66.456193
 21
-70.142947
  0
LINE
  8
ボルト／ビス
  6
CONTINUOUS
 10
66.456193
 20
-70.109612
 11
67.056192
 21
-70.109612
  0
LINE
  8
ボルト／ビス
  6
CONTINUOUS
 10
67.056192
 20
-70.109612
 11
67.056192
 21
-70.142947
  0
LINE
  8
ボルト／ビス
  6
CONTINUOUS
 62
    64
 10
66.595817
 20
-69.909613
 11
66.563743
 21
-69.921288
  0
ARC
  8
ボルト／ビス
  6
CONTINUOUS
 62
    64
 10
66.611858
 20
-70.014591
 40
0.104978
 50
62.721967
 51
90.0
  0
ARC
  8
ボルト／ビス
  6
CONTINUOUS
 62
    64
 10
66.756195
 20
-70.312015
 40
0.402402
 50
76.165002
 51
103.834985
  0
LINE
  8
ボルト／ビス
  6
CONTINUOUS
 62
    64
 10
66.916568
 20
-69.909613
 11
66.948642
 21
-69.921288
  0
ARC
  8
ボルト／ビス
  6
CONTINUOUS
 62
    64
 10
66.900533
 20
-70.014591
 40
0.104978
 50
90.0
 51
117.278033
  0
LINE
  8
ボルト／ビス
  6
CONTINUOUS
 62
    64
 10
66.595817
 20
-69.909613
 11
66.916568
 21
-69.909613
  0
LINE
  8
ボルト／ビス
  6
CONTINUOUS
 62
    64
 10
66.948642
 20
-69.921288
 11
66.948642
 21
-70.042947
  0
LINE
  8
ボルト／ビス
  6
CONTINUOUS
 62
    64
 10
66.852418
 20
-69.921288
 11
66.852418
 21
-70.042947
  0
LINE
  8
ボルト／ビス
  6
CONTINUOUS
 62
    64
 10
66.563743
 20
-69.921288
 11
66.563743
 21
-70.042947
  0
LINE
  8
ボルト／ビス
  6
CONTINUOUS
 62
    64
 10
66.659967
 20
-69.921288
 11
66.659967
 21
-70.042947
  0
LINE
  8
ボルト／ビス
  6
CONTINUOUS
 10
66.563743
 20
-70.042947
 11
66.948642
 21
-70.042947
  0
LINE
  8
ボルト／ビス
  6
CONTINUOUS
 10
66.556192
 20
-70.042947
 11
66.556192
 21
-70.109612
  0
LINE
  8
ボルト／ビス
  6
CONTINUOUS
 10
66.556192
 20
-70.042947
 11
66.956193
 21
-70.042947
  0
LINE
  8
ボルト／ビス
  6
CONTINUOUS
 10
66.956193
 20
-70.042947
 11
66.956193
 21
-70.109612
  0
ENDBLK
  0
BLOCK
  2
*GRP_0036
 70
    65
 10
0.0
 20
0.0
  0
LINE
  8
ボルト／ビス
  6
DOT
 10
66.756192
 20
-62.87628
 11
66.756192
 21
-62.409615
  0
LINE
  8
ボルト／ビス
  6
DOT
 10
66.389528
 20
-62.87628
 11
66.389528
 21
-62.809615
  0
LINE
  8
ボルト／ビス
  6
DOT
 10
66.389528
 20
-62.809615
 11
67.12286
 21
-62.809615
  0
LINE
  8
ボルト／ビス
  6
DOT
 10
67.12286
 20
-62.809615
 11
67.12286
 21
-62.87628
  0
LINE
  8
ボルト／ビス
  6
DOT
 10
66.389528
 20
-62.87628
 11
67.12286
 21
-62.87628
  0
LINE
  8
ボルト／ビス
  6
DOT
 10
66.456193
 20
-62.77628
 11
66.456193
 21
-62.809615
  0
LINE
  8
ボルト／ビス
  6
DOT
 10
66.456193
 20
-62.77628
 11
67.056192
 21
-62.77628
  0
LINE
  8
ボルト／ビス
  6
DOT
 10
67.056192
 20
-62.77628
 11
67.056192
 21
-62.809615
  0
LINE
  8
ボルト／ビス
  6
DOT
 62
    64
 10
66.595817
 20
-62.57628
 11
66.563743
 21
-62.587955
  0
ARC
  8
ボルト／ビス
  6
DOT
 62
    64
 10
66.611858
 20
-62.681259
 40
0.104978
 50
62.721967
 51
90.0
  0
ARC
  8
ボルト／ビス
  6
DOT
 62
    64
 10
66.756195
 20
-62.978683
 40
0.402402
 50
76.165002
 51
103.834985
  0
LINE
  8
ボルト／ビス
  6
DOT
 62
    64
 10
66.916568
 20
-62.57628
 11
66.948642
 21
-62.587955
  0
ARC
  8
ボルト／ビス
  6
DOT
 62
    64
 10
66.900533
 20
-62.681259
 40
0.104978
 50
90.0
 51
117.278033
  0
LINE
  8
ボルト／ビス
  6
DOT
 62
    64
 10
66.595817
 20
-62.57628
 11
66.916568
 21
-62.57628
  0
LINE
  8
ボルト／ビス
  6
DOT
 62
    64
 10
66.948642
 20
-62.587955
 11
66.948642
 21
-62.709615
  0
LINE
  8
ボルト／ビス
  6
DOT
 62
    64
 10
66.852418
 20
-62.587955
 11
66.852418
 21
-62.709615
  0
LINE
  8
ボルト／ビス
  6
DOT
 62
    64
 10
66.563743
 20
-62.587955
 11
66.563743
 21
-62.709615
  0
LINE
  8
ボルト／ビス
  6
DOT
 62
    64
 10
66.659967
 20
-62.587955
 11
66.659967
 21
-62.709615
  0
LINE
  8
ボルト／ビス
  6
DOT
 10
66.563743
 20
-62.709615
 11
66.948642
 21
-62.709615
  0
LINE
  8
ボルト／ビス
  6
DOT
 10
66.556192
 20
-62.709615
 11
66.556192
 21
-62.77628
  0
LINE
  8
ボルト／ビス
  6
DOT
 10
66.556192
 20
-62.709615
 11
66.956193
 21
-62.709615
  0
LINE
  8
ボルト／ビス
  6
DOT
 10
66.956193
 20
-62.709615
 11
66.956193
 21
-62.77628
  0
ENDBLK
  0
BLOCK
  2
*GRP_0037
 70
    65
 10
0.0
 20
0.0
  0
LINE
  8
ボルト／ビス
  6
CONTINUOUS
 10
-117.910477
 20
-70.209613
 11
-117.910477
 21
-69.742947
  0
LINE
  8
ボルト／ビス
  6
CONTINUOUS
 10
-118.277143
 20
-70.209613
 11
-118.277143
 21
-70.142947
  0
LINE
  8
ボルト／ビス
  6
CONTINUOUS
 10
-118.277143
 20
-70.142947
 11
-117.54381
 21
-70.142947
  0
LINE
  8
ボルト／ビス
  6
CONTINUOUS
 10
-117.54381
 20
-70.142947
 11
-117.54381
 21
-70.209613
  0
LINE
  8
ボルト／ビス
  6
CONTINUOUS
 10
-118.277143
 20
-70.209613
 11
-117.54381
 21
-70.209613
  0
LINE
  8
ボルト／ビス
  6
CONTINUOUS
 10
-118.210477
 20
-70.109612
 11
-118.210477
 21
-70.142947
  0
LINE
  8
ボルト／ビス
  6
CONTINUOUS
 10
-118.210477
 20
-70.109612
 11
-117.610477
 21
-70.109612
  0
LINE
  8
ボルト／ビス
  6
CONTINUOUS
 10
-117.610477
 20
-70.109612
 11
-117.610477
 21
-70.142947
  0
LINE
  8
ボルト／ビス
  6
CONTINUOUS
 62
    64
 10
-118.070853
 20
-69.909613
 11
-118.102927
 21
-69.921288
  0
ARC
  8
ボルト／ビス
  6
CONTINUOUS
 62
    64
 10
-118.054812
 20
-70.014591
 40
0.104978
 50
62.721967
 51
90.0
  0
ARC
  8
ボルト／ビス
  6
CONTINUOUS
 62
    64
 10
-117.910475
 20
-70.312015
 40
0.402402
 50
76.165002
 51
103.834985
  0
LINE
  8
ボルト／ビス
  6
CONTINUOUS
 62
    64
 10
-117.750102
 20
-69.909613
 11
-117.718027
 21
-69.921288
  0
ARC
  8
ボルト／ビス
  6
CONTINUOUS
 62
    64
 10
-117.766137
 20
-70.014591
 40
0.104978
 50
90.0
 51
117.278033
  0
LINE
  8
ボルト／ビス
  6
CONTINUOUS
 62
    64
 10
-118.070853
 20
-69.909613
 11
-117.750102
 21
-69.909613
  0
LINE
  8
ボルト／ビス
  6
CONTINUOUS
 62
    64
 10
-117.718027
 20
-69.921288
 11
-117.718027
 21
-70.042947
  0
LINE
  8
ボルト／ビス
  6
CONTINUOUS
 62
    64
 10
-117.814253
 20
-69.921288
 11
-117.814253
 21
-70.042947
  0
LINE
  8
ボルト／ビス
  6
CONTINUOUS
 62
    64
 10
-118.102927
 20
-69.921288
 11
-118.102927
 21
-70.042947
  0
LINE
  8
ボルト／ビス
  6
CONTINUOUS
 62
    64
 10
-118.006703
 20
-69.921288
 11
-118.006703
 21
-70.042947
  0
LINE
  8
ボルト／ビス
  6
CONTINUOUS
 10
-118.102927
 20
-70.042947
 11
-117.718027
 21
-70.042947
  0
LINE
  8
ボルト／ビス
  6
CONTINUOUS
 10
-118.110477
 20
-70.042947
 11
-118.110477
 21
-70.109612
  0
LINE
  8
ボルト／ビス
  6
CONTINUOUS
 10
-118.110477
 20
-70.042947
 11
-117.710477
 21
-70.042947
  0
LINE
  8
ボルト／ビス
  6
CONTINUOUS
 10
-117.710477
 20
-70.042947
 11
-117.710477
 21
-70.109612
  0
ENDBLK
  0
BLOCK
  2
*GRP_0038
 70
    65
 10
0.0
 20
0.0
  0
LINE
  8
ボルト／ビス
  6
DOT
 10
-117.910477
 20
-62.87628
 11
-117.910477
 21
-62.409615
  0
LINE
  8
ボルト／ビス
  6
DOT
 10
-118.277143
 20
-62.87628
 11
-118.277143
 21
-62.809615
  0
LINE
  8
ボルト／ビス
  6
DOT
 10
-118.277143
 20
-62.809615
 11
-117.54381
 21
-62.809615
  0
LINE
  8
ボルト／ビス
  6
DOT
 10
-117.54381
 20
-62.809615
 11
-117.54381
 21
-62.87628
  0
LINE
  8
ボルト／ビス
  6
DOT
 10
-118.277143
 20
-62.87628
 11
-117.54381
 21
-62.87628
  0
LINE
  8
ボルト／ビス
  6
DOT
 10
-118.210477
 20
-62.77628
 11
-118.210477
 21
-62.809615
  0
LINE
  8
ボルト／ビス
  6
DOT
 10
-118.210477
 20
-62.77628
 11
-117.610477
 21
-62.77628
  0
LINE
  8
ボルト／ビス
  6
DOT
 10
-117.610477
 20
-62.77628
 11
-117.610477
 21
-62.809615
  0
LINE
  8
ボルト／ビス
  6
DOT
 62
    64
 10
-118.070853
 20
-62.57628
 11
-118.102927
 21
-62.587955
  0
ARC
  8
ボルト／ビス
  6
DOT
 62
    64
 10
-118.054812
 20
-62.681259
 40
0.104978
 50
62.721967
 51
90.0
  0
ARC
  8
ボルト／ビス
  6
DOT
 62
    64
 10
-117.910475
 20
-62.978683
 40
0.402402
 50
76.165002
 51
103.834985
  0
LINE
  8
ボルト／ビス
  6
DOT
 62
    64
 10
-117.750102
 20
-62.57628
 11
-117.718027
 21
-62.587955
  0
ARC
  8
ボルト／ビス
  6
DOT
 62
    64
 10
-117.766137
 20
-62.681259
 40
0.104978
 50
90.0
 51
117.278033
  0
LINE
  8
ボルト／ビス
  6
DOT
 62
    64
 10
-118.070853
 20
-62.57628
 11
-117.750102
 21
-62.57628
  0
LINE
  8
ボルト／ビス
  6
DOT
 62
    64
 10
-117.718027
 20
-62.587955
 11
-117.718027
 21
-62.709615
  0
LINE
  8
ボルト／ビス
  6
DOT
 62
    64
 10
-117.814253
 20
-62.587955
 11
-117.814253
 21
-62.709615
  0
LINE
  8
ボルト／ビス
  6
DOT
 62
    64
 10
-118.102927
 20
-62.587955
 11
-118.102927
 21
-62.709615
  0
LINE
  8
ボルト／ビス
  6
DOT
 62
    64
 10
-118.006703
 20
-62.587955
 11
-118.006703
 21
-62.709615
  0
LINE
  8
ボルト／ビス
  6
DOT
 10
-118.102927
 20
-62.709615
 11
-117.718027
 21
-62.709615
  0
LINE
  8
ボルト／ビス
  6
DOT
 10
-118.110477
 20
-62.709615
 11
-118.110477
 21
-62.77628
  0
LINE
  8
ボルト／ビス
  6
DOT
 10
-118.110477
 20
-62.709615
 11
-117.710477
 21
-62.709615
  0
LINE
  8
ボルト／ビス
  6
DOT
 10
-117.710477
 20
-62.709615
 11
-117.710477
 21
-62.77628
  0
ENDBLK
  0
ENDSEC
  0
SECTION
  2
ENTITIES
  0
POLYLINE
  8
通り芯
  6
CONTINUOUS
 66
     1
 70
     1
  0
VERTEX
  8
通り芯
 10
-210.0
 20
-148.5
  0
VERTEX
  8
通り芯
 10
210.0
 20
-148.5
  0
VERTEX
  8
通り芯
 10
210.0
 20
148.5
  0
VERTEX
  8
通り芯
 10
-210.0
 20
148.5
  0
SEQEND
  0
INSERT
  2
*GRP_0001
  8
型材断面
  6
CONTINUOUS
 10
0.0
 20
0.0
  0
LINE
  8
型材断面
  6
DASHDOT
 10
66.089525
 20
-77.836442
 11
66.089525
 21
42.814033
  0
LINE
  8
型材断面
  6
DASHDOT
 10
-25.577142
 20
-77.836442
 11
-25.577142
 21
42.814033
  0
LINE
  8
型材断面
  6
DASHDOT
 10
-117.243808
 20
-77.836442
 11
-117.243808
 21
42.814033
  0
LINE
  8
型材断面
  6
DASHDOT
 10
163.766288
 20
22.814033
 11
-117.243808
 21
22.814033
  0
LINE
  8
型材断面
  6
DASHDOT
 10
163.766288
 20
32.814033
 11
-117.243808
 21
32.814033
  0
LINE
  8
型材断面
  6
DASHDOT
 10
163.766288
 20
42.814033
 11
-117.243808
 21
42.814033
  0
POLYLINE
  8
型材断面
  6
CONTINUOUS
 66
     1
 70
     1
  0
VERTEX
  8
型材断面
 10
-15.464005
 20
13.03811
  0
VERTEX
  8
型材断面
 10
-34.235935
 20
13.03811
  0
VERTEX
  8
型材断面
 10
-34.235935
 20
8.301267
  0
VERTEX
  8
型材断面
 10
-15.464005
 20
8.301267
  0
SEQEND
  0
POLYLINE
  8
型材断面
  6
CONTINUOUS
 66
     1
 70
     1
  0
VERTEX
  8
型材断面
 10
-15.464005
 20
52.589955
  0
VERTEX
  8
型材断面
 10
-34.235935
 20
52.589955
  0
VERTEX
  8
型材断面
 10
-34.235935
 20
57.326798
  0
VERTEX
  8
型材断面
 10
-15.464005
 20
57.326798
  0
SEQEND
  0
LINE
  8
型材断面
  6
CONTINUOUS
 10
-100.57714
 20
45.444162
 11
-102.07277
 21
48.03467
  0
LINE
  8
型材断面
  6
CONTINUOUS
 10
-100.57714
 20
45.444162
 11
-99.08151
 21
48.03467
  0
LINE
  8
型材断面
  6
CONTINUOUS
 10
-99.08151
 20
48.03467
 11
-102.07277
 21
48.03467
  0
LINE
  8
型材断面
  6
CONTINUOUS
 10
-158.096015
 20
80.791505
 11
-157.49996
 21
78.200998
  0
LINE
  8
型材断面
  6
CONTINUOUS
 10
-158.096015
 20
80.791505
 11
-158.692072
 21
78.200998
  0
LINE
  8
型材断面
  6
CONTINUOUS
 10
-158.692072
 20
78.200998
 11
-157.49996
 21
78.200998
  0
LINE
  8
型材断面
  6
CONTINUOUS
 10
-164.118603
 20
74.922105
 11
-117.876825
 21
74.922105
  0
LINE
  8
型材断面
  6
CONTINUOUS
 10
-158.096015
 20
87.32138
 11
-159.591645
 21
84.730873
  0
LINE
  8
型材断面
  6
CONTINUOUS
 10
-158.096015
 20
87.32138
 11
-156.600385
 21
84.730873
  0
LINE
  8
型材断面
  6
CONTINUOUS
 10
-156.600385
 20
84.730873
 11
-159.591645
 21
84.730873
  0
LINE
  8
型材断面
  6
CONTINUOUS
 10
-164.118603
 20
83.792277
 11
-117.876825
 21
83.792277
  0
LINE
  8
型材断面
  6
CONTINUOUS
 10
-164.118603
 20
69.134073
 11
-117.876825
 21
69.134073
  0
LINE
  8
型材断面
  6
CONTINUOUS
 10
-119.873938
 20
32.814033
 11
-122.464445
 21
34.309663
  0
LINE
  8
型材断面
  6
CONTINUOUS
 10
-119.873938
 20
32.814033
 11
-122.464445
 21
31.318403
  0
LINE
  8
型材断面
  6
CONTINUOUS
 10
-122.464445
 20
31.318403
 11
-122.464445
 21
34.309663
  0
LINE
  8
型材断面
  6
CONTINUOUS
 10
-100.57714
 20
20.183902
 11
-102.07277
 21
17.593395
  0
LINE
  8
型材断面
  6
CONTINUOUS
 10
-100.57714
 20
20.183902
 11
-99.08151
 21
17.593395
  0
LINE
  8
型材断面
  6
CONTINUOUS
 10
-99.08151
 20
17.593395
 11
-102.07277
 21
17.593395
  0
LINE
  8
型材断面
  6
CONTINUOUS
 10
49.422855
 20
45.444162
 11
50.918485
 21
48.03467
  0
LINE
  8
型材断面
  6
CONTINUOUS
 10
49.422855
 20
45.444162
 11
47.927225
 21
48.03467
  0
LINE
  8
型材断面
  6
CONTINUOUS
 10
47.927225
 20
48.03467
 11
50.918485
 21
48.03467
  0
LINE
  8
型材断面
  6
CONTINUOUS
 10
49.422855
 20
20.183902
 11
50.918485
 21
17.593395
  0
LINE
  8
型材断面
  6
CONTINUOUS
 10
49.422855
 20
20.183902
 11
47.927225
 21
17.593395
  0
LINE
  8
型材断面
  6
CONTINUOUS
 10
47.927225
 20
17.593395
 11
50.918485
 21
17.593395
  0
LINE
  8
型材断面
  6
CONTINUOUS
 10
-25.577142
 20
45.44416
 11
-27.072772
 21
48.034668
  0
LINE
  8
型材断面
  6
CONTINUOUS
 10
-25.577142
 20
45.44416
 11
-24.081513
 21
48.034668
  0
LINE
  8
型材断面
  6
CONTINUOUS
 10
-24.081513
 20
48.034668
 11
-27.072772
 21
48.034668
  0
LINE
  8
型材断面
  6
CONTINUOUS
 10
-25.577142
 20
20.1839
 11
-27.072772
 21
17.593392
  0
LINE
  8
型材断面
  6
CONTINUOUS
 10
-25.577142
 20
20.1839
 11
-24.081513
 21
17.593392
  0
LINE
  8
型材断面
  6
CONTINUOUS
 10
-24.081513
 20
17.593392
 11
-27.072772
 21
17.593392
  0
LINE
  8
型材断面
  6
CONTINUOUS
 10
68.719652
 20
32.814033
 11
71.31016
 21
34.309663
  0
LINE
  8
型材断面
  6
CONTINUOUS
 10
68.719652
 20
32.814033
 11
71.31016
 21
31.318403
  0
LINE
  8
型材断面
  6
CONTINUOUS
 10
71.31016
 20
31.318403
 11
71.31016
 21
34.309663
  0
LINE
  8
型材断面
  6
DASHDOT
 10
156.656072
 20
22.81403
 11
162.676138
 21
22.81403
  0
LINE
  8
型材断面
  6
CONTINUOUS
 62
    47
 10
158.939405
 20
21.417365
 11
158.939405
 21
22.197365
  0
LINE
  8
型材断面
  6
CONTINUOUS
 10
157.106072
 20
21.317365
 11
156.656072
 21
21.317365
  0
LINE
  8
型材断面
  6
CONTINUOUS
 62
    47
 10
159.778765
 20
20.53403
 11
159.44543
 21
20.53403
  0
LINE
  8
型材断面
  6
CONTINUOUS
 62
    47
 10
159.44543
 20
20.53403
 11
159.34543
 21
21.317365
  0
LINE
  8
型材断面
  6
CONTINUOUS
 62
    47
 10
158.939405
 20
21.317365
 11
159.34543
 21
21.317365
  0
LINE
  8
型材断面
  6
CONTINUOUS
 62
    47
 10
158.939405
 20
20.847365
 11
157.106072
 21
20.847365
  0
LINE
  8
型材断面
  6
CONTINUOUS
 62
    47
 10
162.906072
 20
21.41403
 11
162.406072
 21
21.41403
  0
LINE
  8
型材断面
  6
CONTINUOUS
 62
    47
 10
162.406072
 20
20.847365
 11
159.778765
 21
20.847365
  0
LINE
  8
型材断面
  6
CONTINUOUS
 62
    47
 10
162.406072
 20
20.847365
 11
162.406072
 21
32.814033
  0
LINE
  8
型材断面
  6
CONTINUOUS
 62
    47
 10
162.906072
 20
21.41403
 11
162.906072
 21
32.814033
  0
LINE
  8
型材断面
  6
CONTINUOUS
 10
159.34543
 20
21.317365
 11
159.34543
 21
32.814033
  0
LINE
  8
型材断面
  6
CONTINUOUS
 10
159.44543
 20
20.53403
 11
159.44543
 21
32.814033
  0
LINE
  8
型材断面
  6
CONTINUOUS
 62
    47
 10
158.939405
 20
20.847365
 11
158.939405
 21
32.814033
  0
LINE
  8
型材断面
  6
CONTINUOUS
 62
    47
 10
159.778765
 20
20.53403
 11
159.778765
 21
32.814033
  0
LINE
  8
型材断面
  6
CONTINUOUS
 10
157.106072
 20
20.847365
 11
157.106072
 21
32.814033
  0
LINE
  8
型材断面
  6
DASHDOT
 10
156.656072
 20
42.814035
 11
162.676138
 21
42.814035
  0
LINE
  8
型材断面
  6
CONTINUOUS
 62
    47
 10
158.939405
 20
44.2107
 11
158.939405
 21
43.4307
  0
LINE
  8
型材断面
  6
CONTINUOUS
 10
157.106072
 20
44.3107
 11
156.656072
 21
44.3107
  0
LINE
  8
型材断面
  6
CONTINUOUS
 62
    47
 10
159.778765
 20
45.094035
 11
159.44543
 21
45.094035
  0
LINE
  8
型材断面
  6
CONTINUOUS
 62
    47
 10
159.44543
 20
45.094035
 11
159.34543
 21
44.3107
  0
LINE
  8
型材断面
  6
CONTINUOUS
 62
    47
 10
158.939405
 20
44.3107
 11
159.34543
 21
44.3107
  0
LINE
  8
型材断面
  6
CONTINUOUS
 62
    47
 10
158.939405
 20
44.7807
 11
157.106072
 21
44.7807
  0
LINE
  8
型材断面
  6
CONTINUOUS
 62
    47
 10
162.906072
 20
44.214035
 11
162.406072
 21
44.214035
  0
LINE
  8
型材断面
  6
CONTINUOUS
 62
    47
 10
162.406072
 20
44.7807
 11
159.778765
 21
44.7807
  0
LINE
  8
型材断面
  6
CONTINUOUS
 62
    47
 10
162.406072
 20
44.7807
 11
162.406072
 21
32.814033
  0
LINE
  8
型材断面
  6
CONTINUOUS
 62
    47
 10
162.906072
 20
44.214035
 11
162.906072
 21
32.814033
  0
LINE
  8
型材断面
  6
CONTINUOUS
 10
159.34543
 20
44.3107
 11
159.34543
 21
32.814033
  0
LINE
  8
型材断面
  6
CONTINUOUS
 10
159.44543
 20
45.094035
 11
159.44543
 21
32.814033
  0
LINE
  8
型材断面
  6
CONTINUOUS
 62
    47
 10
158.939405
 20
44.7807
 11
158.939405
 21
32.814033
  0
LINE
  8
型材断面
  6
CONTINUOUS
 62
    47
 10
159.778765
 20
45.094035
 11
159.778765
 21
32.814033
  0
LINE
  8
型材断面
  6
CONTINUOUS
 10
157.106072
 20
44.7807
 11
157.106072
 21
32.814033
  0
LINE
  8
型材断面
  6
DASHDOT
 10
66.089528
 20
-71.242895
 11
66.089528
 21
-77.26296
  0
LINE
  8
型材断面
  6
CONTINUOUS
 62
    47
 10
67.486192
 20
-73.526228
 11
66.706193
 21
-73.526228
  0
LINE
  8
型材断面
  6
CONTINUOUS
 10
67.586192
 20
-71.692895
 11
67.586192
 21
-71.242895
  0
LINE
  8
型材断面
  6
CONTINUOUS
 62
    47
 10
68.369528
 20
-74.365588
 11
68.369528
 21
-74.032252
  0
LINE
  8
型材断面
  6
CONTINUOUS
 62
    47
 10
68.369528
 20
-74.032252
 11
67.586192
 21
-73.932252
  0
LINE
  8
型材断面
  6
CONTINUOUS
 62
    47
 10
67.586192
 20
-73.526228
 11
67.586192
 21
-73.932252
  0
LINE
  8
型材断面
  6
CONTINUOUS
 62
    47
 10
68.056192
 20
-73.526228
 11
68.056192
 21
-71.692895
  0
LINE
  8
型材断面
  6
CONTINUOUS
 62
    47
 10
67.489528
 20
-77.492895
 11
67.489528
 21
-76.992895
  0
LINE
  8
型材断面
  6
CONTINUOUS
 62
    47
 10
68.056192
 20
-76.992895
 11
68.056192
 21
-74.365588
  0
LINE
  8
型材断面
  6
CONTINUOUS
 10
68.156193
 20
20.747365
 11
68.369528
 21
20.53403
  0
LINE
  8
型材断面
  6
CONTINUOUS
 10
68.369528
 20
20.53403
 11
68.369528
 21
32.814033
  0
LINE
  8
型材断面
  6
CONTINUOUS
 10
68.056192
 20
-71.692895
 11
-25.577142
 21
-71.692895
  0
LINE
  8
型材断面
  6
CONTINUOUS
 62
    47
 10
68.056192
 20
-73.526228
 11
-25.577142
 21
-73.526228
  0
LINE
  8
型材断面
  6
CONTINUOUS
 10
68.369528
 20
-74.032252
 11
-25.577142
 21
-74.032252
  0
LINE
  8
型材断面
  6
CONTINUOUS
 62
    47
 10
68.369528
 20
-74.365588
 11
-25.577142
 21
-74.365588
  0
LINE
  8
型材断面
  6
CONTINUOUS
 10
67.586192
 20
-73.932252
 11
-25.577142
 21
-73.932252
  0
LINE
  8
型材断面
  6
CONTINUOUS
 62
    47
 10
67.489528
 20
-77.492895
 11
-25.577142
 21
-77.492895
  0
LINE
  8
型材断面
  6
CONTINUOUS
 62
    47
 10
68.056192
 20
-76.992895
 11
-25.577142
 21
-76.992895
  0
LINE
  8
型材断面
  6
DASHDOT
 10
-117.243812
 20
-71.242895
 11
-117.243812
 21
-77.26296
  0
LINE
  8
型材断面
  6
CONTINUOUS
 62
    47
 10
-118.640478
 20
-73.526228
 11
-117.860477
 21
-73.526228
  0
LINE
  8
型材断面
  6
CONTINUOUS
 10
-118.740478
 20
-71.692895
 11
-118.740478
 21
-71.242895
  0
LINE
  8
型材断面
  6
CONTINUOUS
 62
    47
 10
-119.523812
 20
-74.365588
 11
-119.523812
 21
-74.032252
  0
LINE
  8
型材断面
  6
CONTINUOUS
 62
    47
 10
-119.523812
 20
-74.032252
 11
-118.740478
 21
-73.932252
  0
LINE
  8
型材断面
  6
CONTINUOUS
 62
    47
 10
-118.740478
 20
-73.526228
 11
-118.740478
 21
-73.932252
  0
LINE
  8
型材断面
  6
CONTINUOUS
 62
    47
 10
-119.210477
 20
-73.526228
 11
-119.210477
 21
-71.692895
  0
LINE
  8
型材断面
  6
CONTINUOUS
 62
    47
 10
-118.643812
 20
-77.492895
 11
-118.643812
 21
-76.992895
  0
LINE
  8
型材断面
  6
CONTINUOUS
 62
    47
 10
-119.210477
 20
-76.992895
 11
-119.210477
 21
-74.365588
  0
LINE
  8
型材断面
  6
CONTINUOUS
 10
-119.210477
 20
-71.692895
 11
-25.577142
 21
-71.692895
  0
LINE
  8
型材断面
  6
CONTINUOUS
 62
    47
 10
-119.210477
 20
-73.526228
 11
-25.577142
 21
-73.526228
  0
LINE
  8
型材断面
  6
CONTINUOUS
 10
-119.523812
 20
-74.032252
 11
-25.577142
 21
-74.032252
  0
LINE
  8
型材断面
  6
CONTINUOUS
 62
    47
 10
-119.523812
 20
-74.365588
 11
-25.577142
 21
-74.365588
  0
LINE
  8
型材断面
  6
CONTINUOUS
 10
-118.740478
 20
-73.932252
 11
-25.577142
 21
-73.932252
  0
LINE
  8
型材断面
  6
CONTINUOUS
 62
    47
 10
-118.643812
 20
-77.492895
 11
-25.577142
 21
-77.492895
  0
LINE
  8
型材断面
  6
CONTINUOUS
 62
    47
 10
-119.210477
 20
-76.992895
 11
-25.577142
 21
-76.992895
  0
LINE
  8
型材断面
  6
DOT
 62
    47
 10
67.486192
 20
-66.192895
 11
66.706193
 21
-66.192895
  0
LINE
  8
型材断面
  6
DOT
 10
67.586192
 20
-64.359562
 11
67.586192
 21
-63.909562
  0
LINE
  8
型材断面
  6
DOT
 62
    47
 10
68.369528
 20
-67.032255
 11
68.369528
 21
-66.69892
  0
LINE
  8
型材断面
  6
DOT
 62
    47
 10
68.369528
 20
-66.69892
 11
67.586192
 21
-66.59892
  0
LINE
  8
型材断面
  6
DOT
 62
    47
 10
67.586192
 20
-66.192895
 11
67.586192
 21
-66.59892
  0
LINE
  8
型材断面
  6
DOT
 62
    47
 10
68.056192
 20
-66.192895
 11
68.056192
 21
-64.359562
  0
LINE
  8
型材断面
  6
DOT
 10
68.056192
 20
-64.359562
 11
-25.577142
 21
-64.359562
  0
LINE
  8
型材断面
  6
DOT
 62
    47
 10
68.056192
 20
-66.192895
 11
-25.577142
 21
-66.192895
  0
LINE
  8
型材断面
  6
DOT
 10
68.369528
 20
-66.69892
 11
-25.577142
 21
-66.69892
  0
LINE
  8
型材断面
  6
DOT
 62
    47
 10
68.369528
 20
-67.032255
 11
-25.577142
 21
-67.032255
  0
LINE
  8
型材断面
  6
DOT
 10
67.586192
 20
-66.59892
 11
-25.577142
 21
-66.59892
  0
LINE
  8
型材断面
  6
DOT
 62
    47
 10
-118.640478
 20
-66.192895
 11
-117.860477
 21
-66.192895
  0
LINE
  8
型材断面
  6
DOT
 10
-118.740478
 20
-64.359562
 11
-118.740478
 21
-63.909562
  0
LINE
  8
型材断面
  6
DOT
 62
    47
 10
-119.523812
 20
-67.032255
 11
-119.523812
 21
-66.69892
  0
LINE
  8
型材断面
  6
DOT
 62
    47
 10
-119.523812
 20
-66.69892
 11
-118.740478
 21
-66.59892
  0
LINE
  8
型材断面
  6
DOT
 62
    47
 10
-118.740478
 20
-66.192895
 11
-118.740478
 21
-66.59892
  0
LINE
  8
型材断面
  6
DOT
 62
    47
 10
-119.210477
 20
-66.192895
 11
-119.210477
 21
-64.359562
  0
LINE
  8
型材断面
  6
DOT
 10
-119.210477
 20
-64.359562
 11
-25.577142
 21
-64.359562
  0
LINE
  8
型材断面
  6
DOT
 62
    47
 10
-119.210477
 20
-66.192895
 11
-25.577142
 21
-66.192895
  0
LINE
  8
型材断面
  6
DOT
 10
-119.523812
 20
-66.69892
 11
-25.577142
 21
-66.69892
  0
LINE
  8
型材断面
  6
DOT
 62
    47
 10
-119.523812
 20
-67.032255
 11
-25.577142
 21
-67.032255
  0
LINE
  8
型材断面
  6
DOT
 10
-118.740478
 20
-66.59892
 11
-25.577142
 21
-66.59892
  0
LINE
  8
型材断面
  6
CONTINUOUS
 10
68.369528
 20
20.53403
 11
-25.577142
 21
20.53403
  0
LINE
  8
型材断面
  6
CONTINUOUS
 10
68.156193
 20
44.8807
 11
68.369528
 21
45.094035
  0
LINE
  8
型材断面
  6
CONTINUOUS
 10
68.369528
 20
45.094035
 11
68.369528
 21
32.814033
  0
LINE
  8
型材断面
  6
CONTINUOUS
 10
68.369528
 20
45.094035
 11
-25.577142
 21
45.094035
  0
LINE
  8
型材断面
  6
CONTINUOUS
 10
-119.310477
 20
44.8807
 11
-119.523812
 21
45.094035
  0
LINE
  8
型材断面
  6
CONTINUOUS
 10
-119.523812
 20
45.094035
 11
-119.523812
 21
32.814033
  0
LINE
  8
型材断面
  6
CONTINUOUS
 10
-119.523812
 20
45.094035
 11
-25.577142
 21
45.094035
  0
LINE
  8
型材断面
  6
CONTINUOUS
 10
-119.310477
 20
20.747365
 11
-119.523812
 21
20.53403
  0
LINE
  8
型材断面
  6
CONTINUOUS
 10
-119.523812
 20
20.53403
 11
-119.523812
 21
32.814033
  0
LINE
  8
型材断面
  6
CONTINUOUS
 10
-119.523812
 20
20.53403
 11
-25.577142
 21
20.53403
  0
LINE
  8
型材断面
  6
CONTINUOUS
 10
68.719652
 20
38.914033
 11
71.31016
 21
38.317975
  0
LINE
  8
型材断面
  6
CONTINUOUS
 10
68.719652
 20
38.914033
 11
71.31016
 21
39.51009
  0
LINE
  8
型材断面
  6
CONTINUOUS
 10
71.31016
 20
39.51009
 11
71.31016
 21
38.317975
  0
LINE
  8
型材断面
  6
CONTINUOUS
 10
68.719652
 20
26.714033
 11
71.31016
 21
27.31009
  0
LINE
  8
型材断面
  6
CONTINUOUS
 10
68.719652
 20
26.714033
 11
71.31016
 21
26.117975
  0
LINE
  8
型材断面
  6
CONTINUOUS
 10
71.31016
 20
26.117975
 11
71.31016
 21
27.31009
  0
LINE
  8
型材断面
  6
CONTINUOUS
 10
-119.873938
 20
38.914033
 11
-122.464445
 21
38.317975
  0
LINE
  8
型材断面
  6
CONTINUOUS
 10
-119.873938
 20
38.914033
 11
-122.464445
 21
39.51009
  0
LINE
  8
型材断面
  6
CONTINUOUS
 10
-122.464445
 20
39.51009
 11
-122.464445
 21
38.317975
  0
LINE
  8
型材断面
  6
CONTINUOUS
 10
-119.873938
 20
26.714033
 11
-122.464445
 21
27.31009
  0
LINE
  8
型材断面
  6
CONTINUOUS
 10
-119.873938
 20
26.714033
 11
-122.464445
 21
26.117975
  0
LINE
  8
型材断面
  6
CONTINUOUS
 10
-122.464445
 20
26.117975
 11
-122.464445
 21
27.31009
  0
INSERT
  2
*GRP_0019
  8
型材断面
  6
CONTINUOUS
 10
0.0
 20
0.0
  0
INSERT
  2
*GRP_0020
  8
型材断面
  6
CONTINUOUS
 10
0.0
 20
0.0
  0
INSERT
  2
*GRP_0021
  8
型材断面
  6
CONTINUOUS
 10
0.0
 20
0.0
  0
INSERT
  2
*GRP_0022
  8
型材断面
  6
CONTINUOUS
 10
0.0
 20
0.0
  0
INSERT
  2
*GRP_0023
  8
型材断面
  6
CONTINUOUS
 10
0.0
 20
0.0
  0
INSERT
  2
*GRP_0024
  8
型材断面
  6
CONTINUOUS
 10
0.0
 20
0.0
  0
LINE
  8
型材断面
  6
CONTINUOUS
 10
-164.118603
 20
63.34604
 11
-117.876825
 21
63.34604
  0
LINE
  8
型材断面
  6
DOT
 10
-79.531142
 20
22.814033
 11
-79.531142
 21
42.814033
  0
LINE
  8
型材断面
  6
DASHDOT
 10
-80.781142
 20
22.814033
 11
-80.781142
 21
42.814033
  0
LINE
  8
型材断面
  6
DOT
 10
-82.031142
 20
22.814033
 11
-82.031142
 21
42.814033
  0
LINE
  8
型材断面
  6
DOT
 10
-42.728478
 20
22.814033
 11
-42.728478
 21
42.814033
  0
LINE
  8
型材断面
  6
DASHDOT
 10
-43.978478
 20
22.814033
 11
-43.978478
 21
42.814033
  0
LINE
  8
型材断面
  6
DOT
 10
-45.228478
 20
22.814033
 11
-45.228478
 21
42.814033
  0
LINE
  8
型材断面
  6
DOT
 10
28.376858
 20
22.814033
 11
28.376858
 21
42.814033
  0
LINE
  8
型材断面
  6
DASHDOT
 10
29.626858
 20
22.814033
 11
29.626858
 21
42.814033
  0
LINE
  8
型材断面
  6
DOT
 10
30.876858
 20
22.814033
 11
30.876858
 21
42.814033
  0
LINE
  8
型材断面
  6
DOT
 10
-8.425807
 20
22.814033
 11
-8.425807
 21
42.814033
  0
LINE
  8
型材断面
  6
DASHDOT
 10
-7.175807
 20
22.814033
 11
-7.175807
 21
42.814033
  0
LINE
  8
型材断面
  6
DOT
 10
-5.925807
 20
22.814033
 11
-5.925807
 21
42.814033
  0
TEXT
  7
TextStyle03
  8
文字
  6
CONTINUOUS
 10
142.625
 20
-76.7
  1
網入り6.8t
 40
3.0
 72
     5
 11
159.3125
 21
-76.7
  0
TEXT
  7
TextStyle03
  8
文字
  6
CONTINUOUS
 10
-33.175
 20
9.325
  1
可動装置側
 40
3.0
 72
     5
 11
-16.675
 21
9.325
  0
TEXT
  7
TextStyle03
  8
文字
  6
CONTINUOUS
 10
149.3
 20
-81.375
  1
×５枚
 40
3.0
 72
     5
 11
159.05
 21
-81.375
  0
TEXT
  7
TextStyle03
  8
文字
  6
CONTINUOUS
 10
-33.175
 20
53.3
  1
可動装置側
 40
3.0
 72
     5
 11
-16.675
 21
53.3
  0
TEXT
  7
TextStyle03
  8
文字
  6
CONTINUOUS
 10
-155.275
 20
79.425
  1
はケーシング位置を示す
 40
3.0
 72
     5
 11
-118.525
 21
79.425
  0
TEXT
  7
TextStyle03
  8
文字
  6
CONTINUOUS
 10
-155.275
 20
76.05
  1
４ヶ所中1ヶ所に設定
 40
3.0
 72
     5
 11
-123.5875
 21
76.05
  0
TEXT
  7
TextStyle03
  8
文字
  6
CONTINUOUS
 10
-155.275
 20
84.95
  1
は排水穴位置を示す
 40
3.0
 72
     5
 11
-125.275
 21
84.95
  0
TEXT
  7
TextStyle03
  8
文字
  6
CONTINUOUS
 10
-138.225
 20
11.275
  1
アンカーピッチ
 40
3.0
 50
90.0
 72
     5
 11
-138.225
 21
34.525
  0
TEXT
  7
TextStyle03
  8
文字
  6
CONTINUOUS
 10
-103.175
 20
79.225
  1
アンカーピッチ
 40
3.0
 72
     5
 11
-79.925
 21
79.225
  0
TEXT
  7
TextStyle03
  8
文字
  6
CONTINUOUS
 10
-159.0
 20
70.075
  1
アンカー数量　１８ヶ所
 40
3.0
 72
     5
 11
-122.25
 21
70.075
  0
TEXT
  7
TextStyle03
  8
文字
  6
CONTINUOUS
 10
-159.075
 20
64.3
  1
アームユニット数　４～６ヶ所
 40
3.0
 72
     5
 11
-112.2
 21
64.3
  0
TEXT
  7
TextStyle03
  8
文字
  6
CONTINUOUS
 10
-164.0
 20
59.35
  1
※重量に依るのでご相談ください
 40
3.0
 72
     5
 11
-113.75
 21
59.35
  0
TEXT
  7
TextStyle03
  8
文字
  6
CONTINUOUS
 10
78.1
 20
125.25
  1
シリーズ：ＳＴＤＬ
 40
5.0
 72
     5
 11
128.1
 21
125.25
  0
TEXT
  7
TextStyle03
  8
文字
  6
CONTINUOUS
 10
78.1
 20
119.625
  1
　　　　　（上下可動）600×5500タイプ
 40
5.0
 72
     5
 11
181.5375
 21
119.625
  0
TEXT
  7
TextStyle03
  8
文字
  6
CONTINUOUS
 10
78.1
 20
114.0
  1
図面名　：外観姿図
 40
5.0
 72
     5
 11
128.1
 21
114.0
  0
TEXT
  7
TextStyle03
  8
文字
  6
CONTINUOUS
 10
78.1
 20
108.375
  1
　　　　　　
 40
5.0
 72
     5
 11
111.225
 21
108.375
  0
TEXT
  7
TextStyle03
  8
文字
  6
CONTINUOUS
 10
77.425
 20
103.975
  1
ＮＳコード：ＮＳＤＳＬ
 40
5.0
 72
     5
 11
138.675
 21
103.975
  0
INSERT
  2
*DIM_0002
  8
寸法
  6
CONTINUOUS
 10
0.0
 20
0.0
  0
INSERT
  2
*DIM_0003
  8
寸法
  6
CONTINUOUS
 10
0.0
 20
0.0
  0
INSERT
  2
*DIM_0004
  8
寸法
  6
CONTINUOUS
 10
0.0
 20
0.0
  0
INSERT
  2
*DIM_0005
  8
寸法
  6
CONTINUOUS
 10
0.0
 20
0.0
  0
INSERT
  2
*DIM_0006
  8
寸法
  6
CONTINUOUS
 10
0.0
 20
0.0
  0
INSERT
  2
*DIM_0007
  8
寸法
  6
CONTINUOUS
 10
0.0
 20
0.0
  0
INSERT
  2
*DIM_0008
  8
寸法
  6
CONTINUOUS
 10
0.0
 20
0.0
  0
INSERT
  2
*DIM_0009
  8
寸法
  6
CONTINUOUS
 10
0.0
 20
0.0
  0
INSERT
  2
*DIM_0010
  8
寸法
  6
CONTINUOUS
 10
0.0
 20
0.0
  0
INSERT
  2
*DIM_0011
  8
寸法
  6
CONTINUOUS
 10
0.0
 20
0.0
  0
INSERT
  2
*DIM_0012
  8
寸法
  6
CONTINUOUS
 10
0.0
 20
0.0
  0
INSERT
  2
*DIM_0013
  8
寸法
  6
CONTINUOUS
 10
0.0
 20
0.0
  0
INSERT
  2
*DIM_0014
  8
寸法
  6
CONTINUOUS
 10
0.0
 20
0.0
  0
INSERT
  2
*DIM_0015
  8
寸法
  6
CONTINUOUS
 10
0.0
 20
0.0
  0
INSERT
  2
*DIM_0016
  8
寸法
  6
CONTINUOUS
 10
0.0
 20
0.0
  0
INSERT
  2
*DIM_0017
  8
寸法
  6
CONTINUOUS
 10
0.0
 20
0.0
  0
INSERT
  2
*DIM_0025
  8
寸法
  6
CONTINUOUS
 10
0.0
 20
0.0
  0
INSERT
  2
*DIM_0026
  8
寸法
  6
CONTINUOUS
 10
0.0
 20
0.0
  0
INSERT
  2
*DIM_0027
  8
寸法
  6
CONTINUOUS
 10
0.0
 20
0.0
  0
INSERT
  2
*DIM_0028
  8
寸法
  6
CONTINUOUS
 10
0.0
 20
0.0
  0
INSERT
  2
*DIM_0029
  8
寸法
  6
CONTINUOUS
 10
0.0
 20
0.0
  0
INSERT
  2
*DIM_0030
  8
寸法
  6
CONTINUOUS
 10
0.0
 20
0.0
  0
INSERT
  2
*DIM_0031
  8
寸法
  6
CONTINUOUS
 10
0.0
 20
0.0
  0
INSERT
  2
*DIM_0032
  8
寸法
  6
CONTINUOUS
 10
0.0
 20
0.0
  0
LINE
  8
別途部材
  6
CONTINUOUS
 10
68.156193
 20
20.747365
 11
67.756192
 21
21.147365
  0
LINE
  8
別途部材
  6
CONTINUOUS
 10
66.089525
 20
22.814033
 11
58.03027
 21
30.87329
  0
LINE
  8
別途部材
  6
CONTINUOUS
 10
67.756192
 20
21.147365
 11
67.756192
 21
32.814033
  0
LINE
  8
別途部材
  6
CONTINUOUS
 10
68.156193
 20
20.747365
 11
68.156193
 21
32.814033
  0
LINE
  8
別途部材
  6
CONTINUOUS
 10
68.156193
 20
44.8807
 11
67.756192
 21
44.4807
  0
LINE
  8
別途部材
  6
CONTINUOUS
 10
66.089525
 20
42.814033
 11
58.03027
 21
34.754775
  0
LINE
  8
別途部材
  6
CONTINUOUS
 10
67.756192
 20
44.4807
 11
67.756192
 21
32.814033
  0
LINE
  8
別途部材
  6
CONTINUOUS
 10
68.156193
 20
44.8807
 11
68.156193
 21
32.814033
  0
LINE
  8
別途部材
  6
CONTINUOUS
 10
67.756192
 20
44.4807
 11
-25.577142
 21
44.4807
  0
LINE
  8
別途部材
  6
CONTINUOUS
 10
68.156193
 20
44.8807
 11
-25.577142
 21
44.8807
  0
LINE
  8
別途部材
  6
CONTINUOUS
 10
67.756192
 20
21.147365
 11
-25.577142
 21
21.147365
  0
LINE
  8
別途部材
  6
CONTINUOUS
 10
68.156193
 20
20.747365
 11
-25.577142
 21
20.747365
  0
LINE
  8
別途部材
  6
CONTINUOUS
 10
-119.310477
 20
20.747365
 11
-118.910477
 21
21.147365
  0
LINE
  8
別途部材
  6
CONTINUOUS
 10
-117.24381
 20
22.814033
 11
-109.184555
 21
30.87329
  0
LINE
  8
別途部材
  6
CONTINUOUS
 10
-118.910477
 20
21.147365
 11
-118.910477
 21
32.814033
  0
LINE
  8
別途部材
  6
CONTINUOUS
 10
-119.310477
 20
20.747365
 11
-119.310477
 21
32.814033
  0
LINE
  8
別途部材
  6
CONTINUOUS
 10
-119.310477
 20
44.8807
 11
-118.910477
 21
44.4807
  0
LINE
  8
別途部材
  6
CONTINUOUS
 10
-117.24381
 20
42.814033
 11
-109.184555
 21
34.754775
  0
LINE
  8
別途部材
  6
CONTINUOUS
 10
-118.910477
 20
44.4807
 11
-118.910477
 21
32.814033
  0
LINE
  8
別途部材
  6
CONTINUOUS
 10
-119.310477
 20
44.8807
 11
-119.310477
 21
32.814033
  0
LINE
  8
別途部材
  6
CONTINUOUS
 10
-118.910477
 20
44.4807
 11
-25.577142
 21
44.4807
  0
LINE
  8
別途部材
  6
CONTINUOUS
 10
-119.310477
 20
44.8807
 11
-25.577142
 21
44.8807
  0
LINE
  8
別途部材
  6
CONTINUOUS
 10
-118.910477
 20
21.147365
 11
-25.577142
 21
21.147365
  0
LINE
  8
別途部材
  6
CONTINUOUS
 10
-119.310477
 20
20.747365
 11
-25.577142
 21
20.747365
  0
LINE
  8
別途部材
  6
CONTINUOUS
 62
    96
 10
155.62279
 20
21.147365
 11
156.62279
 21
20.747365
  0
LINE
  8
別途部材
  6
CONTINUOUS
 62
    96
 10
155.62279
 20
21.147365
 11
155.62279
 21
32.814033
  0
LINE
  8
別途部材
  6
CONTINUOUS
 10
156.62279
 20
20.747365
 11
156.62279
 21
32.814033
  0
LINE
  8
別途部材
  6
CONTINUOUS
 62
    96
 10
155.62279
 20
44.4807
 11
156.62279
 21
44.8807
  0
LINE
  8
別途部材
  6
CONTINUOUS
 62
    96
 10
155.62279
 20
44.4807
 11
155.62279
 21
32.814033
  0
LINE
  8
別途部材
  6
CONTINUOUS
 10
156.62279
 20
44.8807
 11
156.62279
 21
32.814033
  0
ARC
  8
別途部材
  6
CONTINUOUS
 10
162.331125
 20
32.814033
 40
12.041667
 50
123.855033
 51
236.144967
  0
LINE
  8
別途部材
  6
DOT
 62
    96
 10
67.756192
 20
-62.87628
 11
68.156193
 21
-63.87628
  0
ARC
  8
別途部材
  6
DOT
 10
56.089524
 20
-69.584615
 40
12.041667
 50
33.855033
 51
90.0
  0
LINE
  8
別途部材
  6
DOT
 10
56.089525
 20
-57.542947
 11
-25.577142
 21
-57.542947
  0
LINE
  8
別途部材
  6
DOT
 10
68.156193
 20
-63.87628
 11
-25.577142
 21
-63.87628
  0
LINE
  8
別途部材
  6
DOT
 62
    96
 10
67.756192
 20
-62.87628
 11
-25.577142
 21
-62.87628
  0
LINE
  8
別途部材
  6
DOT
 62
    96
 10
-118.910477
 20
-62.87628
 11
-119.310477
 21
-63.87628
  0
ARC
  8
別途部材
  6
DOT
 10
-107.243811
 20
-69.584615
 40
12.041667
 50
90.0
 51
146.144967
  0
LINE
  8
別途部材
  6
DOT
 10
-107.24381
 20
-57.542947
 11
-25.577142
 21
-57.542947
  0
LINE
  8
別途部材
  6
DOT
 10
-119.310477
 20
-63.87628
 11
-25.577142
 21
-63.87628
  0
LINE
  8
別途部材
  6
DOT
 62
    96
 10
-118.910477
 20
-62.87628
 11
-25.577142
 21
-62.87628
  0
INSERT
  2
*GRP_0018
  8
別途部材
  6
CONTINUOUS
 10
0.0
 20
0.0
  0
INSERT
  2
*GRP_0033
  8
別途部材
  6
DOT
 10
0.0
 20
0.0
  0
INSERT
  2
*GRP_0034
  8
別途部材
  6
DOT
 10
0.0
 20
0.0
  0
INSERT
  2
*GRP_0035
  8
別途部材
  6
DOT
 10
0.0
 20
0.0
  0
INSERT
  2
*GRP_0036
  8
別途部材
  6
DOT
 10
0.0
 20
0.0
  0
INSERT
  2
*GRP_0037
  8
別途部材
  6
DOT
 10
0.0
 20
0.0
  0
INSERT
  2
*GRP_0038
  8
別途部材
  6
DOT
 10
0.0
 20
0.0
  0
LINE
  8
曲げ物
  6
CONTINUOUS
 10
161.17608
 20
-83.118728
 11
161.17608
 21
-63.785395
  0
LINE
  8
曲げ物
  6
CONTINUOUS
 10
161.17608
 20
-63.785395
 11
125.709412
 21
-63.785395
  0
LINE
  8
曲げ物
  6
CONTINUOUS
 10
125.709412
 20
-63.785395
 11
125.709412
 21
-83.118728
  0
LINE
  8
曲げ物
  6
CONTINUOUS
 10
161.17608
 20
-83.118728
 11
125.709412
 21
-83.118728
  0
ENDSEC
  0
EOF
