  0
SECTION
  2
HEADER
  9
$EXTMIN
 10
-210.0
 20
-148.5
  9
$EXTMAX
 10
210.0
 20
148.5
  9
$PDMODE
 70
    32
  9
$PDSIZE
 40
1.5
  9
$LTSCALE
 40
10.0
  0
ENDSEC
  0
SECTION
  2
TABLES
  0
TABLE
  2
LTYPE
 70
    15
  0
LTYPE
  2
CONTINUOUS
 70
    64
  3
実線
 72
    65
 73
     0
 40
0.0
  0
LTYPE
  2
DASHED
 70
    64
  3
破線A
 72
    65
 73
     2
 40
0.6
 49
0.4
 49
-0.2
  0
LTYPE
  2
DASHEDX2
 70
    64
  3
破線B
 72
    65
 73
     2
 40
1.3
 49
0.9
 49
-0.4
  0
LTYPE
  2
DASHDOT
 70
    64
  3
１点鎖線A
 72
    65
 73
     4
 40
0.5375
 49
0.375
 49
-0.05
 49
0.0625
 49
-0.05
  0
LTYPE
  2
DASHDOTX2
 70
    64
  3
１点鎖線B
 72
    65
 73
     4
 40
1.075
 49
0.75
 49
-0.1
 49
0.125
 49
-0.1
  0
LTYPE
  2
DIVIDE2
 70
    64
  3
２点鎖線A
 72
    65
 73
     6
 40
0.5125
 49
0.3
 49
-0.0375
 49
0.05
 49
-0.0375
 49
0.05
 49
-0.0375
  0
LTYPE
  2
DIVIDE
 70
    64
  3
２点鎖線B
 72
    65
 73
     6
 40
1.05
 49
0.55
 49
-0.1
 49
0.1
 49
-0.1
 49
0.1
 49
-0.1
  0
LTYPE
  2
DOT
 70
    64
  3
点線A
 72
    65
 73
     2
 40
0.1125
 49
0.0625
 49
-0.05
  0
LTYPE
  2
DOTX2
 70
    64
  3
点線B
 72
    65
 73
     2
 40
0.275
 49
0.15
 49
-0.125
  0
LTYPE
  2
CONTINUOUS
 70
    64
  3
実線
 72
    65
 73
     0
 40
0.0
  0
LTYPE
  2
CONTINUOUS
 70
    64
  3
実線
 72
    65
 73
     0
 40
0.0
  0
LTYPE
  2
CONTINUOUS
 70
    64
  3
実線
 72
    65
 73
     0
 40
0.0
  0
LTYPE
  2
CONTINUOUS
 70
    64
  3
実線
 72
    65
 73
     0
 40
0.0
  0
LTYPE
  2
CONTINUOUS
 70
    64
  3
実線
 72
    65
 73
     0
 40
0.0
  0
LTYPE
  2
CONTINUOUS
 70
    64
  3
実線
 72
    65
 73
     0
 40
0.0
  0
ENDTAB
  0
TABLE
  2
LAYER
 70
    34
  0
LAYER
  2
通り芯
 70
     0
 62
    15
  6
CONTINUOUS
  0
LAYER
  2
補助線
 70
     0
 62
    16
  6
DOT
  0
LAYER
  2
躯体
 70
     0
 62
    31
  6
CONTINUOUS
  0
LAYER
  2
型材
 70
     0
 62
    32
  6
CONTINUOUS
  0
LAYER
  2
型材断面
 70
     0
 62
    47
  6
CONTINUOUS
  0
LAYER
  2
ガラス
 70
     0
 62
    48
  6
CONTINUOUS
  0
LAYER
  2
ゴム等
 70
     0
 62
    63
  6
CONTINUOUS
  0
LAYER
  2
ボルト／ビス
 70
     0
 62
    64
  6
CONTINUOUS
  0
LAYER
  2
文字
 70
     0
 62
    79
  6
CONTINUOUS
  0
LAYER
  2
寸法
 70
     0
 62
    80
  6
CONTINUOUS
  0
LAYER
  2
ﾊｯﾁﾝｸﾞ
 70
     0
 62
    95
  6
CONTINUOUS
  0
LAYER
  2
別途部材
 70
     0
 62
    96
  6
CONTINUOUS
  0
LAYER
  2
曲げ物
 70
     0
 62
   111
  6
CONTINUOUS
  0
LAYER
  2
鉄骨等
 70
     0
 62
   112
  6
CONTINUOUS
  0
LAYER
  2
St
 70
     0
 62
   127
  6
CONTINUOUS
  0
LAYER
  2
その他部品等
 70
     0
 62
   128
  6
CONTINUOUS
  0
LAYER
  2
ｶﾞｽｹｯﾄ
 70
     0
 62
   143
  6
CONTINUOUS
  0
LAYER
  2
ｽｹｯﾁ
 70
     0
 62
    14
  6
CONTINUOUS
  0
LAYER
  2
0
 70
     0
 62
    17
  6
CONTINUOUS
  0
LAYER
  2
1
 70
     0
 62
    30
  6
CONTINUOUS
  0
LAYER
  2
4
 70
     0
 62
    33
  6
CONTINUOUS
  0
LAYER
  2
ﾚｲﾔ3
 70
     0
 62
    46
  6
CONTINUOUS
  0
LAYER
  2
外形線
 70
     0
 62
    49
  6
CONTINUOUS
  0
LAYER
  2
部品
 70
     0
 62
    14
  6
CONTINUOUS
  0
LAYER
  2
サッシ芯
 70
     0
 62
    17
  6
DASHDOTX2
  0
LAYER
  2
寸法線
 70
     0
 62
    62
  6
CONTINUOUS
  0
LAYER
  2
姿図外形線
 70
     0
 62
    65
  6
CONTINUOUS
  0
LAYER
  2
姿補助線
 70
     0
 62
    30
  6
CONTINUOUS
  0
LAYER
  2
透視線
 70
     0
 62
    78
  6
DOT
  0
LAYER
  2
用紙
 70
     0
 62
    81
  6
CONTINUOUS
  0
LAYER
  2
実線図枠
 70
     0
 62
    94
  6
CONTINUOUS
  0
LAYER
  2
補助図枠
 70
     0
 62
    97
  6
CONTINUOUS
  0
LAYER
  2
建具記号
 70
     0
 62
   110
  6
CONTINUOUS
  0
LAYER
  2
補助文字
 70
     0
 62
   113
  6
CONTINUOUS
  0
ENDTAB
  0
TABLE
  2
STYLE
 70
    10
  0
STYLE
  2
STANDARD
 70
     0
 40
1.0
 41
1.0
 42
1.0
 50
0.0
 71
     0
  3
TXT
  4
BIGFONT
  0
STYLE
  2
TATE
 70
     4
 40
1.0
 41
1.0
 42
1.0
 50
0.0
 71
     0
  3
TXT
  4
BIGFONT
  0
STYLE
  2
TextStyle03
 70
     0
 40
1.0
 41
1.0
 42
1.0
 50
0.0
 71
     0
  3
MONOTXT
  4
BIGFONT
  0
STYLE
  2
TextStyle04
 70
     0
 40
1.0
 41
1.0
 42
1.0
 50
0.0
 71
     0
  3
MONOTXT
  4
BIGFONT
  0
STYLE
  2
TextStyle05
 70
     0
 40
1.0
 41
1.0
 42
1.0
 50
0.0
 71
     0
  3
MONOTXT
  4
BIGFONT
  0
STYLE
  2
TextStyle06
 70
     0
 40
1.0
 41
1.0
 42
1.0
 50
0.0
 71
     0
  3
MONOTXT
  4
BIGFONT
  0
STYLE
  2
TextStyle07
 70
     0
 40
1.0
 41
1.0
 42
1.0
 50
0.0
 71
     0
  3
MONOTXT
  4
BIGFONT
  0
STYLE
  2
TextStyle08
 70
     0
 40
1.0
 41
1.0
 42
1.0
 50
0.0
 71
     0
  3
MONOTXT
  4
BIGFONT
  0
STYLE
  2
TextStyle09
 70
     0
 40
1.0
 41
1.0
 42
1.0
 50
0.0
 71
     0
  3
MONOTXT
  4
BIGFONT
  0
STYLE
  2
TextStyle10
 70
     0
 40
1.0
 41
1.0
 42
1.0
 50
0.0
 71
     0
  3
MONOTXT
  4
BIGFONT
  0
ENDTAB
  0
ENDSEC
  0
SECTION
  2
BLOCKS
  0
BLOCK
  2
*GRP_0001
 70
    65
 10
0.0
 20
0.0
  0
LINE
  8
型材断面
  6
CONTINUOUS
 10
195.0
 20
133.5
 11
195.0
 21
-133.5
  0
LINE
  8
型材断面
  6
CONTINUOUS
 10
195.0
 20
-133.5
 11
-185.0
 21
-133.5
  0
LINE
  8
型材断面
  6
CONTINUOUS
 10
-185.0
 20
-133.5
 11
-185.0
 21
133.5
  0
LINE
  8
型材断面
  6
CONTINUOUS
 10
195.0
 20
133.5
 11
-185.0
 21
133.5
  0
LINE
  8
型材断面
  6
CONTINUOUS
 10
145.0
 20
-133.5
 11
145.0
 21
-118.5
  0
LINE
  8
型材断面
  6
CONTINUOUS
 10
195.0
 20
-118.5
 11
145.0
 21
-118.5
  0
ENDBLK
  0
BLOCK
  2
*DIM_0002
 70
    65
 10
0.0
 20
0.0
  0
LINE
  8
寸法
  6
BYBLOCK
 62
     0
 10
68.48755
 20
-64.87628
 11
93.4572
 21
-64.87628
  0
LINE
  8
寸法
  6
BYBLOCK
 62
     0
 10
93.4572
 20
-70.209613
 11
93.4572
 21
-64.87628
  0
POINT
  8
寸法
 62
     0
 10
93.4572
 20
-70.209613
  0
POINT
  8
寸法
 62
     0
 10
93.4572
 20
-64.87628
  0
TEXT
  7
TextStyle03
  8
寸法
  6
CONTINUOUS
 62
     0
 10
93.05
 20
-69.9875
  1
160
 40
3.0
 50
90.0
 72
     5
 11
93.05
 21
-65.1125
  0
ENDBLK
  0
BLOCK
  2
*DIM_0003
 70
    65
 10
0.0
 20
0.0
  0
LINE
  8
寸法
  6
BYBLOCK
 62
     0
 10
-122.51245
 20
-13.511205
 11
-122.51245
 21
-13.121378
  0
LINE
  8
寸法
  6
BYBLOCK
 62
     0
 10
77.48755
 20
-13.121378
 11
-122.51245
 21
-13.121378
  0
POINT
  8
寸法
 62
     0
 10
77.48755
 20
-13.121378
  0
POINT
  8
寸法
 62
     0
 10
-122.51245
 20
-13.121378
  0
TEXT
  7
TextStyle03
  8
寸法
  6
CONTINUOUS
 62
     0
 10
-34.26875
 20
-12.75
  1
呼称寸法　6000
 40
3.0
 72
     5
 11
-10.83125
 21
-12.75
  0
ENDBLK
  0
BLOCK
  2
*DIM_0004
 70
    65
 10
0.0
 20
0.0
  0
LINE
  8
寸法
  6
BYBLOCK
 62
     0
 10
-105.845783
 20
19.183902
 11
-105.845783
 21
13.963537
  0
LINE
  8
寸法
  6
BYBLOCK
 62
     0
 10
-22.51245
 20
19.183905
 11
-22.51245
 21
13.963537
  0
LINE
  8
寸法
  6
BYBLOCK
 62
     0
 10
-105.845783
 20
13.963537
 11
-22.51245
 21
13.963537
  0
POINT
  8
寸法
 62
     0
 10
-105.845783
 20
13.963537
  0
POINT
  8
寸法
 62
     0
 10
-22.51245
 20
13.963537
  0
TEXT
  7
TextStyle03
  8
寸法
  6
CONTINUOUS
 62
     0
 10
-67.48125
 20
14.325
  1
2500
 40
3.0
 72
     5
 11
-60.91875
 21
14.325
  0
ENDBLK
  0
BLOCK
  2
*DIM_0005
 70
    65
 10
0.0
 20
0.0
  0
LINE
  8
寸法
  6
BYBLOCK
 62
     0
 10
60.820882
 20
19.183902
 11
60.820882
 21
13.963537
  0
LINE
  8
寸法
  6
BYBLOCK
 62
     0
 10
-22.51245
 20
13.963537
 11
60.820882
 21
13.963537
  0
POINT
  8
寸法
 62
     0
 10
60.820882
 20
13.963537
  0
TEXT
  7
TextStyle03
  8
寸法
  6
CONTINUOUS
 62
     0
 10
15.86875
 20
14.325
  1
2500
 40
3.0
 72
     5
 11
22.43125
 21
14.325
  0
ENDBLK
  0
BLOCK
  2
*DIM_0006
 70
    65
 10
0.0
 20
0.0
  0
LINE
  8
寸法
  6
BYBLOCK
 62
     0
 10
111.5072
 20
22.814033
 11
111.5072
 21
42.814033
  0
POINT
  8
寸法
 62
     0
 10
111.5072
 20
22.814033
  0
POINT
  8
寸法
 62
     0
 10
111.5072
 20
42.814033
  0
TEXT
  7
TextStyle03
  8
寸法
  6
CONTINUOUS
 62
     0
 10
111.075
 20
21.925
  1
呼称寸法　600
 40
3.0
 50
90.0
 72
     5
 11
111.075
 21
43.675
  0
ENDBLK
  0
BLOCK
  2
*DIM_0007
 70
    65
 10
0.0
 20
0.0
  0
LINE
  8
寸法
  6
BYBLOCK
 62
     0
 10
161.687483
 20
33.814033
 11
161.687483
 21
60.666798
  0
LINE
  8
寸法
  6
BYBLOCK
 62
     0
 10
167.020815
 20
60.666798
 11
161.687483
 21
60.666798
  0
POINT
  8
寸法
 62
     0
 10
167.020815
 20
60.666798
  0
POINT
  8
寸法
 62
     0
 10
161.687483
 20
60.666798
  0
TEXT
  7
TextStyle03
  8
寸法
  6
CONTINUOUS
 62
     0
 10
161.8625
 20
61.025
  1
160
 40
3.0
 72
     5
 11
166.7375
 21
61.025
  0
ENDBLK
  0
BLOCK
  2
*DIM_0008
 70
    65
 10
0.0
 20
0.0
  0
LINE
  8
寸法
  6
BYBLOCK
 62
     0
 10
167.020815
 20
45.4807
 11
167.020815
 21
60.666798
  0
LINE
  8
寸法
  6
BYBLOCK
 62
     0
 10
173.804097
 20
45.7807
 11
173.804097
 21
60.666798
  0
LINE
  8
寸法
  6
BYBLOCK
 62
     0
 10
167.020815
 20
60.666798
 11
173.804097
 21
60.666798
  0
POINT
  8
寸法
 62
     0
 10
167.020815
 20
60.666798
  0
POINT
  8
寸法
 62
     0
 10
173.804097
 20
60.666798
  0
TEXT
  7
TextStyle03
  8
寸法
  6
CONTINUOUS
 62
     0
 10
174.65
 20
61.025
  1
203.5
 40
3.0
 72
     5
 11
182.9
 21
61.025
  0
ENDBLK
  0
BLOCK
  2
*DIM_0009
 70
    65
 10
0.0
 20
0.0
  0
LINE
  8
寸法
  6
BYBLOCK
 62
     0
 10
169.843455
 20
45.094035
 11
111.5072
 21
45.094035
  0
LINE
  8
寸法
  6
BYBLOCK
 62
     0
 10
111.5072
 20
42.814033
 11
111.5072
 21
45.094035
  0
POINT
  8
寸法
 62
     0
 10
111.5072
 20
42.814033
  0
POINT
  8
寸法
 62
     0
 10
111.5072
 20
45.094035
  0
TEXT
  7
TextStyle03
  8
寸法
  6
CONTINUOUS
 62
     0
 10
111.075
 20
47.41875
  1
68.4
 40
3.0
 50
90.0
 72
     5
 11
111.075
 21
53.98125
  0
ENDBLK
  0
BLOCK
  2
*DIM_0010
 70
    65
 10
0.0
 20
0.0
  0
LINE
  8
寸法
  6
BYBLOCK
 62
     0
 10
169.843455
 20
20.53403
 11
111.5072
 21
20.53403
  0
LINE
  8
寸法
  6
BYBLOCK
 62
     0
 10
111.5072
 20
22.814033
 11
111.5072
 21
20.53403
  0
POINT
  8
寸法
 62
     0
 10
111.5072
 20
22.814033
  0
POINT
  8
寸法
 62
     0
 10
111.5072
 20
20.53403
  0
TEXT
  7
TextStyle03
  8
寸法
  6
CONTINUOUS
 62
     0
 10
111.075
 20
11.61875
  1
68.4
 40
3.0
 50
90.0
 72
     5
 11
111.075
 21
18.18125
  0
ENDBLK
  0
BLOCK
  2
*DIM_0011
 70
    65
 10
0.0
 20
0.0
  0
LINE
  8
寸法
  6
BYBLOCK
 62
     0
 10
80.154218
 20
-70.209613
 11
93.4572
 21
-70.209613
  0
LINE
  8
寸法
  6
BYBLOCK
 62
     0
 10
80.454218
 20
-76.992895
 11
93.4572
 21
-76.992895
  0
LINE
  8
寸法
  6
BYBLOCK
 62
     0
 10
93.4572
 20
-70.209613
 11
93.4572
 21
-76.992895
  0
POINT
  8
寸法
 62
     0
 10
93.4572
 20
-70.209613
  0
POINT
  8
寸法
 62
     0
 10
93.4572
 20
-76.992895
  0
TEXT
  7
TextStyle03
  8
寸法
  6
CONTINUOUS
 62
     0
 10
93.025
 20
-86.175
  1
203.5
 40
3.0
 50
90.0
 72
     5
 11
93.025
 21
-77.925
  0
ENDBLK
  0
BLOCK
  2
*DIM_0012
 70
    65
 10
0.0
 20
0.0
  0
LINE
  8
寸法
  6
BYBLOCK
 62
     0
 10
79.767553
 20
-73.032252
 11
79.767553
 21
-13.121378
  0
LINE
  8
寸法
  6
BYBLOCK
 62
     0
 10
77.48755
 20
-13.121378
 11
79.767553
 21
-13.121378
  0
POINT
  8
寸法
 62
     0
 10
77.48755
 20
-13.121378
  0
POINT
  8
寸法
 62
     0
 10
79.767553
 20
-13.121378
  0
TEXT
  7
TextStyle03
  8
寸法
  6
CONTINUOUS
 62
     0
 10
82.04375
 20
-12.75
  1
68.4
 40
3.0
 72
     5
 11
88.60625
 21
-12.75
  0
ENDBLK
  0
BLOCK
  2
*DIM_0013
 70
    65
 10
0.0
 20
0.0
  0
LINE
  8
寸法
  6
BYBLOCK
 62
     0
 10
-124.792453
 20
-73.032252
 11
-124.792453
 21
-13.121378
  0
LINE
  8
寸法
  6
BYBLOCK
 62
     0
 10
-122.51245
 20
-13.121378
 11
-124.792453
 21
-13.121378
  0
POINT
  8
寸法
 62
     0
 10
-122.51245
 20
-13.121378
  0
POINT
  8
寸法
 62
     0
 10
-124.792453
 20
-13.121378
  0
TEXT
  7
TextStyle03
  8
寸法
  6
CONTINUOUS
 62
     0
 10
-133.70625
 20
-12.75
  1
68.4
 40
3.0
 72
     5
 11
-127.14375
 21
-12.75
  0
ENDBLK
  0
BLOCK
  2
*DIM_0014
 70
    65
 10
0.0
 20
0.0
  0
LINE
  8
寸法
  6
BYBLOCK
 62
     0
 10
81.117677
 20
38.914033
 11
87.89497
 21
38.914033
  0
LINE
  8
寸法
  6
BYBLOCK
 62
     0
 10
87.89497
 20
42.814033
 11
87.89497
 21
38.914033
  0
POINT
  8
寸法
 62
     0
 10
87.89497
 20
42.814033
  0
POINT
  8
寸法
 62
     0
 10
87.89497
 20
38.914033
  0
TEXT
  7
TextStyle03
  8
寸法
  6
CONTINUOUS
 62
     0
 10
87.6
 20
43.4875
  1
117
 40
3.0
 50
90.0
 72
     5
 11
87.6
 21
48.3625
  0
ENDBLK
  0
BLOCK
  2
*DIM_0015
 70
    65
 10
0.0
 20
0.0
  0
LINE
  8
寸法
  6
BYBLOCK
 62
     0
 10
81.117677
 20
26.714033
 11
87.89497
 21
26.714033
  0
LINE
  8
寸法
  6
BYBLOCK
 62
     0
 10
87.89497
 20
22.814033
 11
87.89497
 21
26.714033
  0
POINT
  8
寸法
 62
     0
 10
87.89497
 20
22.814033
  0
POINT
  8
寸法
 62
     0
 10
87.89497
 20
26.714033
  0
TEXT
  7
TextStyle03
  8
寸法
  6
CONTINUOUS
 62
     0
 10
87.775
 20
17.0125
  1
117
 40
3.0
 50
90.0
 72
     5
 11
87.775
 21
21.8875
  0
ENDBLK
  0
BLOCK
  2
*GRP_0016
 70
    65
 10
0.0
 20
0.0
  0
LINE
  8
別途部材
  6
CONTINUOUS
 62
    96
 10
-124.179115
 20
-70.209613
 11
-124.579115
 21
-71.209613
  0
LINE
  8
別途部材
  6
CONTINUOUS
 62
    96
 10
-124.179115
 20
-70.209613
 11
-22.51245
 21
-70.209613
  0
LINE
  8
別途部材
  6
CONTINUOUS
 10
-124.579115
 20
-71.209613
 11
-22.51245
 21
-71.209613
  0
ARC
  8
別途部材
  6
CONTINUOUS
 10
-112.512449
 20
-76.917952
 40
12.041668
 50
90.0
 51
146.144967
  0
LINE
  8
別途部材
  6
CONTINUOUS
 10
-23.01245
 20
-63.87628
 11
-24.01245
 21
-64.87628
  0
LINE
  8
別途部材
  6
CONTINUOUS
 10
-25.01245
 20
-64.87628
 11
-26.01245
 21
-63.87628
  0
LINE
  8
別途部材
  6
CONTINUOUS
 10
-27.01245
 20
-63.87628
 11
-28.01245
 21
-64.87628
  0
LINE
  8
別途部材
  6
CONTINUOUS
 10
-26.01245
 20
-63.87628
 11
-27.01245
 21
-63.87628
  0
LINE
  8
別途部材
  6
CONTINUOUS
 10
-23.01245
 20
-63.87628
 11
-22.51245
 21
-63.87628
  0
LINE
  8
別途部材
  6
CONTINUOUS
 10
-29.01245
 20
-64.87628
 11
-30.01245
 21
-63.87628
  0
LINE
  8
別途部材
  6
CONTINUOUS
 10
-31.01245
 20
-63.87628
 11
-32.01245
 21
-64.87628
  0
LINE
  8
別途部材
  6
CONTINUOUS
 10
-30.01245
 20
-63.87628
 11
-31.01245
 21
-63.87628
  0
LINE
  8
別途部材
  6
CONTINUOUS
 10
-33.01245
 20
-64.87628
 11
-34.01245
 21
-63.87628
  0
LINE
  8
別途部材
  6
CONTINUOUS
 10
-35.01245
 20
-63.87628
 11
-36.01245
 21
-64.87628
  0
LINE
  8
別途部材
  6
CONTINUOUS
 10
-34.01245
 20
-63.87628
 11
-35.01245
 21
-63.87628
  0
LINE
  8
別途部材
  6
CONTINUOUS
 10
-37.01245
 20
-64.87628
 11
-38.01245
 21
-63.87628
  0
LINE
  8
別途部材
  6
CONTINUOUS
 10
-39.01245
 20
-63.87628
 11
-40.01245
 21
-64.87628
  0
LINE
  8
別途部材
  6
CONTINUOUS
 10
-38.01245
 20
-63.87628
 11
-39.01245
 21
-63.87628
  0
LINE
  8
別途部材
  6
CONTINUOUS
 10
-41.01245
 20
-64.87628
 11
-42.01245
 21
-63.87628
  0
LINE
  8
別途部材
  6
CONTINUOUS
 10
-43.01245
 20
-63.87628
 11
-44.01245
 21
-64.87628
  0
LINE
  8
別途部材
  6
CONTINUOUS
 10
-42.01245
 20
-63.87628
 11
-43.01245
 21
-63.87628
  0
LINE
  8
別途部材
  6
CONTINUOUS
 10
-45.01245
 20
-64.87628
 11
-46.01245
 21
-63.87628
  0
LINE
  8
別途部材
  6
CONTINUOUS
 10
-47.01245
 20
-63.87628
 11
-48.01245
 21
-64.87628
  0
LINE
  8
別途部材
  6
CONTINUOUS
 10
-46.01245
 20
-63.87628
 11
-47.01245
 21
-63.87628
  0
LINE
  8
別途部材
  6
CONTINUOUS
 10
-49.01245
 20
-64.87628
 11
-50.01245
 21
-63.87628
  0
LINE
  8
別途部材
  6
CONTINUOUS
 10
-51.01245
 20
-63.87628
 11
-52.01245
 21
-64.87628
  0
LINE
  8
別途部材
  6
CONTINUOUS
 10
-50.01245
 20
-63.87628
 11
-51.01245
 21
-63.87628
  0
LINE
  8
別途部材
  6
CONTINUOUS
 10
-53.01245
 20
-64.87628
 11
-54.01245
 21
-63.87628
  0
LINE
  8
別途部材
  6
CONTINUOUS
 10
-55.01245
 20
-63.87628
 11
-56.01245
 21
-64.87628
  0
LINE
  8
別途部材
  6
CONTINUOUS
 10
-54.01245
 20
-63.87628
 11
-55.01245
 21
-63.87628
  0
LINE
  8
別途部材
  6
CONTINUOUS
 10
-57.01245
 20
-64.87628
 11
-58.01245
 21
-63.87628
  0
LINE
  8
別途部材
  6
CONTINUOUS
 10
-59.01245
 20
-63.87628
 11
-60.01245
 21
-64.87628
  0
LINE
  8
別途部材
  6
CONTINUOUS
 10
-58.01245
 20
-63.87628
 11
-59.01245
 21
-63.87628
  0
LINE
  8
別途部材
  6
CONTINUOUS
 10
-61.01245
 20
-64.87628
 11
-62.01245
 21
-63.87628
  0
LINE
  8
別途部材
  6
CONTINUOUS
 10
-63.01245
 20
-63.87628
 11
-64.01245
 21
-64.87628
  0
LINE
  8
別途部材
  6
CONTINUOUS
 10
-62.01245
 20
-63.87628
 11
-63.01245
 21
-63.87628
  0
LINE
  8
別途部材
  6
CONTINUOUS
 10
-65.01245
 20
-64.87628
 11
-66.01245
 21
-63.87628
  0
LINE
  8
別途部材
  6
CONTINUOUS
 10
-67.01245
 20
-63.87628
 11
-68.01245
 21
-64.87628
  0
LINE
  8
別途部材
  6
CONTINUOUS
 10
-66.01245
 20
-63.87628
 11
-67.01245
 21
-63.87628
  0
LINE
  8
別途部材
  6
CONTINUOUS
 10
-64.01245
 20
-64.87628
 11
-65.01245
 21
-64.87628
  0
LINE
  8
別途部材
  6
CONTINUOUS
 10
-60.01245
 20
-64.87628
 11
-61.01245
 21
-64.87628
  0
LINE
  8
別途部材
  6
CONTINUOUS
 10
-56.01245
 20
-64.87628
 11
-57.01245
 21
-64.87628
  0
LINE
  8
別途部材
  6
CONTINUOUS
 10
-52.01245
 20
-64.87628
 11
-53.01245
 21
-64.87628
  0
LINE
  8
別途部材
  6
CONTINUOUS
 10
-48.01245
 20
-64.87628
 11
-49.01245
 21
-64.87628
  0
LINE
  8
別途部材
  6
CONTINUOUS
 10
-44.01245
 20
-64.87628
 11
-45.01245
 21
-64.87628
  0
LINE
  8
別途部材
  6
CONTINUOUS
 10
-40.01245
 20
-64.87628
 11
-41.01245
 21
-64.87628
  0
LINE
  8
別途部材
  6
CONTINUOUS
 10
-36.01245
 20
-64.87628
 11
-37.01245
 21
-64.87628
  0
LINE
  8
別途部材
  6
CONTINUOUS
 10
-32.01245
 20
-64.87628
 11
-33.01245
 21
-64.87628
  0
LINE
  8
別途部材
  6
CONTINUOUS
 10
-28.01245
 20
-64.87628
 11
-29.01245
 21
-64.87628
  0
LINE
  8
別途部材
  6
CONTINUOUS
 10
-25.01245
 20
-64.87628
 11
-24.01245
 21
-64.87628
  0
LINE
  8
別途部材
  6
CONTINUOUS
 10
-69.01245
 20
-64.87628
 11
-70.01245
 21
-63.87628
  0
LINE
  8
別途部材
  6
CONTINUOUS
 10
-71.01245
 20
-63.87628
 11
-72.01245
 21
-64.87628
  0
LINE
  8
別途部材
  6
CONTINUOUS
 10
-70.01245
 20
-63.87628
 11
-71.01245
 21
-63.87628
  0
LINE
  8
別途部材
  6
CONTINUOUS
 10
-73.01245
 20
-64.87628
 11
-74.01245
 21
-63.87628
  0
LINE
  8
別途部材
  6
CONTINUOUS
 10
-75.01245
 20
-63.87628
 11
-76.01245
 21
-64.87628
  0
LINE
  8
別途部材
  6
CONTINUOUS
 10
-74.01245
 20
-63.87628
 11
-75.01245
 21
-63.87628
  0
LINE
  8
別途部材
  6
CONTINUOUS
 10
-77.01245
 20
-64.87628
 11
-78.01245
 21
-63.87628
  0
LINE
  8
別途部材
  6
CONTINUOUS
 10
-79.01245
 20
-63.87628
 11
-80.01245
 21
-64.87628
  0
LINE
  8
別途部材
  6
CONTINUOUS
 10
-78.01245
 20
-63.87628
 11
-79.01245
 21
-63.87628
  0
LINE
  8
別途部材
  6
CONTINUOUS
 10
-81.01245
 20
-64.87628
 11
-82.01245
 21
-63.87628
  0
LINE
  8
別途部材
  6
CONTINUOUS
 10
-83.01245
 20
-63.87628
 11
-84.01245
 21
-64.87628
  0
LINE
  8
別途部材
  6
CONTINUOUS
 10
-82.01245
 20
-63.87628
 11
-83.01245
 21
-63.87628
  0
LINE
  8
別途部材
  6
CONTINUOUS
 10
-85.01245
 20
-64.87628
 11
-86.01245
 21
-63.87628
  0
LINE
  8
別途部材
  6
CONTINUOUS
 10
-87.01245
 20
-63.87628
 11
-88.01245
 21
-64.87628
  0
LINE
  8
別途部材
  6
CONTINUOUS
 10
-86.01245
 20
-63.87628
 11
-87.01245
 21
-63.87628
  0
LINE
  8
別途部材
  6
CONTINUOUS
 10
-89.01245
 20
-64.87628
 11
-90.01245
 21
-63.87628
  0
LINE
  8
別途部材
  6
CONTINUOUS
 10
-91.01245
 20
-63.87628
 11
-92.01245
 21
-64.87628
  0
LINE
  8
別途部材
  6
CONTINUOUS
 10
-90.01245
 20
-63.87628
 11
-91.01245
 21
-63.87628
  0
LINE
  8
別途部材
  6
CONTINUOUS
 10
-93.01245
 20
-64.87628
 11
-94.01245
 21
-63.87628
  0
LINE
  8
別途部材
  6
CONTINUOUS
 10
-95.01245
 20
-63.87628
 11
-96.01245
 21
-64.87628
  0
LINE
  8
別途部材
  6
CONTINUOUS
 10
-94.01245
 20
-63.87628
 11
-95.01245
 21
-63.87628
  0
LINE
  8
別途部材
  6
CONTINUOUS
 10
-97.01245
 20
-64.87628
 11
-98.01245
 21
-63.87628
  0
LINE
  8
別途部材
  6
CONTINUOUS
 10
-99.01245
 20
-63.87628
 11
-100.01245
 21
-64.87628
  0
LINE
  8
別途部材
  6
CONTINUOUS
 10
-98.01245
 20
-63.87628
 11
-99.01245
 21
-63.87628
  0
LINE
  8
別途部材
  6
CONTINUOUS
 10
-96.01245
 20
-64.87628
 11
-97.01245
 21
-64.87628
  0
LINE
  8
別途部材
  6
CONTINUOUS
 10
-92.01245
 20
-64.87628
 11
-93.01245
 21
-64.87628
  0
LINE
  8
別途部材
  6
CONTINUOUS
 10
-88.01245
 20
-64.87628
 11
-89.01245
 21
-64.87628
  0
LINE
  8
別途部材
  6
CONTINUOUS
 10
-84.01245
 20
-64.87628
 11
-85.01245
 21
-64.87628
  0
LINE
  8
別途部材
  6
CONTINUOUS
 10
-80.01245
 20
-64.87628
 11
-81.01245
 21
-64.87628
  0
LINE
  8
別途部材
  6
CONTINUOUS
 10
-76.01245
 20
-64.87628
 11
-77.01245
 21
-64.87628
  0
LINE
  8
別途部材
  6
CONTINUOUS
 10
-72.01245
 20
-64.87628
 11
-73.01245
 21
-64.87628
  0
LINE
  8
別途部材
  6
CONTINUOUS
 10
-68.01245
 20
-64.87628
 11
-69.01245
 21
-64.87628
  0
LINE
  8
別途部材
  6
CONTINUOUS
 10
-101.01245
 20
-64.87628
 11
-102.01245
 21
-63.87628
  0
LINE
  8
別途部材
  6
CONTINUOUS
 10
-103.01245
 20
-63.87628
 11
-104.01245
 21
-64.87628
  0
LINE
  8
別途部材
  6
CONTINUOUS
 10
-102.01245
 20
-63.87628
 11
-103.01245
 21
-63.87628
  0
LINE
  8
別途部材
  6
CONTINUOUS
 10
-100.01245
 20
-64.87628
 11
-101.01245
 21
-64.87628
  0
LINE
  8
別途部材
  6
CONTINUOUS
 10
-105.01245
 20
-64.87628
 11
-106.01245
 21
-63.87628
  0
LINE
  8
別途部材
  6
CONTINUOUS
 10
-107.01245
 20
-63.87628
 11
-108.01245
 21
-64.87628
  0
LINE
  8
別途部材
  6
CONTINUOUS
 10
-106.01245
 20
-63.87628
 11
-107.01245
 21
-63.87628
  0
LINE
  8
別途部材
  6
CONTINUOUS
 10
-104.01245
 20
-64.87628
 11
-105.01245
 21
-64.87628
  0
LINE
  8
別途部材
  6
CONTINUOUS
 10
-108.01245
 20
-64.87628
 11
-108.01245
 21
-70.209613
  0
LINE
  8
別途部材
  6
CONTINUOUS
 10
-107.01245
 20
-63.87628
 11
-107.01245
 21
-70.209613
  0
LINE
  8
別途部材
  6
CONTINUOUS
 10
-106.01245
 20
-63.87628
 11
-106.01245
 21
-70.209613
  0
LINE
  8
別途部材
  6
CONTINUOUS
 10
-104.01245
 20
-64.87628
 11
-104.01245
 21
-70.209613
  0
LINE
  8
別途部材
  6
CONTINUOUS
 10
-105.01245
 20
-64.87628
 11
-105.01245
 21
-70.209613
  0
LINE
  8
別途部材
  6
CONTINUOUS
 10
-103.01245
 20
-63.87628
 11
-103.01245
 21
-70.209613
  0
LINE
  8
別途部材
  6
CONTINUOUS
 10
-102.01245
 20
-63.87628
 11
-102.01245
 21
-70.209613
  0
LINE
  8
別途部材
  6
CONTINUOUS
 10
-100.01245
 20
-64.87628
 11
-100.01245
 21
-70.209613
  0
LINE
  8
別途部材
  6
CONTINUOUS
 10
-98.01245
 20
-63.87628
 11
-98.01245
 21
-70.209613
  0
LINE
  8
別途部材
  6
CONTINUOUS
 10
-97.01245
 20
-64.87628
 11
-97.01245
 21
-70.209613
  0
LINE
  8
別途部材
  6
CONTINUOUS
 10
-99.01245
 20
-63.87628
 11
-99.01245
 21
-70.209613
  0
LINE
  8
別途部材
  6
CONTINUOUS
 10
-101.01245
 20
-64.87628
 11
-101.01245
 21
-70.209613
  0
LINE
  8
別途部材
  6
CONTINUOUS
 10
-96.01245
 20
-64.87628
 11
-96.01245
 21
-70.209613
  0
LINE
  8
別途部材
  6
CONTINUOUS
 10
-95.01245
 20
-63.87628
 11
-95.01245
 21
-70.209613
  0
LINE
  8
別途部材
  6
CONTINUOUS
 10
-93.01245
 20
-64.87628
 11
-93.01245
 21
-70.209613
  0
LINE
  8
別途部材
  6
CONTINUOUS
 10
-94.01245
 20
-63.87628
 11
-94.01245
 21
-70.209613
  0
LINE
  8
別途部材
  6
CONTINUOUS
 10
-91.01245
 20
-63.87628
 11
-91.01245
 21
-70.209613
  0
LINE
  8
別途部材
  6
CONTINUOUS
 10
-92.01245
 20
-64.87628
 11
-92.01245
 21
-70.209613
  0
LINE
  8
別途部材
  6
CONTINUOUS
 10
-90.01245
 20
-63.87628
 11
-90.01245
 21
-70.209613
  0
LINE
  8
別途部材
  6
CONTINUOUS
 10
-89.01245
 20
-64.87628
 11
-89.01245
 21
-70.209613
  0
LINE
  8
別途部材
  6
CONTINUOUS
 10
-87.01245
 20
-63.87628
 11
-87.01245
 21
-70.209613
  0
LINE
  8
別途部材
  6
CONTINUOUS
 10
-88.01245
 20
-64.87628
 11
-88.01245
 21
-70.209613
  0
LINE
  8
別途部材
  6
CONTINUOUS
 10
-85.01245
 20
-64.87628
 11
-85.01245
 21
-70.209613
  0
LINE
  8
別途部材
  6
CONTINUOUS
 10
-86.01245
 20
-63.87628
 11
-86.01245
 21
-70.209613
  0
LINE
  8
別途部材
  6
CONTINUOUS
 10
-84.01245
 20
-64.87628
 11
-84.01245
 21
-70.209613
  0
LINE
  8
別途部材
  6
CONTINUOUS
 10
-82.01245
 20
-63.87628
 11
-82.01245
 21
-70.209613
  0
LINE
  8
別途部材
  6
CONTINUOUS
 10
-83.01245
 20
-63.87628
 11
-83.01245
 21
-70.209613
  0
LINE
  8
別途部材
  6
CONTINUOUS
 10
-81.01245
 20
-64.87628
 11
-81.01245
 21
-70.209613
  0
LINE
  8
別途部材
  6
CONTINUOUS
 10
-80.01245
 20
-64.87628
 11
-80.01245
 21
-70.209613
  0
LINE
  8
別途部材
  6
CONTINUOUS
 10
-79.01245
 20
-63.87628
 11
-79.01245
 21
-70.209613
  0
LINE
  8
別途部材
  6
CONTINUOUS
 10
-78.01245
 20
-63.87628
 11
-78.01245
 21
-70.209613
  0
LINE
  8
別途部材
  6
CONTINUOUS
 10
-75.01245
 20
-63.87628
 11
-75.01245
 21
-70.209613
  0
LINE
  8
別途部材
  6
CONTINUOUS
 10
-73.01245
 20
-64.87628
 11
-73.01245
 21
-70.209613
  0
LINE
  8
別途部材
  6
CONTINUOUS
 10
-74.01245
 20
-63.87628
 11
-74.01245
 21
-70.209613
  0
LINE
  8
別途部材
  6
CONTINUOUS
 10
-76.01245
 20
-64.87628
 11
-76.01245
 21
-70.209613
  0
LINE
  8
別途部材
  6
CONTINUOUS
 10
-77.01245
 20
-64.87628
 11
-77.01245
 21
-70.209613
  0
LINE
  8
別途部材
  6
CONTINUOUS
 10
-72.01245
 20
-64.87628
 11
-72.01245
 21
-70.209613
  0
LINE
  8
別途部材
  6
CONTINUOUS
 10
-70.01245
 20
-63.87628
 11
-70.01245
 21
-70.209613
  0
LINE
  8
別途部材
  6
CONTINUOUS
 10
-71.01245
 20
-63.87628
 11
-71.01245
 21
-70.209613
  0
LINE
  8
別途部材
  6
CONTINUOUS
 10
-69.01245
 20
-64.87628
 11
-69.01245
 21
-70.209613
  0
LINE
  8
別途部材
  6
CONTINUOUS
 10
-67.01245
 20
-63.87628
 11
-67.01245
 21
-70.209613
  0
LINE
  8
別途部材
  6
CONTINUOUS
 10
-68.01245
 20
-64.87628
 11
-68.01245
 21
-70.209613
  0
LINE
  8
別途部材
  6
CONTINUOUS
 10
-66.01245
 20
-63.87628
 11
-66.01245
 21
-70.209613
  0
LINE
  8
別途部材
  6
CONTINUOUS
 10
-65.01245
 20
-64.87628
 11
-65.01245
 21
-70.209613
  0
LINE
  8
別途部材
  6
CONTINUOUS
 10
-63.01245
 20
-63.87628
 11
-63.01245
 21
-70.209613
  0
LINE
  8
別途部材
  6
CONTINUOUS
 10
-64.01245
 20
-64.87628
 11
-64.01245
 21
-70.209613
  0
LINE
  8
別途部材
  6
CONTINUOUS
 10
-60.01245
 20
-64.87628
 11
-60.01245
 21
-70.209613
  0
LINE
  8
別途部材
  6
CONTINUOUS
 10
-61.01245
 20
-64.87628
 11
-61.01245
 21
-70.209613
  0
LINE
  8
別途部材
  6
CONTINUOUS
 10
-62.01245
 20
-63.87628
 11
-62.01245
 21
-70.209613
  0
LINE
  8
別途部材
  6
CONTINUOUS
 10
-59.01245
 20
-63.87628
 11
-59.01245
 21
-70.209613
  0
LINE
  8
別途部材
  6
CONTINUOUS
 10
-58.01245
 20
-63.87628
 11
-58.01245
 21
-70.209613
  0
LINE
  8
別途部材
  6
CONTINUOUS
 10
-57.01245
 20
-64.87628
 11
-57.01245
 21
-70.209613
  0
LINE
  8
別途部材
  6
CONTINUOUS
 10
-55.01245
 20
-63.87628
 11
-55.01245
 21
-70.209613
  0
LINE
  8
別途部材
  6
CONTINUOUS
 10
-51.01245
 20
-63.87628
 11
-51.01245
 21
-70.209613
  0
LINE
  8
別途部材
  6
CONTINUOUS
 10
-52.01245
 20
-64.87628
 11
-52.01245
 21
-70.209613
  0
LINE
  8
別途部材
  6
CONTINUOUS
 10
-53.01245
 20
-64.87628
 11
-53.01245
 21
-70.209613
  0
LINE
  8
別途部材
  6
CONTINUOUS
 10
-54.01245
 20
-63.87628
 11
-54.01245
 21
-70.209613
  0
LINE
  8
別途部材
  6
CONTINUOUS
 10
-56.01245
 20
-64.87628
 11
-56.01245
 21
-70.209613
  0
LINE
  8
別途部材
  6
CONTINUOUS
 10
-49.01245
 20
-64.87628
 11
-49.01245
 21
-70.209613
  0
LINE
  8
別途部材
  6
CONTINUOUS
 10
-50.01245
 20
-63.87628
 11
-50.01245
 21
-70.209613
  0
LINE
  8
別途部材
  6
CONTINUOUS
 10
-48.01245
 20
-64.87628
 11
-48.01245
 21
-70.209613
  0
LINE
  8
別途部材
  6
CONTINUOUS
 10
-47.01245
 20
-63.87628
 11
-47.01245
 21
-70.209613
  0
LINE
  8
別途部材
  6
CONTINUOUS
 10
-43.01245
 20
-63.87628
 11
-43.01245
 21
-70.209613
  0
LINE
  8
別途部材
  6
CONTINUOUS
 10
-42.01245
 20
-63.87628
 11
-42.01245
 21
-70.209613
  0
LINE
  8
別途部材
  6
CONTINUOUS
 10
-44.01245
 20
-64.87628
 11
-44.01245
 21
-70.209613
  0
LINE
  8
別途部材
  6
CONTINUOUS
 10
-45.01245
 20
-64.87628
 11
-45.01245
 21
-70.209613
  0
LINE
  8
別途部材
  6
CONTINUOUS
 10
-46.01245
 20
-63.87628
 11
-46.01245
 21
-70.209613
  0
LINE
  8
別途部材
  6
CONTINUOUS
 10
-41.01245
 20
-64.87628
 11
-41.01245
 21
-70.209613
  0
LINE
  8
別途部材
  6
CONTINUOUS
 10
-39.01245
 20
-63.87628
 11
-39.01245
 21
-70.209613
  0
LINE
  8
別途部材
  6
CONTINUOUS
 10
-38.01245
 20
-63.87628
 11
-38.01245
 21
-70.209613
  0
LINE
  8
別途部材
  6
CONTINUOUS
 10
-37.01245
 20
-64.87628
 11
-37.01245
 21
-70.209613
  0
LINE
  8
別途部材
  6
CONTINUOUS
 10
-36.01245
 20
-64.87628
 11
-36.01245
 21
-70.209613
  0
LINE
  8
別途部材
  6
CONTINUOUS
 10
-35.01245
 20
-63.87628
 11
-35.01245
 21
-70.209613
  0
LINE
  8
別途部材
  6
CONTINUOUS
 10
-40.01245
 20
-64.87628
 11
-40.01245
 21
-70.209613
  0
LINE
  8
別途部材
  6
CONTINUOUS
 10
-34.01245
 20
-63.87628
 11
-34.01245
 21
-70.209613
  0
LINE
  8
別途部材
  6
CONTINUOUS
 10
-33.01245
 20
-64.87628
 11
-33.01245
 21
-70.209613
  0
LINE
  8
別途部材
  6
CONTINUOUS
 10
-32.01245
 20
-64.87628
 11
-32.01245
 21
-70.209613
  0
LINE
  8
別途部材
  6
CONTINUOUS
 10
-30.01245
 20
-63.87628
 11
-30.01245
 21
-70.209613
  0
LINE
  8
別途部材
  6
CONTINUOUS
 10
-28.01245
 20
-64.87628
 11
-28.01245
 21
-70.209613
  0
LINE
  8
別途部材
  6
CONTINUOUS
 10
-27.01245
 20
-63.87628
 11
-27.01245
 21
-70.209613
  0
LINE
  8
別途部材
  6
CONTINUOUS
 10
-25.01245
 20
-64.87628
 11
-25.01245
 21
-70.209613
  0
LINE
  8
別途部材
  6
CONTINUOUS
 10
-24.01245
 20
-64.87628
 11
-24.01245
 21
-70.209613
  0
LINE
  8
別途部材
  6
CONTINUOUS
 10
-23.01245
 20
-63.87628
 11
-23.01245
 21
-70.209613
  0
LINE
  8
別途部材
  6
CONTINUOUS
 10
-26.01245
 20
-63.87628
 11
-26.01245
 21
-70.209613
  0
LINE
  8
別途部材
  6
CONTINUOUS
 10
-29.01245
 20
-64.87628
 11
-29.01245
 21
-70.209613
  0
LINE
  8
別途部材
  6
CONTINUOUS
 10
-31.01245
 20
-63.87628
 11
-31.01245
 21
-70.209613
  0
LINE
  8
別途部材
  6
CONTINUOUS
 10
-109.01245
 20
-64.87628
 11
-110.01245
 21
-63.87628
  0
LINE
  8
別途部材
  6
CONTINUOUS
 10
-111.01245
 20
-63.87628
 11
-112.01245
 21
-64.87628
  0
LINE
  8
別途部材
  6
CONTINUOUS
 10
-110.01245
 20
-63.87628
 11
-111.01245
 21
-63.87628
  0
LINE
  8
別途部材
  6
CONTINUOUS
 10
-108.01245
 20
-64.87628
 11
-109.01245
 21
-64.87628
  0
LINE
  8
別途部材
  6
CONTINUOUS
 10
-112.01245
 20
-64.87628
 11
-112.01245
 21
-70.209613
  0
LINE
  8
別途部材
  6
CONTINUOUS
 10
-111.01245
 20
-63.87628
 11
-111.01245
 21
-70.209613
  0
LINE
  8
別途部材
  6
CONTINUOUS
 10
-110.01245
 20
-63.87628
 11
-110.01245
 21
-70.209613
  0
LINE
  8
別途部材
  6
CONTINUOUS
 10
-109.01245
 20
-64.87628
 11
-109.01245
 21
-70.209613
  0
LINE
  8
別途部材
  6
CONTINUOUS
 10
-112.01245
 20
-64.87628
 11
-112.51245
 21
-64.87628
  0
LINE
  8
別途部材
  6
CONTINUOUS
 62
    96
 10
79.154218
 20
-70.209613
 11
79.554218
 21
-71.209613
  0
LINE
  8
別途部材
  6
CONTINUOUS
 62
    96
 10
79.154218
 20
-70.209613
 11
-22.51245
 21
-70.209613
  0
LINE
  8
別途部材
  6
CONTINUOUS
 10
79.554218
 20
-71.209613
 11
-22.51245
 21
-71.209613
  0
ARC
  8
別途部材
  6
CONTINUOUS
 10
67.487551
 20
-76.917952
 40
12.041668
 50
33.855033
 51
90.0
  0
LINE
  8
別途部材
  6
CONTINUOUS
 10
-22.01245
 20
-63.87628
 11
-21.01245
 21
-64.87628
  0
LINE
  8
別途部材
  6
CONTINUOUS
 10
-20.01245
 20
-64.87628
 11
-19.01245
 21
-63.87628
  0
LINE
  8
別途部材
  6
CONTINUOUS
 10
-18.01245
 20
-63.87628
 11
-17.01245
 21
-64.87628
  0
LINE
  8
別途部材
  6
CONTINUOUS
 10
-19.01245
 20
-63.87628
 11
-18.01245
 21
-63.87628
  0
LINE
  8
別途部材
  6
CONTINUOUS
 10
-22.01245
 20
-63.87628
 11
-22.51245
 21
-63.87628
  0
LINE
  8
別途部材
  6
CONTINUOUS
 10
-16.01245
 20
-64.87628
 11
-15.01245
 21
-63.87628
  0
LINE
  8
別途部材
  6
CONTINUOUS
 10
-14.01245
 20
-63.87628
 11
-13.01245
 21
-64.87628
  0
LINE
  8
別途部材
  6
CONTINUOUS
 10
-15.01245
 20
-63.87628
 11
-14.01245
 21
-63.87628
  0
LINE
  8
別途部材
  6
CONTINUOUS
 10
-12.01245
 20
-64.87628
 11
-11.01245
 21
-63.87628
  0
LINE
  8
別途部材
  6
CONTINUOUS
 10
-10.01245
 20
-63.87628
 11
-9.01245
 21
-64.87628
  0
LINE
  8
別途部材
  6
CONTINUOUS
 10
-11.01245
 20
-63.87628
 11
-10.01245
 21
-63.87628
  0
LINE
  8
別途部材
  6
CONTINUOUS
 10
-8.01245
 20
-64.87628
 11
-7.01245
 21
-63.87628
  0
LINE
  8
別途部材
  6
CONTINUOUS
 10
-6.01245
 20
-63.87628
 11
-5.01245
 21
-64.87628
  0
LINE
  8
別途部材
  6
CONTINUOUS
 10
-7.01245
 20
-63.87628
 11
-6.01245
 21
-63.87628
  0
LINE
  8
別途部材
  6
CONTINUOUS
 10
-4.01245
 20
-64.87628
 11
-3.01245
 21
-63.87628
  0
LINE
  8
別途部材
  6
CONTINUOUS
 10
-2.01245
 20
-63.87628
 11
-1.01245
 21
-64.87628
  0
LINE
  8
別途部材
  6
CONTINUOUS
 10
-3.01245
 20
-63.87628
 11
-2.01245
 21
-63.87628
  0
LINE
  8
別途部材
  6
CONTINUOUS
 10
-0.01245
 20
-64.87628
 11
0.98755
 21
-63.87628
  0
LINE
  8
別途部材
  6
CONTINUOUS
 10
1.98755
 20
-63.87628
 11
2.98755
 21
-64.87628
  0
LINE
  8
別途部材
  6
CONTINUOUS
 10
0.98755
 20
-63.87628
 11
1.98755
 21
-63.87628
  0
LINE
  8
別途部材
  6
CONTINUOUS
 10
3.98755
 20
-64.87628
 11
4.98755
 21
-63.87628
  0
LINE
  8
別途部材
  6
CONTINUOUS
 10
5.98755
 20
-63.87628
 11
6.98755
 21
-64.87628
  0
LINE
  8
別途部材
  6
CONTINUOUS
 10
4.98755
 20
-63.87628
 11
5.98755
 21
-63.87628
  0
LINE
  8
別途部材
  6
CONTINUOUS
 10
7.98755
 20
-64.87628
 11
8.98755
 21
-63.87628
  0
LINE
  8
別途部材
  6
CONTINUOUS
 10
9.98755
 20
-63.87628
 11
10.98755
 21
-64.87628
  0
LINE
  8
別途部材
  6
CONTINUOUS
 10
8.98755
 20
-63.87628
 11
9.98755
 21
-63.87628
  0
LINE
  8
別途部材
  6
CONTINUOUS
 10
11.98755
 20
-64.87628
 11
12.98755
 21
-63.87628
  0
LINE
  8
別途部材
  6
CONTINUOUS
 10
13.98755
 20
-63.87628
 11
14.98755
 21
-64.87628
  0
LINE
  8
別途部材
  6
CONTINUOUS
 10
12.98755
 20
-63.87628
 11
13.98755
 21
-63.87628
  0
LINE
  8
別途部材
  6
CONTINUOUS
 10
15.98755
 20
-64.87628
 11
16.98755
 21
-63.87628
  0
LINE
  8
別途部材
  6
CONTINUOUS
 10
17.98755
 20
-63.87628
 11
18.98755
 21
-64.87628
  0
LINE
  8
別途部材
  6
CONTINUOUS
 10
16.98755
 20
-63.87628
 11
17.98755
 21
-63.87628
  0
LINE
  8
別途部材
  6
CONTINUOUS
 10
19.98755
 20
-64.87628
 11
20.98755
 21
-63.87628
  0
LINE
  8
別途部材
  6
CONTINUOUS
 10
21.98755
 20
-63.87628
 11
22.98755
 21
-64.87628
  0
LINE
  8
別途部材
  6
CONTINUOUS
 10
20.98755
 20
-63.87628
 11
21.98755
 21
-63.87628
  0
LINE
  8
別途部材
  6
CONTINUOUS
 10
18.98755
 20
-64.87628
 11
19.98755
 21
-64.87628
  0
LINE
  8
別途部材
  6
CONTINUOUS
 10
14.98755
 20
-64.87628
 11
15.98755
 21
-64.87628
  0
LINE
  8
別途部材
  6
CONTINUOUS
 10
10.98755
 20
-64.87628
 11
11.98755
 21
-64.87628
  0
LINE
  8
別途部材
  6
CONTINUOUS
 10
6.98755
 20
-64.87628
 11
7.98755
 21
-64.87628
  0
LINE
  8
別途部材
  6
CONTINUOUS
 10
2.98755
 20
-64.87628
 11
3.98755
 21
-64.87628
  0
LINE
  8
別途部材
  6
CONTINUOUS
 10
-1.01245
 20
-64.87628
 11
-0.01245
 21
-64.87628
  0
LINE
  8
別途部材
  6
CONTINUOUS
 10
-5.01245
 20
-64.87628
 11
-4.01245
 21
-64.87628
  0
LINE
  8
別途部材
  6
CONTINUOUS
 10
-9.01245
 20
-64.87628
 11
-8.01245
 21
-64.87628
  0
LINE
  8
別途部材
  6
CONTINUOUS
 10
-13.01245
 20
-64.87628
 11
-12.01245
 21
-64.87628
  0
LINE
  8
別途部材
  6
CONTINUOUS
 10
-17.01245
 20
-64.87628
 11
-16.01245
 21
-64.87628
  0
LINE
  8
別途部材
  6
CONTINUOUS
 10
-20.01245
 20
-64.87628
 11
-21.01245
 21
-64.87628
  0
LINE
  8
別途部材
  6
CONTINUOUS
 10
23.98755
 20
-64.87628
 11
24.98755
 21
-63.87628
  0
LINE
  8
別途部材
  6
CONTINUOUS
 10
25.98755
 20
-63.87628
 11
26.98755
 21
-64.87628
  0
LINE
  8
別途部材
  6
CONTINUOUS
 10
24.98755
 20
-63.87628
 11
25.98755
 21
-63.87628
  0
LINE
  8
別途部材
  6
CONTINUOUS
 10
27.98755
 20
-64.87628
 11
28.98755
 21
-63.87628
  0
LINE
  8
別途部材
  6
CONTINUOUS
 10
29.98755
 20
-63.87628
 11
30.98755
 21
-64.87628
  0
LINE
  8
別途部材
  6
CONTINUOUS
 10
28.98755
 20
-63.87628
 11
29.98755
 21
-63.87628
  0
LINE
  8
別途部材
  6
CONTINUOUS
 10
31.98755
 20
-64.87628
 11
32.98755
 21
-63.87628
  0
LINE
  8
別途部材
  6
CONTINUOUS
 10
33.98755
 20
-63.87628
 11
34.98755
 21
-64.87628
  0
LINE
  8
別途部材
  6
CONTINUOUS
 10
32.98755
 20
-63.87628
 11
33.98755
 21
-63.87628
  0
LINE
  8
別途部材
  6
CONTINUOUS
 10
35.98755
 20
-64.87628
 11
36.98755
 21
-63.87628
  0
LINE
  8
別途部材
  6
CONTINUOUS
 10
37.98755
 20
-63.87628
 11
38.98755
 21
-64.87628
  0
LINE
  8
別途部材
  6
CONTINUOUS
 10
36.98755
 20
-63.87628
 11
37.98755
 21
-63.87628
  0
LINE
  8
別途部材
  6
CONTINUOUS
 10
39.98755
 20
-64.87628
 11
40.98755
 21
-63.87628
  0
LINE
  8
別途部材
  6
CONTINUOUS
 10
41.98755
 20
-63.87628
 11
42.98755
 21
-64.87628
  0
LINE
  8
別途部材
  6
CONTINUOUS
 10
40.98755
 20
-63.87628
 11
41.98755
 21
-63.87628
  0
LINE
  8
別途部材
  6
CONTINUOUS
 10
43.98755
 20
-64.87628
 11
44.98755
 21
-63.87628
  0
LINE
  8
別途部材
  6
CONTINUOUS
 10
45.98755
 20
-63.87628
 11
46.98755
 21
-64.87628
  0
LINE
  8
別途部材
  6
CONTINUOUS
 10
44.98755
 20
-63.87628
 11
45.98755
 21
-63.87628
  0
LINE
  8
別途部材
  6
CONTINUOUS
 10
47.98755
 20
-64.87628
 11
48.98755
 21
-63.87628
  0
LINE
  8
別途部材
  6
CONTINUOUS
 10
49.98755
 20
-63.87628
 11
50.98755
 21
-64.87628
  0
LINE
  8
別途部材
  6
CONTINUOUS
 10
48.98755
 20
-63.87628
 11
49.98755
 21
-63.87628
  0
LINE
  8
別途部材
  6
CONTINUOUS
 10
51.98755
 20
-64.87628
 11
52.98755
 21
-63.87628
  0
LINE
  8
別途部材
  6
CONTINUOUS
 10
53.98755
 20
-63.87628
 11
54.98755
 21
-64.87628
  0
LINE
  8
別途部材
  6
CONTINUOUS
 10
52.98755
 20
-63.87628
 11
53.98755
 21
-63.87628
  0
LINE
  8
別途部材
  6
CONTINUOUS
 10
50.98755
 20
-64.87628
 11
51.98755
 21
-64.87628
  0
LINE
  8
別途部材
  6
CONTINUOUS
 10
46.98755
 20
-64.87628
 11
47.98755
 21
-64.87628
  0
LINE
  8
別途部材
  6
CONTINUOUS
 10
42.98755
 20
-64.87628
 11
43.98755
 21
-64.87628
  0
LINE
  8
別途部材
  6
CONTINUOUS
 10
38.98755
 20
-64.87628
 11
39.98755
 21
-64.87628
  0
LINE
  8
別途部材
  6
CONTINUOUS
 10
34.98755
 20
-64.87628
 11
35.98755
 21
-64.87628
  0
LINE
  8
別途部材
  6
CONTINUOUS
 10
30.98755
 20
-64.87628
 11
31.98755
 21
-64.87628
  0
LINE
  8
別途部材
  6
CONTINUOUS
 10
26.98755
 20
-64.87628
 11
27.98755
 21
-64.87628
  0
LINE
  8
別途部材
  6
CONTINUOUS
 10
22.98755
 20
-64.87628
 11
23.98755
 21
-64.87628
  0
LINE
  8
別途部材
  6
CONTINUOUS
 10
55.98755
 20
-64.87628
 11
56.98755
 21
-63.87628
  0
LINE
  8
別途部材
  6
CONTINUOUS
 10
57.98755
 20
-63.87628
 11
58.98755
 21
-64.87628
  0
LINE
  8
別途部材
  6
CONTINUOUS
 10
56.98755
 20
-63.87628
 11
57.98755
 21
-63.87628
  0
LINE
  8
別途部材
  6
CONTINUOUS
 10
54.98755
 20
-64.87628
 11
55.98755
 21
-64.87628
  0
LINE
  8
別途部材
  6
CONTINUOUS
 10
59.98755
 20
-64.87628
 11
60.98755
 21
-63.87628
  0
LINE
  8
別途部材
  6
CONTINUOUS
 10
61.98755
 20
-63.87628
 11
62.98755
 21
-64.87628
  0
LINE
  8
別途部材
  6
CONTINUOUS
 10
60.98755
 20
-63.87628
 11
61.98755
 21
-63.87628
  0
LINE
  8
別途部材
  6
CONTINUOUS
 10
58.98755
 20
-64.87628
 11
59.98755
 21
-64.87628
  0
LINE
  8
別途部材
  6
CONTINUOUS
 10
62.98755
 20
-64.87628
 11
62.98755
 21
-70.209613
  0
LINE
  8
別途部材
  6
CONTINUOUS
 10
61.98755
 20
-63.87628
 11
61.98755
 21
-70.209613
  0
LINE
  8
別途部材
  6
CONTINUOUS
 10
60.98755
 20
-63.87628
 11
60.98755
 21
-70.209613
  0
LINE
  8
別途部材
  6
CONTINUOUS
 10
58.98755
 20
-64.87628
 11
58.98755
 21
-70.209613
  0
LINE
  8
別途部材
  6
CONTINUOUS
 10
59.98755
 20
-64.87628
 11
59.98755
 21
-70.209613
  0
LINE
  8
別途部材
  6
CONTINUOUS
 10
57.98755
 20
-63.87628
 11
57.98755
 21
-70.209613
  0
LINE
  8
別途部材
  6
CONTINUOUS
 10
56.98755
 20
-63.87628
 11
56.98755
 21
-70.209613
  0
LINE
  8
別途部材
  6
CONTINUOUS
 10
54.98755
 20
-64.87628
 11
54.98755
 21
-70.209613
  0
LINE
  8
別途部材
  6
CONTINUOUS
 10
52.98755
 20
-63.87628
 11
52.98755
 21
-70.209613
  0
LINE
  8
別途部材
  6
CONTINUOUS
 10
51.98755
 20
-64.87628
 11
51.98755
 21
-70.209613
  0
LINE
  8
別途部材
  6
CONTINUOUS
 10
53.98755
 20
-63.87628
 11
53.98755
 21
-70.209613
  0
LINE
  8
別途部材
  6
CONTINUOUS
 10
55.98755
 20
-64.87628
 11
55.98755
 21
-70.209613
  0
LINE
  8
別途部材
  6
CONTINUOUS
 10
50.98755
 20
-64.87628
 11
50.98755
 21
-70.209613
  0
LINE
  8
別途部材
  6
CONTINUOUS
 10
49.98755
 20
-63.87628
 11
49.98755
 21
-70.209613
  0
LINE
  8
別途部材
  6
CONTINUOUS
 10
47.98755
 20
-64.87628
 11
47.98755
 21
-70.209613
  0
LINE
  8
別途部材
  6
CONTINUOUS
 10
48.98755
 20
-63.87628
 11
48.98755
 21
-70.209613
  0
LINE
  8
別途部材
  6
CONTINUOUS
 10
45.98755
 20
-63.87628
 11
45.98755
 21
-70.209613
  0
LINE
  8
別途部材
  6
CONTINUOUS
 10
46.98755
 20
-64.87628
 11
46.98755
 21
-70.209613
  0
LINE
  8
別途部材
  6
CONTINUOUS
 10
44.98755
 20
-63.87628
 11
44.98755
 21
-70.209613
  0
LINE
  8
別途部材
  6
CONTINUOUS
 10
43.98755
 20
-64.87628
 11
43.98755
 21
-70.209613
  0
LINE
  8
別途部材
  6
CONTINUOUS
 10
41.98755
 20
-63.87628
 11
41.98755
 21
-70.209613
  0
LINE
  8
別途部材
  6
CONTINUOUS
 10
42.98755
 20
-64.87628
 11
42.98755
 21
-70.209613
  0
LINE
  8
別途部材
  6
CONTINUOUS
 10
39.98755
 20
-64.87628
 11
39.98755
 21
-70.209613
  0
LINE
  8
別途部材
  6
CONTINUOUS
 10
40.98755
 20
-63.87628
 11
40.98755
 21
-70.209613
  0
LINE
  8
別途部材
  6
CONTINUOUS
 10
38.98755
 20
-64.87628
 11
38.98755
 21
-70.209613
  0
LINE
  8
別途部材
  6
CONTINUOUS
 10
36.98755
 20
-63.87628
 11
36.98755
 21
-70.209613
  0
LINE
  8
別途部材
  6
CONTINUOUS
 10
37.98755
 20
-63.87628
 11
37.98755
 21
-70.209613
  0
LINE
  8
別途部材
  6
CONTINUOUS
 10
35.98755
 20
-64.87628
 11
35.98755
 21
-70.209613
  0
LINE
  8
別途部材
  6
CONTINUOUS
 10
34.98755
 20
-64.87628
 11
34.98755
 21
-70.209613
  0
LINE
  8
別途部材
  6
CONTINUOUS
 10
33.98755
 20
-63.87628
 11
33.98755
 21
-70.209613
  0
LINE
  8
別途部材
  6
CONTINUOUS
 10
32.98755
 20
-63.87628
 11
32.98755
 21
-70.209613
  0
LINE
  8
別途部材
  6
CONTINUOUS
 10
29.98755
 20
-63.87628
 11
29.98755
 21
-70.209613
  0
LINE
  8
別途部材
  6
CONTINUOUS
 10
27.98755
 20
-64.87628
 11
27.98755
 21
-70.209613
  0
LINE
  8
別途部材
  6
CONTINUOUS
 10
28.98755
 20
-63.87628
 11
28.98755
 21
-70.209613
  0
LINE
  8
別途部材
  6
CONTINUOUS
 10
30.98755
 20
-64.87628
 11
30.98755
 21
-70.209613
  0
LINE
  8
別途部材
  6
CONTINUOUS
 10
31.98755
 20
-64.87628
 11
31.98755
 21
-70.209613
  0
LINE
  8
別途部材
  6
CONTINUOUS
 10
26.98755
 20
-64.87628
 11
26.98755
 21
-70.209613
  0
LINE
  8
別途部材
  6
CONTINUOUS
 10
24.98755
 20
-63.87628
 11
24.98755
 21
-70.209613
  0
LINE
  8
別途部材
  6
CONTINUOUS
 10
25.98755
 20
-63.87628
 11
25.98755
 21
-70.209613
  0
LINE
  8
別途部材
  6
CONTINUOUS
 10
23.98755
 20
-64.87628
 11
23.98755
 21
-70.209613
  0
LINE
  8
別途部材
  6
CONTINUOUS
 10
21.98755
 20
-63.87628
 11
21.98755
 21
-70.209613
  0
LINE
  8
別途部材
  6
CONTINUOUS
 10
22.98755
 20
-64.87628
 11
22.98755
 21
-70.209613
  0
LINE
  8
別途部材
  6
CONTINUOUS
 10
20.98755
 20
-63.87628
 11
20.98755
 21
-70.209613
  0
LINE
  8
別途部材
  6
CONTINUOUS
 10
19.98755
 20
-64.87628
 11
19.98755
 21
-70.209613
  0
LINE
  8
別途部材
  6
CONTINUOUS
 10
17.98755
 20
-63.87628
 11
17.98755
 21
-70.209613
  0
LINE
  8
別途部材
  6
CONTINUOUS
 10
18.98755
 20
-64.87628
 11
18.98755
 21
-70.209613
  0
LINE
  8
別途部材
  6
CONTINUOUS
 10
14.98755
 20
-64.87628
 11
14.98755
 21
-70.209613
  0
LINE
  8
別途部材
  6
CONTINUOUS
 10
15.98755
 20
-64.87628
 11
15.98755
 21
-70.209613
  0
LINE
  8
別途部材
  6
CONTINUOUS
 10
16.98755
 20
-63.87628
 11
16.98755
 21
-70.209613
  0
LINE
  8
別途部材
  6
CONTINUOUS
 10
13.98755
 20
-63.87628
 11
13.98755
 21
-70.209613
  0
LINE
  8
別途部材
  6
CONTINUOUS
 10
12.98755
 20
-63.87628
 11
12.98755
 21
-70.209613
  0
LINE
  8
別途部材
  6
CONTINUOUS
 10
11.98755
 20
-64.87628
 11
11.98755
 21
-70.209613
  0
LINE
  8
別途部材
  6
CONTINUOUS
 10
9.98755
 20
-63.87628
 11
9.98755
 21
-70.209613
  0
LINE
  8
別途部材
  6
CONTINUOUS
 10
5.98755
 20
-63.87628
 11
5.98755
 21
-70.209613
  0
LINE
  8
別途部材
  6
CONTINUOUS
 10
6.98755
 20
-64.87628
 11
6.98755
 21
-70.209613
  0
LINE
  8
別途部材
  6
CONTINUOUS
 10
7.98755
 20
-64.87628
 11
7.98755
 21
-70.209613
  0
LINE
  8
別途部材
  6
CONTINUOUS
 10
8.98755
 20
-63.87628
 11
8.98755
 21
-70.209613
  0
LINE
  8
別途部材
  6
CONTINUOUS
 10
10.98755
 20
-64.87628
 11
10.98755
 21
-70.209613
  0
LINE
  8
別途部材
  6
CONTINUOUS
 10
3.98755
 20
-64.87628
 11
3.98755
 21
-70.209613
  0
LINE
  8
別途部材
  6
CONTINUOUS
 10
4.98755
 20
-63.87628
 11
4.98755
 21
-70.209613
  0
LINE
  8
別途部材
  6
CONTINUOUS
 10
2.98755
 20
-64.87628
 11
2.98755
 21
-70.209613
  0
LINE
  8
別途部材
  6
CONTINUOUS
 10
1.98755
 20
-63.87628
 11
1.98755
 21
-70.209613
  0
LINE
  8
別途部材
  6
CONTINUOUS
 10
-2.01245
 20
-63.87628
 11
-2.01245
 21
-70.209613
  0
LINE
  8
別途部材
  6
CONTINUOUS
 10
-3.01245
 20
-63.87628
 11
-3.01245
 21
-70.209613
  0
LINE
  8
別途部材
  6
CONTINUOUS
 10
-1.01245
 20
-64.87628
 11
-1.01245
 21
-70.209613
  0
LINE
  8
別途部材
  6
CONTINUOUS
 10
-0.01245
 20
-64.87628
 11
-0.01245
 21
-70.209613
  0
LINE
  8
別途部材
  6
CONTINUOUS
 10
0.98755
 20
-63.87628
 11
0.98755
 21
-70.209613
  0
LINE
  8
別途部材
  6
CONTINUOUS
 10
-4.01245
 20
-64.87628
 11
-4.01245
 21
-70.209613
  0
LINE
  8
別途部材
  6
CONTINUOUS
 10
-6.01245
 20
-63.87628
 11
-6.01245
 21
-70.209613
  0
LINE
  8
別途部材
  6
CONTINUOUS
 10
-7.01245
 20
-63.87628
 11
-7.01245
 21
-70.209613
  0
LINE
  8
別途部材
  6
CONTINUOUS
 10
-8.01245
 20
-64.87628
 11
-8.01245
 21
-70.209613
  0
LINE
  8
別途部材
  6
CONTINUOUS
 10
-9.01245
 20
-64.87628
 11
-9.01245
 21
-70.209613
  0
LINE
  8
別途部材
  6
CONTINUOUS
 10
-10.01245
 20
-63.87628
 11
-10.01245
 21
-70.209613
  0
LINE
  8
別途部材
  6
CONTINUOUS
 10
-5.01245
 20
-64.87628
 11
-5.01245
 21
-70.209613
  0
LINE
  8
別途部材
  6
CONTINUOUS
 10
-11.01245
 20
-63.87628
 11
-11.01245
 21
-70.209613
  0
LINE
  8
別途部材
  6
CONTINUOUS
 10
-12.01245
 20
-64.87628
 11
-12.01245
 21
-70.209613
  0
LINE
  8
別途部材
  6
CONTINUOUS
 10
-13.01245
 20
-64.87628
 11
-13.01245
 21
-70.209613
  0
LINE
  8
別途部材
  6
CONTINUOUS
 10
-15.01245
 20
-63.87628
 11
-15.01245
 21
-70.209613
  0
LINE
  8
別途部材
  6
CONTINUOUS
 10
-17.01245
 20
-64.87628
 11
-17.01245
 21
-70.209613
  0
LINE
  8
別途部材
  6
CONTINUOUS
 10
-18.01245
 20
-63.87628
 11
-18.01245
 21
-70.209613
  0
LINE
  8
別途部材
  6
CONTINUOUS
 10
-20.01245
 20
-64.87628
 11
-20.01245
 21
-70.209613
  0
LINE
  8
別途部材
  6
CONTINUOUS
 10
-21.01245
 20
-64.87628
 11
-21.01245
 21
-70.209613
  0
LINE
  8
別途部材
  6
CONTINUOUS
 10
-22.01245
 20
-63.87628
 11
-22.01245
 21
-70.209613
  0
LINE
  8
別途部材
  6
CONTINUOUS
 10
-19.01245
 20
-63.87628
 11
-19.01245
 21
-70.209613
  0
LINE
  8
別途部材
  6
CONTINUOUS
 10
-16.01245
 20
-64.87628
 11
-16.01245
 21
-70.209613
  0
LINE
  8
別途部材
  6
CONTINUOUS
 10
-14.01245
 20
-63.87628
 11
-14.01245
 21
-70.209613
  0
LINE
  8
別途部材
  6
CONTINUOUS
 10
63.98755
 20
-64.87628
 11
64.98755
 21
-63.87628
  0
LINE
  8
別途部材
  6
CONTINUOUS
 10
65.98755
 20
-63.87628
 11
66.98755
 21
-64.87628
  0
LINE
  8
別途部材
  6
CONTINUOUS
 10
64.98755
 20
-63.87628
 11
65.98755
 21
-63.87628
  0
LINE
  8
別途部材
  6
CONTINUOUS
 10
62.98755
 20
-64.87628
 11
63.98755
 21
-64.87628
  0
LINE
  8
別途部材
  6
CONTINUOUS
 10
66.98755
 20
-64.87628
 11
66.98755
 21
-70.209613
  0
LINE
  8
別途部材
  6
CONTINUOUS
 10
65.98755
 20
-63.87628
 11
65.98755
 21
-70.209613
  0
LINE
  8
別途部材
  6
CONTINUOUS
 10
64.98755
 20
-63.87628
 11
64.98755
 21
-70.209613
  0
LINE
  8
別途部材
  6
CONTINUOUS
 10
63.98755
 20
-64.87628
 11
63.98755
 21
-70.209613
  0
LINE
  8
別途部材
  6
CONTINUOUS
 10
66.98755
 20
-64.87628
 11
67.48755
 21
-64.87628
  0
ENDBLK
  0
BLOCK
  2
*GRP_0017
 70
    65
 10
0.0
 20
0.0
  0
LINE
  8
補助線
  6
BYBLOCK
 62
    64
 10
-119.104655
 20
-75.132365
 11
-119.25358
 21
-75.20719
  0
LINE
  8
補助線
  6
BYBLOCK
 62
    64
 10
-119.21653
 20
-75.095313
 11
-119.141705
 21
-75.24424
  0
LINE
  8
補助線
  6
BYBLOCK
 62
    64
 10
-109.186175
 20
-70.149007
 11
-109.335102
 21
-70.223833
  0
LINE
  8
補助線
  6
BYBLOCK
 62
    64
 10
-109.298053
 20
-70.111955
 11
-109.223228
 21
-70.260883
  0
LINE
  8
補助線
  6
BYBLOCK
 62
    64
 10
-99.416625
 20
-65.240475
 11
-99.267698
 21
-65.16565
  0
LINE
  8
補助線
  6
BYBLOCK
 62
    64
 10
-99.379575
 20
-65.128597
 11
-99.30475
 21
-65.277525
  0
LINE
  8
型材断面
  6
CONTINUOUS
 10
-119.851095
 20
-74.5748
 11
-120.073398
 21
-75.246053
  0
LINE
  8
型材断面
  6
CONTINUOUS
 10
-120.073398
 20
-75.246053
 11
-119.774095
 21
-75.841758
  0
LINE
  8
型材断面
  6
CONTINUOUS
 10
-119.774095
 20
-75.841758
 11
-119.102843
 21
-76.06406
  0
LINE
  8
型材断面
  6
CONTINUOUS
 10
-99.418437
 20
-64.308782
 11
-98.747182
 21
-64.531085
  0
LINE
  8
型材断面
  6
CONTINUOUS
 10
-98.747182
 20
-64.531085
 11
-98.44788
 21
-65.12679
  0
LINE
  8
型材断面
  6
CONTINUOUS
 10
-98.44788
 20
-65.12679
 11
-98.670185
 21
-65.798042
  0
LINE
  8
型材断面
  6
CONTINUOUS
 10
-119.851095
 20
-74.5748
 11
-99.418437
 21
-64.308782
  0
LINE
  8
型材断面
  6
CONTINUOUS
 10
-119.102843
 20
-76.06406
 11
-98.670185
 21
-65.798042
  0
CIRCLE
  8
ボルト／ビス
  6
CONTINUOUS
 10
-119.179118
 20
-75.169777
 40
0.250185
  0
CIRCLE
  8
ボルト／ビス
  6
CONTINUOUS
 10
-119.179118
 20
-75.169777
 40
0.301025
  0
LINE
  8
ボルト／ビス
  6
CONTINUOUS
 62
    64
 10
-119.428882
 20
-75.155275
 11
-119.291438
 21
-74.946225
  0
LINE
  8
ボルト／ビス
  6
CONTINUOUS
 62
    64
 10
-119.041673
 20
-74.960728
 11
-119.291438
 21
-74.946225
  0
LINE
  8
ボルト／ビス
  6
CONTINUOUS
 62
    64
 10
-119.316562
 20
-75.378827
 11
-119.066798
 21
-75.39333
  0
LINE
  8
ボルト／ビス
  6
CONTINUOUS
 62
    64
 10
-118.929353
 20
-75.18428
 11
-119.066798
 21
-75.39333
  0
LINE
  8
ボルト／ビス
  6
CONTINUOUS
 62
    64
 10
-119.428882
 20
-75.155275
 11
-119.316562
 21
-75.378827
  0
LINE
  8
ボルト／ビス
  6
CONTINUOUS
 62
    64
 10
-119.041673
 20
-74.960728
 11
-118.929353
 21
-75.18428
  0
CIRCLE
  8
ボルト／ビス
  6
CONTINUOUS
 62
    64
 10
-119.179118
 20
-75.169777
 40
0.216668
  0
CIRCLE
  8
ボルト／ビス
  6
CONTINUOUS
 10
-109.26064
 20
-70.18642
 40
0.250185
  0
CIRCLE
  8
ボルト／ビス
  6
CONTINUOUS
 10
-109.26064
 20
-70.18642
 40
0.301025
  0
LINE
  8
ボルト／ビス
  6
CONTINUOUS
 62
    64
 10
-109.510405
 20
-70.171915
 11
-109.37296
 21
-69.962865
  0
LINE
  8
ボルト／ビス
  6
CONTINUOUS
 62
    64
 10
-109.123195
 20
-69.977368
 11
-109.37296
 21
-69.962865
  0
LINE
  8
ボルト／ビス
  6
CONTINUOUS
 62
    64
 10
-109.398085
 20
-70.39547
 11
-109.148318
 21
-70.409975
  0
LINE
  8
ボルト／ビス
  6
CONTINUOUS
 62
    64
 10
-109.010875
 20
-70.200925
 11
-109.148318
 21
-70.409975
  0
LINE
  8
ボルト／ビス
  6
CONTINUOUS
 62
    64
 10
-109.510405
 20
-70.171915
 11
-109.398085
 21
-70.39547
  0
LINE
  8
ボルト／ビス
  6
CONTINUOUS
 62
    64
 10
-109.123195
 20
-69.977368
 11
-109.010875
 21
-70.200925
  0
CIRCLE
  8
ボルト／ビス
  6
CONTINUOUS
 62
    64
 10
-109.26064
 20
-70.18642
 40
0.216668
  0
CIRCLE
  8
ボルト／ビス
  6
CONTINUOUS
 10
-99.342163
 20
-65.203063
 40
0.250185
  0
CIRCLE
  8
ボルト／ビス
  6
CONTINUOUS
 10
-99.342163
 20
-65.203063
 40
0.301025
  0
LINE
  8
ボルト／ビス
  6
CONTINUOUS
 62
    64
 10
-99.204717
 20
-64.994013
 11
-99.454482
 21
-64.97951
  0
LINE
  8
ボルト／ビス
  6
CONTINUOUS
 62
    64
 10
-99.591928
 20
-65.18856
 11
-99.454482
 21
-64.97951
  0
LINE
  8
ボルト／ビス
  6
CONTINUOUS
 62
    64
 10
-99.092397
 20
-65.217568
 11
-99.22984
 21
-65.426615
  0
LINE
  8
ボルト／ビス
  6
CONTINUOUS
 62
    64
 10
-99.479608
 20
-65.412112
 11
-99.22984
 21
-65.426615
  0
LINE
  8
ボルト／ビス
  6
CONTINUOUS
 62
    64
 10
-99.204717
 20
-64.994013
 11
-99.092397
 21
-65.217568
  0
LINE
  8
ボルト／ビス
  6
CONTINUOUS
 62
    64
 10
-99.591928
 20
-65.18856
 11
-99.479608
 21
-65.412112
  0
CIRCLE
  8
ボルト／ビス
  6
CONTINUOUS
 62
    64
 10
-99.342163
 20
-65.203063
 40
0.216668
  0
ENDBLK
  0
BLOCK
  2
*GRP_0018
 70
    65
 10
0.0
 20
0.0
  0
LINE
  8
補助線
  6
BYBLOCK
 62
    64
 10
-99.416625
 20
-75.132365
 11
-99.2677
 21
-75.20719
  0
LINE
  8
補助線
  6
BYBLOCK
 62
    64
 10
-99.30475
 20
-75.095313
 11
-99.379575
 21
-75.24424
  0
LINE
  8
補助線
  6
BYBLOCK
 62
    64
 10
-109.335105
 20
-70.149007
 11
-109.186178
 21
-70.223833
  0
LINE
  8
補助線
  6
BYBLOCK
 62
    64
 10
-109.223228
 20
-70.111955
 11
-109.298053
 21
-70.260883
  0
LINE
  8
補助線
  6
BYBLOCK
 62
    64
 10
-119.104655
 20
-65.240475
 11
-119.253582
 21
-65.16565
  0
LINE
  8
補助線
  6
BYBLOCK
 62
    64
 10
-119.141705
 20
-65.128597
 11
-119.21653
 21
-65.277525
  0
LINE
  8
型材断面
  6
CONTINUOUS
 10
-98.670185
 20
-74.5748
 11
-98.447883
 21
-75.246053
  0
LINE
  8
型材断面
  6
CONTINUOUS
 10
-98.447883
 20
-75.246053
 11
-98.747185
 21
-75.841758
  0
LINE
  8
型材断面
  6
CONTINUOUS
 10
-98.747185
 20
-75.841758
 11
-99.418437
 21
-76.06406
  0
LINE
  8
型材断面
  6
CONTINUOUS
 10
-119.102843
 20
-64.308782
 11
-119.774097
 21
-64.531085
  0
LINE
  8
型材断面
  6
CONTINUOUS
 10
-119.774097
 20
-64.531085
 11
-120.0734
 21
-65.12679
  0
LINE
  8
型材断面
  6
CONTINUOUS
 10
-120.0734
 20
-65.12679
 11
-119.851095
 21
-65.798042
  0
LINE
  8
型材断面
  6
CONTINUOUS
 10
-98.670185
 20
-74.5748
 11
-119.102843
 21
-64.308782
  0
LINE
  8
型材断面
  6
CONTINUOUS
 10
-99.418437
 20
-76.06406
 11
-119.851095
 21
-65.798042
  0
CIRCLE
  8
ボルト／ビス
  6
CONTINUOUS
 10
-99.342163
 20
-75.169777
 40
0.250185
  0
CIRCLE
  8
ボルト／ビス
  6
CONTINUOUS
 10
-99.342163
 20
-75.169777
 40
0.301025
  0
LINE
  8
ボルト／ビス
  6
CONTINUOUS
 62
    64
 10
-99.092397
 20
-75.155275
 11
-99.229842
 21
-74.946225
  0
LINE
  8
ボルト／ビス
  6
CONTINUOUS
 62
    64
 10
-99.479608
 20
-74.960728
 11
-99.229842
 21
-74.946225
  0
LINE
  8
ボルト／ビス
  6
CONTINUOUS
 62
    64
 10
-99.204717
 20
-75.378827
 11
-99.454482
 21
-75.39333
  0
LINE
  8
ボルト／ビス
  6
CONTINUOUS
 62
    64
 10
-99.591928
 20
-75.18428
 11
-99.454482
 21
-75.39333
  0
LINE
  8
ボルト／ビス
  6
CONTINUOUS
 62
    64
 10
-99.092397
 20
-75.155275
 11
-99.204717
 21
-75.378827
  0
LINE
  8
ボルト／ビス
  6
CONTINUOUS
 62
    64
 10
-99.479608
 20
-74.960728
 11
-99.591928
 21
-75.18428
  0
CIRCLE
  8
ボルト／ビス
  6
CONTINUOUS
 62
    64
 10
-99.342163
 20
-75.169777
 40
0.216668
  0
CIRCLE
  8
ボルト／ビス
  6
CONTINUOUS
 10
-109.26064
 20
-70.18642
 40
0.250185
  0
CIRCLE
  8
ボルト／ビス
  6
CONTINUOUS
 10
-109.26064
 20
-70.18642
 40
0.301025
  0
LINE
  8
ボルト／ビス
  6
CONTINUOUS
 62
    64
 10
-109.010875
 20
-70.171915
 11
-109.14832
 21
-69.962865
  0
LINE
  8
ボルト／ビス
  6
CONTINUOUS
 62
    64
 10
-109.398085
 20
-69.977368
 11
-109.14832
 21
-69.962865
  0
LINE
  8
ボルト／ビス
  6
CONTINUOUS
 62
    64
 10
-109.123195
 20
-70.39547
 11
-109.372963
 21
-70.409975
  0
LINE
  8
ボルト／ビス
  6
CONTINUOUS
 62
    64
 10
-109.510405
 20
-70.200925
 11
-109.372963
 21
-70.409975
  0
LINE
  8
ボルト／ビス
  6
CONTINUOUS
 62
    64
 10
-109.010875
 20
-70.171915
 11
-109.123195
 21
-70.39547
  0
LINE
  8
ボルト／ビス
  6
CONTINUOUS
 62
    64
 10
-109.398085
 20
-69.977368
 11
-109.510405
 21
-70.200925
  0
CIRCLE
  8
ボルト／ビス
  6
CONTINUOUS
 62
    64
 10
-109.26064
 20
-70.18642
 40
0.216668
  0
CIRCLE
  8
ボルト／ビス
  6
CONTINUOUS
 10
-119.179118
 20
-65.203063
 40
0.250185
  0
CIRCLE
  8
ボルト／ビス
  6
CONTINUOUS
 10
-119.179118
 20
-65.203063
 40
0.301025
  0
LINE
  8
ボルト／ビス
  6
CONTINUOUS
 62
    64
 10
-119.316562
 20
-64.994013
 11
-119.066798
 21
-64.97951
  0
LINE
  8
ボルト／ビス
  6
CONTINUOUS
 62
    64
 10
-118.929353
 20
-65.18856
 11
-119.066798
 21
-64.97951
  0
LINE
  8
ボルト／ビス
  6
CONTINUOUS
 62
    64
 10
-119.428882
 20
-65.217568
 11
-119.29144
 21
-65.426615
  0
LINE
  8
ボルト／ビス
  6
CONTINUOUS
 62
    64
 10
-119.041673
 20
-65.412112
 11
-119.29144
 21
-65.426615
  0
LINE
  8
ボルト／ビス
  6
CONTINUOUS
 62
    64
 10
-119.316562
 20
-64.994013
 11
-119.428882
 21
-65.217568
  0
LINE
  8
ボルト／ビス
  6
CONTINUOUS
 62
    64
 10
-118.929353
 20
-65.18856
 11
-119.041673
 21
-65.412112
  0
CIRCLE
  8
ボルト／ビス
  6
CONTINUOUS
 62
    64
 10
-119.179118
 20
-65.203063
 40
0.216668
  0
ENDBLK
  0
BLOCK
  2
*GRP_0019
 70
    65
 10
0.0
 20
0.0
  0
LINE
  8
補助線
  6
BYBLOCK
 62
    64
 10
74.079755
 20
-75.132365
 11
74.22868
 21
-75.20719
  0
LINE
  8
補助線
  6
BYBLOCK
 62
    64
 10
74.19163
 20
-75.095313
 11
74.116805
 21
-75.24424
  0
LINE
  8
補助線
  6
BYBLOCK
 62
    64
 10
64.161275
 20
-70.149007
 11
64.310203
 21
-70.223833
  0
LINE
  8
補助線
  6
BYBLOCK
 62
    64
 10
64.273152
 20
-70.111955
 11
64.198328
 21
-70.260883
  0
LINE
  8
補助線
  6
BYBLOCK
 62
    64
 10
54.391725
 20
-65.240475
 11
54.242798
 21
-65.16565
  0
LINE
  8
補助線
  6
BYBLOCK
 62
    64
 10
54.354675
 20
-65.128597
 11
54.27985
 21
-65.277525
  0
LINE
  8
型材断面
  6
CONTINUOUS
 10
74.826195
 20
-74.5748
 11
75.048497
 21
-75.246053
  0
LINE
  8
型材断面
  6
CONTINUOUS
 10
75.048497
 20
-75.246053
 11
74.749195
 21
-75.841758
  0
LINE
  8
型材断面
  6
CONTINUOUS
 10
74.749195
 20
-75.841758
 11
74.077943
 21
-76.06406
  0
LINE
  8
型材断面
  6
CONTINUOUS
 10
54.393537
 20
-64.308782
 11
53.722283
 21
-64.531085
  0
LINE
  8
型材断面
  6
CONTINUOUS
 10
53.722283
 20
-64.531085
 11
53.42298
 21
-65.12679
  0
LINE
  8
型材断面
  6
CONTINUOUS
 10
53.42298
 20
-65.12679
 11
53.645285
 21
-65.798042
  0
LINE
  8
型材断面
  6
CONTINUOUS
 10
74.826195
 20
-74.5748
 11
54.393537
 21
-64.308782
  0
LINE
  8
型材断面
  6
CONTINUOUS
 10
74.077943
 20
-76.06406
 11
53.645285
 21
-65.798042
  0
CIRCLE
  8
ボルト／ビス
  6
CONTINUOUS
 10
74.154218
 20
-75.169777
 40
0.250185
  0
CIRCLE
  8
ボルト／ビス
  6
CONTINUOUS
 10
74.154218
 20
-75.169777
 40
0.301025
  0
LINE
  8
ボルト／ビス
  6
CONTINUOUS
 62
    64
 10
74.403982
 20
-75.155275
 11
74.266538
 21
-74.946225
  0
LINE
  8
ボルト／ビス
  6
CONTINUOUS
 62
    64
 10
74.016772
 20
-74.960728
 11
74.266538
 21
-74.946225
  0
LINE
  8
ボルト／ビス
  6
CONTINUOUS
 62
    64
 10
74.291662
 20
-75.378827
 11
74.041898
 21
-75.39333
  0
LINE
  8
ボルト／ビス
  6
CONTINUOUS
 62
    64
 10
73.904452
 20
-75.18428
 11
74.041898
 21
-75.39333
  0
LINE
  8
ボルト／ビス
  6
CONTINUOUS
 62
    64
 10
74.403982
 20
-75.155275
 11
74.291662
 21
-75.378827
  0
LINE
  8
ボルト／ビス
  6
CONTINUOUS
 62
    64
 10
74.016772
 20
-74.960728
 11
73.904452
 21
-75.18428
  0
CIRCLE
  8
ボルト／ビス
  6
CONTINUOUS
 62
    64
 10
74.154218
 20
-75.169777
 40
0.216668
  0
CIRCLE
  8
ボルト／ビス
  6
CONTINUOUS
 10
64.23574
 20
-70.18642
 40
0.250185
  0
CIRCLE
  8
ボルト／ビス
  6
CONTINUOUS
 10
64.23574
 20
-70.18642
 40
0.301025
  0
LINE
  8
ボルト／ビス
  6
CONTINUOUS
 62
    64
 10
64.485505
 20
-70.171915
 11
64.34806
 21
-69.962865
  0
LINE
  8
ボルト／ビス
  6
CONTINUOUS
 62
    64
 10
64.098295
 20
-69.977368
 11
64.34806
 21
-69.962865
  0
LINE
  8
ボルト／ビス
  6
CONTINUOUS
 62
    64
 10
64.373185
 20
-70.39547
 11
64.123417
 21
-70.409975
  0
LINE
  8
ボルト／ビス
  6
CONTINUOUS
 62
    64
 10
63.985975
 20
-70.200925
 11
64.123417
 21
-70.409975
  0
LINE
  8
ボルト／ビス
  6
CONTINUOUS
 62
    64
 10
64.485505
 20
-70.171915
 11
64.373185
 21
-70.39547
  0
LINE
  8
ボルト／ビス
  6
CONTINUOUS
 62
    64
 10
64.098295
 20
-69.977368
 11
63.985975
 21
-70.200925
  0
CIRCLE
  8
ボルト／ビス
  6
CONTINUOUS
 62
    64
 10
64.23574
 20
-70.18642
 40
0.216668
  0
CIRCLE
  8
ボルト／ビス
  6
CONTINUOUS
 10
54.317262
 20
-65.203063
 40
0.250185
  0
CIRCLE
  8
ボルト／ビス
  6
CONTINUOUS
 10
54.317262
 20
-65.203063
 40
0.301025
  0
LINE
  8
ボルト／ビス
  6
CONTINUOUS
 62
    64
 10
54.179817
 20
-64.994013
 11
54.429582
 21
-64.97951
  0
LINE
  8
ボルト／ビス
  6
CONTINUOUS
 62
    64
 10
54.567028
 20
-65.18856
 11
54.429582
 21
-64.97951
  0
LINE
  8
ボルト／ビス
  6
CONTINUOUS
 62
    64
 10
54.067497
 20
-65.217568
 11
54.20494
 21
-65.426615
  0
LINE
  8
ボルト／ビス
  6
CONTINUOUS
 62
    64
 10
54.454708
 20
-65.412112
 11
54.20494
 21
-65.426615
  0
LINE
  8
ボルト／ビス
  6
CONTINUOUS
 62
    64
 10
54.179817
 20
-64.994013
 11
54.067497
 21
-65.217568
  0
LINE
  8
ボルト／ビス
  6
CONTINUOUS
 62
    64
 10
54.567028
 20
-65.18856
 11
54.454708
 21
-65.412112
  0
CIRCLE
  8
ボルト／ビス
  6
CONTINUOUS
 62
    64
 10
54.317262
 20
-65.203063
 40
0.216668
  0
ENDBLK
  0
BLOCK
  2
*GRP_0020
 70
    65
 10
0.0
 20
0.0
  0
LINE
  8
補助線
  6
BYBLOCK
 62
    64
 10
54.391725
 20
-75.132365
 11
54.2428
 21
-75.20719
  0
LINE
  8
補助線
  6
BYBLOCK
 62
    64
 10
54.27985
 20
-75.095313
 11
54.354675
 21
-75.24424
  0
LINE
  8
補助線
  6
BYBLOCK
 62
    64
 10
64.310205
 20
-70.149007
 11
64.161277
 21
-70.223833
  0
LINE
  8
補助線
  6
BYBLOCK
 62
    64
 10
64.198328
 20
-70.111955
 11
64.273152
 21
-70.260883
  0
LINE
  8
補助線
  6
BYBLOCK
 62
    64
 10
74.079755
 20
-65.240475
 11
74.228682
 21
-65.16565
  0
LINE
  8
補助線
  6
BYBLOCK
 62
    64
 10
74.116805
 20
-65.128597
 11
74.19163
 21
-65.277525
  0
LINE
  8
型材断面
  6
CONTINUOUS
 10
53.645285
 20
-74.5748
 11
53.422983
 21
-75.246053
  0
LINE
  8
型材断面
  6
CONTINUOUS
 10
53.422983
 20
-75.246053
 11
53.722285
 21
-75.841758
  0
LINE
  8
型材断面
  6
CONTINUOUS
 10
53.722285
 20
-75.841758
 11
54.393537
 21
-76.06406
  0
LINE
  8
型材断面
  6
CONTINUOUS
 10
74.077943
 20
-64.308782
 11
74.749198
 21
-64.531085
  0
LINE
  8
型材断面
  6
CONTINUOUS
 10
74.749198
 20
-64.531085
 11
75.0485
 21
-65.12679
  0
LINE
  8
型材断面
  6
CONTINUOUS
 10
75.0485
 20
-65.12679
 11
74.826195
 21
-65.798042
  0
LINE
  8
型材断面
  6
CONTINUOUS
 10
53.645285
 20
-74.5748
 11
74.077943
 21
-64.308782
  0
LINE
  8
型材断面
  6
CONTINUOUS
 10
54.393537
 20
-76.06406
 11
74.826195
 21
-65.798042
  0
CIRCLE
  8
ボルト／ビス
  6
CONTINUOUS
 10
54.317262
 20
-75.169777
 40
0.250185
  0
CIRCLE
  8
ボルト／ビス
  6
CONTINUOUS
 10
54.317262
 20
-75.169777
 40
0.301025
  0
LINE
  8
ボルト／ビス
  6
CONTINUOUS
 62
    64
 10
54.067497
 20
-75.155275
 11
54.204942
 21
-74.946225
  0
LINE
  8
ボルト／ビス
  6
CONTINUOUS
 62
    64
 10
54.454708
 20
-74.960728
 11
54.204942
 21
-74.946225
  0
LINE
  8
ボルト／ビス
  6
CONTINUOUS
 62
    64
 10
54.179817
 20
-75.378827
 11
54.429582
 21
-75.39333
  0
LINE
  8
ボルト／ビス
  6
CONTINUOUS
 62
    64
 10
54.567028
 20
-75.18428
 11
54.429582
 21
-75.39333
  0
LINE
  8
ボルト／ビス
  6
CONTINUOUS
 62
    64
 10
54.067497
 20
-75.155275
 11
54.179817
 21
-75.378827
  0
LINE
  8
ボルト／ビス
  6
CONTINUOUS
 62
    64
 10
54.454708
 20
-74.960728
 11
54.567028
 21
-75.18428
  0
CIRCLE
  8
ボルト／ビス
  6
CONTINUOUS
 62
    64
 10
54.317262
 20
-75.169777
 40
0.216668
  0
CIRCLE
  8
ボルト／ビス
  6
CONTINUOUS
 10
64.23574
 20
-70.18642
 40
0.250185
  0
CIRCLE
  8
ボルト／ビス
  6
CONTINUOUS
 10
64.23574
 20
-70.18642
 40
0.301025
  0
LINE
  8
ボルト／ビス
  6
CONTINUOUS
 62
    64
 10
63.985975
 20
-70.171915
 11
64.12342
 21
-69.962865
  0
LINE
  8
ボルト／ビス
  6
CONTINUOUS
 62
    64
 10
64.373185
 20
-69.977368
 11
64.12342
 21
-69.962865
  0
LINE
  8
ボルト／ビス
  6
CONTINUOUS
 62
    64
 10
64.098295
 20
-70.39547
 11
64.348063
 21
-70.409975
  0
LINE
  8
ボルト／ビス
  6
CONTINUOUS
 62
    64
 10
64.485505
 20
-70.200925
 11
64.348063
 21
-70.409975
  0
LINE
  8
ボルト／ビス
  6
CONTINUOUS
 62
    64
 10
63.985975
 20
-70.171915
 11
64.098295
 21
-70.39547
  0
LINE
  8
ボルト／ビス
  6
CONTINUOUS
 62
    64
 10
64.373185
 20
-69.977368
 11
64.485505
 21
-70.200925
  0
CIRCLE
  8
ボルト／ビス
  6
CONTINUOUS
 62
    64
 10
64.23574
 20
-70.18642
 40
0.216668
  0
CIRCLE
  8
ボルト／ビス
  6
CONTINUOUS
 10
74.154218
 20
-65.203063
 40
0.250185
  0
CIRCLE
  8
ボルト／ビス
  6
CONTINUOUS
 10
74.154218
 20
-65.203063
 40
0.301025
  0
LINE
  8
ボルト／ビス
  6
CONTINUOUS
 62
    64
 10
74.291662
 20
-64.994013
 11
74.041898
 21
-64.97951
  0
LINE
  8
ボルト／ビス
  6
CONTINUOUS
 62
    64
 10
73.904452
 20
-65.18856
 11
74.041898
 21
-64.97951
  0
LINE
  8
ボルト／ビス
  6
CONTINUOUS
 62
    64
 10
74.403982
 20
-65.217568
 11
74.26654
 21
-65.426615
  0
LINE
  8
ボルト／ビス
  6
CONTINUOUS
 62
    64
 10
74.016772
 20
-65.412112
 11
74.26654
 21
-65.426615
  0
LINE
  8
ボルト／ビス
  6
CONTINUOUS
 62
    64
 10
74.291662
 20
-64.994013
 11
74.403982
 21
-65.217568
  0
LINE
  8
ボルト／ビス
  6
CONTINUOUS
 62
    64
 10
73.904452
 20
-65.18856
 11
74.016772
 21
-65.412112
  0
CIRCLE
  8
ボルト／ビス
  6
CONTINUOUS
 62
    64
 10
74.154218
 20
-65.203063
 40
0.216668
  0
ENDBLK
  0
BLOCK
  2
*GRP_0021
 70
    65
 10
0.0
 20
0.0
  0
LINE
  8
補助線
  6
BYBLOCK
 62
    64
 10
-12.668435
 20
-75.132365
 11
-12.51951
 21
-75.20719
  0
LINE
  8
補助線
  6
BYBLOCK
 62
    64
 10
-12.55656
 20
-75.095313
 11
-12.631385
 21
-75.24424
  0
LINE
  8
補助線
  6
BYBLOCK
 62
    64
 10
-22.586915
 20
-70.149007
 11
-22.437987
 21
-70.223833
  0
LINE
  8
補助線
  6
BYBLOCK
 62
    64
 10
-22.475037
 20
-70.111955
 11
-22.549863
 21
-70.260883
  0
LINE
  8
補助線
  6
BYBLOCK
 62
    64
 10
-32.356465
 20
-65.240475
 11
-32.505393
 21
-65.16565
  0
LINE
  8
補助線
  6
BYBLOCK
 62
    64
 10
-32.393515
 20
-65.128597
 11
-32.46834
 21
-65.277525
  0
LINE
  8
型材断面
  6
CONTINUOUS
 10
-11.921995
 20
-74.5748
 11
-11.699693
 21
-75.246053
  0
LINE
  8
型材断面
  6
CONTINUOUS
 10
-11.699693
 20
-75.246053
 11
-11.998995
 21
-75.841758
  0
LINE
  8
型材断面
  6
CONTINUOUS
 10
-11.998995
 20
-75.841758
 11
-12.670248
 21
-76.06406
  0
LINE
  8
型材断面
  6
CONTINUOUS
 10
-32.354652
 20
-64.308782
 11
-33.025907
 21
-64.531085
  0
LINE
  8
型材断面
  6
CONTINUOUS
 10
-33.025907
 20
-64.531085
 11
-33.32521
 21
-65.12679
  0
LINE
  8
型材断面
  6
CONTINUOUS
 10
-33.32521
 20
-65.12679
 11
-33.102905
 21
-65.798042
  0
LINE
  8
型材断面
  6
CONTINUOUS
 10
-11.921995
 20
-74.5748
 11
-32.354652
 21
-64.308782
  0
LINE
  8
型材断面
  6
CONTINUOUS
 10
-12.670248
 20
-76.06406
 11
-33.102905
 21
-65.798042
  0
CIRCLE
  8
ボルト／ビス
  6
CONTINUOUS
 10
-12.593973
 20
-75.169777
 40
0.250185
  0
CIRCLE
  8
ボルト／ビス
  6
CONTINUOUS
 10
-12.593973
 20
-75.169777
 40
0.301025
  0
LINE
  8
ボルト／ビス
  6
CONTINUOUS
 62
    64
 10
-12.344207
 20
-75.155275
 11
-12.481653
 21
-74.946225
  0
LINE
  8
ボルト／ビス
  6
CONTINUOUS
 62
    64
 10
-12.731418
 20
-74.960728
 11
-12.481653
 21
-74.946225
  0
LINE
  8
ボルト／ビス
  6
CONTINUOUS
 62
    64
 10
-12.456527
 20
-75.378827
 11
-12.706293
 21
-75.39333
  0
LINE
  8
ボルト／ビス
  6
CONTINUOUS
 62
    64
 10
-12.843738
 20
-75.18428
 11
-12.706293
 21
-75.39333
  0
LINE
  8
ボルト／ビス
  6
CONTINUOUS
 62
    64
 10
-12.344207
 20
-75.155275
 11
-12.456527
 21
-75.378827
  0
LINE
  8
ボルト／ビス
  6
CONTINUOUS
 62
    64
 10
-12.731418
 20
-74.960728
 11
-12.843738
 21
-75.18428
  0
CIRCLE
  8
ボルト／ビス
  6
CONTINUOUS
 62
    64
 10
-12.593973
 20
-75.169777
 40
0.216668
  0
CIRCLE
  8
ボルト／ビス
  6
CONTINUOUS
 10
-22.51245
 20
-70.18642
 40
0.250185
  0
CIRCLE
  8
ボルト／ビス
  6
CONTINUOUS
 10
-22.51245
 20
-70.18642
 40
0.301025
  0
LINE
  8
ボルト／ビス
  6
CONTINUOUS
 62
    64
 10
-22.262685
 20
-70.171915
 11
-22.40013
 21
-69.962865
  0
LINE
  8
ボルト／ビス
  6
CONTINUOUS
 62
    64
 10
-22.649895
 20
-69.977368
 11
-22.40013
 21
-69.962865
  0
LINE
  8
ボルト／ビス
  6
CONTINUOUS
 62
    64
 10
-22.375005
 20
-70.39547
 11
-22.624773
 21
-70.409975
  0
LINE
  8
ボルト／ビス
  6
CONTINUOUS
 62
    64
 10
-22.762215
 20
-70.200925
 11
-22.624773
 21
-70.409975
  0
LINE
  8
ボルト／ビス
  6
CONTINUOUS
 62
    64
 10
-22.262685
 20
-70.171915
 11
-22.375005
 21
-70.39547
  0
LINE
  8
ボルト／ビス
  6
CONTINUOUS
 62
    64
 10
-22.649895
 20
-69.977368
 11
-22.762215
 21
-70.200925
  0
CIRCLE
  8
ボルト／ビス
  6
CONTINUOUS
 62
    64
 10
-22.51245
 20
-70.18642
 40
0.216668
  0
CIRCLE
  8
ボルト／ビス
  6
CONTINUOUS
 10
-32.430927
 20
-65.203063
 40
0.250185
  0
CIRCLE
  8
ボルト／ビス
  6
CONTINUOUS
 10
-32.430927
 20
-65.203063
 40
0.301025
  0
LINE
  8
ボルト／ビス
  6
CONTINUOUS
 62
    64
 10
-32.568372
 20
-64.994013
 11
-32.318607
 21
-64.97951
  0
LINE
  8
ボルト／ビス
  6
CONTINUOUS
 62
    64
 10
-32.181163
 20
-65.18856
 11
-32.318607
 21
-64.97951
  0
LINE
  8
ボルト／ビス
  6
CONTINUOUS
 62
    64
 10
-32.680692
 20
-65.217568
 11
-32.54325
 21
-65.426615
  0
LINE
  8
ボルト／ビス
  6
CONTINUOUS
 62
    64
 10
-32.293483
 20
-65.412112
 11
-32.54325
 21
-65.426615
  0
LINE
  8
ボルト／ビス
  6
CONTINUOUS
 62
    64
 10
-32.568372
 20
-64.994013
 11
-32.680692
 21
-65.217568
  0
LINE
  8
ボルト／ビス
  6
CONTINUOUS
 62
    64
 10
-32.181163
 20
-65.18856
 11
-32.293483
 21
-65.412112
  0
CIRCLE
  8
ボルト／ビス
  6
CONTINUOUS
 62
    64
 10
-32.430927
 20
-65.203063
 40
0.216668
  0
ENDBLK
  0
BLOCK
  2
*GRP_0022
 70
    65
 10
0.0
 20
0.0
  0
LINE
  8
補助線
  6
BYBLOCK
 62
    64
 10
-32.356465
 20
-75.132365
 11
-32.50539
 21
-75.20719
  0
LINE
  8
補助線
  6
BYBLOCK
 62
    64
 10
-32.46834
 20
-75.095313
 11
-32.393515
 21
-75.24424
  0
LINE
  8
補助線
  6
BYBLOCK
 62
    64
 10
-22.437985
 20
-70.149007
 11
-22.586913
 21
-70.223833
  0
LINE
  8
補助線
  6
BYBLOCK
 62
    64
 10
-22.549863
 20
-70.111955
 11
-22.475037
 21
-70.260883
  0
LINE
  8
補助線
  6
BYBLOCK
 62
    64
 10
-12.668435
 20
-65.240475
 11
-12.519507
 21
-65.16565
  0
LINE
  8
補助線
  6
BYBLOCK
 62
    64
 10
-12.631385
 20
-65.128597
 11
-12.55656
 21
-65.277525
  0
LINE
  8
型材断面
  6
CONTINUOUS
 10
-33.102905
 20
-74.5748
 11
-33.325208
 21
-75.246053
  0
LINE
  8
型材断面
  6
CONTINUOUS
 10
-33.325208
 20
-75.246053
 11
-33.025905
 21
-75.841758
  0
LINE
  8
型材断面
  6
CONTINUOUS
 10
-33.025905
 20
-75.841758
 11
-32.354652
 21
-76.06406
  0
LINE
  8
型材断面
  6
CONTINUOUS
 10
-12.670248
 20
-64.308782
 11
-11.998992
 21
-64.531085
  0
LINE
  8
型材断面
  6
CONTINUOUS
 10
-11.998992
 20
-64.531085
 11
-11.69969
 21
-65.12679
  0
LINE
  8
型材断面
  6
CONTINUOUS
 10
-11.69969
 20
-65.12679
 11
-11.921995
 21
-65.798042
  0
LINE
  8
型材断面
  6
CONTINUOUS
 10
-33.102905
 20
-74.5748
 11
-12.670248
 21
-64.308782
  0
LINE
  8
型材断面
  6
CONTINUOUS
 10
-32.354652
 20
-76.06406
 11
-11.921995
 21
-65.798042
  0
CIRCLE
  8
ボルト／ビス
  6
CONTINUOUS
 10
-32.430927
 20
-75.169777
 40
0.250185
  0
CIRCLE
  8
ボルト／ビス
  6
CONTINUOUS
 10
-32.430927
 20
-75.169777
 40
0.301025
  0
LINE
  8
ボルト／ビス
  6
CONTINUOUS
 62
    64
 10
-32.680692
 20
-75.155275
 11
-32.543247
 21
-74.946225
  0
LINE
  8
ボルト／ビス
  6
CONTINUOUS
 62
    64
 10
-32.293483
 20
-74.960728
 11
-32.543247
 21
-74.946225
  0
LINE
  8
ボルト／ビス
  6
CONTINUOUS
 62
    64
 10
-32.568372
 20
-75.378827
 11
-32.318607
 21
-75.39333
  0
LINE
  8
ボルト／ビス
  6
CONTINUOUS
 62
    64
 10
-32.181163
 20
-75.18428
 11
-32.318607
 21
-75.39333
  0
LINE
  8
ボルト／ビス
  6
CONTINUOUS
 62
    64
 10
-32.680692
 20
-75.155275
 11
-32.568372
 21
-75.378827
  0
LINE
  8
ボルト／ビス
  6
CONTINUOUS
 62
    64
 10
-32.293483
 20
-74.960728
 11
-32.181163
 21
-75.18428
  0
CIRCLE
  8
ボルト／ビス
  6
CONTINUOUS
 62
    64
 10
-32.430927
 20
-75.169777
 40
0.216668
  0
CIRCLE
  8
ボルト／ビス
  6
CONTINUOUS
 10
-22.51245
 20
-70.18642
 40
0.250185
  0
CIRCLE
  8
ボルト／ビス
  6
CONTINUOUS
 10
-22.51245
 20
-70.18642
 40
0.301025
  0
LINE
  8
ボルト／ビス
  6
CONTINUOUS
 62
    64
 10
-22.762215
 20
-70.171915
 11
-22.62477
 21
-69.962865
  0
LINE
  8
ボルト／ビス
  6
CONTINUOUS
 62
    64
 10
-22.375005
 20
-69.977368
 11
-22.62477
 21
-69.962865
  0
LINE
  8
ボルト／ビス
  6
CONTINUOUS
 62
    64
 10
-22.649895
 20
-70.39547
 11
-22.400127
 21
-70.409975
  0
LINE
  8
ボルト／ビス
  6
CONTINUOUS
 62
    64
 10
-22.262685
 20
-70.200925
 11
-22.400127
 21
-70.409975
  0
LINE
  8
ボルト／ビス
  6
CONTINUOUS
 62
    64
 10
-22.762215
 20
-70.171915
 11
-22.649895
 21
-70.39547
  0
LINE
  8
ボルト／ビス
  6
CONTINUOUS
 62
    64
 10
-22.375005
 20
-69.977368
 11
-22.262685
 21
-70.200925
  0
CIRCLE
  8
ボルト／ビス
  6
CONTINUOUS
 62
    64
 10
-22.51245
 20
-70.18642
 40
0.216668
  0
CIRCLE
  8
ボルト／ビス
  6
CONTINUOUS
 10
-12.593973
 20
-65.203063
 40
0.250185
  0
CIRCLE
  8
ボルト／ビス
  6
CONTINUOUS
 10
-12.593973
 20
-65.203063
 40
0.301025
  0
LINE
  8
ボルト／ビス
  6
CONTINUOUS
 62
    64
 10
-12.456527
 20
-64.994013
 11
-12.706293
 21
-64.97951
  0
LINE
  8
ボルト／ビス
  6
CONTINUOUS
 62
    64
 10
-12.843738
 20
-65.18856
 11
-12.706293
 21
-64.97951
  0
LINE
  8
ボルト／ビス
  6
CONTINUOUS
 62
    64
 10
-12.344207
 20
-65.217568
 11
-12.48165
 21
-65.426615
  0
LINE
  8
ボルト／ビス
  6
CONTINUOUS
 62
    64
 10
-12.731418
 20
-65.412112
 11
-12.48165
 21
-65.426615
  0
LINE
  8
ボルト／ビス
  6
CONTINUOUS
 62
    64
 10
-12.456527
 20
-64.994013
 11
-12.344207
 21
-65.217568
  0
LINE
  8
ボルト／ビス
  6
CONTINUOUS
 62
    64
 10
-12.843738
 20
-65.18856
 11
-12.731418
 21
-65.412112
  0
CIRCLE
  8
ボルト／ビス
  6
CONTINUOUS
 62
    64
 10
-12.593973
 20
-65.203063
 40
0.216668
  0
ENDBLK
  0
BLOCK
  2
*DIM_0023
 70
    65
 10
0.0
 20
0.0
  0
LINE
  8
寸法
  6
BYBLOCK
 62
     0
 10
-125.51245
 20
39.4807
 11
-138.805288
 21
39.4807
  0
LINE
  8
寸法
  6
BYBLOCK
 62
     0
 10
-125.51245
 20
26.147365
 11
-138.805288
 21
26.147365
  0
LINE
  8
寸法
  6
BYBLOCK
 62
     0
 10
-138.805288
 20
39.4807
 11
-138.805288
 21
26.147365
  0
POINT
  8
寸法
 62
     0
 10
-138.805288
 20
39.4807
  0
POINT
  8
寸法
 62
     0
 10
-138.805288
 20
26.147365
  0
TEXT
  7
TextStyle03
  8
寸法
  6
CONTINUOUS
 62
     0
 10
-139.125
 20
30.3625
  1
400
 40
3.0
 50
90.0
 72
     5
 11
-139.125
 21
35.2375
  0
ENDBLK
  0
BLOCK
  2
*DIM_0024
 70
    65
 10
0.0
 20
0.0
  0
LINE
  8
寸法
  6
BYBLOCK
 62
     0
 10
-115.845783
 20
45.814033
 11
-115.845783
 21
74.922105
  0
LINE
  8
寸法
  6
BYBLOCK
 62
     0
 10
-92.51245
 20
45.814033
 11
-92.51245
 21
74.922105
  0
LINE
  8
寸法
  6
BYBLOCK
 62
     0
 10
-115.845783
 20
74.922105
 11
-92.51245
 21
74.922105
  0
POINT
  8
寸法
 62
     0
 10
-115.845783
 20
74.922105
  0
POINT
  8
寸法
 62
     0
 10
-92.51245
 20
74.922105
  0
TEXT
  7
TextStyle03
  8
寸法
  6
CONTINUOUS
 62
     0
 10
-106.6375
 20
75.3
  1
700
 40
3.0
 72
     5
 11
-101.7625
 21
75.3
  0
ENDBLK
  0
BLOCK
  2
*DIM_0025
 70
    65
 10
0.0
 20
0.0
  0
LINE
  8
寸法
  6
BYBLOCK
 62
     0
 10
-69.179118
 20
45.814033
 11
-69.179118
 21
74.922105
  0
LINE
  8
寸法
  6
BYBLOCK
 62
     0
 10
-92.51245
 20
74.922105
 11
-69.179118
 21
74.922105
  0
POINT
  8
寸法
 62
     0
 10
-69.179118
 20
74.922105
  0
TEXT
  7
TextStyle03
  8
寸法
  6
CONTINUOUS
 62
     0
 10
-83.3125
 20
75.3
  1
700
 40
3.0
 72
     5
 11
-78.4375
 21
75.3
  0
ENDBLK
  0
BLOCK
  2
*DIM_0026
 70
    65
 10
0.0
 20
0.0
  0
LINE
  8
寸法
  6
BYBLOCK
 62
     0
 10
-45.845783
 20
45.814033
 11
-45.845783
 21
74.922105
  0
LINE
  8
寸法
  6
BYBLOCK
 62
     0
 10
-69.179118
 20
74.922105
 11
-45.845783
 21
74.922105
  0
POINT
  8
寸法
 62
     0
 10
-45.845783
 20
74.922105
  0
TEXT
  7
TextStyle03
  8
寸法
  6
CONTINUOUS
 62
     0
 10
-59.9625
 20
75.3
  1
700
 40
3.0
 72
     5
 11
-55.0875
 21
75.3
  0
ENDBLK
  0
BLOCK
  2
*DIM_0027
 70
    65
 10
0.0
 20
0.0
  0
LINE
  8
寸法
  6
BYBLOCK
 62
     0
 10
-22.51245
 20
45.814033
 11
-22.51245
 21
74.922105
  0
LINE
  8
寸法
  6
BYBLOCK
 62
     0
 10
-45.845783
 20
74.922105
 11
-22.51245
 21
74.922105
  0
POINT
  8
寸法
 62
     0
 10
-22.51245
 20
74.922105
  0
TEXT
  7
TextStyle03
  8
寸法
  6
CONTINUOUS
 62
     0
 10
-36.6375
 20
75.3
  1
700
 40
3.0
 72
     5
 11
-31.7625
 21
75.3
  0
ENDBLK
  0
BLOCK
  2
*DIM_0028
 70
    65
 10
0.0
 20
0.0
  0
LINE
  8
寸法
  6
BYBLOCK
 62
     0
 10
0.820882
 20
45.814033
 11
0.820882
 21
74.922105
  0
LINE
  8
寸法
  6
BYBLOCK
 62
     0
 10
-22.51245
 20
74.922105
 11
0.820882
 21
74.922105
  0
POINT
  8
寸法
 62
     0
 10
0.820882
 20
74.922105
  0
TEXT
  7
TextStyle03
  8
寸法
  6
CONTINUOUS
 62
     0
 10
-13.3125
 20
75.3
  1
700
 40
3.0
 72
     5
 11
-8.4375
 21
75.3
  0
ENDBLK
  0
BLOCK
  2
*DIM_0029
 70
    65
 10
0.0
 20
0.0
  0
LINE
  8
寸法
  6
BYBLOCK
 62
     0
 10
24.154218
 20
45.814033
 11
24.154218
 21
74.922105
  0
LINE
  8
寸法
  6
BYBLOCK
 62
     0
 10
0.820882
 20
74.922105
 11
24.154218
 21
74.922105
  0
POINT
  8
寸法
 62
     0
 10
24.154218
 20
74.922105
  0
TEXT
  7
TextStyle03
  8
寸法
  6
CONTINUOUS
 62
     0
 10
10.0375
 20
75.3
  1
700
 40
3.0
 72
     5
 11
14.9125
 21
75.3
  0
ENDBLK
  0
BLOCK
  2
*DIM_0030
 70
    65
 10
0.0
 20
0.0
  0
LINE
  8
寸法
  6
BYBLOCK
 62
     0
 10
47.48755
 20
45.814033
 11
47.48755
 21
74.922105
  0
LINE
  8
寸法
  6
BYBLOCK
 62
     0
 10
24.154218
 20
74.922105
 11
47.48755
 21
74.922105
  0
POINT
  8
寸法
 62
     0
 10
47.48755
 20
74.922105
  0
TEXT
  7
TextStyle03
  8
寸法
  6
CONTINUOUS
 62
     0
 10
33.3625
 20
75.3
  1
700
 40
3.0
 72
     5
 11
38.2375
 21
75.3
  0
ENDBLK
  0
BLOCK
  2
*DIM_0031
 70
    65
 10
0.0
 20
0.0
  0
LINE
  8
寸法
  6
BYBLOCK
 62
     0
 10
70.820882
 20
45.814033
 11
70.820882
 21
74.922105
  0
LINE
  8
寸法
  6
BYBLOCK
 62
     0
 10
47.48755
 20
74.922105
 11
70.820882
 21
74.922105
  0
POINT
  8
寸法
 62
     0
 10
70.820882
 20
74.922105
  0
TEXT
  7
TextStyle03
  8
寸法
  6
CONTINUOUS
 62
     0
 10
56.6875
 20
75.3
  1
700
 40
3.0
 72
     5
 11
61.5625
 21
75.3
  0
ENDBLK
  0
BLOCK
  2
*DIM_0032
 70
    65
 10
0.0
 20
0.0
  0
LINE
  8
寸法
  6
BYBLOCK
 62
     0
 10
173.564105
 20
-63.785395
 11
181.675635
 21
-63.785395
  0
LINE
  8
寸法
  6
BYBLOCK
 62
     0
 10
173.564105
 20
-83.118728
 11
181.675635
 21
-83.118728
  0
LINE
  8
寸法
  6
BYBLOCK
 62
     0
 10
181.675635
 20
-63.785395
 11
181.675635
 21
-83.118728
  0
POINT
  8
寸法
 62
     0
 10
181.675635
 20
-63.785395
  0
POINT
  8
寸法
 62
     0
 10
181.675635
 20
-83.118728
  0
TEXT
  7
TextStyle03
  8
寸法
  6
CONTINUOUS
 62
     0
 10
181.275
 20
-75.9125
  1
580
 40
3.0
 50
90.0
 72
     5
 11
181.275
 21
-71.0375
  0
ENDBLK
  0
BLOCK
  2
*DIM_0033
 70
    65
 10
0.0
 20
0.0
  0
LINE
  8
寸法
  6
CONTINUOUS
 10
172.564105
 20
-54.668255
 11
140.464105
 21
-54.668255
  0
POINT
  8
寸法
 10
172.564105
 20
-54.668255
  0
POINT
  8
寸法
 10
140.464105
 20
-54.668255
  0
TEXT
  7
TextStyle03
  8
寸法
  6
CONTINUOUS
 10
154.0625
 20
-54.325
  1
963
 40
3.0
 72
     5
 11
158.9375
 21
-54.325
  0
ENDBLK
  0
BLOCK
  2
*DIM_0034
 70
    65
 10
0.0
 20
0.0
  0
LINE
  8
寸法
  6
BYBLOCK
 62
     0
 10
70.48755
 20
-57.542947
 11
93.4572
 21
-57.542947
  0
LINE
  8
寸法
  6
BYBLOCK
 62
     0
 10
93.4572
 20
-64.87628
 11
93.4572
 21
-57.542947
  0
POINT
  8
寸法
 62
     0
 10
93.4572
 20
-64.87628
  0
POINT
  8
寸法
 62
     0
 10
93.4572
 20
-57.542947
  0
TEXT
  7
TextStyle03
  8
寸法
  6
CONTINUOUS
 62
     0
 10
99.0
 20
-70.21875
  1
上昇212以上
 40
3.0
 50
90.0
 72
     5
 11
99.0
 21
-52.03125
  0
ENDBLK
  0
BLOCK
  2
*GRP_0035
 70
    65
 10
0.0
 20
0.0
  0
LINE
  8
ボルト／ビス
  6
CONTINUOUS
 10
167.020815
 20
22.147365
 11
166.55415
 21
22.147365
  0
LINE
  8
ボルト／ビス
  6
CONTINUOUS
 10
167.020815
 20
21.7807
 11
166.95415
 21
21.7807
  0
LINE
  8
ボルト／ビス
  6
CONTINUOUS
 10
166.95415
 20
21.7807
 11
166.95415
 21
22.514033
  0
LINE
  8
ボルト／ビス
  6
CONTINUOUS
 10
166.95415
 20
22.514033
 11
167.020815
 21
22.514033
  0
LINE
  8
ボルト／ビス
  6
CONTINUOUS
 10
167.020815
 20
21.7807
 11
167.020815
 21
22.514033
  0
LINE
  8
ボルト／ビス
  6
CONTINUOUS
 10
166.920815
 20
21.847365
 11
166.95415
 21
21.847365
  0
LINE
  8
ボルト／ビス
  6
CONTINUOUS
 10
166.920815
 20
21.847365
 11
166.920815
 21
22.447365
  0
LINE
  8
ボルト／ビス
  6
CONTINUOUS
 10
166.920815
 20
22.447365
 11
166.95415
 21
22.447365
  0
LINE
  8
ボルト／ビス
  6
CONTINUOUS
 62
    64
 10
166.720815
 20
21.98699
 11
166.73249
 21
21.954915
  0
ARC
  8
ボルト／ビス
  6
CONTINUOUS
 62
    64
 10
166.825792
 20
22.003031
 40
0.104978
 50
152.721967
 51
180.0
  0
ARC
  8
ボルト／ビス
  6
CONTINUOUS
 62
    64
 10
167.123216
 20
22.147368
 40
0.402402
 50
166.165002
 51
193.834985
  0
LINE
  8
ボルト／ビス
  6
CONTINUOUS
 62
    64
 10
166.720815
 20
22.30774
 11
166.73249
 21
22.339815
  0
ARC
  8
ボルト／ビス
  6
CONTINUOUS
 62
    64
 10
166.825792
 20
22.291706
 40
0.104978
 50
180.0
 51
207.278033
  0
LINE
  8
ボルト／ビス
  6
CONTINUOUS
 62
    64
 10
166.720815
 20
21.98699
 11
166.720815
 21
22.30774
  0
LINE
  8
ボルト／ビス
  6
CONTINUOUS
 62
    64
 10
166.73249
 20
22.339815
 11
166.85415
 21
22.339815
  0
LINE
  8
ボルト／ビス
  6
CONTINUOUS
 62
    64
 10
166.73249
 20
22.24359
 11
166.85415
 21
22.24359
  0
LINE
  8
ボルト／ビス
  6
CONTINUOUS
 62
    64
 10
166.73249
 20
21.954915
 11
166.85415
 21
21.954915
  0
LINE
  8
ボルト／ビス
  6
CONTINUOUS
 62
    64
 10
166.73249
 20
22.05114
 11
166.85415
 21
22.05114
  0
LINE
  8
ボルト／ビス
  6
CONTINUOUS
 10
166.85415
 20
21.954915
 11
166.85415
 21
22.339815
  0
LINE
  8
ボルト／ビス
  6
CONTINUOUS
 10
166.85415
 20
21.947365
 11
166.920815
 21
21.947365
  0
LINE
  8
ボルト／ビス
  6
CONTINUOUS
 10
166.85415
 20
21.947365
 11
166.85415
 21
22.347365
  0
LINE
  8
ボルト／ビス
  6
CONTINUOUS
 10
166.85415
 20
22.347365
 11
166.920815
 21
22.347365
  0
ENDBLK
  0
BLOCK
  2
*GRP_0036
 70
    65
 10
0.0
 20
0.0
  0
LINE
  8
ボルト／ビス
  6
CONTINUOUS
 10
167.020815
 20
43.4807
 11
166.55415
 21
43.4807
  0
LINE
  8
ボルト／ビス
  6
CONTINUOUS
 10
167.020815
 20
43.114035
 11
166.95415
 21
43.114035
  0
LINE
  8
ボルト／ビス
  6
CONTINUOUS
 10
166.95415
 20
43.114035
 11
166.95415
 21
43.847367
  0
LINE
  8
ボルト／ビス
  6
CONTINUOUS
 10
166.95415
 20
43.847367
 11
167.020815
 21
43.847367
  0
LINE
  8
ボルト／ビス
  6
CONTINUOUS
 10
167.020815
 20
43.114035
 11
167.020815
 21
43.847367
  0
LINE
  8
ボルト／ビス
  6
CONTINUOUS
 10
166.920815
 20
43.1807
 11
166.95415
 21
43.1807
  0
LINE
  8
ボルト／ビス
  6
CONTINUOUS
 10
166.920815
 20
43.1807
 11
166.920815
 21
43.7807
  0
LINE
  8
ボルト／ビス
  6
CONTINUOUS
 10
166.920815
 20
43.7807
 11
166.95415
 21
43.7807
  0
LINE
  8
ボルト／ビス
  6
CONTINUOUS
 62
    64
 10
166.720815
 20
43.320325
 11
166.73249
 21
43.28825
  0
ARC
  8
ボルト／ビス
  6
CONTINUOUS
 62
    64
 10
166.825792
 20
43.336366
 40
0.104978
 50
152.721967
 51
180.0
  0
ARC
  8
ボルト／ビス
  6
CONTINUOUS
 62
    64
 10
167.123216
 20
43.480703
 40
0.402402
 50
166.165002
 51
193.834985
  0
LINE
  8
ボルト／ビス
  6
CONTINUOUS
 62
    64
 10
166.720815
 20
43.641075
 11
166.73249
 21
43.67315
  0
ARC
  8
ボルト／ビス
  6
CONTINUOUS
 62
    64
 10
166.825792
 20
43.625041
 40
0.104978
 50
180.0
 51
207.278033
  0
LINE
  8
ボルト／ビス
  6
CONTINUOUS
 62
    64
 10
166.720815
 20
43.320325
 11
166.720815
 21
43.641075
  0
LINE
  8
ボルト／ビス
  6
CONTINUOUS
 62
    64
 10
166.73249
 20
43.67315
 11
166.85415
 21
43.67315
  0
LINE
  8
ボルト／ビス
  6
CONTINUOUS
 62
    64
 10
166.73249
 20
43.576925
 11
166.85415
 21
43.576925
  0
LINE
  8
ボルト／ビス
  6
CONTINUOUS
 62
    64
 10
166.73249
 20
43.28825
 11
166.85415
 21
43.28825
  0
LINE
  8
ボルト／ビス
  6
CONTINUOUS
 62
    64
 10
166.73249
 20
43.384475
 11
166.85415
 21
43.384475
  0
LINE
  8
ボルト／ビス
  6
CONTINUOUS
 10
166.85415
 20
43.28825
 11
166.85415
 21
43.67315
  0
LINE
  8
ボルト／ビス
  6
CONTINUOUS
 10
166.85415
 20
43.2807
 11
166.920815
 21
43.2807
  0
LINE
  8
ボルト／ビス
  6
CONTINUOUS
 10
166.85415
 20
43.2807
 11
166.85415
 21
43.6807
  0
LINE
  8
ボルト／ビス
  6
CONTINUOUS
 10
166.85415
 20
43.6807
 11
166.920815
 21
43.6807
  0
ENDBLK
  0
BLOCK
  2
*GRP_0037
 70
    65
 10
0.0
 20
0.0
  0
LINE
  8
ボルト／ビス
  6
CONTINUOUS
 10
78.154218
 20
-70.209613
 11
78.154218
 21
-69.742947
  0
LINE
  8
ボルト／ビス
  6
CONTINUOUS
 10
77.787552
 20
-70.209613
 11
77.787552
 21
-70.142947
  0
LINE
  8
ボルト／ビス
  6
CONTINUOUS
 10
77.787552
 20
-70.142947
 11
78.520885
 21
-70.142947
  0
LINE
  8
ボルト／ビス
  6
CONTINUOUS
 10
78.520885
 20
-70.142947
 11
78.520885
 21
-70.209613
  0
LINE
  8
ボルト／ビス
  6
CONTINUOUS
 10
77.787552
 20
-70.209613
 11
78.520885
 21
-70.209613
  0
LINE
  8
ボルト／ビス
  6
CONTINUOUS
 10
77.854218
 20
-70.109612
 11
77.854218
 21
-70.142947
  0
LINE
  8
ボルト／ビス
  6
CONTINUOUS
 10
77.854218
 20
-70.109612
 11
78.454218
 21
-70.109612
  0
LINE
  8
ボルト／ビス
  6
CONTINUOUS
 10
78.454218
 20
-70.109612
 11
78.454218
 21
-70.142947
  0
LINE
  8
ボルト／ビス
  6
CONTINUOUS
 62
    64
 10
77.993843
 20
-69.909613
 11
77.961767
 21
-69.921288
  0
ARC
  8
ボルト／ビス
  6
CONTINUOUS
 62
    64
 10
78.009883
 20
-70.014591
 40
0.104978
 50
62.721967
 51
90.0
  0
ARC
  8
ボルト／ビス
  6
CONTINUOUS
 62
    64
 10
78.15422
 20
-70.312015
 40
0.402402
 50
76.165002
 51
103.834985
  0
LINE
  8
ボルト／ビス
  6
CONTINUOUS
 62
    64
 10
78.314593
 20
-69.909613
 11
78.346667
 21
-69.921288
  0
ARC
  8
ボルト／ビス
  6
CONTINUOUS
 62
    64
 10
78.298558
 20
-70.014591
 40
0.104978
 50
90.0
 51
117.278033
  0
LINE
  8
ボルト／ビス
  6
CONTINUOUS
 62
    64
 10
77.993843
 20
-69.909613
 11
78.314593
 21
-69.909613
  0
LINE
  8
ボルト／ビス
  6
CONTINUOUS
 62
    64
 10
78.346667
 20
-69.921288
 11
78.346667
 21
-70.042947
  0
LINE
  8
ボルト／ビス
  6
CONTINUOUS
 62
    64
 10
78.250442
 20
-69.921288
 11
78.250442
 21
-70.042947
  0
LINE
  8
ボルト／ビス
  6
CONTINUOUS
 62
    64
 10
77.961767
 20
-69.921288
 11
77.961767
 21
-70.042947
  0
LINE
  8
ボルト／ビス
  6
CONTINUOUS
 62
    64
 10
78.057992
 20
-69.921288
 11
78.057992
 21
-70.042947
  0
LINE
  8
ボルト／ビス
  6
CONTINUOUS
 10
77.961767
 20
-70.042947
 11
78.346667
 21
-70.042947
  0
LINE
  8
ボルト／ビス
  6
CONTINUOUS
 10
77.954218
 20
-70.042947
 11
77.954218
 21
-70.109612
  0
LINE
  8
ボルト／ビス
  6
CONTINUOUS
 10
77.954218
 20
-70.042947
 11
78.354218
 21
-70.042947
  0
LINE
  8
ボルト／ビス
  6
CONTINUOUS
 10
78.354218
 20
-70.042947
 11
78.354218
 21
-70.109612
  0
ENDBLK
  0
BLOCK
  2
*GRP_0038
 70
    65
 10
0.0
 20
0.0
  0
LINE
  8
ボルト／ビス
  6
DOT
 10
78.154218
 20
-62.87628
 11
78.154218
 21
-62.409615
  0
LINE
  8
ボルト／ビス
  6
DOT
 10
77.787552
 20
-62.87628
 11
77.787552
 21
-62.809615
  0
LINE
  8
ボルト／ビス
  6
DOT
 10
77.787552
 20
-62.809615
 11
78.520885
 21
-62.809615
  0
LINE
  8
ボルト／ビス
  6
DOT
 10
78.520885
 20
-62.809615
 11
78.520885
 21
-62.87628
  0
LINE
  8
ボルト／ビス
  6
DOT
 10
77.787552
 20
-62.87628
 11
78.520885
 21
-62.87628
  0
LINE
  8
ボルト／ビス
  6
DOT
 10
77.854218
 20
-62.77628
 11
77.854218
 21
-62.809615
  0
LINE
  8
ボルト／ビス
  6
DOT
 10
77.854218
 20
-62.77628
 11
78.454218
 21
-62.77628
  0
LINE
  8
ボルト／ビス
  6
DOT
 10
78.454218
 20
-62.77628
 11
78.454218
 21
-62.809615
  0
LINE
  8
ボルト／ビス
  6
DOT
 62
    64
 10
77.993843
 20
-62.57628
 11
77.961767
 21
-62.587955
  0
ARC
  8
ボルト／ビス
  6
DOT
 62
    64
 10
78.009883
 20
-62.681259
 40
0.104978
 50
62.721967
 51
90.0
  0
ARC
  8
ボルト／ビス
  6
DOT
 62
    64
 10
78.15422
 20
-62.978683
 40
0.402402
 50
76.165002
 51
103.834985
  0
LINE
  8
ボルト／ビス
  6
DOT
 62
    64
 10
78.314593
 20
-62.57628
 11
78.346667
 21
-62.587955
  0
ARC
  8
ボルト／ビス
  6
DOT
 62
    64
 10
78.298558
 20
-62.681259
 40
0.104978
 50
90.0
 51
117.278033
  0
LINE
  8
ボルト／ビス
  6
DOT
 62
    64
 10
77.993843
 20
-62.57628
 11
78.314593
 21
-62.57628
  0
LINE
  8
ボルト／ビス
  6
DOT
 62
    64
 10
78.346667
 20
-62.587955
 11
78.346667
 21
-62.709615
  0
LINE
  8
ボルト／ビス
  6
DOT
 62
    64
 10
78.250442
 20
-62.587955
 11
78.250442
 21
-62.709615
  0
LINE
  8
ボルト／ビス
  6
DOT
 62
    64
 10
77.961767
 20
-62.587955
 11
77.961767
 21
-62.709615
  0
LINE
  8
ボルト／ビス
  6
DOT
 62
    64
 10
78.057992
 20
-62.587955
 11
78.057992
 21
-62.709615
  0
LINE
  8
ボルト／ビス
  6
DOT
 10
77.961767
 20
-62.709615
 11
78.346667
 21
-62.709615
  0
LINE
  8
ボルト／ビス
  6
DOT
 10
77.954218
 20
-62.709615
 11
77.954218
 21
-62.77628
  0
LINE
  8
ボルト／ビス
  6
DOT
 10
77.954218
 20
-62.709615
 11
78.354218
 21
-62.709615
  0
LINE
  8
ボルト／ビス
  6
DOT
 10
78.354218
 20
-62.709615
 11
78.354218
 21
-62.77628
  0
ENDBLK
  0
BLOCK
  2
*GRP_0039
 70
    65
 10
0.0
 20
0.0
  0
LINE
  8
ボルト／ビス
  6
CONTINUOUS
 10
-123.179118
 20
-70.209613
 11
-123.179118
 21
-69.742947
  0
LINE
  8
ボルト／ビス
  6
CONTINUOUS
 10
-123.545783
 20
-70.209613
 11
-123.545783
 21
-70.142947
  0
LINE
  8
ボルト／ビス
  6
CONTINUOUS
 10
-123.545783
 20
-70.142947
 11
-122.81245
 21
-70.142947
  0
LINE
  8
ボルト／ビス
  6
CONTINUOUS
 10
-122.81245
 20
-70.142947
 11
-122.81245
 21
-70.209613
  0
LINE
  8
ボルト／ビス
  6
CONTINUOUS
 10
-123.545783
 20
-70.209613
 11
-122.81245
 21
-70.209613
  0
LINE
  8
ボルト／ビス
  6
CONTINUOUS
 10
-123.479118
 20
-70.109612
 11
-123.479118
 21
-70.142947
  0
LINE
  8
ボルト／ビス
  6
CONTINUOUS
 10
-123.479118
 20
-70.109612
 11
-122.879118
 21
-70.109612
  0
LINE
  8
ボルト／ビス
  6
CONTINUOUS
 10
-122.879118
 20
-70.109612
 11
-122.879118
 21
-70.142947
  0
LINE
  8
ボルト／ビス
  6
CONTINUOUS
 62
    64
 10
-123.339492
 20
-69.909613
 11
-123.371568
 21
-69.921288
  0
ARC
  8
ボルト／ビス
  6
CONTINUOUS
 62
    64
 10
-123.323452
 20
-70.014591
 40
0.104978
 50
62.721967
 51
90.0
  0
ARC
  8
ボルト／ビス
  6
CONTINUOUS
 62
    64
 10
-123.179115
 20
-70.312015
 40
0.402402
 50
76.165002
 51
103.834985
  0
LINE
  8
ボルト／ビス
  6
CONTINUOUS
 62
    64
 10
-123.018743
 20
-69.909613
 11
-122.986668
 21
-69.921288
  0
ARC
  8
ボルト／ビス
  6
CONTINUOUS
 62
    64
 10
-123.034777
 20
-70.014591
 40
0.104978
 50
90.0
 51
117.278033
  0
LINE
  8
ボルト／ビス
  6
CONTINUOUS
 62
    64
 10
-123.339492
 20
-69.909613
 11
-123.018743
 21
-69.909613
  0
LINE
  8
ボルト／ビス
  6
CONTINUOUS
 62
    64
 10
-122.986668
 20
-69.921288
 11
-122.986668
 21
-70.042947
  0
LINE
  8
ボルト／ビス
  6
CONTINUOUS
 62
    64
 10
-123.082892
 20
-69.921288
 11
-123.082892
 21
-70.042947
  0
LINE
  8
ボルト／ビス
  6
CONTINUOUS
 62
    64
 10
-123.371568
 20
-69.921288
 11
-123.371568
 21
-70.042947
  0
LINE
  8
ボルト／ビス
  6
CONTINUOUS
 62
    64
 10
-123.275342
 20
-69.921288
 11
-123.275342
 21
-70.042947
  0
LINE
  8
ボルト／ビス
  6
CONTINUOUS
 10
-123.371568
 20
-70.042947
 11
-122.986668
 21
-70.042947
  0
LINE
  8
ボルト／ビス
  6
CONTINUOUS
 10
-123.379118
 20
-70.042947
 11
-123.379118
 21
-70.109612
  0
LINE
  8
ボルト／ビス
  6
CONTINUOUS
 10
-123.379118
 20
-70.042947
 11
-122.979118
 21
-70.042947
  0
LINE
  8
ボルト／ビス
  6
CONTINUOUS
 10
-122.979118
 20
-70.042947
 11
-122.979118
 21
-70.109612
  0
ENDBLK
  0
BLOCK
  2
*GRP_0040
 70
    65
 10
0.0
 20
0.0
  0
LINE
  8
ボルト／ビス
  6
DOT
 10
-123.179118
 20
-62.87628
 11
-123.179118
 21
-62.409615
  0
LINE
  8
ボルト／ビス
  6
DOT
 10
-123.545783
 20
-62.87628
 11
-123.545783
 21
-62.809615
  0
LINE
  8
ボルト／ビス
  6
DOT
 10
-123.545783
 20
-62.809615
 11
-122.81245
 21
-62.809615
  0
LINE
  8
ボルト／ビス
  6
DOT
 10
-122.81245
 20
-62.809615
 11
-122.81245
 21
-62.87628
  0
LINE
  8
ボルト／ビス
  6
DOT
 10
-123.545783
 20
-62.87628
 11
-122.81245
 21
-62.87628
  0
LINE
  8
ボルト／ビス
  6
DOT
 10
-123.479118
 20
-62.77628
 11
-123.479118
 21
-62.809615
  0
LINE
  8
ボルト／ビス
  6
DOT
 10
-123.479118
 20
-62.77628
 11
-122.879118
 21
-62.77628
  0
LINE
  8
ボルト／ビス
  6
DOT
 10
-122.879118
 20
-62.77628
 11
-122.879118
 21
-62.809615
  0
LINE
  8
ボルト／ビス
  6
DOT
 62
    64
 10
-123.339492
 20
-62.57628
 11
-123.371568
 21
-62.587955
  0
ARC
  8
ボルト／ビス
  6
DOT
 62
    64
 10
-123.323452
 20
-62.681259
 40
0.104978
 50
62.721967
 51
90.0
  0
ARC
  8
ボルト／ビス
  6
DOT
 62
    64
 10
-123.179115
 20
-62.978683
 40
0.402402
 50
76.165002
 51
103.834985
  0
LINE
  8
ボルト／ビス
  6
DOT
 62
    64
 10
-123.018743
 20
-62.57628
 11
-122.986668
 21
-62.587955
  0
ARC
  8
ボルト／ビス
  6
DOT
 62
    64
 10
-123.034777
 20
-62.681259
 40
0.104978
 50
90.0
 51
117.278033
  0
LINE
  8
ボルト／ビス
  6
DOT
 62
    64
 10
-123.339492
 20
-62.57628
 11
-123.018743
 21
-62.57628
  0
LINE
  8
ボルト／ビス
  6
DOT
 62
    64
 10
-122.986668
 20
-62.587955
 11
-122.986668
 21
-62.709615
  0
LINE
  8
ボルト／ビス
  6
DOT
 62
    64
 10
-123.082892
 20
-62.587955
 11
-123.082892
 21
-62.709615
  0
LINE
  8
ボルト／ビス
  6
DOT
 62
    64
 10
-123.371568
 20
-62.587955
 11
-123.371568
 21
-62.709615
  0
LINE
  8
ボルト／ビス
  6
DOT
 62
    64
 10
-123.275342
 20
-62.587955
 11
-123.275342
 21
-62.709615
  0
LINE
  8
ボルト／ビス
  6
DOT
 10
-123.371568
 20
-62.709615
 11
-122.986668
 21
-62.709615
  0
LINE
  8
ボルト／ビス
  6
DOT
 10
-123.379118
 20
-62.709615
 11
-123.379118
 21
-62.77628
  0
LINE
  8
ボルト／ビス
  6
DOT
 10
-123.379118
 20
-62.709615
 11
-122.979118
 21
-62.709615
  0
LINE
  8
ボルト／ビス
  6
DOT
 10
-122.979118
 20
-62.709615
 11
-122.979118
 21
-62.77628
  0
ENDBLK
  0
ENDSEC
  0
SECTION
  2
ENTITIES
  0
POLYLINE
  8
通り芯
  6
CONTINUOUS
 66
     1
 70
     1
  0
VERTEX
  8
通り芯
 10
-210.0
 20
-148.5
  0
VERTEX
  8
通り芯
 10
210.0
 20
-148.5
  0
VERTEX
  8
通り芯
 10
210.0
 20
148.5
  0
VERTEX
  8
通り芯
 10
-210.0
 20
148.5
  0
SEQEND
  0
INSERT
  2
*GRP_0001
  8
型材断面
  6
CONTINUOUS
 10
0.0
 20
0.0
  0
LINE
  8
型材断面
  6
DASHDOT
 10
175.164313
 20
22.814033
 11
-122.51245
 21
22.814033
  0
POLYLINE
  8
型材断面
  6
CONTINUOUS
 66
     1
 70
     1
  0
VERTEX
  8
型材断面
 10
-12.741788
 20
13.03811
  0
VERTEX
  8
型材断面
 10
-31.513717
 20
13.03811
  0
VERTEX
  8
型材断面
 10
-31.513717
 20
8.301267
  0
VERTEX
  8
型材断面
 10
-12.741788
 20
8.301267
  0
SEQEND
  0
LINE
  8
型材断面
  6
DASHDOT
 10
175.164313
 20
32.814033
 11
-122.51245
 21
32.814033
  0
LINE
  8
型材断面
  6
DASHDOT
 10
175.164313
 20
42.814033
 11
-122.51245
 21
42.814033
  0
LINE
  8
型材断面
  6
DOT
 10
-23.76245
 20
22.814033
 11
-23.76245
 21
42.814033
  0
LINE
  8
型材断面
  6
DOT
 10
-21.26245
 20
22.814033
 11
-21.26245
 21
42.814033
  0
LINE
  8
型材断面
  6
DASHDOT
 10
-22.51245
 20
-77.836442
 11
-22.51245
 21
42.814033
  0
LINE
  8
型材断面
  6
DASHDOT
 10
-122.51245
 20
-77.836442
 11
-122.51245
 21
42.814033
  0
LINE
  8
型材断面
  6
DASHDOT
 10
77.48755
 20
-77.836442
 11
77.48755
 21
42.814033
  0
POLYLINE
  8
型材断面
  6
CONTINUOUS
 66
     1
 70
     1
  0
VERTEX
  8
型材断面
 10
-12.741788
 20
52.589955
  0
VERTEX
  8
型材断面
 10
-31.513717
 20
52.589955
  0
VERTEX
  8
型材断面
 10
-31.513717
 20
57.326798
  0
VERTEX
  8
型材断面
 10
-12.741788
 20
57.326798
  0
SEQEND
  0
LINE
  8
型材断面
  6
CONTINUOUS
 10
-105.845783
 20
45.444162
 11
-107.341413
 21
48.03467
  0
LINE
  8
型材断面
  6
CONTINUOUS
 10
-105.845783
 20
45.444162
 11
-104.350152
 21
48.03467
  0
LINE
  8
型材断面
  6
CONTINUOUS
 10
-104.350152
 20
48.03467
 11
-107.341413
 21
48.03467
  0
LINE
  8
型材断面
  6
CONTINUOUS
 10
-163.364657
 20
80.791505
 11
-162.768602
 21
78.200998
  0
LINE
  8
型材断面
  6
CONTINUOUS
 10
-163.364657
 20
80.791505
 11
-163.960715
 21
78.200998
  0
LINE
  8
型材断面
  6
CONTINUOUS
 10
-163.960715
 20
78.200998
 11
-162.768602
 21
78.200998
  0
LINE
  8
型材断面
  6
CONTINUOUS
 10
-169.387245
 20
74.922105
 11
-123.145468
 21
74.922105
  0
LINE
  8
型材断面
  6
CONTINUOUS
 10
-163.364657
 20
87.32138
 11
-164.860287
 21
84.730873
  0
LINE
  8
型材断面
  6
CONTINUOUS
 10
-163.364657
 20
87.32138
 11
-161.869027
 21
84.730873
  0
LINE
  8
型材断面
  6
CONTINUOUS
 10
-161.869027
 20
84.730873
 11
-164.860287
 21
84.730873
  0
LINE
  8
型材断面
  6
CONTINUOUS
 10
-169.387245
 20
83.792277
 11
-123.145468
 21
83.792277
  0
LINE
  8
型材断面
  6
CONTINUOUS
 10
-169.387245
 20
69.134073
 11
-123.145468
 21
69.134073
  0
LINE
  8
型材断面
  6
CONTINUOUS
 10
60.820882
 20
45.444162
 11
62.316512
 21
48.03467
  0
LINE
  8
型材断面
  6
CONTINUOUS
 10
60.820882
 20
45.444162
 11
59.325252
 21
48.03467
  0
LINE
  8
型材断面
  6
CONTINUOUS
 10
59.325252
 20
48.03467
 11
62.316512
 21
48.03467
  0
LINE
  8
型材断面
  6
CONTINUOUS
 10
-125.14258
 20
32.814033
 11
-127.733087
 21
34.309663
  0
LINE
  8
型材断面
  6
CONTINUOUS
 10
-125.14258
 20
32.814033
 11
-127.733087
 21
31.318403
  0
LINE
  8
型材断面
  6
CONTINUOUS
 10
-127.733087
 20
31.318403
 11
-127.733087
 21
34.309663
  0
LINE
  8
型材断面
  6
CONTINUOUS
 10
-22.51245
 20
45.44416
 11
-24.00808
 21
48.034668
  0
LINE
  8
型材断面
  6
CONTINUOUS
 10
-22.51245
 20
45.44416
 11
-21.01682
 21
48.034668
  0
LINE
  8
型材断面
  6
CONTINUOUS
 10
-21.01682
 20
48.034668
 11
-24.00808
 21
48.034668
  0
LINE
  8
型材断面
  6
CONTINUOUS
 10
-105.845783
 20
20.183902
 11
-107.341413
 21
17.593395
  0
LINE
  8
型材断面
  6
CONTINUOUS
 10
-105.845783
 20
20.183902
 11
-104.350152
 21
17.593395
  0
LINE
  8
型材断面
  6
CONTINUOUS
 10
-104.350152
 20
17.593395
 11
-107.341413
 21
17.593395
  0
LINE
  8
型材断面
  6
CONTINUOUS
 10
60.820882
 20
20.183902
 11
62.316512
 21
17.593395
  0
LINE
  8
型材断面
  6
CONTINUOUS
 10
60.820882
 20
20.183902
 11
59.325252
 21
17.593395
  0
LINE
  8
型材断面
  6
CONTINUOUS
 10
59.325252
 20
17.593395
 11
62.316512
 21
17.593395
  0
LINE
  8
型材断面
  6
CONTINUOUS
 10
-22.51245
 20
20.183905
 11
-24.00808
 21
17.593397
  0
LINE
  8
型材断面
  6
CONTINUOUS
 10
-22.51245
 20
20.183905
 11
-21.01682
 21
17.593397
  0
LINE
  8
型材断面
  6
CONTINUOUS
 10
-21.01682
 20
17.593397
 11
-24.00808
 21
17.593397
  0
LINE
  8
型材断面
  6
CONTINUOUS
 10
80.11768
 20
32.814033
 11
82.708187
 21
34.309663
  0
LINE
  8
型材断面
  6
CONTINUOUS
 10
80.11768
 20
32.814033
 11
82.708187
 21
31.318403
  0
LINE
  8
型材断面
  6
CONTINUOUS
 10
82.708187
 20
31.318403
 11
82.708187
 21
34.309663
  0
LINE
  8
型材断面
  6
DASHDOT
 10
168.054097
 20
22.81403
 11
174.074163
 21
22.81403
  0
LINE
  8
型材断面
  6
CONTINUOUS
 62
    47
 10
170.33743
 20
21.417365
 11
170.33743
 21
22.197365
  0
LINE
  8
型材断面
  6
CONTINUOUS
 10
168.504098
 20
21.317365
 11
168.054097
 21
21.317365
  0
LINE
  8
型材断面
  6
CONTINUOUS
 62
    47
 10
171.17679
 20
20.53403
 11
170.843455
 21
20.53403
  0
LINE
  8
型材断面
  6
CONTINUOUS
 62
    47
 10
170.843455
 20
20.53403
 11
170.743455
 21
21.317365
  0
LINE
  8
型材断面
  6
CONTINUOUS
 62
    47
 10
170.33743
 20
21.317365
 11
170.743455
 21
21.317365
  0
LINE
  8
型材断面
  6
CONTINUOUS
 62
    47
 10
170.33743
 20
20.847365
 11
168.504098
 21
20.847365
  0
LINE
  8
型材断面
  6
CONTINUOUS
 62
    47
 10
174.304097
 20
21.41403
 11
173.804097
 21
21.41403
  0
LINE
  8
型材断面
  6
CONTINUOUS
 62
    47
 10
173.804097
 20
20.847365
 11
171.17679
 21
20.847365
  0
LINE
  8
型材断面
  6
CONTINUOUS
 62
    47
 10
173.804097
 20
20.847365
 11
173.804097
 21
32.814033
  0
LINE
  8
型材断面
  6
CONTINUOUS
 62
    47
 10
174.304097
 20
21.41403
 11
174.304097
 21
32.814033
  0
LINE
  8
型材断面
  6
CONTINUOUS
 10
170.743455
 20
21.317365
 11
170.743455
 21
32.814033
  0
LINE
  8
型材断面
  6
CONTINUOUS
 10
170.843455
 20
20.53403
 11
170.843455
 21
32.814033
  0
LINE
  8
型材断面
  6
CONTINUOUS
 62
    47
 10
170.33743
 20
20.847365
 11
170.33743
 21
32.814033
  0
LINE
  8
型材断面
  6
CONTINUOUS
 62
    47
 10
171.17679
 20
20.53403
 11
171.17679
 21
32.814033
  0
LINE
  8
型材断面
  6
CONTINUOUS
 10
168.504098
 20
20.847365
 11
168.504098
 21
32.814033
  0
LINE
  8
型材断面
  6
DASHDOT
 10
168.054097
 20
42.814035
 11
174.074163
 21
42.814035
  0
LINE
  8
型材断面
  6
CONTINUOUS
 62
    47
 10
170.33743
 20
44.2107
 11
170.33743
 21
43.4307
  0
LINE
  8
型材断面
  6
CONTINUOUS
 10
168.504098
 20
44.3107
 11
168.054097
 21
44.3107
  0
LINE
  8
型材断面
  6
CONTINUOUS
 62
    47
 10
171.17679
 20
45.094035
 11
170.843455
 21
45.094035
  0
LINE
  8
型材断面
  6
CONTINUOUS
 62
    47
 10
170.843455
 20
45.094035
 11
170.743455
 21
44.3107
  0
LINE
  8
型材断面
  6
CONTINUOUS
 62
    47
 10
170.33743
 20
44.3107
 11
170.743455
 21
44.3107
  0
LINE
  8
型材断面
  6
CONTINUOUS
 62
    47
 10
170.33743
 20
44.7807
 11
168.504098
 21
44.7807
  0
LINE
  8
型材断面
  6
CONTINUOUS
 62
    47
 10
174.304097
 20
44.214035
 11
173.804097
 21
44.214035
  0
LINE
  8
型材断面
  6
CONTINUOUS
 62
    47
 10
173.804097
 20
44.7807
 11
171.17679
 21
44.7807
  0
LINE
  8
型材断面
  6
CONTINUOUS
 62
    47
 10
173.804097
 20
44.7807
 11
173.804097
 21
32.814033
  0
LINE
  8
型材断面
  6
CONTINUOUS
 62
    47
 10
174.304097
 20
44.214035
 11
174.304097
 21
32.814033
  0
LINE
  8
型材断面
  6
CONTINUOUS
 10
170.743455
 20
44.3107
 11
170.743455
 21
32.814033
  0
LINE
  8
型材断面
  6
CONTINUOUS
 10
170.843455
 20
45.094035
 11
170.843455
 21
32.814033
  0
LINE
  8
型材断面
  6
CONTINUOUS
 62
    47
 10
170.33743
 20
44.7807
 11
170.33743
 21
32.814033
  0
LINE
  8
型材断面
  6
CONTINUOUS
 62
    47
 10
171.17679
 20
45.094035
 11
171.17679
 21
32.814033
  0
LINE
  8
型材断面
  6
CONTINUOUS
 10
168.504098
 20
44.7807
 11
168.504098
 21
32.814033
  0
LINE
  8
型材断面
  6
DASHDOT
 10
77.487552
 20
-71.242895
 11
77.487552
 21
-77.26296
  0
LINE
  8
型材断面
  6
CONTINUOUS
 62
    47
 10
78.884217
 20
-73.526228
 11
78.104218
 21
-73.526228
  0
LINE
  8
型材断面
  6
CONTINUOUS
 10
78.984217
 20
-71.692895
 11
78.984217
 21
-71.242895
  0
LINE
  8
型材断面
  6
CONTINUOUS
 62
    47
 10
79.767553
 20
-74.365588
 11
79.767553
 21
-74.032252
  0
LINE
  8
型材断面
  6
CONTINUOUS
 62
    47
 10
79.767553
 20
-74.032252
 11
78.984217
 21
-73.932252
  0
LINE
  8
型材断面
  6
CONTINUOUS
 62
    47
 10
78.984217
 20
-73.526228
 11
78.984217
 21
-73.932252
  0
LINE
  8
型材断面
  6
CONTINUOUS
 62
    47
 10
79.454218
 20
-73.526228
 11
79.454218
 21
-71.692895
  0
LINE
  8
型材断面
  6
CONTINUOUS
 62
    47
 10
78.887552
 20
-77.492895
 11
78.887552
 21
-76.992895
  0
LINE
  8
型材断面
  6
CONTINUOUS
 62
    47
 10
79.454218
 20
-76.992895
 11
79.454218
 21
-74.365588
  0
LINE
  8
型材断面
  6
CONTINUOUS
 10
79.454218
 20
-71.692895
 11
-22.51245
 21
-71.692895
  0
LINE
  8
型材断面
  6
CONTINUOUS
 62
    47
 10
79.454218
 20
-73.526228
 11
-22.51245
 21
-73.526228
  0
LINE
  8
型材断面
  6
CONTINUOUS
 62
    47
 10
79.767553
 20
-74.365588
 11
-22.51245
 21
-74.365588
  0
LINE
  8
型材断面
  6
CONTINUOUS
 10
78.984217
 20
-73.932252
 11
-22.51245
 21
-73.932252
  0
LINE
  8
型材断面
  6
CONTINUOUS
 10
79.767553
 20
-74.032252
 11
-22.51245
 21
-74.032252
  0
LINE
  8
型材断面
  6
CONTINUOUS
 62
    47
 10
79.454218
 20
-76.992895
 11
-22.51245
 21
-76.992895
  0
LINE
  8
型材断面
  6
CONTINUOUS
 62
    47
 10
78.887552
 20
-77.492895
 11
-22.51245
 21
-77.492895
  0
LINE
  8
型材断面
  6
DASHDOT
 10
-122.512453
 20
-71.242895
 11
-122.512453
 21
-77.26296
  0
LINE
  8
型材断面
  6
CONTINUOUS
 62
    47
 10
-123.909117
 20
-73.526228
 11
-123.129118
 21
-73.526228
  0
LINE
  8
型材断面
  6
CONTINUOUS
 10
-124.009117
 20
-71.692895
 11
-124.009117
 21
-71.242895
  0
LINE
  8
型材断面
  6
CONTINUOUS
 62
    47
 10
-124.792453
 20
-74.365588
 11
-124.792453
 21
-74.032252
  0
LINE
  8
型材断面
  6
CONTINUOUS
 62
    47
 10
-124.792453
 20
-74.032252
 11
-124.009117
 21
-73.932252
  0
LINE
  8
型材断面
  6
CONTINUOUS
 62
    47
 10
-124.009117
 20
-73.526228
 11
-124.009117
 21
-73.932252
  0
LINE
  8
型材断面
  6
CONTINUOUS
 62
    47
 10
-124.479118
 20
-73.526228
 11
-124.479118
 21
-71.692895
  0
LINE
  8
型材断面
  6
CONTINUOUS
 62
    47
 10
-123.912453
 20
-77.492895
 11
-123.912453
 21
-76.992895
  0
LINE
  8
型材断面
  6
CONTINUOUS
 62
    47
 10
-124.479118
 20
-76.992895
 11
-124.479118
 21
-74.365588
  0
LINE
  8
型材断面
  6
CONTINUOUS
 10
-124.479118
 20
-71.692895
 11
-22.51245
 21
-71.692895
  0
LINE
  8
型材断面
  6
CONTINUOUS
 62
    47
 10
-124.479118
 20
-73.526228
 11
-22.51245
 21
-73.526228
  0
LINE
  8
型材断面
  6
CONTINUOUS
 62
    47
 10
-124.792453
 20
-74.365588
 11
-22.51245
 21
-74.365588
  0
LINE
  8
型材断面
  6
CONTINUOUS
 10
-124.009117
 20
-73.932252
 11
-22.51245
 21
-73.932252
  0
LINE
  8
型材断面
  6
CONTINUOUS
 10
-124.792453
 20
-74.032252
 11
-22.51245
 21
-74.032252
  0
LINE
  8
型材断面
  6
CONTINUOUS
 62
    47
 10
-124.479118
 20
-76.992895
 11
-22.51245
 21
-76.992895
  0
LINE
  8
型材断面
  6
CONTINUOUS
 62
    47
 10
-123.912453
 20
-77.492895
 11
-22.51245
 21
-77.492895
  0
LINE
  8
型材断面
  6
DOT
 62
    47
 10
78.884217
 20
-66.192895
 11
78.104218
 21
-66.192895
  0
LINE
  8
型材断面
  6
DOT
 10
78.984217
 20
-64.359562
 11
78.984217
 21
-63.909562
  0
LINE
  8
型材断面
  6
DOT
 62
    47
 10
79.767553
 20
-67.032255
 11
79.767553
 21
-66.69892
  0
LINE
  8
型材断面
  6
DOT
 62
    47
 10
79.767553
 20
-66.69892
 11
78.984217
 21
-66.59892
  0
LINE
  8
型材断面
  6
DOT
 62
    47
 10
78.984217
 20
-66.192895
 11
78.984217
 21
-66.59892
  0
LINE
  8
型材断面
  6
DOT
 62
    47
 10
79.454218
 20
-66.192895
 11
79.454218
 21
-64.359562
  0
LINE
  8
型材断面
  6
DOT
 10
79.454218
 20
-64.359562
 11
-22.51245
 21
-64.359562
  0
LINE
  8
型材断面
  6
DOT
 62
    47
 10
79.454218
 20
-66.192895
 11
-22.51245
 21
-66.192895
  0
LINE
  8
型材断面
  6
DOT
 62
    47
 10
79.767553
 20
-67.032255
 11
-22.51245
 21
-67.032255
  0
LINE
  8
型材断面
  6
DOT
 10
78.984217
 20
-66.59892
 11
-22.51245
 21
-66.59892
  0
LINE
  8
型材断面
  6
DOT
 10
79.767553
 20
-66.69892
 11
-22.51245
 21
-66.69892
  0
LINE
  8
型材断面
  6
DOT
 62
    47
 10
-123.909117
 20
-66.192895
 11
-123.129118
 21
-66.192895
  0
LINE
  8
型材断面
  6
DOT
 10
-124.009117
 20
-64.359562
 11
-124.009117
 21
-63.909562
  0
LINE
  8
型材断面
  6
DOT
 62
    47
 10
-124.792453
 20
-67.032255
 11
-124.792453
 21
-66.69892
  0
LINE
  8
型材断面
  6
DOT
 62
    47
 10
-124.792453
 20
-66.69892
 11
-124.009117
 21
-66.59892
  0
LINE
  8
型材断面
  6
DOT
 62
    47
 10
-124.009117
 20
-66.192895
 11
-124.009117
 21
-66.59892
  0
LINE
  8
型材断面
  6
DOT
 62
    47
 10
-124.479118
 20
-66.192895
 11
-124.479118
 21
-64.359562
  0
LINE
  8
型材断面
  6
DOT
 10
-124.479118
 20
-64.359562
 11
-22.51245
 21
-64.359562
  0
LINE
  8
型材断面
  6
DOT
 62
    47
 10
-124.479118
 20
-66.192895
 11
-22.51245
 21
-66.192895
  0
LINE
  8
型材断面
  6
DOT
 62
    47
 10
-124.792453
 20
-67.032255
 11
-22.51245
 21
-67.032255
  0
LINE
  8
型材断面
  6
DOT
 10
-124.009117
 20
-66.59892
 11
-22.51245
 21
-66.59892
  0
LINE
  8
型材断面
  6
DOT
 10
-124.792453
 20
-66.69892
 11
-22.51245
 21
-66.69892
  0
LINE
  8
型材断面
  6
CONTINUOUS
 10
79.554218
 20
20.747365
 11
79.767553
 21
20.53403
  0
LINE
  8
型材断面
  6
CONTINUOUS
 10
79.767553
 20
20.53403
 11
79.767553
 21
32.814033
  0
LINE
  8
型材断面
  6
CONTINUOUS
 10
79.767553
 20
20.53403
 11
-22.51245
 21
20.53403
  0
LINE
  8
型材断面
  6
CONTINUOUS
 10
79.554218
 20
44.8807
 11
79.767553
 21
45.094035
  0
LINE
  8
型材断面
  6
CONTINUOUS
 10
79.767553
 20
45.094035
 11
79.767553
 21
32.814033
  0
LINE
  8
型材断面
  6
CONTINUOUS
 10
79.767553
 20
45.094035
 11
-22.51245
 21
45.094035
  0
LINE
  8
型材断面
  6
CONTINUOUS
 10
-124.579118
 20
44.8807
 11
-124.792453
 21
45.094035
  0
LINE
  8
型材断面
  6
CONTINUOUS
 10
-124.792453
 20
45.094035
 11
-124.792453
 21
32.814033
  0
LINE
  8
型材断面
  6
CONTINUOUS
 10
-124.792453
 20
45.094035
 11
-22.51245
 21
45.094035
  0
LINE
  8
型材断面
  6
CONTINUOUS
 10
-124.579118
 20
20.747365
 11
-124.792453
 21
20.53403
  0
LINE
  8
型材断面
  6
CONTINUOUS
 10
-124.792453
 20
20.53403
 11
-124.792453
 21
32.814033
  0
LINE
  8
型材断面
  6
CONTINUOUS
 10
-124.792453
 20
20.53403
 11
-22.51245
 21
20.53403
  0
LINE
  8
型材断面
  6
CONTINUOUS
 10
80.117677
 20
38.914033
 11
82.708185
 21
38.317975
  0
LINE
  8
型材断面
  6
CONTINUOUS
 10
80.117677
 20
38.914033
 11
82.708185
 21
39.51009
  0
LINE
  8
型材断面
  6
CONTINUOUS
 10
82.708185
 20
39.51009
 11
82.708185
 21
38.317975
  0
LINE
  8
型材断面
  6
CONTINUOUS
 10
80.117677
 20
26.714033
 11
82.708185
 21
27.31009
  0
LINE
  8
型材断面
  6
CONTINUOUS
 10
80.117677
 20
26.714033
 11
82.708185
 21
26.117975
  0
LINE
  8
型材断面
  6
CONTINUOUS
 10
82.708185
 20
26.117975
 11
82.708185
 21
27.31009
  0
LINE
  8
型材断面
  6
CONTINUOUS
 10
-125.142577
 20
38.914033
 11
-127.733085
 21
38.317975
  0
LINE
  8
型材断面
  6
CONTINUOUS
 10
-125.142577
 20
38.914033
 11
-127.733085
 21
39.51009
  0
LINE
  8
型材断面
  6
CONTINUOUS
 10
-127.733085
 20
39.51009
 11
-127.733085
 21
38.317975
  0
LINE
  8
型材断面
  6
CONTINUOUS
 10
-125.142577
 20
26.714033
 11
-127.733085
 21
27.31009
  0
LINE
  8
型材断面
  6
CONTINUOUS
 10
-125.142577
 20
26.714033
 11
-127.733085
 21
26.117975
  0
LINE
  8
型材断面
  6
CONTINUOUS
 10
-127.733085
 20
26.117975
 11
-127.733085
 21
27.31009
  0
INSERT
  2
*GRP_0017
  8
型材断面
  6
CONTINUOUS
 10
0.0
 20
0.0
  0
INSERT
  2
*GRP_0018
  8
型材断面
  6
CONTINUOUS
 10
0.0
 20
0.0
  0
INSERT
  2
*GRP_0019
  8
型材断面
  6
CONTINUOUS
 10
0.0
 20
0.0
  0
INSERT
  2
*GRP_0020
  8
型材断面
  6
CONTINUOUS
 10
0.0
 20
0.0
  0
INSERT
  2
*GRP_0021
  8
型材断面
  6
CONTINUOUS
 10
0.0
 20
0.0
  0
INSERT
  2
*GRP_0022
  8
型材断面
  6
CONTINUOUS
 10
0.0
 20
0.0
  0
LINE
  8
型材断面
  6
CONTINUOUS
 10
-169.387245
 20
63.34604
 11
-123.145468
 21
63.34604
  0
LINE
  8
型材断面
  6
DOT
 10
-90.655785
 20
22.814033
 11
-90.655785
 21
42.814033
  0
LINE
  8
型材断面
  6
DASHDOT
 10
-89.405785
 20
22.814033
 11
-89.405785
 21
42.814033
  0
LINE
  8
型材断面
  6
DOT
 10
-88.155785
 20
22.814033
 11
-88.155785
 21
42.814033
  0
LINE
  8
型材断面
  6
DOT
 10
-57.20912
 20
22.814033
 11
-57.20912
 21
42.814033
  0
LINE
  8
型材断面
  6
DOT
 10
-54.70912
 20
22.814033
 11
-54.70912
 21
42.814033
  0
LINE
  8
型材断面
  6
DASHDOT
 10
-55.95912
 20
22.814033
 11
-55.95912
 21
42.814033
  0
LINE
  8
型材断面
  6
DOT
 10
45.630885
 20
22.814033
 11
45.630885
 21
42.814033
  0
LINE
  8
型材断面
  6
DASHDOT
 10
44.380885
 20
22.814033
 11
44.380885
 21
42.814033
  0
LINE
  8
型材断面
  6
DOT
 10
43.130885
 20
22.814033
 11
43.130885
 21
42.814033
  0
LINE
  8
型材断面
  6
DOT
 10
12.18422
 20
22.814033
 11
12.18422
 21
42.814033
  0
LINE
  8
型材断面
  6
DOT
 10
9.68422
 20
22.814033
 11
9.68422
 21
42.814033
  0
LINE
  8
型材断面
  6
DASHDOT
 10
10.93422
 20
22.814033
 11
10.93422
 21
42.814033
  0
TEXT
  7
TextStyle03
  8
文字
  6
CONTINUOUS
 10
154.025
 20
-76.7
  1
網入り6.8t
 40
3.0
 72
     5
 11
170.7125
 21
-76.7
  0
TEXT
  7
TextStyle03
  8
文字
  6
CONTINUOUS
 10
-30.45
 20
9.325
  1
可動装置側
 40
3.0
 72
     5
 11
-13.95
 21
9.325
  0
TEXT
  7
TextStyle03
  8
文字
  6
CONTINUOUS
 10
160.7
 20
-81.375
  1
×６枚
 40
3.0
 72
     5
 11
170.45
 21
-81.375
  0
TEXT
  7
TextStyle03
  8
文字
  6
CONTINUOUS
 10
-30.45
 20
53.3
  1
可動装置側
 40
3.0
 72
     5
 11
-13.95
 21
53.3
  0
TEXT
  7
TextStyle03
  8
文字
  6
CONTINUOUS
 10
-160.55
 20
79.425
  1
はケーシング位置を示す
 40
3.0
 72
     5
 11
-123.8
 21
79.425
  0
TEXT
  7
TextStyle03
  8
文字
  6
CONTINUOUS
 10
-160.55
 20
76.05
  1
４ヶ所中1ヶ所に設定
 40
3.0
 72
     5
 11
-128.8625
 21
76.05
  0
TEXT
  7
TextStyle03
  8
文字
  6
CONTINUOUS
 10
-160.55
 20
84.95
  1
は排水穴位置を示す
 40
3.0
 72
     5
 11
-130.55
 21
84.95
  0
TEXT
  7
TextStyle03
  8
文字
  6
CONTINUOUS
 10
-143.5
 20
11.275
  1
アンカーピッチ
 40
3.0
 50
90.0
 72
     5
 11
-143.5
 21
34.525
  0
TEXT
  7
TextStyle03
  8
文字
  6
CONTINUOUS
 10
-109.075
 20
79.975
  1
アンカーピッチ
 40
3.0
 72
     5
 11
-85.825
 21
79.975
  0
TEXT
  7
TextStyle03
  8
文字
  6
CONTINUOUS
 10
-164.275
 20
70.075
  1
アンカー数量　２２ヶ所
 40
3.0
 72
     5
 11
-127.525
 21
70.075
  0
TEXT
  7
TextStyle03
  8
文字
  6
CONTINUOUS
 10
-164.325
 20
64.3
  1
アームユニット数　４～６ヶ所
 40
3.0
 72
     5
 11
-117.45
 21
64.3
  0
TEXT
  7
TextStyle03
  8
文字
  6
CONTINUOUS
 10
-169.25
 20
59.35
  1
※重量に依るのでご相談ください
 40
3.0
 72
     5
 11
-119.0
 21
59.35
  0
LINE
  8
文字
  6
CONTINUOUS
 10
140.464105
 20
-54.668255
 11
140.464105
 21
-62.448973
  0
LINE
  8
文字
  6
CONTINUOUS
 10
172.564105
 20
-54.668255
 11
172.564105
 21
-62.448973
  0
TEXT
  7
TextStyle03
  8
文字
  6
CONTINUOUS
 10
78.1
 20
125.25
  1
シリーズ：ＳＴＤＬ
 40
5.0
 72
     5
 11
128.1
 21
125.25
  0
TEXT
  7
TextStyle03
  8
文字
  6
CONTINUOUS
 10
78.1
 20
119.625
  1
　　　　　（上下可動）600×6000タイプ
 40
5.0
 72
     5
 11
181.5375
 21
119.625
  0
TEXT
  7
TextStyle03
  8
文字
  6
CONTINUOUS
 10
78.1
 20
114.0
  1
図面名　：外観姿図
 40
5.0
 72
     5
 11
128.1
 21
114.0
  0
TEXT
  7
TextStyle03
  8
文字
  6
CONTINUOUS
 10
78.1
 20
108.375
  1
　　　　　　
 40
5.0
 72
     5
 11
111.225
 21
108.375
  0
TEXT
  7
TextStyle03
  8
文字
  6
CONTINUOUS
 10
77.425
 20
103.975
  1
ＮＳコード：ＮＳＤＳＬ
 40
5.0
 72
     5
 11
138.675
 21
103.975
  0
INSERT
  2
*DIM_0002
  8
寸法
  6
CONTINUOUS
 10
0.0
 20
0.0
  0
INSERT
  2
*DIM_0003
  8
寸法
  6
CONTINUOUS
 10
0.0
 20
0.0
  0
INSERT
  2
*DIM_0004
  8
寸法
  6
CONTINUOUS
 10
0.0
 20
0.0
  0
INSERT
  2
*DIM_0005
  8
寸法
  6
CONTINUOUS
 10
0.0
 20
0.0
  0
INSERT
  2
*DIM_0006
  8
寸法
  6
CONTINUOUS
 10
0.0
 20
0.0
  0
INSERT
  2
*DIM_0007
  8
寸法
  6
CONTINUOUS
 10
0.0
 20
0.0
  0
INSERT
  2
*DIM_0008
  8
寸法
  6
CONTINUOUS
 10
0.0
 20
0.0
  0
INSERT
  2
*DIM_0009
  8
寸法
  6
CONTINUOUS
 10
0.0
 20
0.0
  0
INSERT
  2
*DIM_0010
  8
寸法
  6
CONTINUOUS
 10
0.0
 20
0.0
  0
INSERT
  2
*DIM_0011
  8
寸法
  6
CONTINUOUS
 10
0.0
 20
0.0
  0
INSERT
  2
*DIM_0012
  8
寸法
  6
CONTINUOUS
 10
0.0
 20
0.0
  0
INSERT
  2
*DIM_0013
  8
寸法
  6
CONTINUOUS
 10
0.0
 20
0.0
  0
INSERT
  2
*DIM_0014
  8
寸法
  6
CONTINUOUS
 10
0.0
 20
0.0
  0
INSERT
  2
*DIM_0015
  8
寸法
  6
CONTINUOUS
 10
0.0
 20
0.0
  0
INSERT
  2
*DIM_0023
  8
寸法
  6
CONTINUOUS
 10
0.0
 20
0.0
  0
INSERT
  2
*DIM_0024
  8
寸法
  6
CONTINUOUS
 10
0.0
 20
0.0
  0
INSERT
  2
*DIM_0025
  8
寸法
  6
CONTINUOUS
 10
0.0
 20
0.0
  0
INSERT
  2
*DIM_0026
  8
寸法
  6
CONTINUOUS
 10
0.0
 20
0.0
  0
INSERT
  2
*DIM_0027
  8
寸法
  6
CONTINUOUS
 10
0.0
 20
0.0
  0
INSERT
  2
*DIM_0028
  8
寸法
  6
CONTINUOUS
 10
0.0
 20
0.0
  0
INSERT
  2
*DIM_0029
  8
寸法
  6
CONTINUOUS
 10
0.0
 20
0.0
  0
INSERT
  2
*DIM_0030
  8
寸法
  6
CONTINUOUS
 10
0.0
 20
0.0
  0
INSERT
  2
*DIM_0031
  8
寸法
  6
CONTINUOUS
 10
0.0
 20
0.0
  0
INSERT
  2
*DIM_0032
  8
寸法
  6
CONTINUOUS
 10
0.0
 20
0.0
  0
INSERT
  2
*DIM_0033
  8
寸法
  6
CONTINUOUS
 10
0.0
 20
0.0
  0
INSERT
  2
*DIM_0034
  8
寸法
  6
CONTINUOUS
 10
0.0
 20
0.0
  0
LINE
  8
別途部材
  6
CONTINUOUS
 10
79.554218
 20
20.747365
 11
79.154218
 21
21.147365
  0
LINE
  8
別途部材
  6
CONTINUOUS
 10
77.48755
 20
22.814033
 11
69.428295
 21
30.87329
  0
LINE
  8
別途部材
  6
CONTINUOUS
 10
79.154218
 20
21.147365
 11
-22.51245
 21
21.147365
  0
LINE
  8
別途部材
  6
CONTINUOUS
 10
79.554218
 20
20.747365
 11
-22.51245
 21
20.747365
  0
LINE
  8
別途部材
  6
CONTINUOUS
 10
-124.579118
 20
20.747365
 11
-124.179118
 21
21.147365
  0
LINE
  8
別途部材
  6
CONTINUOUS
 10
-122.51245
 20
22.814033
 11
-114.453195
 21
30.87329
  0
LINE
  8
別途部材
  6
CONTINUOUS
 10
-124.179118
 20
21.147365
 11
-22.51245
 21
21.147365
  0
LINE
  8
別途部材
  6
CONTINUOUS
 10
-124.579118
 20
20.747365
 11
-22.51245
 21
20.747365
  0
LINE
  8
別途部材
  6
CONTINUOUS
 10
79.154218
 20
21.147365
 11
79.154218
 21
32.814033
  0
LINE
  8
別途部材
  6
CONTINUOUS
 10
79.554218
 20
20.747365
 11
79.554218
 21
32.814033
  0
LINE
  8
別途部材
  6
CONTINUOUS
 10
-124.579118
 20
20.747365
 11
-124.579118
 21
32.814033
  0
LINE
  8
別途部材
  6
CONTINUOUS
 10
-124.179118
 20
21.147365
 11
-124.179118
 21
32.814033
  0
LINE
  8
別途部材
  6
CONTINUOUS
 10
79.554218
 20
44.8807
 11
79.154218
 21
44.4807
  0
LINE
  8
別途部材
  6
CONTINUOUS
 10
77.48755
 20
42.814033
 11
69.428295
 21
34.754775
  0
LINE
  8
別途部材
  6
CONTINUOUS
 10
79.154218
 20
44.4807
 11
-22.51245
 21
44.4807
  0
LINE
  8
別途部材
  6
CONTINUOUS
 10
79.554218
 20
44.8807
 11
-22.51245
 21
44.8807
  0
LINE
  8
別途部材
  6
CONTINUOUS
 10
-124.579118
 20
44.8807
 11
-124.179118
 21
44.4807
  0
LINE
  8
別途部材
  6
CONTINUOUS
 10
-122.51245
 20
42.814033
 11
-114.453195
 21
34.754775
  0
LINE
  8
別途部材
  6
CONTINUOUS
 10
-124.179118
 20
44.4807
 11
-22.51245
 21
44.4807
  0
LINE
  8
別途部材
  6
CONTINUOUS
 10
-124.579118
 20
44.8807
 11
-22.51245
 21
44.8807
  0
LINE
  8
別途部材
  6
CONTINUOUS
 10
79.154218
 20
44.4807
 11
79.154218
 21
32.814033
  0
LINE
  8
別途部材
  6
CONTINUOUS
 10
79.554218
 20
44.8807
 11
79.554218
 21
32.814033
  0
LINE
  8
別途部材
  6
CONTINUOUS
 10
-124.579118
 20
44.8807
 11
-124.579118
 21
32.814033
  0
LINE
  8
別途部材
  6
CONTINUOUS
 10
-124.179118
 20
44.4807
 11
-124.179118
 21
32.814033
  0
LINE
  8
別途部材
  6
CONTINUOUS
 62
    96
 10
167.020815
 20
21.147365
 11
168.020815
 21
20.747365
  0
LINE
  8
別途部材
  6
CONTINUOUS
 62
    96
 10
167.020815
 20
21.147365
 11
167.020815
 21
32.814033
  0
LINE
  8
別途部材
  6
CONTINUOUS
 10
168.020815
 20
20.747365
 11
168.020815
 21
32.814033
  0
LINE
  8
別途部材
  6
CONTINUOUS
 62
    96
 10
167.020815
 20
44.4807
 11
168.020815
 21
44.8807
  0
LINE
  8
別途部材
  6
CONTINUOUS
 62
    96
 10
167.020815
 20
44.4807
 11
167.020815
 21
32.814033
  0
LINE
  8
別途部材
  6
CONTINUOUS
 10
168.020815
 20
44.8807
 11
168.020815
 21
32.814033
  0
ARC
  8
別途部材
  6
CONTINUOUS
 10
173.72915
 20
32.814033
 40
12.041667
 50
123.855033
 51
236.144967
  0
LINE
  8
別途部材
  6
DOT
 62
    96
 10
79.154218
 20
-62.87628
 11
79.554218
 21
-63.87628
  0
LINE
  8
別途部材
  6
DOT
 62
    96
 10
79.154218
 20
-62.87628
 11
-22.51245
 21
-62.87628
  0
LINE
  8
別途部材
  6
DOT
 10
79.554218
 20
-63.87628
 11
-22.51245
 21
-63.87628
  0
LINE
  8
別途部材
  6
DOT
 62
    96
 10
-124.179118
 20
-62.87628
 11
-124.579118
 21
-63.87628
  0
LINE
  8
別途部材
  6
DOT
 62
    96
 10
-124.179118
 20
-62.87628
 11
-22.51245
 21
-62.87628
  0
LINE
  8
別途部材
  6
DOT
 10
-124.579118
 20
-63.87628
 11
-22.51245
 21
-63.87628
  0
ARC
  8
別途部材
  6
DOT
 10
-112.51245
 20
-69.584615
 40
12.041667
 50
90.0
 51
146.144967
  0
LINE
  8
別途部材
  6
DOT
 10
-22.51245
 20
-57.542947
 11
-112.51245
 21
-57.542947
  0
ARC
  8
別途部材
  6
DOT
 10
67.48755
 20
-69.584615
 40
12.041667
 50
33.855033
 51
90.0
  0
LINE
  8
別途部材
  6
DOT
 10
-22.51245
 20
-57.542947
 11
67.48755
 21
-57.542947
  0
INSERT
  2
*GRP_0016
  8
別途部材
  6
CONTINUOUS
 10
0.0
 20
0.0
  0
INSERT
  2
*GRP_0035
  8
別途部材
  6
DOT
 10
0.0
 20
0.0
  0
INSERT
  2
*GRP_0036
  8
別途部材
  6
DOT
 10
0.0
 20
0.0
  0
INSERT
  2
*GRP_0037
  8
別途部材
  6
DOT
 10
0.0
 20
0.0
  0
INSERT
  2
*GRP_0038
  8
別途部材
  6
DOT
 10
0.0
 20
0.0
  0
INSERT
  2
*GRP_0039
  8
別途部材
  6
DOT
 10
0.0
 20
0.0
  0
INSERT
  2
*GRP_0040
  8
別途部材
  6
DOT
 10
0.0
 20
0.0
  0
LINE
  8
曲げ物
  6
CONTINUOUS
 10
140.464105
 20
-63.785395
 11
140.464105
 21
-83.118728
  0
LINE
  8
曲げ物
  6
CONTINUOUS
 10
172.564105
 20
-83.118728
 11
172.564105
 21
-63.785395
  0
LINE
  8
曲げ物
  6
CONTINUOUS
 10
140.464105
 20
-63.785395
 11
172.564105
 21
-63.785395
  0
LINE
  8
曲げ物
  6
CONTINUOUS
 10
140.464105
 20
-83.118728
 11
172.564105
 21
-83.118728
  0
ENDSEC
  0
EOF
