  0
SECTION
  2
HEADER
  9
$EXTMIN
 10
-210.0
 20
-148.5
  9
$EXTMAX
 10
210.0
 20
148.5
  9
$PDMODE
 70
    32
  9
$PDSIZE
 40
1.5
  9
$LTSCALE
 40
10.0
  0
ENDSEC
  0
SECTION
  2
TABLES
  0
TABLE
  2
LTYPE
 70
    15
  0
LTYPE
  2
CONTINUOUS
 70
    64
  3
実線
 72
    65
 73
     0
 40
0.0
  0
LTYPE
  2
DASHED
 70
    64
  3
破線A
 72
    65
 73
     2
 40
0.6
 49
0.4
 49
-0.2
  0
LTYPE
  2
DASHEDX2
 70
    64
  3
破線B
 72
    65
 73
     2
 40
1.3
 49
0.9
 49
-0.4
  0
LTYPE
  2
DASHDOT
 70
    64
  3
１点鎖線A
 72
    65
 73
     4
 40
0.5375
 49
0.375
 49
-0.05
 49
0.0625
 49
-0.05
  0
LTYPE
  2
DASHDOTX2
 70
    64
  3
１点鎖線B
 72
    65
 73
     4
 40
1.075
 49
0.75
 49
-0.1
 49
0.125
 49
-0.1
  0
LTYPE
  2
DIVIDE2
 70
    64
  3
２点鎖線A
 72
    65
 73
     6
 40
0.5125
 49
0.3
 49
-0.0375
 49
0.05
 49
-0.0375
 49
0.05
 49
-0.0375
  0
LTYPE
  2
DIVIDE
 70
    64
  3
２点鎖線B
 72
    65
 73
     6
 40
1.05
 49
0.55
 49
-0.1
 49
0.1
 49
-0.1
 49
0.1
 49
-0.1
  0
LTYPE
  2
DOT
 70
    64
  3
点線A
 72
    65
 73
     2
 40
0.1125
 49
0.0625
 49
-0.05
  0
LTYPE
  2
DOTX2
 70
    64
  3
点線B
 72
    65
 73
     2
 40
0.275
 49
0.15
 49
-0.125
  0
LTYPE
  2
CONTINUOUS
 70
    64
  3
実線
 72
    65
 73
     0
 40
0.0
  0
LTYPE
  2
CONTINUOUS
 70
    64
  3
実線
 72
    65
 73
     0
 40
0.0
  0
LTYPE
  2
CONTINUOUS
 70
    64
  3
実線
 72
    65
 73
     0
 40
0.0
  0
LTYPE
  2
CONTINUOUS
 70
    64
  3
実線
 72
    65
 73
     0
 40
0.0
  0
LTYPE
  2
CONTINUOUS
 70
    64
  3
実線
 72
    65
 73
     0
 40
0.0
  0
LTYPE
  2
CONTINUOUS
 70
    64
  3
実線
 72
    65
 73
     0
 40
0.0
  0
ENDTAB
  0
TABLE
  2
LAYER
 70
    34
  0
LAYER
  2
通り芯
 70
     0
 62
    15
  6
CONTINUOUS
  0
LAYER
  2
補助線
 70
     0
 62
    16
  6
DOT
  0
LAYER
  2
躯体
 70
     0
 62
    31
  6
CONTINUOUS
  0
LAYER
  2
型材
 70
     0
 62
    32
  6
CONTINUOUS
  0
LAYER
  2
型材断面
 70
     0
 62
    47
  6
CONTINUOUS
  0
LAYER
  2
ガラス
 70
     0
 62
    48
  6
CONTINUOUS
  0
LAYER
  2
ゴム等
 70
     0
 62
    63
  6
CONTINUOUS
  0
LAYER
  2
ボルト／ビス
 70
     0
 62
    64
  6
CONTINUOUS
  0
LAYER
  2
文字
 70
     0
 62
    79
  6
CONTINUOUS
  0
LAYER
  2
寸法
 70
     0
 62
    80
  6
CONTINUOUS
  0
LAYER
  2
ﾊｯﾁﾝｸﾞ
 70
     0
 62
    95
  6
CONTINUOUS
  0
LAYER
  2
別途部材
 70
     0
 62
    96
  6
CONTINUOUS
  0
LAYER
  2
曲げ物
 70
     0
 62
   111
  6
CONTINUOUS
  0
LAYER
  2
鉄骨等
 70
     0
 62
   112
  6
CONTINUOUS
  0
LAYER
  2
St
 70
     0
 62
   127
  6
CONTINUOUS
  0
LAYER
  2
その他部品等
 70
     0
 62
   128
  6
CONTINUOUS
  0
LAYER
  2
ｶﾞｽｹｯﾄ
 70
     0
 62
   143
  6
CONTINUOUS
  0
LAYER
  2
ｽｹｯﾁ
 70
     0
 62
    14
  6
CONTINUOUS
  0
LAYER
  2
0
 70
     0
 62
    17
  6
CONTINUOUS
  0
LAYER
  2
1
 70
     0
 62
    30
  6
CONTINUOUS
  0
LAYER
  2
4
 70
     0
 62
    33
  6
CONTINUOUS
  0
LAYER
  2
ﾚｲﾔ3
 70
     0
 62
    46
  6
CONTINUOUS
  0
LAYER
  2
外形線
 70
     0
 62
    49
  6
CONTINUOUS
  0
LAYER
  2
部品
 70
     0
 62
    14
  6
CONTINUOUS
  0
LAYER
  2
サッシ芯
 70
     0
 62
    17
  6
DASHDOTX2
  0
LAYER
  2
寸法線
 70
     0
 62
    62
  6
CONTINUOUS
  0
LAYER
  2
姿図外形線
 70
     0
 62
    65
  6
CONTINUOUS
  0
LAYER
  2
姿補助線
 70
     0
 62
    30
  6
CONTINUOUS
  0
LAYER
  2
透視線
 70
     0
 62
    78
  6
DOT
  0
LAYER
  2
用紙
 70
     0
 62
    81
  6
CONTINUOUS
  0
LAYER
  2
実線図枠
 70
     0
 62
    94
  6
CONTINUOUS
  0
LAYER
  2
補助図枠
 70
     0
 62
    97
  6
CONTINUOUS
  0
LAYER
  2
建具記号
 70
     0
 62
   110
  6
CONTINUOUS
  0
LAYER
  2
補助文字
 70
     0
 62
   113
  6
CONTINUOUS
  0
ENDTAB
  0
TABLE
  2
STYLE
 70
    10
  0
STYLE
  2
STANDARD
 70
     0
 40
1.0
 41
1.0
 42
1.0
 50
0.0
 71
     0
  3
TXT
  4
BIGFONT
  0
STYLE
  2
TATE
 70
     4
 40
1.0
 41
1.0
 42
1.0
 50
0.0
 71
     0
  3
TXT
  4
BIGFONT
  0
STYLE
  2
TextStyle03
 70
     0
 40
1.0
 41
1.0
 42
1.0
 50
0.0
 71
     0
  3
MONOTXT
  4
BIGFONT
  0
STYLE
  2
TextStyle04
 70
     0
 40
1.0
 41
1.0
 42
1.0
 50
0.0
 71
     0
  3
MONOTXT
  4
BIGFONT
  0
STYLE
  2
TextStyle05
 70
     0
 40
1.0
 41
1.0
 42
1.0
 50
0.0
 71
     0
  3
MONOTXT
  4
BIGFONT
  0
STYLE
  2
TextStyle06
 70
     0
 40
1.0
 41
1.0
 42
1.0
 50
0.0
 71
     0
  3
MONOTXT
  4
BIGFONT
  0
STYLE
  2
TextStyle07
 70
     0
 40
1.0
 41
1.0
 42
1.0
 50
0.0
 71
     0
  3
MONOTXT
  4
BIGFONT
  0
STYLE
  2
TextStyle08
 70
     0
 40
1.0
 41
1.0
 42
1.0
 50
0.0
 71
     0
  3
MONOTXT
  4
BIGFONT
  0
STYLE
  2
TextStyle09
 70
     0
 40
1.0
 41
1.0
 42
1.0
 50
0.0
 71
     0
  3
MONOTXT
  4
BIGFONT
  0
STYLE
  2
TextStyle10
 70
     0
 40
1.0
 41
1.0
 42
1.0
 50
0.0
 71
     0
  3
MONOTXT
  4
BIGFONT
  0
ENDTAB
  0
ENDSEC
  0
SECTION
  2
BLOCKS
  0
BLOCK
  2
*GRP_0001
 70
    65
 10
0.0
 20
0.0
  0
LINE
  8
型材断面
  6
CONTINUOUS
 10
195.0
 20
133.5
 11
195.0
 21
-133.5
  0
LINE
  8
型材断面
  6
CONTINUOUS
 10
195.0
 20
-133.5
 11
-185.0
 21
-133.5
  0
LINE
  8
型材断面
  6
CONTINUOUS
 10
-185.0
 20
-133.5
 11
-185.0
 21
133.5
  0
LINE
  8
型材断面
  6
CONTINUOUS
 10
195.0
 20
133.5
 11
-185.0
 21
133.5
  0
LINE
  8
型材断面
  6
CONTINUOUS
 10
145.0
 20
-133.5
 11
145.0
 21
-118.5
  0
LINE
  8
型材断面
  6
CONTINUOUS
 10
195.0
 20
-118.5
 11
145.0
 21
-118.5
  0
ENDBLK
  0
BLOCK
  2
*DIM_0002
 70
    65
 10
0.0
 20
0.0
  0
LINE
  8
寸法
  6
BYBLOCK
 62
     0
 10
7.403067
 20
-61.87628
 11
37.372718
 21
-61.87628
  0
LINE
  8
寸法
  6
BYBLOCK
 62
     0
 10
37.372718
 20
-70.209613
 11
37.372718
 21
-61.87628
  0
POINT
  8
寸法
 62
     0
 10
37.372718
 20
-70.209613
  0
POINT
  8
寸法
 62
     0
 10
37.372718
 20
-61.87628
  0
TEXT
  7
TextStyle03
  8
寸法
  6
CONTINUOUS
 62
     0
 10
37.05
 20
-68.5125
  1
250
 40
3.0
 50
90.0
 72
     5
 11
37.05
 21
-63.6375
  0
ENDBLK
  0
BLOCK
  2
*DIM_0003
 70
    65
 10
0.0
 20
0.0
  0
LINE
  8
寸法
  6
BYBLOCK
 62
     0
 10
-78.596933
 20
-13.511205
 11
-78.596933
 21
-13.121378
  0
LINE
  8
寸法
  6
BYBLOCK
 62
     0
 10
21.403067
 20
-13.121378
 11
-78.596933
 21
-13.121378
  0
POINT
  8
寸法
 62
     0
 10
21.403067
 20
-13.121378
  0
POINT
  8
寸法
 62
     0
 10
-78.596933
 20
-13.121378
  0
TEXT
  7
TextStyle03
  8
寸法
  6
CONTINUOUS
 62
     0
 10
-40.31875
 20
-12.75
  1
呼称寸法　3000
 40
3.0
 72
     5
 11
-16.88125
 21
-12.75
  0
ENDBLK
  0
BLOCK
  2
*DIM_0004
 70
    65
 10
0.0
 20
0.0
  0
LINE
  8
寸法
  6
BYBLOCK
 62
     0
 10
-61.930265
 20
19.183902
 11
-61.930265
 21
14.10329
  0
LINE
  8
寸法
  6
BYBLOCK
 62
     0
 10
4.7364
 20
19.183902
 11
4.7364
 21
14.10329
  0
LINE
  8
寸法
  6
BYBLOCK
 62
     0
 10
-61.930265
 20
14.10329
 11
4.7364
 21
14.10329
  0
POINT
  8
寸法
 62
     0
 10
-61.930265
 20
14.10329
  0
POINT
  8
寸法
 62
     0
 10
4.7364
 20
14.10329
  0
TEXT
  7
TextStyle03
  8
寸法
  6
CONTINUOUS
 62
     0
 10
-31.88125
 20
14.475
  1
2000
 40
3.0
 72
     5
 11
-25.31875
 21
14.475
  0
ENDBLK
  0
BLOCK
  2
*DIM_0005
 70
    65
 10
0.0
 20
0.0
  0
LINE
  8
寸法
  6
BYBLOCK
 62
     0
 10
102.765417
 20
38.814033
 11
102.765417
 21
68.369967
  0
LINE
  8
寸法
  6
BYBLOCK
 62
     0
 10
111.09875
 20
68.369967
 11
102.765417
 21
68.369967
  0
POINT
  8
寸法
 62
     0
 10
111.09875
 20
68.369967
  0
POINT
  8
寸法
 62
     0
 10
102.765417
 20
68.369967
  0
TEXT
  7
TextStyle03
  8
寸法
  6
CONTINUOUS
 62
     0
 10
104.5125
 20
68.725
  1
250
 40
3.0
 72
     5
 11
109.3875
 21
68.725
  0
ENDBLK
  0
BLOCK
  2
*DIM_0006
 70
    65
 10
0.0
 20
0.0
  0
LINE
  8
寸法
  6
BYBLOCK
 62
     0
 10
55.585135
 20
22.814033
 11
55.585135
 21
52.814033
  0
POINT
  8
寸法
 62
     0
 10
55.585135
 20
22.814033
  0
POINT
  8
寸法
 62
     0
 10
55.585135
 20
52.814033
  0
TEXT
  7
TextStyle03
  8
寸法
  6
CONTINUOUS
 62
     0
 10
55.25
 20
26.9
  1
呼称寸法　900
 40
3.0
 50
90.0
 72
     5
 11
55.25
 21
48.65
  0
ENDBLK
  0
BLOCK
  2
*DIM_0007
 70
    65
 10
0.0
 20
0.0
  0
LINE
  8
寸法
  6
BYBLOCK
 62
     0
 10
111.09875
 20
55.4807
 11
111.09875
 21
68.369967
  0
LINE
  8
寸法
  6
BYBLOCK
 62
     0
 10
117.882033
 20
55.7807
 11
117.882033
 21
68.369967
  0
LINE
  8
寸法
  6
BYBLOCK
 62
     0
 10
111.09875
 20
68.369967
 11
117.882033
 21
68.369967
  0
POINT
  8
寸法
 62
     0
 10
111.09875
 20
68.369967
  0
POINT
  8
寸法
 62
     0
 10
117.882033
 20
68.369967
  0
TEXT
  7
TextStyle03
  8
寸法
  6
CONTINUOUS
 62
     0
 10
118.775
 20
68.725
  1
203.5
 40
3.0
 72
     5
 11
127.025
 21
68.725
  0
ENDBLK
  0
BLOCK
  2
*DIM_0008
 70
    65
 10
0.0
 20
0.0
  0
LINE
  8
寸法
  6
BYBLOCK
 62
     0
 10
113.92139
 20
55.094035
 11
55.585135
 21
55.094035
  0
LINE
  8
寸法
  6
BYBLOCK
 62
     0
 10
55.585135
 20
52.814033
 11
55.585135
 21
55.094035
  0
POINT
  8
寸法
 62
     0
 10
55.585135
 20
52.814033
  0
POINT
  8
寸法
 62
     0
 10
55.585135
 20
55.094035
  0
TEXT
  7
TextStyle03
  8
寸法
  6
CONTINUOUS
 62
     0
 10
55.175
 20
57.41875
  1
68.4
 40
3.0
 50
90.0
 72
     5
 11
55.175
 21
63.98125
  0
ENDBLK
  0
BLOCK
  2
*DIM_0009
 70
    65
 10
0.0
 20
0.0
  0
LINE
  8
寸法
  6
BYBLOCK
 62
     0
 10
113.92139
 20
20.53403
 11
55.585135
 21
20.53403
  0
LINE
  8
寸法
  6
BYBLOCK
 62
     0
 10
55.585135
 20
22.814033
 11
55.585135
 21
20.53403
  0
POINT
  8
寸法
 62
     0
 10
55.585135
 20
22.814033
  0
POINT
  8
寸法
 62
     0
 10
55.585135
 20
20.53403
  0
TEXT
  7
TextStyle03
  8
寸法
  6
CONTINUOUS
 62
     0
 10
55.175
 20
11.61875
  1
68.4
 40
3.0
 50
90.0
 72
     5
 11
55.175
 21
18.18125
  0
ENDBLK
  0
BLOCK
  2
*DIM_0010
 70
    65
 10
0.0
 20
0.0
  0
LINE
  8
寸法
  6
BYBLOCK
 62
     0
 10
24.069735
 20
-70.209613
 11
37.372718
 21
-70.209613
  0
LINE
  8
寸法
  6
BYBLOCK
 62
     0
 10
24.369735
 20
-76.992897
 11
37.372718
 21
-76.992897
  0
LINE
  8
寸法
  6
BYBLOCK
 62
     0
 10
37.372718
 20
-70.209613
 11
37.372718
 21
-76.992897
  0
POINT
  8
寸法
 62
     0
 10
37.372718
 20
-70.209613
  0
POINT
  8
寸法
 62
     0
 10
37.372718
 20
-76.992897
  0
TEXT
  7
TextStyle03
  8
寸法
  6
CONTINUOUS
 62
     0
 10
36.975
 20
-86.175
  1
203.5
 40
3.0
 50
90.0
 72
     5
 11
36.975
 21
-77.925
  0
ENDBLK
  0
BLOCK
  2
*DIM_0011
 70
    65
 10
0.0
 20
0.0
  0
LINE
  8
寸法
  6
BYBLOCK
 62
     0
 10
23.68307
 20
-73.032255
 11
23.68307
 21
-13.121378
  0
LINE
  8
寸法
  6
BYBLOCK
 62
     0
 10
21.403067
 20
-13.121378
 11
23.68307
 21
-13.121378
  0
POINT
  8
寸法
 62
     0
 10
21.403067
 20
-13.121378
  0
POINT
  8
寸法
 62
     0
 10
23.68307
 20
-13.121378
  0
TEXT
  7
TextStyle03
  8
寸法
  6
CONTINUOUS
 62
     0
 10
25.99375
 20
-12.75
  1
68.4
 40
3.0
 72
     5
 11
32.55625
 21
-12.75
  0
ENDBLK
  0
BLOCK
  2
*DIM_0012
 70
    65
 10
0.0
 20
0.0
  0
LINE
  8
寸法
  6
BYBLOCK
 62
     0
 10
-80.876935
 20
-73.032255
 11
-80.876935
 21
-13.121378
  0
LINE
  8
寸法
  6
BYBLOCK
 62
     0
 10
-78.596933
 20
-13.121378
 11
-80.876935
 21
-13.121378
  0
POINT
  8
寸法
 62
     0
 10
-78.596933
 20
-13.121378
  0
POINT
  8
寸法
 62
     0
 10
-80.876935
 20
-13.121378
  0
TEXT
  7
TextStyle03
  8
寸法
  6
CONTINUOUS
 62
     0
 10
-89.78125
 20
-12.75
  1
68.4
 40
3.0
 72
     5
 11
-83.21875
 21
-12.75
  0
ENDBLK
  0
BLOCK
  2
*DIM_0013
 70
    65
 10
0.0
 20
0.0
  0
LINE
  8
寸法
  6
BYBLOCK
 62
     0
 10
117.309622
 20
-53.785395
 11
129.000145
 21
-53.785395
  0
LINE
  8
寸法
  6
BYBLOCK
 62
     0
 10
117.309622
 20
-83.118728
 11
129.000145
 21
-83.118728
  0
LINE
  8
寸法
  6
BYBLOCK
 62
     0
 10
129.000145
 20
-53.785395
 11
129.000145
 21
-83.118728
  0
POINT
  8
寸法
 62
     0
 10
129.000145
 20
-53.785395
  0
POINT
  8
寸法
 62
     0
 10
129.000145
 20
-83.118728
  0
TEXT
  7
TextStyle03
  8
寸法
  6
CONTINUOUS
 62
     0
 10
128.625
 20
-70.9125
  1
880
 40
3.0
 50
90.0
 72
     5
 11
128.625
 21
-66.0375
  0
ENDBLK
  0
BLOCK
  2
*DIM_0014
 70
    65
 10
0.0
 20
0.0
  0
LINE
  8
寸法
  6
BYBLOCK
 62
     0
 10
25.033195
 20
48.914033
 11
31.810488
 21
48.914033
  0
LINE
  8
寸法
  6
BYBLOCK
 62
     0
 10
31.810488
 20
52.814033
 11
31.810488
 21
48.914033
  0
POINT
  8
寸法
 62
     0
 10
31.810488
 20
52.814033
  0
POINT
  8
寸法
 62
     0
 10
31.810488
 20
48.914033
  0
TEXT
  7
TextStyle03
  8
寸法
  6
CONTINUOUS
 62
     0
 10
31.525
 20
53.4875
  1
117
 40
3.0
 50
90.0
 72
     5
 11
31.525
 21
58.3625
  0
ENDBLK
  0
BLOCK
  2
*DIM_0015
 70
    65
 10
0.0
 20
0.0
  0
LINE
  8
寸法
  6
BYBLOCK
 62
     0
 10
25.033195
 20
26.714033
 11
31.810488
 21
26.714033
  0
LINE
  8
寸法
  6
BYBLOCK
 62
     0
 10
31.810488
 20
22.814033
 11
31.810488
 21
26.714033
  0
POINT
  8
寸法
 62
     0
 10
31.810488
 20
22.814033
  0
POINT
  8
寸法
 62
     0
 10
31.810488
 20
26.714033
  0
TEXT
  7
TextStyle03
  8
寸法
  6
CONTINUOUS
 62
     0
 10
31.9
 20
17.2125
  1
117
 40
3.0
 50
90.0
 72
     5
 11
31.9
 21
22.0875
  0
ENDBLK
  0
BLOCK
  2
*GRP_0016
 70
    65
 10
0.0
 20
0.0
  0
LINE
  8
別途部材
  6
CONTINUOUS
 62
    96
 10
-80.263598
 20
-70.209613
 11
-80.663598
 21
-71.209613
  0
ARC
  8
別途部材
  6
CONTINUOUS
 10
-63.596932
 20
-79.542947
 40
17.666667
 50
90.0
 51
148.109204
  0
LINE
  8
別途部材
  6
CONTINUOUS
 62
    96
 10
-80.263598
 20
-70.209613
 11
-28.596933
 21
-70.209613
  0
LINE
  8
別途部材
  6
CONTINUOUS
 10
-80.663598
 20
-71.209613
 11
-28.596933
 21
-71.209613
  0
LINE
  8
別途部材
  6
CONTINUOUS
 10
-29.096933
 20
-60.87628
 11
-30.096933
 21
-61.87628
  0
LINE
  8
別途部材
  6
CONTINUOUS
 10
-31.096933
 20
-61.87628
 11
-32.096933
 21
-60.87628
  0
LINE
  8
別途部材
  6
CONTINUOUS
 10
-33.096933
 20
-60.87628
 11
-34.096933
 21
-61.87628
  0
LINE
  8
別途部材
  6
CONTINUOUS
 10
-32.096933
 20
-60.87628
 11
-33.096933
 21
-60.87628
  0
LINE
  8
別途部材
  6
CONTINUOUS
 10
-29.096933
 20
-60.87628
 11
-28.596933
 21
-60.87628
  0
LINE
  8
別途部材
  6
CONTINUOUS
 10
-35.096933
 20
-61.87628
 11
-36.096933
 21
-60.87628
  0
LINE
  8
別途部材
  6
CONTINUOUS
 10
-37.096933
 20
-60.87628
 11
-38.096933
 21
-61.87628
  0
LINE
  8
別途部材
  6
CONTINUOUS
 10
-36.096933
 20
-60.87628
 11
-37.096933
 21
-60.87628
  0
LINE
  8
別途部材
  6
CONTINUOUS
 10
-39.096933
 20
-61.87628
 11
-40.096933
 21
-60.87628
  0
LINE
  8
別途部材
  6
CONTINUOUS
 10
-41.096933
 20
-60.87628
 11
-42.096933
 21
-61.87628
  0
LINE
  8
別途部材
  6
CONTINUOUS
 10
-40.096933
 20
-60.87628
 11
-41.096933
 21
-60.87628
  0
LINE
  8
別途部材
  6
CONTINUOUS
 10
-43.096933
 20
-61.87628
 11
-44.096933
 21
-60.87628
  0
LINE
  8
別途部材
  6
CONTINUOUS
 10
-45.096933
 20
-60.87628
 11
-46.096933
 21
-61.87628
  0
LINE
  8
別途部材
  6
CONTINUOUS
 10
-44.096933
 20
-60.87628
 11
-45.096933
 21
-60.87628
  0
LINE
  8
別途部材
  6
CONTINUOUS
 10
-47.096933
 20
-61.87628
 11
-48.096933
 21
-60.87628
  0
LINE
  8
別途部材
  6
CONTINUOUS
 10
-49.096933
 20
-60.87628
 11
-50.096933
 21
-61.87628
  0
LINE
  8
別途部材
  6
CONTINUOUS
 10
-48.096933
 20
-60.87628
 11
-49.096933
 21
-60.87628
  0
LINE
  8
別途部材
  6
CONTINUOUS
 10
-51.096933
 20
-61.87628
 11
-52.096933
 21
-60.87628
  0
LINE
  8
別途部材
  6
CONTINUOUS
 10
-53.096933
 20
-60.87628
 11
-54.096933
 21
-61.87628
  0
LINE
  8
別途部材
  6
CONTINUOUS
 10
-52.096933
 20
-60.87628
 11
-53.096933
 21
-60.87628
  0
LINE
  8
別途部材
  6
CONTINUOUS
 10
-55.096933
 20
-61.87628
 11
-56.096933
 21
-60.87628
  0
LINE
  8
別途部材
  6
CONTINUOUS
 10
-57.096933
 20
-60.87628
 11
-58.096933
 21
-61.87628
  0
LINE
  8
別途部材
  6
CONTINUOUS
 10
-56.096933
 20
-60.87628
 11
-57.096933
 21
-60.87628
  0
LINE
  8
別途部材
  6
CONTINUOUS
 10
-59.096933
 20
-61.87628
 11
-60.096933
 21
-60.87628
  0
LINE
  8
別途部材
  6
CONTINUOUS
 10
-61.096933
 20
-60.87628
 11
-62.096933
 21
-61.87628
  0
LINE
  8
別途部材
  6
CONTINUOUS
 10
-60.096933
 20
-60.87628
 11
-61.096933
 21
-60.87628
  0
LINE
  8
別途部材
  6
CONTINUOUS
 10
-58.096933
 20
-61.87628
 11
-59.096933
 21
-61.87628
  0
LINE
  8
別途部材
  6
CONTINUOUS
 10
-54.096933
 20
-61.87628
 11
-55.096933
 21
-61.87628
  0
LINE
  8
別途部材
  6
CONTINUOUS
 10
-50.096933
 20
-61.87628
 11
-51.096933
 21
-61.87628
  0
LINE
  8
別途部材
  6
CONTINUOUS
 10
-46.096933
 20
-61.87628
 11
-47.096933
 21
-61.87628
  0
LINE
  8
別途部材
  6
CONTINUOUS
 10
-42.096933
 20
-61.87628
 11
-43.096933
 21
-61.87628
  0
LINE
  8
別途部材
  6
CONTINUOUS
 10
-38.096933
 20
-61.87628
 11
-39.096933
 21
-61.87628
  0
LINE
  8
別途部材
  6
CONTINUOUS
 10
-34.096933
 20
-61.87628
 11
-35.096933
 21
-61.87628
  0
LINE
  8
別途部材
  6
CONTINUOUS
 10
-31.096933
 20
-61.87628
 11
-30.096933
 21
-61.87628
  0
LINE
  8
別途部材
  6
CONTINUOUS
 10
-62.096933
 20
-61.87628
 11
-62.096933
 21
-70.209613
  0
LINE
  8
別途部材
  6
CONTINUOUS
 10
-61.096933
 20
-60.87628
 11
-61.096933
 21
-70.209613
  0
LINE
  8
別途部材
  6
CONTINUOUS
 10
-59.096933
 20
-61.87628
 11
-59.096933
 21
-70.209613
  0
LINE
  8
別途部材
  6
CONTINUOUS
 10
-60.096933
 20
-60.87628
 11
-60.096933
 21
-70.209613
  0
LINE
  8
別途部材
  6
CONTINUOUS
 10
-57.096933
 20
-60.87628
 11
-57.096933
 21
-70.209613
  0
LINE
  8
別途部材
  6
CONTINUOUS
 10
-58.096933
 20
-61.87628
 11
-58.096933
 21
-70.209613
  0
LINE
  8
別途部材
  6
CONTINUOUS
 10
-54.096933
 20
-61.87628
 11
-54.096933
 21
-70.209613
  0
LINE
  8
別途部材
  6
CONTINUOUS
 10
-53.096933
 20
-60.87628
 11
-53.096933
 21
-70.209613
  0
LINE
  8
別途部材
  6
CONTINUOUS
 10
-52.096933
 20
-60.87628
 11
-52.096933
 21
-70.209613
  0
LINE
  8
別途部材
  6
CONTINUOUS
 10
-55.096933
 20
-61.87628
 11
-55.096933
 21
-70.209613
  0
LINE
  8
別途部材
  6
CONTINUOUS
 10
-56.096933
 20
-60.87628
 11
-56.096933
 21
-70.209613
  0
LINE
  8
別途部材
  6
CONTINUOUS
 10
-48.096933
 20
-60.87628
 11
-48.096933
 21
-70.209613
  0
LINE
  8
別途部材
  6
CONTINUOUS
 10
-50.096933
 20
-61.87628
 11
-50.096933
 21
-70.209613
  0
LINE
  8
別途部材
  6
CONTINUOUS
 10
-51.096933
 20
-61.87628
 11
-51.096933
 21
-70.209613
  0
LINE
  8
別途部材
  6
CONTINUOUS
 10
-49.096933
 20
-60.87628
 11
-49.096933
 21
-70.209613
  0
LINE
  8
別途部材
  6
CONTINUOUS
 10
-47.096933
 20
-61.87628
 11
-47.096933
 21
-70.209613
  0
LINE
  8
別途部材
  6
CONTINUOUS
 10
-45.096933
 20
-60.87628
 11
-45.096933
 21
-70.209613
  0
LINE
  8
別途部材
  6
CONTINUOUS
 10
-44.096933
 20
-60.87628
 11
-44.096933
 21
-70.209613
  0
LINE
  8
別途部材
  6
CONTINUOUS
 10
-42.096933
 20
-61.87628
 11
-42.096933
 21
-70.209613
  0
LINE
  8
別途部材
  6
CONTINUOUS
 10
-43.096933
 20
-61.87628
 11
-43.096933
 21
-70.209613
  0
LINE
  8
別途部材
  6
CONTINUOUS
 10
-46.096933
 20
-61.87628
 11
-46.096933
 21
-70.209613
  0
LINE
  8
別途部材
  6
CONTINUOUS
 10
-41.096933
 20
-60.87628
 11
-41.096933
 21
-70.209613
  0
LINE
  8
別途部材
  6
CONTINUOUS
 10
-39.096933
 20
-61.87628
 11
-39.096933
 21
-70.209613
  0
LINE
  8
別途部材
  6
CONTINUOUS
 10
-40.096933
 20
-60.87628
 11
-40.096933
 21
-70.209613
  0
LINE
  8
別途部材
  6
CONTINUOUS
 10
-38.096933
 20
-61.87628
 11
-38.096933
 21
-70.209613
  0
LINE
  8
別途部材
  6
CONTINUOUS
 10
-37.096933
 20
-60.87628
 11
-37.096933
 21
-70.209613
  0
LINE
  8
別途部材
  6
CONTINUOUS
 10
-35.096933
 20
-61.87628
 11
-35.096933
 21
-70.209613
  0
LINE
  8
別途部材
  6
CONTINUOUS
 10
-36.096933
 20
-60.87628
 11
-36.096933
 21
-70.209613
  0
LINE
  8
別途部材
  6
CONTINUOUS
 10
-34.096933
 20
-61.87628
 11
-34.096933
 21
-70.209613
  0
LINE
  8
別途部材
  6
CONTINUOUS
 10
-33.096933
 20
-60.87628
 11
-33.096933
 21
-70.209613
  0
LINE
  8
別途部材
  6
CONTINUOUS
 10
-31.096933
 20
-61.87628
 11
-31.096933
 21
-70.209613
  0
LINE
  8
別途部材
  6
CONTINUOUS
 10
-32.096933
 20
-60.87628
 11
-32.096933
 21
-70.209613
  0
LINE
  8
別途部材
  6
CONTINUOUS
 10
-30.096933
 20
-61.87628
 11
-30.096933
 21
-70.209613
  0
LINE
  8
別途部材
  6
CONTINUOUS
 10
-29.096933
 20
-60.87628
 11
-29.096933
 21
-70.209613
  0
LINE
  8
別途部材
  6
CONTINUOUS
 10
-62.096933
 20
-61.87628
 11
-63.596933
 21
-61.87628
  0
LINE
  8
別途部材
  6
CONTINUOUS
 62
    96
 10
23.069735
 20
-70.209613
 11
23.469735
 21
-71.209613
  0
ARC
  8
別途部材
  6
CONTINUOUS
 10
6.403068
 20
-79.542947
 40
17.666667
 50
31.890796
 51
90.0
  0
LINE
  8
別途部材
  6
CONTINUOUS
 62
    96
 10
23.069735
 20
-70.209613
 11
-28.596933
 21
-70.209613
  0
LINE
  8
別途部材
  6
CONTINUOUS
 10
23.469735
 20
-71.209613
 11
-28.596933
 21
-71.209613
  0
LINE
  8
別途部材
  6
CONTINUOUS
 10
-28.096933
 20
-60.87628
 11
-27.096933
 21
-61.87628
  0
LINE
  8
別途部材
  6
CONTINUOUS
 10
-26.096933
 20
-61.87628
 11
-25.096933
 21
-60.87628
  0
LINE
  8
別途部材
  6
CONTINUOUS
 10
-24.096933
 20
-60.87628
 11
-23.096933
 21
-61.87628
  0
LINE
  8
別途部材
  6
CONTINUOUS
 10
-25.096933
 20
-60.87628
 11
-24.096933
 21
-60.87628
  0
LINE
  8
別途部材
  6
CONTINUOUS
 10
-28.096933
 20
-60.87628
 11
-28.596933
 21
-60.87628
  0
LINE
  8
別途部材
  6
CONTINUOUS
 10
-22.096933
 20
-61.87628
 11
-21.096933
 21
-60.87628
  0
LINE
  8
別途部材
  6
CONTINUOUS
 10
-20.096933
 20
-60.87628
 11
-19.096933
 21
-61.87628
  0
LINE
  8
別途部材
  6
CONTINUOUS
 10
-21.096933
 20
-60.87628
 11
-20.096933
 21
-60.87628
  0
LINE
  8
別途部材
  6
CONTINUOUS
 10
-18.096933
 20
-61.87628
 11
-17.096933
 21
-60.87628
  0
LINE
  8
別途部材
  6
CONTINUOUS
 10
-16.096933
 20
-60.87628
 11
-15.096933
 21
-61.87628
  0
LINE
  8
別途部材
  6
CONTINUOUS
 10
-17.096933
 20
-60.87628
 11
-16.096933
 21
-60.87628
  0
LINE
  8
別途部材
  6
CONTINUOUS
 10
-14.096933
 20
-61.87628
 11
-13.096933
 21
-60.87628
  0
LINE
  8
別途部材
  6
CONTINUOUS
 10
-12.096933
 20
-60.87628
 11
-11.096933
 21
-61.87628
  0
LINE
  8
別途部材
  6
CONTINUOUS
 10
-13.096933
 20
-60.87628
 11
-12.096933
 21
-60.87628
  0
LINE
  8
別途部材
  6
CONTINUOUS
 10
-10.096933
 20
-61.87628
 11
-9.096933
 21
-60.87628
  0
LINE
  8
別途部材
  6
CONTINUOUS
 10
-8.096933
 20
-60.87628
 11
-7.096933
 21
-61.87628
  0
LINE
  8
別途部材
  6
CONTINUOUS
 10
-9.096933
 20
-60.87628
 11
-8.096933
 21
-60.87628
  0
LINE
  8
別途部材
  6
CONTINUOUS
 10
-6.096933
 20
-61.87628
 11
-5.096933
 21
-60.87628
  0
LINE
  8
別途部材
  6
CONTINUOUS
 10
-4.096933
 20
-60.87628
 11
-3.096933
 21
-61.87628
  0
LINE
  8
別途部材
  6
CONTINUOUS
 10
-5.096933
 20
-60.87628
 11
-4.096933
 21
-60.87628
  0
LINE
  8
別途部材
  6
CONTINUOUS
 10
-2.096933
 20
-61.87628
 11
-1.096933
 21
-60.87628
  0
LINE
  8
別途部材
  6
CONTINUOUS
 10
-0.096933
 20
-60.87628
 11
0.903067
 21
-61.87628
  0
LINE
  8
別途部材
  6
CONTINUOUS
 10
-1.096933
 20
-60.87628
 11
-0.096933
 21
-60.87628
  0
LINE
  8
別途部材
  6
CONTINUOUS
 10
1.903067
 20
-61.87628
 11
2.903067
 21
-60.87628
  0
LINE
  8
別途部材
  6
CONTINUOUS
 10
3.903067
 20
-60.87628
 11
4.903067
 21
-61.87628
  0
LINE
  8
別途部材
  6
CONTINUOUS
 10
2.903067
 20
-60.87628
 11
3.903067
 21
-60.87628
  0
LINE
  8
別途部材
  6
CONTINUOUS
 10
0.903067
 20
-61.87628
 11
1.903067
 21
-61.87628
  0
LINE
  8
別途部材
  6
CONTINUOUS
 10
-3.096933
 20
-61.87628
 11
-2.096933
 21
-61.87628
  0
LINE
  8
別途部材
  6
CONTINUOUS
 10
-7.096933
 20
-61.87628
 11
-6.096933
 21
-61.87628
  0
LINE
  8
別途部材
  6
CONTINUOUS
 10
-11.096933
 20
-61.87628
 11
-10.096933
 21
-61.87628
  0
LINE
  8
別途部材
  6
CONTINUOUS
 10
-15.096933
 20
-61.87628
 11
-14.096933
 21
-61.87628
  0
LINE
  8
別途部材
  6
CONTINUOUS
 10
-19.096933
 20
-61.87628
 11
-18.096933
 21
-61.87628
  0
LINE
  8
別途部材
  6
CONTINUOUS
 10
-23.096933
 20
-61.87628
 11
-22.096933
 21
-61.87628
  0
LINE
  8
別途部材
  6
CONTINUOUS
 10
-26.096933
 20
-61.87628
 11
-27.096933
 21
-61.87628
  0
LINE
  8
別途部材
  6
CONTINUOUS
 10
4.903067
 20
-61.87628
 11
4.903067
 21
-70.209613
  0
LINE
  8
別途部材
  6
CONTINUOUS
 10
3.903067
 20
-60.87628
 11
3.903067
 21
-70.209613
  0
LINE
  8
別途部材
  6
CONTINUOUS
 10
1.903067
 20
-61.87628
 11
1.903067
 21
-70.209613
  0
LINE
  8
別途部材
  6
CONTINUOUS
 10
2.903067
 20
-60.87628
 11
2.903067
 21
-70.209613
  0
LINE
  8
別途部材
  6
CONTINUOUS
 10
-0.096933
 20
-60.87628
 11
-0.096933
 21
-70.209613
  0
LINE
  8
別途部材
  6
CONTINUOUS
 10
0.903067
 20
-61.87628
 11
0.903067
 21
-70.209613
  0
LINE
  8
別途部材
  6
CONTINUOUS
 10
-3.096933
 20
-61.87628
 11
-3.096933
 21
-70.209613
  0
LINE
  8
別途部材
  6
CONTINUOUS
 10
-4.096933
 20
-60.87628
 11
-4.096933
 21
-70.209613
  0
LINE
  8
別途部材
  6
CONTINUOUS
 10
-5.096933
 20
-60.87628
 11
-5.096933
 21
-70.209613
  0
LINE
  8
別途部材
  6
CONTINUOUS
 10
-2.096933
 20
-61.87628
 11
-2.096933
 21
-70.209613
  0
LINE
  8
別途部材
  6
CONTINUOUS
 10
-1.096933
 20
-60.87628
 11
-1.096933
 21
-70.209613
  0
LINE
  8
別途部材
  6
CONTINUOUS
 10
-9.096933
 20
-60.87628
 11
-9.096933
 21
-70.209613
  0
LINE
  8
別途部材
  6
CONTINUOUS
 10
-7.096933
 20
-61.87628
 11
-7.096933
 21
-70.209613
  0
LINE
  8
別途部材
  6
CONTINUOUS
 10
-6.096933
 20
-61.87628
 11
-6.096933
 21
-70.209613
  0
LINE
  8
別途部材
  6
CONTINUOUS
 10
-8.096933
 20
-60.87628
 11
-8.096933
 21
-70.209613
  0
LINE
  8
別途部材
  6
CONTINUOUS
 10
-10.096933
 20
-61.87628
 11
-10.096933
 21
-70.209613
  0
LINE
  8
別途部材
  6
CONTINUOUS
 10
-12.096933
 20
-60.87628
 11
-12.096933
 21
-70.209613
  0
LINE
  8
別途部材
  6
CONTINUOUS
 10
-13.096933
 20
-60.87628
 11
-13.096933
 21
-70.209613
  0
LINE
  8
別途部材
  6
CONTINUOUS
 10
-15.096933
 20
-61.87628
 11
-15.096933
 21
-70.209613
  0
LINE
  8
別途部材
  6
CONTINUOUS
 10
-14.096933
 20
-61.87628
 11
-14.096933
 21
-70.209613
  0
LINE
  8
別途部材
  6
CONTINUOUS
 10
-11.096933
 20
-61.87628
 11
-11.096933
 21
-70.209613
  0
LINE
  8
別途部材
  6
CONTINUOUS
 10
-16.096933
 20
-60.87628
 11
-16.096933
 21
-70.209613
  0
LINE
  8
別途部材
  6
CONTINUOUS
 10
-18.096933
 20
-61.87628
 11
-18.096933
 21
-70.209613
  0
LINE
  8
別途部材
  6
CONTINUOUS
 10
-17.096933
 20
-60.87628
 11
-17.096933
 21
-70.209613
  0
LINE
  8
別途部材
  6
CONTINUOUS
 10
-19.096933
 20
-61.87628
 11
-19.096933
 21
-70.209613
  0
LINE
  8
別途部材
  6
CONTINUOUS
 10
-20.096933
 20
-60.87628
 11
-20.096933
 21
-70.209613
  0
LINE
  8
別途部材
  6
CONTINUOUS
 10
-22.096933
 20
-61.87628
 11
-22.096933
 21
-70.209613
  0
LINE
  8
別途部材
  6
CONTINUOUS
 10
-21.096933
 20
-60.87628
 11
-21.096933
 21
-70.209613
  0
LINE
  8
別途部材
  6
CONTINUOUS
 10
-23.096933
 20
-61.87628
 11
-23.096933
 21
-70.209613
  0
LINE
  8
別途部材
  6
CONTINUOUS
 10
-24.096933
 20
-60.87628
 11
-24.096933
 21
-70.209613
  0
LINE
  8
別途部材
  6
CONTINUOUS
 10
-26.096933
 20
-61.87628
 11
-26.096933
 21
-70.209613
  0
LINE
  8
別途部材
  6
CONTINUOUS
 10
-25.096933
 20
-60.87628
 11
-25.096933
 21
-70.209613
  0
LINE
  8
別途部材
  6
CONTINUOUS
 10
-27.096933
 20
-61.87628
 11
-27.096933
 21
-70.209613
  0
LINE
  8
別途部材
  6
CONTINUOUS
 10
-28.096933
 20
-60.87628
 11
-28.096933
 21
-70.209613
  0
LINE
  8
別途部材
  6
CONTINUOUS
 10
4.903067
 20
-61.87628
 11
6.403067
 21
-61.87628
  0
ENDBLK
  0
BLOCK
  2
*GRP_0017
 70
    65
 10
0.0
 20
0.0
  0
LINE
  8
補助線
  6
BYBLOCK
 62
    64
 10
-75.199857
 20
-75.116097
 11
-75.327343
 21
-75.223458
  0
LINE
  8
補助線
  6
BYBLOCK
 62
    64
 10
-75.31728
 20
-75.106033
 11
-75.20992
 21
-75.23352
  0
LINE
  8
補助線
  6
BYBLOCK
 62
    64
 10
-66.70944
 20
-67.966075
 11
-66.836925
 21
-68.07343
  0
LINE
  8
補助線
  6
BYBLOCK
 62
    64
 10
-66.826862
 20
-67.95601
 11
-66.719503
 21
-68.083493
  0
LINE
  8
補助線
  6
BYBLOCK
 62
    64
 10
-58.346505
 20
-60.923405
 11
-58.219023
 21
-60.816047
  0
LINE
  8
補助線
  6
BYBLOCK
 62
    64
 10
-58.336445
 20
-60.805983
 11
-58.229085
 21
-60.93347
  0
LINE
  8
型材断面
  6
CONTINUOUS
 10
-76.055355
 20
-74.747075
 11
-76.115733
 21
-75.4516
  0
LINE
  8
型材断面
  6
CONTINUOUS
 10
-76.115733
 20
-75.4516
 11
-75.6863
 21
-75.961535
  0
LINE
  8
型材断面
  6
CONTINUOUS
 10
-75.6863
 20
-75.961535
 11
-74.981775
 21
-76.021912
  0
LINE
  8
型材断面
  6
CONTINUOUS
 10
-58.564588
 20
-60.017595
 11
-57.860063
 21
-60.077973
  0
LINE
  8
型材断面
  6
CONTINUOUS
 10
-57.860063
 20
-60.077973
 11
-57.43063
 21
-60.587907
  0
LINE
  8
型材断面
  6
CONTINUOUS
 10
-57.43063
 20
-60.587907
 11
-57.491007
 21
-61.292432
  0
LINE
  8
型材断面
  6
CONTINUOUS
 10
-76.055355
 20
-74.747075
 11
-58.564588
 21
-60.017595
  0
LINE
  8
型材断面
  6
CONTINUOUS
 10
-74.981775
 20
-76.021912
 11
-57.491007
 21
-61.292432
  0
CIRCLE
  8
ボルト／ビス
  6
CONTINUOUS
 10
-75.2636
 20
-75.169777
 40
0.250185
  0
CIRCLE
  8
ボルト／ビス
  6
CONTINUOUS
 10
-75.2636
 20
-75.169777
 40
0.301025
  0
LINE
  8
ボルト／ビス
  6
CONTINUOUS
 62
    64
 10
-75.509908
 20
-75.21366
 11
-75.424755
 21
-74.978413
  0
LINE
  8
ボルト／ビス
  6
CONTINUOUS
 62
    64
 10
-75.178448
 20
-74.934527
 11
-75.424755
 21
-74.978413
  0
LINE
  8
ボルト／ビス
  6
CONTINUOUS
 62
    64
 10
-75.348752
 20
-75.405027
 11
-75.102445
 21
-75.361143
  0
LINE
  8
ボルト／ビス
  6
CONTINUOUS
 62
    64
 10
-75.017292
 20
-75.125895
 11
-75.102445
 21
-75.361143
  0
LINE
  8
ボルト／ビス
  6
CONTINUOUS
 62
    64
 10
-75.509908
 20
-75.21366
 11
-75.348752
 21
-75.405027
  0
LINE
  8
ボルト／ビス
  6
CONTINUOUS
 62
    64
 10
-75.178448
 20
-74.934527
 11
-75.017292
 21
-75.125895
  0
CIRCLE
  8
ボルト／ビス
  6
CONTINUOUS
 62
    64
 10
-75.2636
 20
-75.169777
 40
0.216668
  0
CIRCLE
  8
ボルト／ビス
  6
CONTINUOUS
 10
-66.773182
 20
-68.019752
 40
0.250185
  0
CIRCLE
  8
ボルト／ビス
  6
CONTINUOUS
 10
-66.773182
 20
-68.019752
 40
0.301025
  0
LINE
  8
ボルト／ビス
  6
CONTINUOUS
 62
    64
 10
-67.01949
 20
-68.063635
 11
-66.934338
 21
-67.828385
  0
LINE
  8
ボルト／ビス
  6
CONTINUOUS
 62
    64
 10
-66.68803
 20
-67.784502
 11
-66.934338
 21
-67.828385
  0
LINE
  8
ボルト／ビス
  6
CONTINUOUS
 62
    64
 10
-66.858335
 20
-68.255002
 11
-66.612025
 21
-68.21112
  0
LINE
  8
ボルト／ビス
  6
CONTINUOUS
 62
    64
 10
-66.526875
 20
-67.975872
 11
-66.612025
 21
-68.21112
  0
LINE
  8
ボルト／ビス
  6
CONTINUOUS
 62
    64
 10
-67.01949
 20
-68.063635
 11
-66.858335
 21
-68.255002
  0
LINE
  8
ボルト／ビス
  6
CONTINUOUS
 62
    64
 10
-66.68803
 20
-67.784502
 11
-66.526875
 21
-67.975872
  0
CIRCLE
  8
ボルト／ビス
  6
CONTINUOUS
 62
    64
 10
-66.773182
 20
-68.019752
 40
0.216668
  0
CIRCLE
  8
ボルト／ビス
  6
CONTINUOUS
 10
-58.282762
 20
-60.869728
 40
0.250185
  0
CIRCLE
  8
ボルト／ビス
  6
CONTINUOUS
 10
-58.282762
 20
-60.869728
 40
0.301025
  0
LINE
  8
ボルト／ビス
  6
CONTINUOUS
 62
    64
 10
-58.19761
 20
-60.634477
 11
-58.44392
 21
-60.678363
  0
LINE
  8
ボルト／ビス
  6
CONTINUOUS
 62
    64
 10
-58.529072
 20
-60.91361
 11
-58.44392
 21
-60.678363
  0
LINE
  8
ボルト／ビス
  6
CONTINUOUS
 62
    64
 10
-58.036457
 20
-60.825845
 11
-58.121608
 21
-61.061092
  0
LINE
  8
ボルト／ビス
  6
CONTINUOUS
 62
    64
 10
-58.367918
 20
-61.104978
 11
-58.121608
 21
-61.061092
  0
LINE
  8
ボルト／ビス
  6
CONTINUOUS
 62
    64
 10
-58.19761
 20
-60.634477
 11
-58.036457
 21
-60.825845
  0
LINE
  8
ボルト／ビス
  6
CONTINUOUS
 62
    64
 10
-58.529072
 20
-60.91361
 11
-58.367918
 21
-61.104978
  0
CIRCLE
  8
ボルト／ビス
  6
CONTINUOUS
 62
    64
 10
-58.282762
 20
-60.869728
 40
0.216668
  0
ENDBLK
  0
BLOCK
  2
*GRP_0018
 70
    65
 10
0.0
 20
0.0
  0
LINE
  8
補助線
  6
BYBLOCK
 62
    64
 10
-58.346508
 20
-75.116097
 11
-58.219023
 21
-75.223458
  0
LINE
  8
補助線
  6
BYBLOCK
 62
    64
 10
-58.229085
 20
-75.106033
 11
-58.336445
 21
-75.23352
  0
LINE
  8
補助線
  6
BYBLOCK
 62
    64
 10
-66.836925
 20
-67.966075
 11
-66.70944
 21
-68.07343
  0
LINE
  8
補助線
  6
BYBLOCK
 62
    64
 10
-66.719503
 20
-67.95601
 11
-66.826862
 21
-68.083493
  0
LINE
  8
補助線
  6
BYBLOCK
 62
    64
 10
-75.19986
 20
-60.923405
 11
-75.327343
 21
-60.816047
  0
LINE
  8
補助線
  6
BYBLOCK
 62
    64
 10
-75.20992
 20
-60.805983
 11
-75.31728
 21
-60.93347
  0
LINE
  8
型材断面
  6
CONTINUOUS
 10
-57.49101
 20
-74.747075
 11
-57.430632
 21
-75.4516
  0
LINE
  8
型材断面
  6
CONTINUOUS
 10
-57.430632
 20
-75.4516
 11
-57.860065
 21
-75.961535
  0
LINE
  8
型材断面
  6
CONTINUOUS
 10
-57.860065
 20
-75.961535
 11
-58.56459
 21
-76.021912
  0
LINE
  8
型材断面
  6
CONTINUOUS
 10
-74.981778
 20
-60.017595
 11
-75.686302
 21
-60.077973
  0
LINE
  8
型材断面
  6
CONTINUOUS
 10
-75.686302
 20
-60.077973
 11
-76.115735
 21
-60.587907
  0
LINE
  8
型材断面
  6
CONTINUOUS
 10
-76.115735
 20
-60.587907
 11
-76.055357
 21
-61.292432
  0
LINE
  8
型材断面
  6
CONTINUOUS
 10
-57.49101
 20
-74.747075
 11
-74.981778
 21
-60.017595
  0
LINE
  8
型材断面
  6
CONTINUOUS
 10
-58.56459
 20
-76.021912
 11
-76.055357
 21
-61.292432
  0
CIRCLE
  8
ボルト／ビス
  6
CONTINUOUS
 10
-58.282765
 20
-75.169777
 40
0.250185
  0
CIRCLE
  8
ボルト／ビス
  6
CONTINUOUS
 10
-58.282765
 20
-75.169777
 40
0.301025
  0
LINE
  8
ボルト／ビス
  6
CONTINUOUS
 62
    64
 10
-58.036457
 20
-75.21366
 11
-58.12161
 21
-74.978413
  0
LINE
  8
ボルト／ビス
  6
CONTINUOUS
 62
    64
 10
-58.367918
 20
-74.934527
 11
-58.12161
 21
-74.978413
  0
LINE
  8
ボルト／ビス
  6
CONTINUOUS
 62
    64
 10
-58.197613
 20
-75.405027
 11
-58.44392
 21
-75.361143
  0
LINE
  8
ボルト／ビス
  6
CONTINUOUS
 62
    64
 10
-58.529072
 20
-75.125895
 11
-58.44392
 21
-75.361143
  0
LINE
  8
ボルト／ビス
  6
CONTINUOUS
 62
    64
 10
-58.036457
 20
-75.21366
 11
-58.197613
 21
-75.405027
  0
LINE
  8
ボルト／ビス
  6
CONTINUOUS
 62
    64
 10
-58.367918
 20
-74.934527
 11
-58.529072
 21
-75.125895
  0
CIRCLE
  8
ボルト／ビス
  6
CONTINUOUS
 62
    64
 10
-58.282765
 20
-75.169777
 40
0.216668
  0
CIRCLE
  8
ボルト／ビス
  6
CONTINUOUS
 10
-66.773182
 20
-68.019752
 40
0.250185
  0
CIRCLE
  8
ボルト／ビス
  6
CONTINUOUS
 10
-66.773182
 20
-68.019752
 40
0.301025
  0
LINE
  8
ボルト／ビス
  6
CONTINUOUS
 62
    64
 10
-66.526875
 20
-68.063635
 11
-66.612028
 21
-67.828385
  0
LINE
  8
ボルト／ビス
  6
CONTINUOUS
 62
    64
 10
-66.858335
 20
-67.784502
 11
-66.612028
 21
-67.828385
  0
LINE
  8
ボルト／ビス
  6
CONTINUOUS
 62
    64
 10
-66.68803
 20
-68.255002
 11
-66.93434
 21
-68.21112
  0
LINE
  8
ボルト／ビス
  6
CONTINUOUS
 62
    64
 10
-67.01949
 20
-67.975872
 11
-66.93434
 21
-68.21112
  0
LINE
  8
ボルト／ビス
  6
CONTINUOUS
 62
    64
 10
-66.526875
 20
-68.063635
 11
-66.68803
 21
-68.255002
  0
LINE
  8
ボルト／ビス
  6
CONTINUOUS
 62
    64
 10
-66.858335
 20
-67.784502
 11
-67.01949
 21
-67.975872
  0
CIRCLE
  8
ボルト／ビス
  6
CONTINUOUS
 62
    64
 10
-66.773182
 20
-68.019752
 40
0.216668
  0
CIRCLE
  8
ボルト／ビス
  6
CONTINUOUS
 10
-75.263602
 20
-60.869728
 40
0.250185
  0
CIRCLE
  8
ボルト／ビス
  6
CONTINUOUS
 10
-75.263602
 20
-60.869728
 40
0.301025
  0
LINE
  8
ボルト／ビス
  6
CONTINUOUS
 62
    64
 10
-75.348755
 20
-60.634477
 11
-75.102445
 21
-60.678363
  0
LINE
  8
ボルト／ビス
  6
CONTINUOUS
 62
    64
 10
-75.017292
 20
-60.91361
 11
-75.102445
 21
-60.678363
  0
LINE
  8
ボルト／ビス
  6
CONTINUOUS
 62
    64
 10
-75.509908
 20
-60.825845
 11
-75.424758
 21
-61.061092
  0
LINE
  8
ボルト／ビス
  6
CONTINUOUS
 62
    64
 10
-75.178448
 20
-61.104978
 11
-75.424758
 21
-61.061092
  0
LINE
  8
ボルト／ビス
  6
CONTINUOUS
 62
    64
 10
-75.348755
 20
-60.634477
 11
-75.509908
 21
-60.825845
  0
LINE
  8
ボルト／ビス
  6
CONTINUOUS
 62
    64
 10
-75.017292
 20
-60.91361
 11
-75.178448
 21
-61.104978
  0
CIRCLE
  8
ボルト／ビス
  6
CONTINUOUS
 62
    64
 10
-75.263602
 20
-60.869728
 40
0.216668
  0
ENDBLK
  0
BLOCK
  2
*GRP_0019
 70
    65
 10
0.0
 20
0.0
  0
LINE
  8
補助線
  6
BYBLOCK
 62
    64
 10
18.005992
 20
-75.116097
 11
18.133477
 21
-75.223458
  0
LINE
  8
補助線
  6
BYBLOCK
 62
    64
 10
18.123415
 20
-75.106033
 11
18.016055
 21
-75.23352
  0
LINE
  8
補助線
  6
BYBLOCK
 62
    64
 10
9.515575
 20
-67.966075
 11
9.64306
 21
-68.07343
  0
LINE
  8
補助線
  6
BYBLOCK
 62
    64
 10
9.632998
 20
-67.95601
 11
9.525638
 21
-68.083493
  0
LINE
  8
補助線
  6
BYBLOCK
 62
    64
 10
1.15264
 20
-60.923405
 11
1.025158
 21
-60.816047
  0
LINE
  8
補助線
  6
BYBLOCK
 62
    64
 10
1.14258
 20
-60.805983
 11
1.03522
 21
-60.93347
  0
LINE
  8
型材断面
  6
CONTINUOUS
 10
18.86149
 20
-74.747075
 11
18.921868
 21
-75.4516
  0
LINE
  8
型材断面
  6
CONTINUOUS
 10
18.921868
 20
-75.4516
 11
18.492435
 21
-75.961535
  0
LINE
  8
型材断面
  6
CONTINUOUS
 10
18.492435
 20
-75.961535
 11
17.78791
 21
-76.021912
  0
LINE
  8
型材断面
  6
CONTINUOUS
 10
1.370723
 20
-60.017595
 11
0.666198
 21
-60.077973
  0
LINE
  8
型材断面
  6
CONTINUOUS
 10
0.666198
 20
-60.077973
 11
0.236765
 21
-60.587907
  0
LINE
  8
型材断面
  6
CONTINUOUS
 10
0.236765
 20
-60.587907
 11
0.297142
 21
-61.292432
  0
LINE
  8
型材断面
  6
CONTINUOUS
 10
18.86149
 20
-74.747075
 11
1.370723
 21
-60.017595
  0
LINE
  8
型材断面
  6
CONTINUOUS
 10
17.78791
 20
-76.021912
 11
0.297142
 21
-61.292432
  0
CIRCLE
  8
ボルト／ビス
  6
CONTINUOUS
 10
18.069735
 20
-75.169777
 40
0.250185
  0
CIRCLE
  8
ボルト／ビス
  6
CONTINUOUS
 10
18.069735
 20
-75.169777
 40
0.301025
  0
LINE
  8
ボルト／ビス
  6
CONTINUOUS
 62
    64
 10
18.316043
 20
-75.21366
 11
18.23089
 21
-74.978413
  0
LINE
  8
ボルト／ビス
  6
CONTINUOUS
 62
    64
 10
17.984583
 20
-74.934527
 11
18.23089
 21
-74.978413
  0
LINE
  8
ボルト／ビス
  6
CONTINUOUS
 62
    64
 10
18.154888
 20
-75.405027
 11
17.90858
 21
-75.361143
  0
LINE
  8
ボルト／ビス
  6
CONTINUOUS
 62
    64
 10
17.823428
 20
-75.125895
 11
17.90858
 21
-75.361143
  0
LINE
  8
ボルト／ビス
  6
CONTINUOUS
 62
    64
 10
18.316043
 20
-75.21366
 11
18.154888
 21
-75.405027
  0
LINE
  8
ボルト／ビス
  6
CONTINUOUS
 62
    64
 10
17.984583
 20
-74.934527
 11
17.823428
 21
-75.125895
  0
CIRCLE
  8
ボルト／ビス
  6
CONTINUOUS
 62
    64
 10
18.069735
 20
-75.169777
 40
0.216668
  0
CIRCLE
  8
ボルト／ビス
  6
CONTINUOUS
 10
9.579318
 20
-68.019752
 40
0.250185
  0
CIRCLE
  8
ボルト／ビス
  6
CONTINUOUS
 10
9.579318
 20
-68.019752
 40
0.301025
  0
LINE
  8
ボルト／ビス
  6
CONTINUOUS
 62
    64
 10
9.825625
 20
-68.063635
 11
9.740473
 21
-67.828385
  0
LINE
  8
ボルト／ビス
  6
CONTINUOUS
 62
    64
 10
9.494165
 20
-67.784502
 11
9.740473
 21
-67.828385
  0
LINE
  8
ボルト／ビス
  6
CONTINUOUS
 62
    64
 10
9.66447
 20
-68.255002
 11
9.41816
 21
-68.21112
  0
LINE
  8
ボルト／ビス
  6
CONTINUOUS
 62
    64
 10
9.33301
 20
-67.975872
 11
9.41816
 21
-68.21112
  0
LINE
  8
ボルト／ビス
  6
CONTINUOUS
 62
    64
 10
9.825625
 20
-68.063635
 11
9.66447
 21
-68.255002
  0
LINE
  8
ボルト／ビス
  6
CONTINUOUS
 62
    64
 10
9.494165
 20
-67.784502
 11
9.33301
 21
-67.975872
  0
CIRCLE
  8
ボルト／ビス
  6
CONTINUOUS
 62
    64
 10
9.579318
 20
-68.019752
 40
0.216668
  0
CIRCLE
  8
ボルト／ビス
  6
CONTINUOUS
 10
1.088897
 20
-60.869728
 40
0.250185
  0
CIRCLE
  8
ボルト／ビス
  6
CONTINUOUS
 10
1.088897
 20
-60.869728
 40
0.301025
  0
LINE
  8
ボルト／ビス
  6
CONTINUOUS
 62
    64
 10
1.003745
 20
-60.634477
 11
1.250055
 21
-60.678363
  0
LINE
  8
ボルト／ビス
  6
CONTINUOUS
 62
    64
 10
1.335208
 20
-60.91361
 11
1.250055
 21
-60.678363
  0
LINE
  8
ボルト／ビス
  6
CONTINUOUS
 62
    64
 10
0.842592
 20
-60.825845
 11
0.927743
 21
-61.061092
  0
LINE
  8
ボルト／ビス
  6
CONTINUOUS
 62
    64
 10
1.174052
 20
-61.104978
 11
0.927743
 21
-61.061092
  0
LINE
  8
ボルト／ビス
  6
CONTINUOUS
 62
    64
 10
1.003745
 20
-60.634477
 11
0.842592
 21
-60.825845
  0
LINE
  8
ボルト／ビス
  6
CONTINUOUS
 62
    64
 10
1.335208
 20
-60.91361
 11
1.174052
 21
-61.104978
  0
CIRCLE
  8
ボルト／ビス
  6
CONTINUOUS
 62
    64
 10
1.088897
 20
-60.869728
 40
0.216668
  0
ENDBLK
  0
BLOCK
  2
*GRP_0020
 70
    65
 10
0.0
 20
0.0
  0
LINE
  8
補助線
  6
BYBLOCK
 62
    64
 10
1.152643
 20
-75.116097
 11
1.025158
 21
-75.223458
  0
LINE
  8
補助線
  6
BYBLOCK
 62
    64
 10
1.03522
 20
-75.106033
 11
1.14258
 21
-75.23352
  0
LINE
  8
補助線
  6
BYBLOCK
 62
    64
 10
9.64306
 20
-67.966075
 11
9.515575
 21
-68.07343
  0
LINE
  8
補助線
  6
BYBLOCK
 62
    64
 10
9.525638
 20
-67.95601
 11
9.632998
 21
-68.083493
  0
LINE
  8
補助線
  6
BYBLOCK
 62
    64
 10
18.005995
 20
-60.923405
 11
18.133477
 21
-60.816047
  0
LINE
  8
補助線
  6
BYBLOCK
 62
    64
 10
18.016055
 20
-60.805983
 11
18.123415
 21
-60.93347
  0
LINE
  8
型材断面
  6
CONTINUOUS
 10
0.297145
 20
-74.747075
 11
0.236767
 21
-75.4516
  0
LINE
  8
型材断面
  6
CONTINUOUS
 10
0.236767
 20
-75.4516
 11
0.6662
 21
-75.961535
  0
LINE
  8
型材断面
  6
CONTINUOUS
 10
0.6662
 20
-75.961535
 11
1.370725
 21
-76.021912
  0
LINE
  8
型材断面
  6
CONTINUOUS
 10
17.787912
 20
-60.017595
 11
18.492438
 21
-60.077973
  0
LINE
  8
型材断面
  6
CONTINUOUS
 10
18.492438
 20
-60.077973
 11
18.92187
 21
-60.587907
  0
LINE
  8
型材断面
  6
CONTINUOUS
 10
18.92187
 20
-60.587907
 11
18.861492
 21
-61.292432
  0
LINE
  8
型材断面
  6
CONTINUOUS
 10
0.297145
 20
-74.747075
 11
17.787912
 21
-60.017595
  0
LINE
  8
型材断面
  6
CONTINUOUS
 10
1.370725
 20
-76.021912
 11
18.861492
 21
-61.292432
  0
CIRCLE
  8
ボルト／ビス
  6
CONTINUOUS
 10
1.0889
 20
-75.169777
 40
0.250185
  0
CIRCLE
  8
ボルト／ビス
  6
CONTINUOUS
 10
1.0889
 20
-75.169777
 40
0.301025
  0
LINE
  8
ボルト／ビス
  6
CONTINUOUS
 62
    64
 10
0.842592
 20
-75.21366
 11
0.927745
 21
-74.978413
  0
LINE
  8
ボルト／ビス
  6
CONTINUOUS
 62
    64
 10
1.174052
 20
-74.934527
 11
0.927745
 21
-74.978413
  0
LINE
  8
ボルト／ビス
  6
CONTINUOUS
 62
    64
 10
1.003747
 20
-75.405027
 11
1.250055
 21
-75.361143
  0
LINE
  8
ボルト／ビス
  6
CONTINUOUS
 62
    64
 10
1.335208
 20
-75.125895
 11
1.250055
 21
-75.361143
  0
LINE
  8
ボルト／ビス
  6
CONTINUOUS
 62
    64
 10
0.842592
 20
-75.21366
 11
1.003747
 21
-75.405027
  0
LINE
  8
ボルト／ビス
  6
CONTINUOUS
 62
    64
 10
1.174052
 20
-74.934527
 11
1.335208
 21
-75.125895
  0
CIRCLE
  8
ボルト／ビス
  6
CONTINUOUS
 62
    64
 10
1.0889
 20
-75.169777
 40
0.216668
  0
CIRCLE
  8
ボルト／ビス
  6
CONTINUOUS
 10
9.579318
 20
-68.019752
 40
0.250185
  0
CIRCLE
  8
ボルト／ビス
  6
CONTINUOUS
 10
9.579318
 20
-68.019752
 40
0.301025
  0
LINE
  8
ボルト／ビス
  6
CONTINUOUS
 62
    64
 10
9.33301
 20
-68.063635
 11
9.418162
 21
-67.828385
  0
LINE
  8
ボルト／ビス
  6
CONTINUOUS
 62
    64
 10
9.66447
 20
-67.784502
 11
9.418162
 21
-67.828385
  0
LINE
  8
ボルト／ビス
  6
CONTINUOUS
 62
    64
 10
9.494165
 20
-68.255002
 11
9.740475
 21
-68.21112
  0
LINE
  8
ボルト／ビス
  6
CONTINUOUS
 62
    64
 10
9.825625
 20
-67.975872
 11
9.740475
 21
-68.21112
  0
LINE
  8
ボルト／ビス
  6
CONTINUOUS
 62
    64
 10
9.33301
 20
-68.063635
 11
9.494165
 21
-68.255002
  0
LINE
  8
ボルト／ビス
  6
CONTINUOUS
 62
    64
 10
9.66447
 20
-67.784502
 11
9.825625
 21
-67.975872
  0
CIRCLE
  8
ボルト／ビス
  6
CONTINUOUS
 62
    64
 10
9.579318
 20
-68.019752
 40
0.216668
  0
CIRCLE
  8
ボルト／ビス
  6
CONTINUOUS
 10
18.069737
 20
-60.869728
 40
0.250185
  0
CIRCLE
  8
ボルト／ビス
  6
CONTINUOUS
 10
18.069737
 20
-60.869728
 40
0.301025
  0
LINE
  8
ボルト／ビス
  6
CONTINUOUS
 62
    64
 10
18.15489
 20
-60.634477
 11
17.90858
 21
-60.678363
  0
LINE
  8
ボルト／ビス
  6
CONTINUOUS
 62
    64
 10
17.823428
 20
-60.91361
 11
17.90858
 21
-60.678363
  0
LINE
  8
ボルト／ビス
  6
CONTINUOUS
 62
    64
 10
18.316043
 20
-60.825845
 11
18.230892
 21
-61.061092
  0
LINE
  8
ボルト／ビス
  6
CONTINUOUS
 62
    64
 10
17.984583
 20
-61.104978
 11
18.230892
 21
-61.061092
  0
LINE
  8
ボルト／ビス
  6
CONTINUOUS
 62
    64
 10
18.15489
 20
-60.634477
 11
18.316043
 21
-60.825845
  0
LINE
  8
ボルト／ビス
  6
CONTINUOUS
 62
    64
 10
17.823428
 20
-60.91361
 11
17.984583
 21
-61.104978
  0
CIRCLE
  8
ボルト／ビス
  6
CONTINUOUS
 62
    64
 10
18.069737
 20
-60.869728
 40
0.216668
  0
ENDBLK
  0
BLOCK
  2
*DIM_0021
 70
    65
 10
0.0
 20
0.0
  0
LINE
  8
寸法
  6
BYBLOCK
 62
     0
 10
-81.596933
 20
47.814033
 11
-94.88977
 21
47.814033
  0
LINE
  8
寸法
  6
BYBLOCK
 62
     0
 10
-81.596933
 20
27.814033
 11
-94.88977
 21
27.814033
  0
LINE
  8
寸法
  6
BYBLOCK
 62
     0
 10
-94.88977
 20
47.814033
 11
-94.88977
 21
27.814033
  0
POINT
  8
寸法
 62
     0
 10
-94.88977
 20
47.814033
  0
POINT
  8
寸法
 62
     0
 10
-94.88977
 20
27.814033
  0
TEXT
  7
TextStyle03
  8
寸法
  6
CONTINUOUS
 62
     0
 10
-95.25
 20
35.3625
  1
600
 40
3.0
 50
90.0
 72
     5
 11
-95.25
 21
40.2375
  0
ENDBLK
  0
BLOCK
  2
*DIM_0022
 70
    65
 10
0.0
 20
0.0
  0
LINE
  8
寸法
  6
BYBLOCK
 62
     0
 10
-68.596933
 20
55.814033
 11
-68.596933
 21
84.922105
  0
LINE
  8
寸法
  6
BYBLOCK
 62
     0
 10
-41.930265
 20
55.814033
 11
-41.930265
 21
84.922105
  0
LINE
  8
寸法
  6
BYBLOCK
 62
     0
 10
-68.596933
 20
84.922105
 11
-41.930265
 21
84.922105
  0
POINT
  8
寸法
 62
     0
 10
-68.596933
 20
84.922105
  0
POINT
  8
寸法
 62
     0
 10
-41.930265
 20
84.922105
  0
TEXT
  7
TextStyle03
  8
寸法
  6
CONTINUOUS
 62
     0
 10
-57.7125
 20
85.3
  1
800
 40
3.0
 72
     5
 11
-52.8375
 21
85.3
  0
ENDBLK
  0
BLOCK
  2
*DIM_0023
 70
    65
 10
0.0
 20
0.0
  0
LINE
  8
寸法
  6
BYBLOCK
 62
     0
 10
-15.2636
 20
55.814033
 11
-15.2636
 21
84.922105
  0
LINE
  8
寸法
  6
BYBLOCK
 62
     0
 10
-41.930265
 20
84.922105
 11
-15.2636
 21
84.922105
  0
POINT
  8
寸法
 62
     0
 10
-15.2636
 20
84.922105
  0
TEXT
  7
TextStyle03
  8
寸法
  6
CONTINUOUS
 62
     0
 10
-31.0375
 20
85.3
  1
800
 40
3.0
 72
     5
 11
-26.1625
 21
85.3
  0
ENDBLK
  0
BLOCK
  2
*DIM_0024
 70
    65
 10
0.0
 20
0.0
  0
LINE
  8
寸法
  6
BYBLOCK
 62
     0
 10
11.403067
 20
55.814033
 11
11.403067
 21
84.922105
  0
LINE
  8
寸法
  6
BYBLOCK
 62
     0
 10
-15.2636
 20
84.922105
 11
11.403067
 21
84.922105
  0
POINT
  8
寸法
 62
     0
 10
11.403067
 20
84.922105
  0
TEXT
  7
TextStyle03
  8
寸法
  6
CONTINUOUS
 62
     0
 10
-4.3625
 20
85.3
  1
800
 40
3.0
 72
     5
 11
0.5125
 21
85.3
  0
ENDBLK
  0
BLOCK
  2
*DIM_0025
 70
    65
 10
0.0
 20
0.0
  0
LINE
  8
寸法
  6
CONTINUOUS
 10
84.09629
 20
-51.405635
 11
84.09629
 21
-38.064355
  0
LINE
  8
寸法
  6
CONTINUOUS
 10
116.309622
 20
-51.405635
 11
116.309622
 21
-38.064355
  0
LINE
  8
寸法
  6
CONTINUOUS
 10
84.09629
 20
-38.064355
 11
116.309622
 21
-38.064355
  0
POINT
  8
寸法
 10
84.09629
 20
-38.064355
  0
POINT
  8
寸法
 10
116.309622
 20
-38.064355
  0
TEXT
  7
TextStyle03
  8
寸法
  6
CONTINUOUS
 10
96.075
 20
-37.7
  1
966.4
 40
3.0
 72
     5
 11
104.325
 21
-37.7
  0
ENDBLK
  0
BLOCK
  2
*DIM_0026
 70
    65
 10
0.0
 20
0.0
  0
LINE
  8
寸法
  6
BYBLOCK
 62
     0
 10
9.403065
 20
-50.209613
 11
37.372718
 21
-50.209613
  0
LINE
  8
寸法
  6
BYBLOCK
 62
     0
 10
37.372718
 20
-61.87628
 11
37.372718
 21
-50.209613
  0
POINT
  8
寸法
 62
     0
 10
37.372718
 20
-61.87628
  0
POINT
  8
寸法
 62
     0
 10
37.372718
 20
-50.209613
  0
TEXT
  7
TextStyle03
  8
寸法
  6
CONTINUOUS
 62
     0
 10
42.45
 20
-65.06875
  1
上昇282以上
 40
3.0
 50
90.0
 72
     5
 11
42.45
 21
-46.88125
  0
ENDBLK
  0
BLOCK
  2
*GRP_0027
 70
    65
 10
0.0
 20
0.0
  0
LINE
  8
ボルト／ビス
  6
CONTINUOUS
 10
111.09875
 20
53.4807
 11
110.632085
 21
53.4807
  0
LINE
  8
ボルト／ビス
  6
CONTINUOUS
 10
111.09875
 20
53.847365
 11
111.032085
 21
53.847365
  0
LINE
  8
ボルト／ビス
  6
CONTINUOUS
 10
111.032085
 20
53.847365
 11
111.032085
 21
53.114033
  0
LINE
  8
ボルト／ビス
  6
CONTINUOUS
 10
111.032085
 20
53.114033
 11
111.09875
 21
53.114033
  0
LINE
  8
ボルト／ビス
  6
CONTINUOUS
 10
111.09875
 20
53.847365
 11
111.09875
 21
53.114033
  0
LINE
  8
ボルト／ビス
  6
CONTINUOUS
 10
110.99875
 20
53.7807
 11
111.032085
 21
53.7807
  0
LINE
  8
ボルト／ビス
  6
CONTINUOUS
 10
110.99875
 20
53.7807
 11
110.99875
 21
53.1807
  0
LINE
  8
ボルト／ビス
  6
CONTINUOUS
 10
110.99875
 20
53.1807
 11
111.032085
 21
53.1807
  0
LINE
  8
ボルト／ビス
  6
CONTINUOUS
 62
    64
 10
110.79875
 20
53.641075
 11
110.810425
 21
53.67315
  0
ARC
  8
ボルト／ビス
  6
CONTINUOUS
 62
    64
 10
110.903728
 20
53.625036
 40
0.104978
 50
180.0
 51
207.278033
  0
ARC
  8
ボルト／ビス
  6
CONTINUOUS
 62
    64
 10
111.201152
 20
53.480699
 40
0.402402
 50
166.165015
 51
193.834998
  0
LINE
  8
ボルト／ビス
  6
CONTINUOUS
 62
    64
 10
110.79875
 20
53.320325
 11
110.810425
 21
53.28825
  0
ARC
  8
ボルト／ビス
  6
CONTINUOUS
 62
    64
 10
110.903728
 20
53.336361
 40
0.104978
 50
152.721967
 51
180.0
  0
LINE
  8
ボルト／ビス
  6
CONTINUOUS
 62
    64
 10
110.79875
 20
53.641075
 11
110.79875
 21
53.320325
  0
LINE
  8
ボルト／ビス
  6
CONTINUOUS
 62
    64
 10
110.810425
 20
53.28825
 11
110.932085
 21
53.28825
  0
LINE
  8
ボルト／ビス
  6
CONTINUOUS
 62
    64
 10
110.810425
 20
53.384475
 11
110.932085
 21
53.384475
  0
LINE
  8
ボルト／ビス
  6
CONTINUOUS
 62
    64
 10
110.810425
 20
53.67315
 11
110.932085
 21
53.67315
  0
LINE
  8
ボルト／ビス
  6
CONTINUOUS
 62
    64
 10
110.810425
 20
53.576925
 11
110.932085
 21
53.576925
  0
LINE
  8
ボルト／ビス
  6
CONTINUOUS
 10
110.932085
 20
53.67315
 11
110.932085
 21
53.28825
  0
LINE
  8
ボルト／ビス
  6
CONTINUOUS
 10
110.932085
 20
53.6807
 11
110.99875
 21
53.6807
  0
LINE
  8
ボルト／ビス
  6
CONTINUOUS
 10
110.932085
 20
53.6807
 11
110.932085
 21
53.2807
  0
LINE
  8
ボルト／ビス
  6
CONTINUOUS
 10
110.932085
 20
53.2807
 11
110.99875
 21
53.2807
  0
ENDBLK
  0
BLOCK
  2
*GRP_0028
 70
    65
 10
0.0
 20
0.0
  0
LINE
  8
ボルト／ビス
  6
CONTINUOUS
 10
111.09875
 20
22.147365
 11
110.632085
 21
22.147365
  0
LINE
  8
ボルト／ビス
  6
CONTINUOUS
 10
111.09875
 20
22.51403
 11
111.032085
 21
22.51403
  0
LINE
  8
ボルト／ビス
  6
CONTINUOUS
 10
111.032085
 20
22.51403
 11
111.032085
 21
21.780697
  0
LINE
  8
ボルト／ビス
  6
CONTINUOUS
 10
111.032085
 20
21.780697
 11
111.09875
 21
21.780697
  0
LINE
  8
ボルト／ビス
  6
CONTINUOUS
 10
111.09875
 20
22.51403
 11
111.09875
 21
21.780697
  0
LINE
  8
ボルト／ビス
  6
CONTINUOUS
 10
110.99875
 20
22.447365
 11
111.032085
 21
22.447365
  0
LINE
  8
ボルト／ビス
  6
CONTINUOUS
 10
110.99875
 20
22.447365
 11
110.99875
 21
21.847365
  0
LINE
  8
ボルト／ビス
  6
CONTINUOUS
 10
110.99875
 20
21.847365
 11
111.032085
 21
21.847365
  0
LINE
  8
ボルト／ビス
  6
CONTINUOUS
 62
    64
 10
110.79875
 20
22.30774
 11
110.810425
 21
22.339815
  0
ARC
  8
ボルト／ビス
  6
CONTINUOUS
 62
    64
 10
110.903728
 20
22.291701
 40
0.104978
 50
180.0
 51
207.278033
  0
ARC
  8
ボルト／ビス
  6
CONTINUOUS
 62
    64
 10
111.201152
 20
22.147364
 40
0.402402
 50
166.165015
 51
193.834998
  0
LINE
  8
ボルト／ビス
  6
CONTINUOUS
 62
    64
 10
110.79875
 20
21.98699
 11
110.810425
 21
21.954915
  0
ARC
  8
ボルト／ビス
  6
CONTINUOUS
 62
    64
 10
110.903728
 20
22.003026
 40
0.104978
 50
152.721967
 51
180.0
  0
LINE
  8
ボルト／ビス
  6
CONTINUOUS
 62
    64
 10
110.79875
 20
22.30774
 11
110.79875
 21
21.98699
  0
LINE
  8
ボルト／ビス
  6
CONTINUOUS
 62
    64
 10
110.810425
 20
21.954915
 11
110.932085
 21
21.954915
  0
LINE
  8
ボルト／ビス
  6
CONTINUOUS
 62
    64
 10
110.810425
 20
22.05114
 11
110.932085
 21
22.05114
  0
LINE
  8
ボルト／ビス
  6
CONTINUOUS
 62
    64
 10
110.810425
 20
22.339815
 11
110.932085
 21
22.339815
  0
LINE
  8
ボルト／ビス
  6
CONTINUOUS
 62
    64
 10
110.810425
 20
22.24359
 11
110.932085
 21
22.24359
  0
LINE
  8
ボルト／ビス
  6
CONTINUOUS
 10
110.932085
 20
22.339815
 11
110.932085
 21
21.954915
  0
LINE
  8
ボルト／ビス
  6
CONTINUOUS
 10
110.932085
 20
22.347365
 11
110.99875
 21
22.347365
  0
LINE
  8
ボルト／ビス
  6
CONTINUOUS
 10
110.932085
 20
22.347365
 11
110.932085
 21
21.947365
  0
LINE
  8
ボルト／ビス
  6
CONTINUOUS
 10
110.932085
 20
21.947365
 11
110.99875
 21
21.947365
  0
ENDBLK
  0
BLOCK
  2
*GRP_0029
 70
    65
 10
0.0
 20
0.0
  0
LINE
  8
ボルト／ビス
  6
CONTINUOUS
 10
22.069735
 20
-70.209613
 11
22.069735
 21
-69.742947
  0
LINE
  8
ボルト／ビス
  6
CONTINUOUS
 10
21.70307
 20
-70.209613
 11
21.70307
 21
-70.142947
  0
LINE
  8
ボルト／ビス
  6
CONTINUOUS
 10
21.70307
 20
-70.142947
 11
22.436403
 21
-70.142947
  0
LINE
  8
ボルト／ビス
  6
CONTINUOUS
 10
22.436403
 20
-70.142947
 11
22.436403
 21
-70.209613
  0
LINE
  8
ボルト／ビス
  6
CONTINUOUS
 10
21.70307
 20
-70.209613
 11
22.436403
 21
-70.209613
  0
LINE
  8
ボルト／ビス
  6
CONTINUOUS
 10
21.769735
 20
-70.109612
 11
21.769735
 21
-70.142947
  0
LINE
  8
ボルト／ビス
  6
CONTINUOUS
 10
21.769735
 20
-70.109612
 11
22.369735
 21
-70.109612
  0
LINE
  8
ボルト／ビス
  6
CONTINUOUS
 10
22.369735
 20
-70.109612
 11
22.369735
 21
-70.142947
  0
LINE
  8
ボルト／ビス
  6
CONTINUOUS
 62
    64
 10
21.90936
 20
-69.909613
 11
21.877285
 21
-69.921288
  0
ARC
  8
ボルト／ビス
  6
CONTINUOUS
 62
    64
 10
21.925399
 20
-70.01459
 40
0.104978
 50
62.721967
 51
90.0
  0
ARC
  8
ボルト／ビス
  6
CONTINUOUS
 62
    64
 10
22.069737
 20
-70.312014
 40
0.402402
 50
76.165002
 51
103.834985
  0
LINE
  8
ボルト／ビス
  6
CONTINUOUS
 62
    64
 10
22.23011
 20
-69.909613
 11
22.262185
 21
-69.921288
  0
ARC
  8
ボルト／ビス
  6
CONTINUOUS
 62
    64
 10
22.214074
 20
-70.01459
 40
0.104978
 50
90.0
 51
117.278033
  0
LINE
  8
ボルト／ビス
  6
CONTINUOUS
 62
    64
 10
21.90936
 20
-69.909613
 11
22.23011
 21
-69.909613
  0
LINE
  8
ボルト／ビス
  6
CONTINUOUS
 62
    64
 10
22.262185
 20
-69.921288
 11
22.262185
 21
-70.042947
  0
LINE
  8
ボルト／ビス
  6
CONTINUOUS
 62
    64
 10
22.16596
 20
-69.921288
 11
22.16596
 21
-70.042947
  0
LINE
  8
ボルト／ビス
  6
CONTINUOUS
 62
    64
 10
21.877285
 20
-69.921288
 11
21.877285
 21
-70.042947
  0
LINE
  8
ボルト／ビス
  6
CONTINUOUS
 62
    64
 10
21.97351
 20
-69.921288
 11
21.97351
 21
-70.042947
  0
LINE
  8
ボルト／ビス
  6
CONTINUOUS
 10
21.877285
 20
-70.042947
 11
22.262185
 21
-70.042947
  0
LINE
  8
ボルト／ビス
  6
CONTINUOUS
 10
21.869735
 20
-70.042947
 11
21.869735
 21
-70.109612
  0
LINE
  8
ボルト／ビス
  6
CONTINUOUS
 10
21.869735
 20
-70.042947
 11
22.269735
 21
-70.042947
  0
LINE
  8
ボルト／ビス
  6
CONTINUOUS
 10
22.269735
 20
-70.042947
 11
22.269735
 21
-70.109612
  0
ENDBLK
  0
BLOCK
  2
*GRP_0030
 70
    65
 10
0.0
 20
0.0
  0
LINE
  8
ボルト／ビス
  6
DOT
 10
22.069735
 20
-58.542945
 11
22.069735
 21
-58.07628
  0
LINE
  8
ボルト／ビス
  6
DOT
 10
21.70307
 20
-58.542945
 11
21.70307
 21
-58.47628
  0
LINE
  8
ボルト／ビス
  6
DOT
 10
21.70307
 20
-58.47628
 11
22.436403
 21
-58.47628
  0
LINE
  8
ボルト／ビス
  6
DOT
 10
22.436403
 20
-58.47628
 11
22.436403
 21
-58.542945
  0
LINE
  8
ボルト／ビス
  6
DOT
 10
21.70307
 20
-58.542945
 11
22.436403
 21
-58.542945
  0
LINE
  8
ボルト／ビス
  6
DOT
 10
21.769735
 20
-58.442945
 11
21.769735
 21
-58.47628
  0
LINE
  8
ボルト／ビス
  6
DOT
 10
21.769735
 20
-58.442945
 11
22.369735
 21
-58.442945
  0
LINE
  8
ボルト／ビス
  6
DOT
 10
22.369735
 20
-58.442945
 11
22.369735
 21
-58.47628
  0
LINE
  8
ボルト／ビス
  6
DOT
 62
    64
 10
21.90936
 20
-58.242945
 11
21.877285
 21
-58.25462
  0
ARC
  8
ボルト／ビス
  6
DOT
 62
    64
 10
21.925399
 20
-58.347922
 40
0.104978
 50
62.721967
 51
90.0
  0
ARC
  8
ボルト／ビス
  6
DOT
 62
    64
 10
22.069737
 20
-58.645346
 40
0.402402
 50
76.165002
 51
103.834985
  0
LINE
  8
ボルト／ビス
  6
DOT
 62
    64
 10
22.23011
 20
-58.242945
 11
22.262185
 21
-58.25462
  0
ARC
  8
ボルト／ビス
  6
DOT
 62
    64
 10
22.214074
 20
-58.347922
 40
0.104978
 50
90.0
 51
117.278033
  0
LINE
  8
ボルト／ビス
  6
DOT
 62
    64
 10
21.90936
 20
-58.242945
 11
22.23011
 21
-58.242945
  0
LINE
  8
ボルト／ビス
  6
DOT
 62
    64
 10
22.262185
 20
-58.25462
 11
22.262185
 21
-58.37628
  0
LINE
  8
ボルト／ビス
  6
DOT
 62
    64
 10
22.16596
 20
-58.25462
 11
22.16596
 21
-58.37628
  0
LINE
  8
ボルト／ビス
  6
DOT
 62
    64
 10
21.877285
 20
-58.25462
 11
21.877285
 21
-58.37628
  0
LINE
  8
ボルト／ビス
  6
DOT
 62
    64
 10
21.97351
 20
-58.25462
 11
21.97351
 21
-58.37628
  0
LINE
  8
ボルト／ビス
  6
DOT
 10
21.877285
 20
-58.37628
 11
22.262185
 21
-58.37628
  0
LINE
  8
ボルト／ビス
  6
DOT
 10
21.869735
 20
-58.37628
 11
21.869735
 21
-58.442945
  0
LINE
  8
ボルト／ビス
  6
DOT
 10
21.869735
 20
-58.37628
 11
22.269735
 21
-58.37628
  0
LINE
  8
ボルト／ビス
  6
DOT
 10
22.269735
 20
-58.37628
 11
22.269735
 21
-58.442945
  0
ENDBLK
  0
BLOCK
  2
*GRP_0031
 70
    65
 10
0.0
 20
0.0
  0
LINE
  8
ボルト／ビス
  6
CONTINUOUS
 10
-79.2636
 20
-70.209613
 11
-79.2636
 21
-69.742947
  0
LINE
  8
ボルト／ビス
  6
CONTINUOUS
 10
-79.630265
 20
-70.209613
 11
-79.630265
 21
-70.142947
  0
LINE
  8
ボルト／ビス
  6
CONTINUOUS
 10
-79.630265
 20
-70.142947
 11
-78.896933
 21
-70.142947
  0
LINE
  8
ボルト／ビス
  6
CONTINUOUS
 10
-78.896933
 20
-70.142947
 11
-78.896933
 21
-70.209613
  0
LINE
  8
ボルト／ビス
  6
CONTINUOUS
 10
-79.630265
 20
-70.209613
 11
-78.896933
 21
-70.209613
  0
LINE
  8
ボルト／ビス
  6
CONTINUOUS
 10
-79.5636
 20
-70.109612
 11
-79.5636
 21
-70.142947
  0
LINE
  8
ボルト／ビス
  6
CONTINUOUS
 10
-79.5636
 20
-70.109612
 11
-78.9636
 21
-70.109612
  0
LINE
  8
ボルト／ビス
  6
CONTINUOUS
 10
-78.9636
 20
-70.109612
 11
-78.9636
 21
-70.142947
  0
LINE
  8
ボルト／ビス
  6
CONTINUOUS
 62
    64
 10
-79.423975
 20
-69.909613
 11
-79.45605
 21
-69.921288
  0
ARC
  8
ボルト／ビス
  6
CONTINUOUS
 62
    64
 10
-79.407937
 20
-70.01459
 40
0.104978
 50
62.721967
 51
90.0
  0
ARC
  8
ボルト／ビス
  6
CONTINUOUS
 62
    64
 10
-79.263599
 20
-70.312014
 40
0.402402
 50
76.165002
 51
103.834985
  0
LINE
  8
ボルト／ビス
  6
CONTINUOUS
 62
    64
 10
-79.103225
 20
-69.909613
 11
-79.07115
 21
-69.921288
  0
ARC
  8
ボルト／ビス
  6
CONTINUOUS
 62
    64
 10
-79.119262
 20
-70.01459
 40
0.104978
 50
90.0
 51
117.278033
  0
LINE
  8
ボルト／ビス
  6
CONTINUOUS
 62
    64
 10
-79.423975
 20
-69.909613
 11
-79.103225
 21
-69.909613
  0
LINE
  8
ボルト／ビス
  6
CONTINUOUS
 62
    64
 10
-79.07115
 20
-69.921288
 11
-79.07115
 21
-70.042947
  0
LINE
  8
ボルト／ビス
  6
CONTINUOUS
 62
    64
 10
-79.167375
 20
-69.921288
 11
-79.167375
 21
-70.042947
  0
LINE
  8
ボルト／ビス
  6
CONTINUOUS
 62
    64
 10
-79.45605
 20
-69.921288
 11
-79.45605
 21
-70.042947
  0
LINE
  8
ボルト／ビス
  6
CONTINUOUS
 62
    64
 10
-79.359825
 20
-69.921288
 11
-79.359825
 21
-70.042947
  0
LINE
  8
ボルト／ビス
  6
CONTINUOUS
 10
-79.45605
 20
-70.042947
 11
-79.07115
 21
-70.042947
  0
LINE
  8
ボルト／ビス
  6
CONTINUOUS
 10
-79.4636
 20
-70.042947
 11
-79.4636
 21
-70.109612
  0
LINE
  8
ボルト／ビス
  6
CONTINUOUS
 10
-79.4636
 20
-70.042947
 11
-79.0636
 21
-70.042947
  0
LINE
  8
ボルト／ビス
  6
CONTINUOUS
 10
-79.0636
 20
-70.042947
 11
-79.0636
 21
-70.109612
  0
ENDBLK
  0
BLOCK
  2
*GRP_0032
 70
    65
 10
0.0
 20
0.0
  0
LINE
  8
ボルト／ビス
  6
DOT
 10
-79.2636
 20
-58.542945
 11
-79.2636
 21
-58.07628
  0
LINE
  8
ボルト／ビス
  6
DOT
 10
-79.630265
 20
-58.542945
 11
-79.630265
 21
-58.47628
  0
LINE
  8
ボルト／ビス
  6
DOT
 10
-79.630265
 20
-58.47628
 11
-78.896933
 21
-58.47628
  0
LINE
  8
ボルト／ビス
  6
DOT
 10
-78.896933
 20
-58.47628
 11
-78.896933
 21
-58.542945
  0
LINE
  8
ボルト／ビス
  6
DOT
 10
-79.630265
 20
-58.542945
 11
-78.896933
 21
-58.542945
  0
LINE
  8
ボルト／ビス
  6
DOT
 10
-79.5636
 20
-58.442945
 11
-79.5636
 21
-58.47628
  0
LINE
  8
ボルト／ビス
  6
DOT
 10
-79.5636
 20
-58.442945
 11
-78.9636
 21
-58.442945
  0
LINE
  8
ボルト／ビス
  6
DOT
 10
-78.9636
 20
-58.442945
 11
-78.9636
 21
-58.47628
  0
LINE
  8
ボルト／ビス
  6
DOT
 62
    64
 10
-79.423975
 20
-58.242945
 11
-79.45605
 21
-58.25462
  0
ARC
  8
ボルト／ビス
  6
DOT
 62
    64
 10
-79.407937
 20
-58.347922
 40
0.104978
 50
62.721967
 51
90.0
  0
ARC
  8
ボルト／ビス
  6
DOT
 62
    64
 10
-79.263599
 20
-58.645346
 40
0.402402
 50
76.165002
 51
103.834985
  0
LINE
  8
ボルト／ビス
  6
DOT
 62
    64
 10
-79.103225
 20
-58.242945
 11
-79.07115
 21
-58.25462
  0
ARC
  8
ボルト／ビス
  6
DOT
 62
    64
 10
-79.119262
 20
-58.347922
 40
0.104978
 50
90.0
 51
117.278033
  0
LINE
  8
ボルト／ビス
  6
DOT
 62
    64
 10
-79.423975
 20
-58.242945
 11
-79.103225
 21
-58.242945
  0
LINE
  8
ボルト／ビス
  6
DOT
 62
    64
 10
-79.07115
 20
-58.25462
 11
-79.07115
 21
-58.37628
  0
LINE
  8
ボルト／ビス
  6
DOT
 62
    64
 10
-79.167375
 20
-58.25462
 11
-79.167375
 21
-58.37628
  0
LINE
  8
ボルト／ビス
  6
DOT
 62
    64
 10
-79.45605
 20
-58.25462
 11
-79.45605
 21
-58.37628
  0
LINE
  8
ボルト／ビス
  6
DOT
 62
    64
 10
-79.359825
 20
-58.25462
 11
-79.359825
 21
-58.37628
  0
LINE
  8
ボルト／ビス
  6
DOT
 10
-79.45605
 20
-58.37628
 11
-79.07115
 21
-58.37628
  0
LINE
  8
ボルト／ビス
  6
DOT
 10
-79.4636
 20
-58.37628
 11
-79.4636
 21
-58.442945
  0
LINE
  8
ボルト／ビス
  6
DOT
 10
-79.4636
 20
-58.37628
 11
-79.0636
 21
-58.37628
  0
LINE
  8
ボルト／ビス
  6
DOT
 10
-79.0636
 20
-58.37628
 11
-79.0636
 21
-58.442945
  0
ENDBLK
  0
ENDSEC
  0
SECTION
  2
ENTITIES
  0
POLYLINE
  8
通り芯
  6
CONTINUOUS
 66
     1
 70
     1
  0
VERTEX
  8
通り芯
 10
-210.0
 20
-148.5
  0
VERTEX
  8
通り芯
 10
210.0
 20
-148.5
  0
VERTEX
  8
通り芯
 10
210.0
 20
148.5
  0
VERTEX
  8
通り芯
 10
-210.0
 20
148.5
  0
SEQEND
  0
INSERT
  2
*GRP_0001
  8
型材断面
  6
CONTINUOUS
 10
0.0
 20
0.0
  0
LINE
  8
型材断面
  6
DASHDOT
 10
21.403067
 20
-77.836442
 11
21.403067
 21
52.814033
  0
LINE
  8
型材断面
  6
DASHDOT
 10
-28.596933
 20
-77.836442
 11
-28.596933
 21
52.814033
  0
LINE
  8
型材断面
  6
DASHDOT
 10
-78.596933
 20
-77.836442
 11
-78.596933
 21
52.814033
  0
LINE
  8
型材断面
  6
DASHDOT
 10
119.07983
 20
52.814033
 11
-78.596933
 21
52.814033
  0
LINE
  8
型材断面
  6
DASHDOT
 10
119.07983
 20
37.814033
 11
-78.596933
 21
37.814033
  0
LINE
  8
型材断面
  6
DASHDOT
 10
119.07983
 20
22.814033
 11
-78.596933
 21
22.814033
  0
POLYLINE
  8
型材断面
  6
CONTINUOUS
 66
     1
 70
     1
  0
VERTEX
  8
型材断面
 10
-19.131995
 20
13.03811
  0
VERTEX
  8
型材断面
 10
-37.903925
 20
13.03811
  0
VERTEX
  8
型材断面
 10
-37.903925
 20
8.301267
  0
VERTEX
  8
型材断面
 10
-19.131995
 20
8.301267
  0
SEQEND
  0
POLYLINE
  8
型材断面
  6
CONTINUOUS
 66
     1
 70
     1
  0
VERTEX
  8
型材断面
 10
-19.131995
 20
62.589955
  0
VERTEX
  8
型材断面
 10
-37.903925
 20
62.589955
  0
VERTEX
  8
型材断面
 10
-37.903925
 20
67.326798
  0
VERTEX
  8
型材断面
 10
-19.131995
 20
67.326798
  0
SEQEND
  0
LINE
  8
型材断面
  6
CONTINUOUS
 10
-61.930265
 20
55.444162
 11
-63.425895
 21
58.03467
  0
LINE
  8
型材断面
  6
CONTINUOUS
 10
-61.930265
 20
55.444162
 11
-60.434635
 21
58.03467
  0
LINE
  8
型材断面
  6
CONTINUOUS
 10
-60.434635
 20
58.03467
 11
-63.425895
 21
58.03467
  0
LINE
  8
型材断面
  6
CONTINUOUS
 10
-81.227063
 20
37.814033
 11
-83.81757
 21
39.309663
  0
LINE
  8
型材断面
  6
CONTINUOUS
 10
-81.227063
 20
37.814033
 11
-83.81757
 21
36.318403
  0
LINE
  8
型材断面
  6
CONTINUOUS
 10
-83.81757
 20
36.318403
 11
-83.81757
 21
39.309663
  0
LINE
  8
型材断面
  6
CONTINUOUS
 10
-61.930265
 20
20.183902
 11
-63.425895
 21
17.593395
  0
LINE
  8
型材断面
  6
CONTINUOUS
 10
-61.930265
 20
20.183902
 11
-60.434635
 21
17.593395
  0
LINE
  8
型材断面
  6
CONTINUOUS
 10
-60.434635
 20
17.593395
 11
-63.425895
 21
17.593395
  0
LINE
  8
型材断面
  6
CONTINUOUS
 10
-132.475455
 20
90.791505
 11
-131.8794
 21
88.200998
  0
LINE
  8
型材断面
  6
CONTINUOUS
 10
-132.475455
 20
90.791505
 11
-133.071512
 21
88.200998
  0
LINE
  8
型材断面
  6
CONTINUOUS
 10
-133.071512
 20
88.200998
 11
-131.8794
 21
88.200998
  0
LINE
  8
型材断面
  6
CONTINUOUS
 10
-138.498042
 20
84.922105
 11
-92.256265
 21
84.922105
  0
LINE
  8
型材断面
  6
CONTINUOUS
 10
-132.475455
 20
97.32138
 11
-133.971085
 21
94.730873
  0
LINE
  8
型材断面
  6
CONTINUOUS
 10
-132.475455
 20
97.32138
 11
-130.979825
 21
94.730873
  0
LINE
  8
型材断面
  6
CONTINUOUS
 10
-130.979825
 20
94.730873
 11
-133.971085
 21
94.730873
  0
LINE
  8
型材断面
  6
CONTINUOUS
 10
-138.498042
 20
93.792277
 11
-92.256265
 21
93.792277
  0
LINE
  8
型材断面
  6
CONTINUOUS
 10
-138.498042
 20
79.134073
 11
-92.256265
 21
79.134073
  0
LINE
  8
型材断面
  6
CONTINUOUS
 10
4.7364
 20
55.444162
 11
6.23203
 21
58.03467
  0
LINE
  8
型材断面
  6
CONTINUOUS
 10
4.7364
 20
55.444162
 11
3.24077
 21
58.03467
  0
LINE
  8
型材断面
  6
CONTINUOUS
 10
3.24077
 20
58.03467
 11
6.23203
 21
58.03467
  0
LINE
  8
型材断面
  6
CONTINUOUS
 10
4.7364
 20
20.183902
 11
6.23203
 21
17.593395
  0
LINE
  8
型材断面
  6
CONTINUOUS
 10
4.7364
 20
20.183902
 11
3.24077
 21
17.593395
  0
LINE
  8
型材断面
  6
CONTINUOUS
 10
3.24077
 20
17.593395
 11
6.23203
 21
17.593395
  0
LINE
  8
型材断面
  6
DASHDOT
 10
112.132033
 20
22.81403
 11
118.152097
 21
22.81403
  0
LINE
  8
型材断面
  6
CONTINUOUS
 62
    47
 10
114.415365
 20
21.417365
 11
114.415365
 21
22.197365
  0
LINE
  8
型材断面
  6
CONTINUOUS
 10
112.582033
 20
21.317365
 11
112.132033
 21
21.317365
  0
LINE
  8
型材断面
  6
CONTINUOUS
 62
    47
 10
115.254725
 20
20.53403
 11
114.92139
 21
20.53403
  0
LINE
  8
型材断面
  6
CONTINUOUS
 62
    47
 10
114.92139
 20
20.53403
 11
114.82139
 21
21.317365
  0
LINE
  8
型材断面
  6
CONTINUOUS
 62
    47
 10
114.415365
 20
21.317365
 11
114.82139
 21
21.317365
  0
LINE
  8
型材断面
  6
CONTINUOUS
 62
    47
 10
114.415365
 20
20.847365
 11
112.582033
 21
20.847365
  0
LINE
  8
型材断面
  6
CONTINUOUS
 62
    47
 10
118.382033
 20
21.41403
 11
117.882033
 21
21.41403
  0
LINE
  8
型材断面
  6
CONTINUOUS
 62
    47
 10
117.882033
 20
20.847365
 11
115.254725
 21
20.847365
  0
LINE
  8
型材断面
  6
CONTINUOUS
 62
    47
 10
117.882033
 20
20.847365
 11
117.882033
 21
37.814033
  0
LINE
  8
型材断面
  6
CONTINUOUS
 62
    47
 10
118.382033
 20
21.41403
 11
118.382033
 21
37.814033
  0
LINE
  8
型材断面
  6
CONTINUOUS
 62
    47
 10
114.415365
 20
20.847365
 11
114.415365
 21
37.814033
  0
LINE
  8
型材断面
  6
CONTINUOUS
 10
114.82139
 20
21.317365
 11
114.82139
 21
37.814033
  0
LINE
  8
型材断面
  6
CONTINUOUS
 10
114.92139
 20
20.53403
 11
114.92139
 21
37.814033
  0
LINE
  8
型材断面
  6
CONTINUOUS
 62
    47
 10
115.254725
 20
20.53403
 11
115.254725
 21
37.814033
  0
LINE
  8
型材断面
  6
CONTINUOUS
 10
112.582033
 20
20.847365
 11
112.582033
 21
37.814033
  0
LINE
  8
型材断面
  6
DASHDOT
 10
112.132033
 20
52.814035
 11
118.152097
 21
52.814035
  0
LINE
  8
型材断面
  6
CONTINUOUS
 62
    47
 10
114.415365
 20
54.2107
 11
114.415365
 21
53.4307
  0
LINE
  8
型材断面
  6
CONTINUOUS
 10
112.582033
 20
54.3107
 11
112.132033
 21
54.3107
  0
LINE
  8
型材断面
  6
CONTINUOUS
 62
    47
 10
115.254725
 20
55.094035
 11
114.92139
 21
55.094035
  0
LINE
  8
型材断面
  6
CONTINUOUS
 62
    47
 10
114.92139
 20
55.094035
 11
114.82139
 21
54.3107
  0
LINE
  8
型材断面
  6
CONTINUOUS
 62
    47
 10
114.415365
 20
54.3107
 11
114.82139
 21
54.3107
  0
LINE
  8
型材断面
  6
CONTINUOUS
 62
    47
 10
114.415365
 20
54.7807
 11
112.582033
 21
54.7807
  0
LINE
  8
型材断面
  6
CONTINUOUS
 62
    47
 10
118.382033
 20
54.214035
 11
117.882033
 21
54.214035
  0
LINE
  8
型材断面
  6
CONTINUOUS
 62
    47
 10
117.882033
 20
54.7807
 11
115.254725
 21
54.7807
  0
LINE
  8
型材断面
  6
CONTINUOUS
 62
    47
 10
117.882033
 20
54.7807
 11
117.882033
 21
37.814033
  0
LINE
  8
型材断面
  6
CONTINUOUS
 62
    47
 10
118.382033
 20
54.214035
 11
118.382033
 21
37.814033
  0
LINE
  8
型材断面
  6
CONTINUOUS
 62
    47
 10
114.415365
 20
54.7807
 11
114.415365
 21
37.814033
  0
LINE
  8
型材断面
  6
CONTINUOUS
 10
114.82139
 20
54.3107
 11
114.82139
 21
37.814033
  0
LINE
  8
型材断面
  6
CONTINUOUS
 10
114.92139
 20
55.094035
 11
114.92139
 21
37.814033
  0
LINE
  8
型材断面
  6
CONTINUOUS
 62
    47
 10
115.254725
 20
55.094035
 11
115.254725
 21
37.814033
  0
LINE
  8
型材断面
  6
CONTINUOUS
 10
112.582033
 20
54.7807
 11
112.582033
 21
37.814033
  0
LINE
  8
型材断面
  6
DASHDOT
 10
-78.596935
 20
-71.242897
 11
-78.596935
 21
-77.262962
  0
LINE
  8
型材断面
  6
CONTINUOUS
 62
    47
 10
-79.9936
 20
-73.52623
 11
-79.2136
 21
-73.52623
  0
LINE
  8
型材断面
  6
CONTINUOUS
 10
-80.0936
 20
-71.692897
 11
-80.0936
 21
-71.242897
  0
LINE
  8
型材断面
  6
CONTINUOUS
 62
    47
 10
-80.876935
 20
-74.36559
 11
-80.876935
 21
-74.032255
  0
LINE
  8
型材断面
  6
CONTINUOUS
 62
    47
 10
-80.876935
 20
-74.032255
 11
-80.0936
 21
-73.932255
  0
LINE
  8
型材断面
  6
CONTINUOUS
 62
    47
 10
-80.0936
 20
-73.52623
 11
-80.0936
 21
-73.932255
  0
LINE
  8
型材断面
  6
CONTINUOUS
 62
    47
 10
-80.5636
 20
-73.52623
 11
-80.5636
 21
-71.692897
  0
LINE
  8
型材断面
  6
CONTINUOUS
 62
    47
 10
-79.996935
 20
-77.492897
 11
-79.996935
 21
-76.992897
  0
LINE
  8
型材断面
  6
CONTINUOUS
 62
    47
 10
-80.5636
 20
-76.992897
 11
-80.5636
 21
-74.36559
  0
LINE
  8
型材断面
  6
CONTINUOUS
 10
-80.5636
 20
-71.692897
 11
-28.596933
 21
-71.692897
  0
LINE
  8
型材断面
  6
CONTINUOUS
 10
-80.876935
 20
-74.032255
 11
-28.596933
 21
-74.032255
  0
LINE
  8
型材断面
  6
CONTINUOUS
 62
    47
 10
-80.5636
 20
-73.52623
 11
-28.596933
 21
-73.52623
  0
LINE
  8
型材断面
  6
CONTINUOUS
 10
-80.0936
 20
-73.932255
 11
-28.596933
 21
-73.932255
  0
LINE
  8
型材断面
  6
CONTINUOUS
 62
    47
 10
-80.876935
 20
-74.36559
 11
-28.596933
 21
-74.36559
  0
LINE
  8
型材断面
  6
CONTINUOUS
 62
    47
 10
-80.5636
 20
-76.992897
 11
-28.596933
 21
-76.992897
  0
LINE
  8
型材断面
  6
CONTINUOUS
 62
    47
 10
-79.996935
 20
-77.492897
 11
-28.596933
 21
-77.492897
  0
LINE
  8
型材断面
  6
DASHDOT
 10
21.40307
 20
-71.242897
 11
21.40307
 21
-77.262962
  0
LINE
  8
型材断面
  6
CONTINUOUS
 62
    47
 10
22.799735
 20
-73.52623
 11
22.019735
 21
-73.52623
  0
LINE
  8
型材断面
  6
CONTINUOUS
 10
22.899735
 20
-71.692897
 11
22.899735
 21
-71.242897
  0
LINE
  8
型材断面
  6
CONTINUOUS
 62
    47
 10
23.68307
 20
-74.36559
 11
23.68307
 21
-74.032255
  0
LINE
  8
型材断面
  6
CONTINUOUS
 62
    47
 10
23.68307
 20
-74.032255
 11
22.899735
 21
-73.932255
  0
LINE
  8
型材断面
  6
CONTINUOUS
 62
    47
 10
22.899735
 20
-73.52623
 11
22.899735
 21
-73.932255
  0
LINE
  8
型材断面
  6
CONTINUOUS
 62
    47
 10
23.369735
 20
-73.52623
 11
23.369735
 21
-71.692897
  0
LINE
  8
型材断面
  6
CONTINUOUS
 62
    47
 10
22.80307
 20
-77.492897
 11
22.80307
 21
-76.992897
  0
LINE
  8
型材断面
  6
CONTINUOUS
 62
    47
 10
23.369735
 20
-76.992897
 11
23.369735
 21
-74.36559
  0
LINE
  8
型材断面
  6
CONTINUOUS
 10
23.369735
 20
-71.692897
 11
-28.596933
 21
-71.692897
  0
LINE
  8
型材断面
  6
CONTINUOUS
 10
23.68307
 20
-74.032255
 11
-28.596933
 21
-74.032255
  0
LINE
  8
型材断面
  6
CONTINUOUS
 62
    47
 10
23.369735
 20
-73.52623
 11
-28.596933
 21
-73.52623
  0
LINE
  8
型材断面
  6
CONTINUOUS
 10
22.899735
 20
-73.932255
 11
-28.596933
 21
-73.932255
  0
LINE
  8
型材断面
  6
CONTINUOUS
 62
    47
 10
23.68307
 20
-74.36559
 11
-28.596933
 21
-74.36559
  0
LINE
  8
型材断面
  6
CONTINUOUS
 62
    47
 10
23.369735
 20
-76.992897
 11
-28.596933
 21
-76.992897
  0
LINE
  8
型材断面
  6
CONTINUOUS
 62
    47
 10
22.80307
 20
-77.492897
 11
-28.596933
 21
-77.492897
  0
LINE
  8
型材断面
  6
DOT
 62
    47
 10
-79.9936
 20
-61.859562
 11
-79.2136
 21
-61.859562
  0
LINE
  8
型材断面
  6
DOT
 10
-80.0936
 20
-60.02623
 11
-80.0936
 21
-59.57623
  0
LINE
  8
型材断面
  6
DOT
 62
    47
 10
-80.876935
 20
-62.698923
 11
-80.876935
 21
-62.365588
  0
LINE
  8
型材断面
  6
DOT
 62
    47
 10
-80.876935
 20
-62.365588
 11
-80.0936
 21
-62.265588
  0
LINE
  8
型材断面
  6
DOT
 62
    47
 10
-80.0936
 20
-61.859562
 11
-80.0936
 21
-62.265588
  0
LINE
  8
型材断面
  6
DOT
 62
    47
 10
-80.5636
 20
-61.859562
 11
-80.5636
 21
-60.02623
  0
LINE
  8
型材断面
  6
DOT
 10
-80.5636
 20
-60.02623
 11
-28.596933
 21
-60.02623
  0
LINE
  8
型材断面
  6
DOT
 10
-80.876935
 20
-62.365588
 11
-28.596933
 21
-62.365588
  0
LINE
  8
型材断面
  6
DOT
 62
    47
 10
-80.5636
 20
-61.859562
 11
-28.596933
 21
-61.859562
  0
LINE
  8
型材断面
  6
DOT
 10
-80.0936
 20
-62.265588
 11
-28.596933
 21
-62.265588
  0
LINE
  8
型材断面
  6
DOT
 62
    47
 10
-80.876935
 20
-62.698923
 11
-28.596933
 21
-62.698923
  0
LINE
  8
型材断面
  6
DOT
 62
    47
 10
22.799735
 20
-61.859562
 11
22.019735
 21
-61.859562
  0
LINE
  8
型材断面
  6
DOT
 10
22.899735
 20
-60.02623
 11
22.899735
 21
-59.57623
  0
LINE
  8
型材断面
  6
DOT
 62
    47
 10
23.68307
 20
-62.698923
 11
23.68307
 21
-62.365588
  0
LINE
  8
型材断面
  6
DOT
 62
    47
 10
23.68307
 20
-62.365588
 11
22.899735
 21
-62.265588
  0
LINE
  8
型材断面
  6
DOT
 62
    47
 10
22.899735
 20
-61.859562
 11
22.899735
 21
-62.265588
  0
LINE
  8
型材断面
  6
DOT
 62
    47
 10
23.369735
 20
-61.859562
 11
23.369735
 21
-60.02623
  0
LINE
  8
型材断面
  6
DOT
 10
23.369735
 20
-60.02623
 11
-28.596933
 21
-60.02623
  0
LINE
  8
型材断面
  6
DOT
 10
23.68307
 20
-62.365588
 11
-28.596933
 21
-62.365588
  0
LINE
  8
型材断面
  6
DOT
 62
    47
 10
23.369735
 20
-61.859562
 11
-28.596933
 21
-61.859562
  0
LINE
  8
型材断面
  6
DOT
 10
22.899735
 20
-62.265588
 11
-28.596933
 21
-62.265588
  0
LINE
  8
型材断面
  6
DOT
 62
    47
 10
23.68307
 20
-62.698923
 11
-28.596933
 21
-62.698923
  0
LINE
  8
型材断面
  6
CONTINUOUS
 10
23.68307
 20
37.814033
 11
23.68307
 21
20.53403
  0
LINE
  8
型材断面
  6
CONTINUOUS
 10
-28.596933
 20
20.534045
 11
23.68307
 21
20.53403
  0
LINE
  8
型材断面
  6
CONTINUOUS
 10
23.469735
 20
20.747365
 11
23.68307
 21
20.53403
  0
LINE
  8
型材断面
  6
CONTINUOUS
 10
23.68307
 20
37.814033
 11
23.68307
 21
55.094035
  0
LINE
  8
型材断面
  6
CONTINUOUS
 10
-28.596933
 20
55.09402
 11
23.68307
 21
55.094035
  0
LINE
  8
型材断面
  6
CONTINUOUS
 10
23.469735
 20
54.8807
 11
23.68307
 21
55.094035
  0
LINE
  8
型材断面
  6
CONTINUOUS
 10
-80.876935
 20
37.814033
 11
-80.876935
 21
55.094035
  0
LINE
  8
型材断面
  6
CONTINUOUS
 10
-28.596933
 20
55.09402
 11
-80.876935
 21
55.094035
  0
LINE
  8
型材断面
  6
CONTINUOUS
 10
-80.6636
 20
54.8807
 11
-80.876935
 21
55.094035
  0
LINE
  8
型材断面
  6
CONTINUOUS
 10
-80.876935
 20
37.814033
 11
-80.876935
 21
20.53403
  0
LINE
  8
型材断面
  6
CONTINUOUS
 10
-28.596933
 20
20.534045
 11
-80.876935
 21
20.53403
  0
LINE
  8
型材断面
  6
CONTINUOUS
 10
-80.6636
 20
20.747365
 11
-80.876935
 21
20.53403
  0
LINE
  8
型材断面
  6
DOT
 10
-44.126933
 20
22.814033
 11
-44.126933
 21
52.814033
  0
LINE
  8
型材断面
  6
DOT
 10
-46.626933
 20
22.814033
 11
-46.626933
 21
52.814033
  0
LINE
  8
型材断面
  6
DASHDOT
 10
-45.376933
 20
22.814033
 11
-45.376933
 21
52.814033
  0
LINE
  8
型材断面
  6
DOT
 10
-13.066932
 20
22.814033
 11
-13.066932
 21
52.814033
  0
LINE
  8
型材断面
  6
DOT
 10
-10.566932
 20
22.814033
 11
-10.566932
 21
52.814033
  0
LINE
  8
型材断面
  6
DASHDOT
 10
-11.816932
 20
22.814033
 11
-11.816932
 21
52.814033
  0
LINE
  8
型材断面
  6
CONTINUOUS
 10
24.033195
 20
48.914033
 11
26.623703
 21
48.317975
  0
LINE
  8
型材断面
  6
CONTINUOUS
 10
24.033195
 20
48.914033
 11
26.623703
 21
49.51009
  0
LINE
  8
型材断面
  6
CONTINUOUS
 10
26.623703
 20
49.51009
 11
26.623703
 21
48.317975
  0
LINE
  8
型材断面
  6
CONTINUOUS
 10
24.033195
 20
26.714033
 11
26.623703
 21
27.31009
  0
LINE
  8
型材断面
  6
CONTINUOUS
 10
24.033195
 20
26.714033
 11
26.623703
 21
26.117975
  0
LINE
  8
型材断面
  6
CONTINUOUS
 10
26.623703
 20
26.117975
 11
26.623703
 21
27.31009
  0
LINE
  8
型材断面
  6
CONTINUOUS
 10
-81.22706
 20
48.914033
 11
-83.817568
 21
48.317975
  0
LINE
  8
型材断面
  6
CONTINUOUS
 10
-81.22706
 20
48.914033
 11
-83.817568
 21
49.51009
  0
LINE
  8
型材断面
  6
CONTINUOUS
 10
-83.817568
 20
49.51009
 11
-83.817568
 21
48.317975
  0
LINE
  8
型材断面
  6
CONTINUOUS
 10
-81.22706
 20
26.714033
 11
-83.817568
 21
27.31009
  0
LINE
  8
型材断面
  6
CONTINUOUS
 10
-81.22706
 20
26.714033
 11
-83.817568
 21
26.117975
  0
LINE
  8
型材断面
  6
CONTINUOUS
 10
-83.817568
 20
26.117975
 11
-83.817568
 21
27.31009
  0
INSERT
  2
*GRP_0017
  8
型材断面
  6
CONTINUOUS
 10
0.0
 20
0.0
  0
INSERT
  2
*GRP_0018
  8
型材断面
  6
CONTINUOUS
 10
0.0
 20
0.0
  0
INSERT
  2
*GRP_0019
  8
型材断面
  6
CONTINUOUS
 10
0.0
 20
0.0
  0
INSERT
  2
*GRP_0020
  8
型材断面
  6
CONTINUOUS
 10
0.0
 20
0.0
  0
LINE
  8
型材断面
  6
CONTINUOUS
 10
-138.498042
 20
73.34604
 11
-92.256265
 21
73.34604
  0
LINE
  8
型材断面
  6
CONTINUOUS
 10
24.033197
 20
37.814033
 11
26.623705
 21
39.309663
  0
LINE
  8
型材断面
  6
CONTINUOUS
 10
24.033197
 20
37.814033
 11
26.623705
 21
36.318403
  0
LINE
  8
型材断面
  6
CONTINUOUS
 10
26.623705
 20
36.318403
 11
26.623705
 21
39.309663
  0
TEXT
  7
TextStyle03
  8
文字
  6
CONTINUOUS
 10
97.975
 20
-76.7
  1
網入り6.8t
 40
3.0
 72
     5
 11
114.6625
 21
-76.7
  0
TEXT
  7
TextStyle03
  8
文字
  6
CONTINUOUS
 10
104.65
 20
-81.375
  1
×３枚
 40
3.0
 72
     5
 11
114.4
 21
-81.375
  0
TEXT
  7
TextStyle03
  8
文字
  6
CONTINUOUS
 10
-36.8
 20
9.325
  1
可動装置側
 40
3.0
 72
     5
 11
-20.3
 21
9.325
  0
TEXT
  7
TextStyle03
  8
文字
  6
CONTINUOUS
 10
-36.8
 20
63.275
  1
可動装置側
 40
3.0
 72
     5
 11
-20.3
 21
63.275
  0
TEXT
  7
TextStyle03
  8
文字
  6
CONTINUOUS
 10
-129.675
 20
89.4
  1
はケーシング位置を示す
 40
3.0
 72
     5
 11
-92.925
 21
89.4
  0
TEXT
  7
TextStyle03
  8
文字
  6
CONTINUOUS
 10
-129.675
 20
86.025
  1
４ヶ所中1ヶ所に設定
 40
3.0
 72
     5
 11
-97.9875
 21
86.025
  0
TEXT
  7
TextStyle03
  8
文字
  6
CONTINUOUS
 10
-129.675
 20
94.925
  1
は排水穴位置を示す
 40
3.0
 72
     5
 11
-99.675
 21
94.925
  0
TEXT
  7
TextStyle03
  8
文字
  6
CONTINUOUS
 10
-99.575
 20
16.275
  1
アンカーピッチ
 40
3.0
 50
90.0
 72
     5
 11
-99.575
 21
39.525
  0
TEXT
  7
TextStyle03
  8
文字
  6
CONTINUOUS
 10
-68.625
 20
90.225
  1
アンカーピッチ
 40
3.0
 72
     5
 11
-45.375
 21
90.225
  0
TEXT
  7
TextStyle03
  8
文字
  6
CONTINUOUS
 10
-133.4
 20
80.05
  1
アンカー数量　１２ヶ所
 40
3.0
 72
     5
 11
-96.65
 21
80.05
  0
TEXT
  7
TextStyle03
  8
文字
  6
CONTINUOUS
 10
-133.45
 20
74.3
  1
アームユニット数　４ヶ所
 40
3.0
 72
     5
 11
-93.325
 21
74.3
  0
TEXT
  7
TextStyle03
  8
文字
  6
CONTINUOUS
 10
78.1
 20
125.25
  1
シリーズ：ＳＴＤＬ
 40
5.0
 72
     5
 11
128.1
 21
125.25
  0
TEXT
  7
TextStyle03
  8
文字
  6
CONTINUOUS
 10
78.1
 20
119.625
  1
　　　　　（上下可動）900×3000タイプ
 40
5.0
 72
     5
 11
181.5375
 21
119.625
  0
TEXT
  7
TextStyle03
  8
文字
  6
CONTINUOUS
 10
78.1
 20
114.0
  1
図面名　：外観姿図
 40
5.0
 72
     5
 11
128.1
 21
114.0
  0
TEXT
  7
TextStyle03
  8
文字
  6
CONTINUOUS
 10
78.1
 20
108.375
  1
　　　　　　
 40
5.0
 72
     5
 11
111.225
 21
108.375
  0
TEXT
  7
TextStyle03
  8
文字
  6
CONTINUOUS
 10
77.425
 20
103.975
  1
ＮＳコード：ＮＳＤＳＬ
 40
5.0
 72
     5
 11
138.675
 21
103.975
  0
INSERT
  2
*DIM_0002
  8
寸法
  6
CONTINUOUS
 10
0.0
 20
0.0
  0
INSERT
  2
*DIM_0003
  8
寸法
  6
CONTINUOUS
 10
0.0
 20
0.0
  0
INSERT
  2
*DIM_0004
  8
寸法
  6
CONTINUOUS
 10
0.0
 20
0.0
  0
INSERT
  2
*DIM_0005
  8
寸法
  6
CONTINUOUS
 10
0.0
 20
0.0
  0
INSERT
  2
*DIM_0006
  8
寸法
  6
CONTINUOUS
 10
0.0
 20
0.0
  0
INSERT
  2
*DIM_0007
  8
寸法
  6
CONTINUOUS
 10
0.0
 20
0.0
  0
INSERT
  2
*DIM_0008
  8
寸法
  6
CONTINUOUS
 10
0.0
 20
0.0
  0
INSERT
  2
*DIM_0009
  8
寸法
  6
CONTINUOUS
 10
0.0
 20
0.0
  0
INSERT
  2
*DIM_0010
  8
寸法
  6
CONTINUOUS
 10
0.0
 20
0.0
  0
INSERT
  2
*DIM_0011
  8
寸法
  6
CONTINUOUS
 10
0.0
 20
0.0
  0
INSERT
  2
*DIM_0012
  8
寸法
  6
CONTINUOUS
 10
0.0
 20
0.0
  0
INSERT
  2
*DIM_0013
  8
寸法
  6
CONTINUOUS
 10
0.0
 20
0.0
  0
INSERT
  2
*DIM_0014
  8
寸法
  6
CONTINUOUS
 10
0.0
 20
0.0
  0
INSERT
  2
*DIM_0015
  8
寸法
  6
CONTINUOUS
 10
0.0
 20
0.0
  0
INSERT
  2
*DIM_0021
  8
寸法
  6
CONTINUOUS
 10
0.0
 20
0.0
  0
INSERT
  2
*DIM_0022
  8
寸法
  6
CONTINUOUS
 10
0.0
 20
0.0
  0
INSERT
  2
*DIM_0023
  8
寸法
  6
CONTINUOUS
 10
0.0
 20
0.0
  0
INSERT
  2
*DIM_0024
  8
寸法
  6
CONTINUOUS
 10
0.0
 20
0.0
  0
INSERT
  2
*DIM_0025
  8
寸法
  6
CONTINUOUS
 10
0.0
 20
0.0
  0
INSERT
  2
*DIM_0026
  8
寸法
  6
CONTINUOUS
 10
0.0
 20
0.0
  0
LINE
  8
別途部材
  6
CONTINUOUS
 10
23.469735
 20
20.747365
 11
23.069735
 21
21.147365
  0
LINE
  8
別途部材
  6
CONTINUOUS
 10
21.403067
 20
22.814033
 11
13.343813
 21
30.87329
  0
LINE
  8
別途部材
  6
CONTINUOUS
 10
23.069735
 20
21.147365
 11
23.069735
 21
37.814033
  0
LINE
  8
別途部材
  6
CONTINUOUS
 10
23.469735
 20
20.747365
 11
23.469735
 21
37.814033
  0
LINE
  8
別途部材
  6
CONTINUOUS
 10
23.469735
 20
54.8807
 11
23.069735
 21
54.4807
  0
LINE
  8
別途部材
  6
CONTINUOUS
 10
21.403067
 20
52.814033
 11
13.343813
 21
44.754775
  0
LINE
  8
別途部材
  6
CONTINUOUS
 10
23.069735
 20
54.4807
 11
23.069735
 21
37.814033
  0
LINE
  8
別途部材
  6
CONTINUOUS
 10
23.469735
 20
54.8807
 11
23.469735
 21
37.814033
  0
LINE
  8
別途部材
  6
CONTINUOUS
 10
23.069735
 20
54.4807
 11
-28.596933
 21
54.4807
  0
LINE
  8
別途部材
  6
CONTINUOUS
 10
23.469735
 20
54.8807
 11
-28.596933
 21
54.8807
  0
LINE
  8
別途部材
  6
CONTINUOUS
 10
23.069735
 20
21.147365
 11
-28.596933
 21
21.147365
  0
LINE
  8
別途部材
  6
CONTINUOUS
 10
23.469735
 20
20.747365
 11
-28.596933
 21
20.747365
  0
LINE
  8
別途部材
  6
CONTINUOUS
 10
-80.6636
 20
20.747365
 11
-80.2636
 21
21.147365
  0
LINE
  8
別途部材
  6
CONTINUOUS
 10
-78.596933
 20
22.814033
 11
-70.537677
 21
30.87329
  0
LINE
  8
別途部材
  6
CONTINUOUS
 10
-80.2636
 20
21.147365
 11
-80.2636
 21
37.814033
  0
LINE
  8
別途部材
  6
CONTINUOUS
 10
-80.6636
 20
20.747365
 11
-80.6636
 21
37.814033
  0
LINE
  8
別途部材
  6
CONTINUOUS
 10
-80.6636
 20
54.8807
 11
-80.2636
 21
54.4807
  0
LINE
  8
別途部材
  6
CONTINUOUS
 10
-78.596933
 20
52.814033
 11
-70.537677
 21
44.754775
  0
LINE
  8
別途部材
  6
CONTINUOUS
 10
-80.2636
 20
54.4807
 11
-80.2636
 21
37.814033
  0
LINE
  8
別途部材
  6
CONTINUOUS
 10
-80.6636
 20
54.8807
 11
-80.6636
 21
37.814033
  0
LINE
  8
別途部材
  6
CONTINUOUS
 10
-80.2636
 20
54.4807
 11
-28.596933
 21
54.4807
  0
LINE
  8
別途部材
  6
CONTINUOUS
 10
-80.6636
 20
54.8807
 11
-28.596933
 21
54.8807
  0
LINE
  8
別途部材
  6
CONTINUOUS
 10
-80.2636
 20
21.147365
 11
-28.596933
 21
21.147365
  0
LINE
  8
別途部材
  6
CONTINUOUS
 10
-80.6636
 20
20.747365
 11
-28.596933
 21
20.747365
  0
LINE
  8
別途部材
  6
CONTINUOUS
 62
    96
 10
111.09875
 20
21.147365
 11
112.09875
 21
20.747365
  0
LINE
  8
別途部材
  6
CONTINUOUS
 62
    96
 10
111.09875
 20
21.147365
 11
111.09875
 21
37.814033
  0
LINE
  8
別途部材
  6
CONTINUOUS
 10
112.09875
 20
20.747365
 11
112.09875
 21
37.814033
  0
LINE
  8
別途部材
  6
CONTINUOUS
 62
    96
 10
111.09875
 20
54.4807
 11
112.09875
 21
54.8807
  0
LINE
  8
別途部材
  6
CONTINUOUS
 62
    96
 10
111.09875
 20
54.4807
 11
111.09875
 21
37.814033
  0
LINE
  8
別途部材
  6
CONTINUOUS
 10
112.09875
 20
54.8807
 11
112.09875
 21
37.814033
  0
ARC
  8
別途部材
  6
CONTINUOUS
 10
120.432082
 20
37.814033
 40
17.666667
 50
121.890796
 51
238.109204
  0
LINE
  8
別途部材
  6
DOT
 62
    96
 10
23.069735
 20
-58.542945
 11
23.469735
 21
-59.542945
  0
ARC
  8
別途部材
  6
DOT
 10
6.403065
 20
-67.876279
 40
17.666667
 50
31.890796
 51
90.0
  0
LINE
  8
別途部材
  6
DOT
 10
6.403067
 20
-50.209613
 11
-28.596933
 21
-50.209613
  0
LINE
  8
別途部材
  6
DOT
 62
    96
 10
23.069735
 20
-58.542945
 11
-28.596933
 21
-58.542945
  0
LINE
  8
別途部材
  6
DOT
 10
23.469735
 20
-59.542945
 11
-28.596933
 21
-59.542945
  0
LINE
  8
別途部材
  6
DOT
 62
    96
 10
-80.2636
 20
-58.542945
 11
-80.6636
 21
-59.542945
  0
ARC
  8
別途部材
  6
DOT
 10
-63.596931
 20
-67.876279
 40
17.666667
 50
90.0
 51
148.109204
  0
LINE
  8
別途部材
  6
DOT
 10
-63.596933
 20
-50.209613
 11
-28.596933
 21
-50.209613
  0
LINE
  8
別途部材
  6
DOT
 62
    96
 10
-80.2636
 20
-58.542945
 11
-28.596933
 21
-58.542945
  0
LINE
  8
別途部材
  6
DOT
 10
-80.6636
 20
-59.542945
 11
-28.596933
 21
-59.542945
  0
INSERT
  2
*GRP_0016
  8
別途部材
  6
CONTINUOUS
 10
0.0
 20
0.0
  0
INSERT
  2
*GRP_0027
  8
別途部材
  6
DOT
 10
0.0
 20
0.0
  0
INSERT
  2
*GRP_0028
  8
別途部材
  6
DOT
 10
0.0
 20
0.0
  0
INSERT
  2
*GRP_0029
  8
別途部材
  6
DOT
 10
0.0
 20
0.0
  0
INSERT
  2
*GRP_0030
  8
別途部材
  6
DOT
 10
0.0
 20
0.0
  0
INSERT
  2
*GRP_0031
  8
別途部材
  6
DOT
 10
0.0
 20
0.0
  0
INSERT
  2
*GRP_0032
  8
別途部材
  6
DOT
 10
0.0
 20
0.0
  0
LINE
  8
曲げ物
  6
CONTINUOUS
 10
116.309622
 20
-53.785395
 11
116.309622
 21
-83.118728
  0
LINE
  8
曲げ物
  6
CONTINUOUS
 10
84.09629
 20
-83.118728
 11
84.09629
 21
-53.785395
  0
LINE
  8
曲げ物
  6
CONTINUOUS
 10
116.309622
 20
-53.785395
 11
84.09629
 21
-53.785395
  0
LINE
  8
曲げ物
  6
CONTINUOUS
 10
116.309622
 20
-83.118728
 11
84.09629
 21
-83.118728
  0
ENDSEC
  0
EOF
