  0
SECTION
  2
HEADER
  9
$EXTMIN
 10
-210.0
 20
-148.5
  9
$EXTMAX
 10
210.0
 20
148.5
  9
$PDMODE
 70
    32
  9
$PDSIZE
 40
1.5
  9
$LTSCALE
 40
10.0
  0
ENDSEC
  0
SECTION
  2
TABLES
  0
TABLE
  2
LTYPE
 70
    15
  0
LTYPE
  2
CONTINUOUS
 70
    64
  3
実線
 72
    65
 73
     0
 40
0.0
  0
LTYPE
  2
DASHED
 70
    64
  3
破線A
 72
    65
 73
     2
 40
0.6
 49
0.4
 49
-0.2
  0
LTYPE
  2
DASHEDX2
 70
    64
  3
破線B
 72
    65
 73
     2
 40
1.3
 49
0.9
 49
-0.4
  0
LTYPE
  2
DASHDOT
 70
    64
  3
１点鎖線A
 72
    65
 73
     4
 40
0.5375
 49
0.375
 49
-0.05
 49
0.0625
 49
-0.05
  0
LTYPE
  2
DASHDOTX2
 70
    64
  3
１点鎖線B
 72
    65
 73
     4
 40
1.075
 49
0.75
 49
-0.1
 49
0.125
 49
-0.1
  0
LTYPE
  2
DIVIDE2
 70
    64
  3
２点鎖線A
 72
    65
 73
     6
 40
0.5125
 49
0.3
 49
-0.0375
 49
0.05
 49
-0.0375
 49
0.05
 49
-0.0375
  0
LTYPE
  2
DIVIDE
 70
    64
  3
２点鎖線B
 72
    65
 73
     6
 40
1.05
 49
0.55
 49
-0.1
 49
0.1
 49
-0.1
 49
0.1
 49
-0.1
  0
LTYPE
  2
DOT
 70
    64
  3
点線A
 72
    65
 73
     2
 40
0.1125
 49
0.0625
 49
-0.05
  0
LTYPE
  2
DOTX2
 70
    64
  3
点線B
 72
    65
 73
     2
 40
0.275
 49
0.15
 49
-0.125
  0
LTYPE
  2
CONTINUOUS
 70
    64
  3
実線
 72
    65
 73
     0
 40
0.0
  0
LTYPE
  2
CONTINUOUS
 70
    64
  3
実線
 72
    65
 73
     0
 40
0.0
  0
LTYPE
  2
CONTINUOUS
 70
    64
  3
実線
 72
    65
 73
     0
 40
0.0
  0
LTYPE
  2
CONTINUOUS
 70
    64
  3
実線
 72
    65
 73
     0
 40
0.0
  0
LTYPE
  2
CONTINUOUS
 70
    64
  3
実線
 72
    65
 73
     0
 40
0.0
  0
LTYPE
  2
CONTINUOUS
 70
    64
  3
実線
 72
    65
 73
     0
 40
0.0
  0
ENDTAB
  0
TABLE
  2
LAYER
 70
    34
  0
LAYER
  2
通り芯
 70
     0
 62
    15
  6
CONTINUOUS
  0
LAYER
  2
補助線
 70
     0
 62
    16
  6
DOT
  0
LAYER
  2
躯体
 70
     0
 62
    31
  6
CONTINUOUS
  0
LAYER
  2
型材
 70
     0
 62
    32
  6
CONTINUOUS
  0
LAYER
  2
型材断面
 70
     0
 62
    47
  6
CONTINUOUS
  0
LAYER
  2
ガラス
 70
     0
 62
    48
  6
CONTINUOUS
  0
LAYER
  2
ゴム等
 70
     0
 62
    63
  6
CONTINUOUS
  0
LAYER
  2
ボルト／ビス
 70
     0
 62
    64
  6
CONTINUOUS
  0
LAYER
  2
文字
 70
     0
 62
    79
  6
CONTINUOUS
  0
LAYER
  2
寸法
 70
     0
 62
    80
  6
CONTINUOUS
  0
LAYER
  2
ﾊｯﾁﾝｸﾞ
 70
     0
 62
    95
  6
CONTINUOUS
  0
LAYER
  2
別途部材
 70
     0
 62
    96
  6
CONTINUOUS
  0
LAYER
  2
曲げ物
 70
     0
 62
   111
  6
CONTINUOUS
  0
LAYER
  2
鉄骨等
 70
     0
 62
   112
  6
CONTINUOUS
  0
LAYER
  2
St
 70
     0
 62
   127
  6
CONTINUOUS
  0
LAYER
  2
その他部品等
 70
     0
 62
   128
  6
CONTINUOUS
  0
LAYER
  2
ｶﾞｽｹｯﾄ
 70
     0
 62
   143
  6
CONTINUOUS
  0
LAYER
  2
ｽｹｯﾁ
 70
     0
 62
    14
  6
CONTINUOUS
  0
LAYER
  2
0
 70
     0
 62
    17
  6
CONTINUOUS
  0
LAYER
  2
1
 70
     0
 62
    30
  6
CONTINUOUS
  0
LAYER
  2
4
 70
     0
 62
    33
  6
CONTINUOUS
  0
LAYER
  2
ﾚｲﾔ3
 70
     0
 62
    46
  6
CONTINUOUS
  0
LAYER
  2
外形線
 70
     0
 62
    49
  6
CONTINUOUS
  0
LAYER
  2
部品
 70
     0
 62
    14
  6
CONTINUOUS
  0
LAYER
  2
サッシ芯
 70
     0
 62
    17
  6
DASHDOTX2
  0
LAYER
  2
寸法線
 70
     0
 62
    62
  6
CONTINUOUS
  0
LAYER
  2
姿図外形線
 70
     0
 62
    65
  6
CONTINUOUS
  0
LAYER
  2
姿補助線
 70
     0
 62
    30
  6
CONTINUOUS
  0
LAYER
  2
透視線
 70
     0
 62
    78
  6
DOT
  0
LAYER
  2
用紙
 70
     0
 62
    81
  6
CONTINUOUS
  0
LAYER
  2
実線図枠
 70
     0
 62
    94
  6
CONTINUOUS
  0
LAYER
  2
補助図枠
 70
     0
 62
    97
  6
CONTINUOUS
  0
LAYER
  2
建具記号
 70
     0
 62
   110
  6
CONTINUOUS
  0
LAYER
  2
補助文字
 70
     0
 62
   113
  6
CONTINUOUS
  0
ENDTAB
  0
TABLE
  2
STYLE
 70
    10
  0
STYLE
  2
STANDARD
 70
     0
 40
1.0
 41
1.0
 42
1.0
 50
0.0
 71
     0
  3
TXT
  4
BIGFONT
  0
STYLE
  2
TATE
 70
     4
 40
1.0
 41
1.0
 42
1.0
 50
0.0
 71
     0
  3
TXT
  4
BIGFONT
  0
STYLE
  2
TextStyle03
 70
     0
 40
1.0
 41
1.0
 42
1.0
 50
0.0
 71
     0
  3
MONOTXT
  4
BIGFONT
  0
STYLE
  2
TextStyle04
 70
     0
 40
1.0
 41
1.0
 42
1.0
 50
0.0
 71
     0
  3
MONOTXT
  4
BIGFONT
  0
STYLE
  2
TextStyle05
 70
     0
 40
1.0
 41
1.0
 42
1.0
 50
0.0
 71
     0
  3
MONOTXT
  4
BIGFONT
  0
STYLE
  2
TextStyle06
 70
     0
 40
1.0
 41
1.0
 42
1.0
 50
0.0
 71
     0
  3
MONOTXT
  4
BIGFONT
  0
STYLE
  2
TextStyle07
 70
     0
 40
1.0
 41
1.0
 42
1.0
 50
0.0
 71
     0
  3
MONOTXT
  4
BIGFONT
  0
STYLE
  2
TextStyle08
 70
     0
 40
1.0
 41
1.0
 42
1.0
 50
0.0
 71
     0
  3
MONOTXT
  4
BIGFONT
  0
STYLE
  2
TextStyle09
 70
     0
 40
1.0
 41
1.0
 42
1.0
 50
0.0
 71
     0
  3
MONOTXT
  4
BIGFONT
  0
STYLE
  2
TextStyle10
 70
     0
 40
1.0
 41
1.0
 42
1.0
 50
0.0
 71
     0
  3
MONOTXT
  4
BIGFONT
  0
ENDTAB
  0
ENDSEC
  0
SECTION
  2
BLOCKS
  0
BLOCK
  2
*GRP_0001
 70
    65
 10
0.0
 20
0.0
  0
LINE
  8
型材断面
  6
CONTINUOUS
 10
195.0
 20
133.5
 11
195.0
 21
-133.5
  0
LINE
  8
型材断面
  6
CONTINUOUS
 10
195.0
 20
-133.5
 11
-185.0
 21
-133.5
  0
LINE
  8
型材断面
  6
CONTINUOUS
 10
-185.0
 20
-133.5
 11
-185.0
 21
133.5
  0
LINE
  8
型材断面
  6
CONTINUOUS
 10
195.0
 20
133.5
 11
-185.0
 21
133.5
  0
LINE
  8
型材断面
  6
CONTINUOUS
 10
145.0
 20
-133.5
 11
145.0
 21
-118.5
  0
LINE
  8
型材断面
  6
CONTINUOUS
 10
195.0
 20
-118.5
 11
145.0
 21
-118.5
  0
ENDBLK
  0
BLOCK
  2
*DIM_0002
 70
    65
 10
0.0
 20
0.0
  0
LINE
  8
寸法
  6
BYBLOCK
 62
     0
 10
43.990438
 20
-61.87628
 11
73.960088
 21
-61.87628
  0
LINE
  8
寸法
  6
BYBLOCK
 62
     0
 10
73.960088
 20
-70.209613
 11
73.960088
 21
-61.87628
  0
POINT
  8
寸法
 62
     0
 10
73.960088
 20
-70.209613
  0
POINT
  8
寸法
 62
     0
 10
73.960088
 20
-61.87628
  0
TEXT
  7
TextStyle03
  8
寸法
  6
CONTINUOUS
 62
     0
 10
73.6
 20
-68.5125
  1
250
 40
3.0
 50
90.0
 72
     5
 11
73.6
 21
-63.6375
  0
ENDBLK
  0
BLOCK
  2
*DIM_0003
 70
    65
 10
0.0
 20
0.0
  0
LINE
  8
寸法
  6
BYBLOCK
 62
     0
 10
-75.342895
 20
-13.511205
 11
-75.342895
 21
-13.121378
  0
LINE
  8
寸法
  6
BYBLOCK
 62
     0
 10
57.990438
 20
-13.121378
 11
-75.342895
 21
-13.121378
  0
POINT
  8
寸法
 62
     0
 10
57.990438
 20
-13.121378
  0
POINT
  8
寸法
 62
     0
 10
-75.342895
 20
-13.121378
  0
TEXT
  7
TextStyle03
  8
寸法
  6
CONTINUOUS
 62
     0
 10
-20.41875
 20
-12.75
  1
呼称寸法　4000
 40
3.0
 72
     5
 11
3.01875
 21
-12.75
  0
ENDBLK
  0
BLOCK
  2
*DIM_0004
 70
    65
 10
0.0
 20
0.0
  0
LINE
  8
寸法
  6
BYBLOCK
 62
     0
 10
-58.676228
 20
19.183902
 11
-58.676228
 21
14.132895
  0
LINE
  8
寸法
  6
BYBLOCK
 62
     0
 10
41.323768
 20
19.183902
 11
41.323768
 21
14.132895
  0
LINE
  8
寸法
  6
BYBLOCK
 62
     0
 10
-58.676228
 20
14.132895
 11
41.323768
 21
14.132895
  0
POINT
  8
寸法
 62
     0
 10
-58.676228
 20
14.132895
  0
POINT
  8
寸法
 62
     0
 10
41.323768
 20
14.132895
  0
TEXT
  7
TextStyle03
  8
寸法
  6
CONTINUOUS
 62
     0
 10
-11.98125
 20
14.5
  1
3000
 40
3.0
 72
     5
 11
-5.41875
 21
14.5
  0
ENDBLK
  0
BLOCK
  2
*DIM_0005
 70
    65
 10
0.0
 20
0.0
  0
LINE
  8
寸法
  6
BYBLOCK
 62
     0
 10
139.352787
 20
38.814033
 11
139.352787
 21
68.369967
  0
LINE
  8
寸法
  6
BYBLOCK
 62
     0
 10
147.68612
 20
68.369967
 11
139.352787
 21
68.369967
  0
POINT
  8
寸法
 62
     0
 10
147.68612
 20
68.369967
  0
POINT
  8
寸法
 62
     0
 10
139.352787
 20
68.369967
  0
TEXT
  7
TextStyle03
  8
寸法
  6
CONTINUOUS
 62
     0
 10
141.0625
 20
68.725
  1
250
 40
3.0
 72
     5
 11
145.9375
 21
68.725
  0
ENDBLK
  0
BLOCK
  2
*DIM_0006
 70
    65
 10
0.0
 20
0.0
  0
LINE
  8
寸法
  6
BYBLOCK
 62
     0
 10
92.172505
 20
22.814033
 11
92.172505
 21
52.814033
  0
POINT
  8
寸法
 62
     0
 10
92.172505
 20
22.814033
  0
POINT
  8
寸法
 62
     0
 10
92.172505
 20
52.814033
  0
TEXT
  7
TextStyle03
  8
寸法
  6
CONTINUOUS
 62
     0
 10
91.8
 20
26.9
  1
呼称寸法　900
 40
3.0
 50
90.0
 72
     5
 11
91.8
 21
48.65
  0
ENDBLK
  0
BLOCK
  2
*DIM_0007
 70
    65
 10
0.0
 20
0.0
  0
LINE
  8
寸法
  6
BYBLOCK
 62
     0
 10
147.68612
 20
55.4807
 11
147.68612
 21
68.369967
  0
LINE
  8
寸法
  6
BYBLOCK
 62
     0
 10
154.469403
 20
55.7807
 11
154.469403
 21
68.369967
  0
LINE
  8
寸法
  6
BYBLOCK
 62
     0
 10
147.68612
 20
68.369967
 11
154.469403
 21
68.369967
  0
POINT
  8
寸法
 62
     0
 10
147.68612
 20
68.369967
  0
POINT
  8
寸法
 62
     0
 10
154.469403
 20
68.369967
  0
TEXT
  7
TextStyle03
  8
寸法
  6
CONTINUOUS
 62
     0
 10
155.325
 20
68.725
  1
203.5
 40
3.0
 72
     5
 11
163.575
 21
68.725
  0
ENDBLK
  0
BLOCK
  2
*DIM_0008
 70
    65
 10
0.0
 20
0.0
  0
LINE
  8
寸法
  6
BYBLOCK
 62
     0
 10
150.50876
 20
55.094035
 11
92.172505
 21
55.094035
  0
LINE
  8
寸法
  6
BYBLOCK
 62
     0
 10
92.172505
 20
52.814033
 11
92.172505
 21
55.094035
  0
POINT
  8
寸法
 62
     0
 10
92.172505
 20
52.814033
  0
POINT
  8
寸法
 62
     0
 10
92.172505
 20
55.094035
  0
TEXT
  7
TextStyle03
  8
寸法
  6
CONTINUOUS
 62
     0
 10
91.725
 20
57.41875
  1
68.4
 40
3.0
 50
90.0
 72
     5
 11
91.725
 21
63.98125
  0
ENDBLK
  0
BLOCK
  2
*DIM_0009
 70
    65
 10
0.0
 20
0.0
  0
LINE
  8
寸法
  6
BYBLOCK
 62
     0
 10
150.50876
 20
20.53403
 11
92.172505
 21
20.53403
  0
LINE
  8
寸法
  6
BYBLOCK
 62
     0
 10
92.172505
 20
22.814033
 11
92.172505
 21
20.53403
  0
POINT
  8
寸法
 62
     0
 10
92.172505
 20
22.814033
  0
POINT
  8
寸法
 62
     0
 10
92.172505
 20
20.53403
  0
TEXT
  7
TextStyle03
  8
寸法
  6
CONTINUOUS
 62
     0
 10
91.725
 20
11.61875
  1
68.4
 40
3.0
 50
90.0
 72
     5
 11
91.725
 21
18.18125
  0
ENDBLK
  0
BLOCK
  2
*DIM_0010
 70
    65
 10
0.0
 20
0.0
  0
LINE
  8
寸法
  6
BYBLOCK
 62
     0
 10
60.657105
 20
-70.209613
 11
73.960088
 21
-70.209613
  0
LINE
  8
寸法
  6
BYBLOCK
 62
     0
 10
60.957105
 20
-76.992897
 11
73.960088
 21
-76.992897
  0
LINE
  8
寸法
  6
BYBLOCK
 62
     0
 10
73.960088
 20
-70.209613
 11
73.960088
 21
-76.992897
  0
POINT
  8
寸法
 62
     0
 10
73.960088
 20
-70.209613
  0
POINT
  8
寸法
 62
     0
 10
73.960088
 20
-76.992897
  0
TEXT
  7
TextStyle03
  8
寸法
  6
CONTINUOUS
 62
     0
 10
73.525
 20
-86.175
  1
203.5
 40
3.0
 50
90.0
 72
     5
 11
73.525
 21
-77.925
  0
ENDBLK
  0
BLOCK
  2
*DIM_0011
 70
    65
 10
0.0
 20
0.0
  0
LINE
  8
寸法
  6
BYBLOCK
 62
     0
 10
60.27044
 20
-73.032255
 11
60.27044
 21
-13.121378
  0
LINE
  8
寸法
  6
BYBLOCK
 62
     0
 10
57.990438
 20
-13.121378
 11
60.27044
 21
-13.121378
  0
POINT
  8
寸法
 62
     0
 10
57.990438
 20
-13.121378
  0
POINT
  8
寸法
 62
     0
 10
60.27044
 20
-13.121378
  0
TEXT
  7
TextStyle03
  8
寸法
  6
CONTINUOUS
 62
     0
 10
62.54375
 20
-12.75
  1
68.4
 40
3.0
 72
     5
 11
69.10625
 21
-12.75
  0
ENDBLK
  0
BLOCK
  2
*DIM_0012
 70
    65
 10
0.0
 20
0.0
  0
LINE
  8
寸法
  6
BYBLOCK
 62
     0
 10
-77.6229
 20
-73.032255
 11
-77.6229
 21
-13.121378
  0
LINE
  8
寸法
  6
BYBLOCK
 62
     0
 10
-75.342895
 20
-13.121378
 11
-77.6229
 21
-13.121378
  0
POINT
  8
寸法
 62
     0
 10
-75.342895
 20
-13.121378
  0
POINT
  8
寸法
 62
     0
 10
-77.6229
 20
-13.121378
  0
TEXT
  7
TextStyle03
  8
寸法
  6
CONTINUOUS
 62
     0
 10
-86.53125
 20
-12.75
  1
68.4
 40
3.0
 72
     5
 11
-79.96875
 21
-12.75
  0
ENDBLK
  0
BLOCK
  2
*DIM_0013
 70
    65
 10
0.0
 20
0.0
  0
LINE
  8
寸法
  6
BYBLOCK
 62
     0
 10
61.620565
 20
48.914033
 11
68.397857
 21
48.914033
  0
LINE
  8
寸法
  6
BYBLOCK
 62
     0
 10
68.397857
 20
52.814033
 11
68.397857
 21
48.914033
  0
POINT
  8
寸法
 62
     0
 10
68.397857
 20
52.814033
  0
POINT
  8
寸法
 62
     0
 10
68.397857
 20
48.914033
  0
TEXT
  7
TextStyle03
  8
寸法
  6
CONTINUOUS
 62
     0
 10
68.075
 20
53.4875
  1
117
 40
3.0
 50
90.0
 72
     5
 11
68.075
 21
58.3625
  0
ENDBLK
  0
BLOCK
  2
*DIM_0014
 70
    65
 10
0.0
 20
0.0
  0
LINE
  8
寸法
  6
BYBLOCK
 62
     0
 10
61.620565
 20
26.714033
 11
68.397857
 21
26.714033
  0
LINE
  8
寸法
  6
BYBLOCK
 62
     0
 10
68.397857
 20
22.814033
 11
68.397857
 21
26.714033
  0
POINT
  8
寸法
 62
     0
 10
68.397857
 20
22.814033
  0
POINT
  8
寸法
 62
     0
 10
68.397857
 20
26.714033
  0
TEXT
  7
TextStyle03
  8
寸法
  6
CONTINUOUS
 62
     0
 10
68.45
 20
17.2125
  1
117
 40
3.0
 50
90.0
 72
     5
 11
68.45
 21
22.0875
  0
ENDBLK
  0
BLOCK
  2
*GRP_0015
 70
    65
 10
0.0
 20
0.0
  0
LINE
  8
別途部材
  6
CONTINUOUS
 62
    96
 10
-77.009562
 20
-70.209613
 11
-77.409562
 21
-71.209613
  0
ARC
  8
別途部材
  6
CONTINUOUS
 10
-60.342897
 20
-79.542947
 40
17.666667
 50
90.0
 51
148.109204
  0
LINE
  8
別途部材
  6
CONTINUOUS
 62
    96
 10
-77.009562
 20
-70.209613
 11
-8.676228
 21
-70.209613
  0
LINE
  8
別途部材
  6
CONTINUOUS
 10
-77.409562
 20
-71.209613
 11
-8.676228
 21
-71.209613
  0
LINE
  8
別途部材
  6
CONTINUOUS
 10
-9.176228
 20
-60.87628
 11
-10.176228
 21
-61.87628
  0
LINE
  8
別途部材
  6
CONTINUOUS
 10
-11.176228
 20
-61.87628
 11
-12.176228
 21
-60.87628
  0
LINE
  8
別途部材
  6
CONTINUOUS
 10
-13.176228
 20
-60.87628
 11
-14.176228
 21
-61.87628
  0
LINE
  8
別途部材
  6
CONTINUOUS
 10
-12.176228
 20
-60.87628
 11
-13.176228
 21
-60.87628
  0
LINE
  8
別途部材
  6
CONTINUOUS
 10
-9.176228
 20
-60.87628
 11
-8.676228
 21
-60.87628
  0
LINE
  8
別途部材
  6
CONTINUOUS
 10
-15.176228
 20
-61.87628
 11
-16.176228
 21
-60.87628
  0
LINE
  8
別途部材
  6
CONTINUOUS
 10
-17.176228
 20
-60.87628
 11
-18.176228
 21
-61.87628
  0
LINE
  8
別途部材
  6
CONTINUOUS
 10
-16.176228
 20
-60.87628
 11
-17.176228
 21
-60.87628
  0
LINE
  8
別途部材
  6
CONTINUOUS
 10
-19.176228
 20
-61.87628
 11
-20.176228
 21
-60.87628
  0
LINE
  8
別途部材
  6
CONTINUOUS
 10
-21.176228
 20
-60.87628
 11
-22.176228
 21
-61.87628
  0
LINE
  8
別途部材
  6
CONTINUOUS
 10
-20.176228
 20
-60.87628
 11
-21.176228
 21
-60.87628
  0
LINE
  8
別途部材
  6
CONTINUOUS
 10
-23.176228
 20
-61.87628
 11
-24.176228
 21
-60.87628
  0
LINE
  8
別途部材
  6
CONTINUOUS
 10
-25.176228
 20
-60.87628
 11
-26.176228
 21
-61.87628
  0
LINE
  8
別途部材
  6
CONTINUOUS
 10
-24.176228
 20
-60.87628
 11
-25.176228
 21
-60.87628
  0
LINE
  8
別途部材
  6
CONTINUOUS
 10
-27.176228
 20
-61.87628
 11
-28.176228
 21
-60.87628
  0
LINE
  8
別途部材
  6
CONTINUOUS
 10
-29.176228
 20
-60.87628
 11
-30.176228
 21
-61.87628
  0
LINE
  8
別途部材
  6
CONTINUOUS
 10
-28.176228
 20
-60.87628
 11
-29.176228
 21
-60.87628
  0
LINE
  8
別途部材
  6
CONTINUOUS
 10
-31.176228
 20
-61.87628
 11
-32.176228
 21
-60.87628
  0
LINE
  8
別途部材
  6
CONTINUOUS
 10
-33.176228
 20
-60.87628
 11
-34.176228
 21
-61.87628
  0
LINE
  8
別途部材
  6
CONTINUOUS
 10
-32.176228
 20
-60.87628
 11
-33.176228
 21
-60.87628
  0
LINE
  8
別途部材
  6
CONTINUOUS
 10
-35.176228
 20
-61.87628
 11
-36.176228
 21
-60.87628
  0
LINE
  8
別途部材
  6
CONTINUOUS
 10
-37.176228
 20
-60.87628
 11
-38.176228
 21
-61.87628
  0
LINE
  8
別途部材
  6
CONTINUOUS
 10
-36.176228
 20
-60.87628
 11
-37.176228
 21
-60.87628
  0
LINE
  8
別途部材
  6
CONTINUOUS
 10
-39.176228
 20
-61.87628
 11
-40.176228
 21
-60.87628
  0
LINE
  8
別途部材
  6
CONTINUOUS
 10
-41.176228
 20
-60.87628
 11
-42.176228
 21
-61.87628
  0
LINE
  8
別途部材
  6
CONTINUOUS
 10
-40.176228
 20
-60.87628
 11
-41.176228
 21
-60.87628
  0
LINE
  8
別途部材
  6
CONTINUOUS
 10
-43.176228
 20
-61.87628
 11
-44.176228
 21
-60.87628
  0
LINE
  8
別途部材
  6
CONTINUOUS
 10
-45.176228
 20
-60.87628
 11
-46.176228
 21
-61.87628
  0
LINE
  8
別途部材
  6
CONTINUOUS
 10
-44.176228
 20
-60.87628
 11
-45.176228
 21
-60.87628
  0
LINE
  8
別途部材
  6
CONTINUOUS
 10
-47.176228
 20
-61.87628
 11
-48.176228
 21
-60.87628
  0
LINE
  8
別途部材
  6
CONTINUOUS
 10
-49.176228
 20
-60.87628
 11
-50.176228
 21
-61.87628
  0
LINE
  8
別途部材
  6
CONTINUOUS
 10
-48.176228
 20
-60.87628
 11
-49.176228
 21
-60.87628
  0
LINE
  8
別途部材
  6
CONTINUOUS
 10
-51.176228
 20
-61.87628
 11
-52.176228
 21
-60.87628
  0
LINE
  8
別途部材
  6
CONTINUOUS
 10
-53.176228
 20
-60.87628
 11
-54.176228
 21
-61.87628
  0
LINE
  8
別途部材
  6
CONTINUOUS
 10
-52.176228
 20
-60.87628
 11
-53.176228
 21
-60.87628
  0
LINE
  8
別途部材
  6
CONTINUOUS
 10
-50.176228
 20
-61.87628
 11
-51.176228
 21
-61.87628
  0
LINE
  8
別途部材
  6
CONTINUOUS
 10
-46.176228
 20
-61.87628
 11
-47.176228
 21
-61.87628
  0
LINE
  8
別途部材
  6
CONTINUOUS
 10
-42.176228
 20
-61.87628
 11
-43.176228
 21
-61.87628
  0
LINE
  8
別途部材
  6
CONTINUOUS
 10
-38.176228
 20
-61.87628
 11
-39.176228
 21
-61.87628
  0
LINE
  8
別途部材
  6
CONTINUOUS
 10
-34.176228
 20
-61.87628
 11
-35.176228
 21
-61.87628
  0
LINE
  8
別途部材
  6
CONTINUOUS
 10
-30.176228
 20
-61.87628
 11
-31.176228
 21
-61.87628
  0
LINE
  8
別途部材
  6
CONTINUOUS
 10
-26.176228
 20
-61.87628
 11
-27.176228
 21
-61.87628
  0
LINE
  8
別途部材
  6
CONTINUOUS
 10
-22.176228
 20
-61.87628
 11
-23.176228
 21
-61.87628
  0
LINE
  8
別途部材
  6
CONTINUOUS
 10
-18.176228
 20
-61.87628
 11
-19.176228
 21
-61.87628
  0
LINE
  8
別途部材
  6
CONTINUOUS
 10
-14.176228
 20
-61.87628
 11
-15.176228
 21
-61.87628
  0
LINE
  8
別途部材
  6
CONTINUOUS
 10
-11.176228
 20
-61.87628
 11
-10.176228
 21
-61.87628
  0
LINE
  8
別途部材
  6
CONTINUOUS
 10
-55.176228
 20
-61.87628
 11
-56.176228
 21
-60.87628
  0
LINE
  8
別途部材
  6
CONTINUOUS
 10
-57.176228
 20
-60.87628
 11
-58.176228
 21
-61.87628
  0
LINE
  8
別途部材
  6
CONTINUOUS
 10
-56.176228
 20
-60.87628
 11
-57.176228
 21
-60.87628
  0
LINE
  8
別途部材
  6
CONTINUOUS
 10
-54.176228
 20
-61.87628
 11
-55.176228
 21
-61.87628
  0
LINE
  8
別途部材
  6
CONTINUOUS
 10
-53.176228
 20
-60.87628
 11
-53.176228
 21
-70.209613
  0
LINE
  8
別途部材
  6
CONTINUOUS
 10
-49.176228
 20
-60.87628
 11
-49.176228
 21
-70.209613
  0
LINE
  8
別途部材
  6
CONTINUOUS
 10
-47.176228
 20
-61.87628
 11
-47.176228
 21
-70.209613
  0
LINE
  8
別途部材
  6
CONTINUOUS
 10
-52.176228
 20
-60.87628
 11
-52.176228
 21
-70.209613
  0
LINE
  8
別途部材
  6
CONTINUOUS
 10
-56.176228
 20
-60.87628
 11
-56.176228
 21
-70.209613
  0
LINE
  8
別途部材
  6
CONTINUOUS
 10
-58.176228
 20
-61.87628
 11
-58.176228
 21
-70.209613
  0
LINE
  8
別途部材
  6
CONTINUOUS
 10
-57.176228
 20
-60.87628
 11
-57.176228
 21
-70.209613
  0
LINE
  8
別途部材
  6
CONTINUOUS
 10
-55.176228
 20
-61.87628
 11
-55.176228
 21
-70.209613
  0
LINE
  8
別途部材
  6
CONTINUOUS
 10
-54.176228
 20
-61.87628
 11
-54.176228
 21
-70.209613
  0
LINE
  8
別途部材
  6
CONTINUOUS
 10
-51.176228
 20
-61.87628
 11
-51.176228
 21
-70.209613
  0
LINE
  8
別途部材
  6
CONTINUOUS
 10
-50.176228
 20
-61.87628
 11
-50.176228
 21
-70.209613
  0
LINE
  8
別途部材
  6
CONTINUOUS
 10
-48.176228
 20
-60.87628
 11
-48.176228
 21
-70.209613
  0
LINE
  8
別途部材
  6
CONTINUOUS
 10
-45.176228
 20
-60.87628
 11
-45.176228
 21
-70.209613
  0
LINE
  8
別途部材
  6
CONTINUOUS
 10
-46.176228
 20
-61.87628
 11
-46.176228
 21
-70.209613
  0
LINE
  8
別途部材
  6
CONTINUOUS
 10
-44.176228
 20
-60.87628
 11
-44.176228
 21
-70.209613
  0
LINE
  8
別途部材
  6
CONTINUOUS
 10
-43.176228
 20
-61.87628
 11
-43.176228
 21
-70.209613
  0
LINE
  8
別途部材
  6
CONTINUOUS
 10
-42.176228
 20
-61.87628
 11
-42.176228
 21
-70.209613
  0
LINE
  8
別途部材
  6
CONTINUOUS
 10
-41.176228
 20
-60.87628
 11
-41.176228
 21
-70.209613
  0
LINE
  8
別途部材
  6
CONTINUOUS
 10
-39.176228
 20
-61.87628
 11
-39.176228
 21
-70.209613
  0
LINE
  8
別途部材
  6
CONTINUOUS
 10
-40.176228
 20
-60.87628
 11
-40.176228
 21
-70.209613
  0
LINE
  8
別途部材
  6
CONTINUOUS
 10
-37.176228
 20
-60.87628
 11
-37.176228
 21
-70.209613
  0
LINE
  8
別途部材
  6
CONTINUOUS
 10
-38.176228
 20
-61.87628
 11
-38.176228
 21
-70.209613
  0
LINE
  8
別途部材
  6
CONTINUOUS
 10
-34.176228
 20
-61.87628
 11
-34.176228
 21
-70.209613
  0
LINE
  8
別途部材
  6
CONTINUOUS
 10
-33.176228
 20
-60.87628
 11
-33.176228
 21
-70.209613
  0
LINE
  8
別途部材
  6
CONTINUOUS
 10
-32.176228
 20
-60.87628
 11
-32.176228
 21
-70.209613
  0
LINE
  8
別途部材
  6
CONTINUOUS
 10
-35.176228
 20
-61.87628
 11
-35.176228
 21
-70.209613
  0
LINE
  8
別途部材
  6
CONTINUOUS
 10
-36.176228
 20
-60.87628
 11
-36.176228
 21
-70.209613
  0
LINE
  8
別途部材
  6
CONTINUOUS
 10
-28.176228
 20
-60.87628
 11
-28.176228
 21
-70.209613
  0
LINE
  8
別途部材
  6
CONTINUOUS
 10
-30.176228
 20
-61.87628
 11
-30.176228
 21
-70.209613
  0
LINE
  8
別途部材
  6
CONTINUOUS
 10
-31.176228
 20
-61.87628
 11
-31.176228
 21
-70.209613
  0
LINE
  8
別途部材
  6
CONTINUOUS
 10
-29.176228
 20
-60.87628
 11
-29.176228
 21
-70.209613
  0
LINE
  8
別途部材
  6
CONTINUOUS
 10
-27.176228
 20
-61.87628
 11
-27.176228
 21
-70.209613
  0
LINE
  8
別途部材
  6
CONTINUOUS
 10
-25.176228
 20
-60.87628
 11
-25.176228
 21
-70.209613
  0
LINE
  8
別途部材
  6
CONTINUOUS
 10
-24.176228
 20
-60.87628
 11
-24.176228
 21
-70.209613
  0
LINE
  8
別途部材
  6
CONTINUOUS
 10
-22.176228
 20
-61.87628
 11
-22.176228
 21
-70.209613
  0
LINE
  8
別途部材
  6
CONTINUOUS
 10
-23.176228
 20
-61.87628
 11
-23.176228
 21
-70.209613
  0
LINE
  8
別途部材
  6
CONTINUOUS
 10
-26.176228
 20
-61.87628
 11
-26.176228
 21
-70.209613
  0
LINE
  8
別途部材
  6
CONTINUOUS
 10
-21.176228
 20
-60.87628
 11
-21.176228
 21
-70.209613
  0
LINE
  8
別途部材
  6
CONTINUOUS
 10
-19.176228
 20
-61.87628
 11
-19.176228
 21
-70.209613
  0
LINE
  8
別途部材
  6
CONTINUOUS
 10
-20.176228
 20
-60.87628
 11
-20.176228
 21
-70.209613
  0
LINE
  8
別途部材
  6
CONTINUOUS
 10
-18.176228
 20
-61.87628
 11
-18.176228
 21
-70.209613
  0
LINE
  8
別途部材
  6
CONTINUOUS
 10
-17.176228
 20
-60.87628
 11
-17.176228
 21
-70.209613
  0
LINE
  8
別途部材
  6
CONTINUOUS
 10
-15.176228
 20
-61.87628
 11
-15.176228
 21
-70.209613
  0
LINE
  8
別途部材
  6
CONTINUOUS
 10
-16.176228
 20
-60.87628
 11
-16.176228
 21
-70.209613
  0
LINE
  8
別途部材
  6
CONTINUOUS
 10
-14.176228
 20
-61.87628
 11
-14.176228
 21
-70.209613
  0
LINE
  8
別途部材
  6
CONTINUOUS
 10
-13.176228
 20
-60.87628
 11
-13.176228
 21
-70.209613
  0
LINE
  8
別途部材
  6
CONTINUOUS
 10
-11.176228
 20
-61.87628
 11
-11.176228
 21
-70.209613
  0
LINE
  8
別途部材
  6
CONTINUOUS
 10
-12.176228
 20
-60.87628
 11
-12.176228
 21
-70.209613
  0
LINE
  8
別途部材
  6
CONTINUOUS
 10
-10.176228
 20
-61.87628
 11
-10.176228
 21
-70.209613
  0
LINE
  8
別途部材
  6
CONTINUOUS
 10
-9.176228
 20
-60.87628
 11
-9.176228
 21
-70.209613
  0
LINE
  8
別途部材
  6
CONTINUOUS
 10
-58.176228
 20
-61.87628
 11
-60.342895
 21
-61.87628
  0
LINE
  8
別途部材
  6
CONTINUOUS
 62
    96
 10
59.657105
 20
-70.209613
 11
60.057105
 21
-71.209613
  0
ARC
  8
別途部材
  6
CONTINUOUS
 10
42.99044
 20
-79.542947
 40
17.666667
 50
31.890796
 51
90.0
  0
LINE
  8
別途部材
  6
CONTINUOUS
 62
    96
 10
59.657105
 20
-70.209613
 11
-8.676228
 21
-70.209613
  0
LINE
  8
別途部材
  6
CONTINUOUS
 10
60.057105
 20
-71.209613
 11
-8.676228
 21
-71.209613
  0
LINE
  8
別途部材
  6
CONTINUOUS
 10
-8.176228
 20
-60.87628
 11
-7.176228
 21
-61.87628
  0
LINE
  8
別途部材
  6
CONTINUOUS
 10
-6.176228
 20
-61.87628
 11
-5.176228
 21
-60.87628
  0
LINE
  8
別途部材
  6
CONTINUOUS
 10
-4.176228
 20
-60.87628
 11
-3.176228
 21
-61.87628
  0
LINE
  8
別途部材
  6
CONTINUOUS
 10
-5.176228
 20
-60.87628
 11
-4.176228
 21
-60.87628
  0
LINE
  8
別途部材
  6
CONTINUOUS
 10
-8.176228
 20
-60.87628
 11
-8.676228
 21
-60.87628
  0
LINE
  8
別途部材
  6
CONTINUOUS
 10
-2.176228
 20
-61.87628
 11
-1.176228
 21
-60.87628
  0
LINE
  8
別途部材
  6
CONTINUOUS
 10
-0.176228
 20
-60.87628
 11
0.823773
 21
-61.87628
  0
LINE
  8
別途部材
  6
CONTINUOUS
 10
-1.176228
 20
-60.87628
 11
-0.176228
 21
-60.87628
  0
LINE
  8
別途部材
  6
CONTINUOUS
 10
1.823773
 20
-61.87628
 11
2.823773
 21
-60.87628
  0
LINE
  8
別途部材
  6
CONTINUOUS
 10
3.823773
 20
-60.87628
 11
4.823773
 21
-61.87628
  0
LINE
  8
別途部材
  6
CONTINUOUS
 10
2.823773
 20
-60.87628
 11
3.823773
 21
-60.87628
  0
LINE
  8
別途部材
  6
CONTINUOUS
 10
5.823773
 20
-61.87628
 11
6.823773
 21
-60.87628
  0
LINE
  8
別途部材
  6
CONTINUOUS
 10
7.823773
 20
-60.87628
 11
8.823773
 21
-61.87628
  0
LINE
  8
別途部材
  6
CONTINUOUS
 10
6.823773
 20
-60.87628
 11
7.823773
 21
-60.87628
  0
LINE
  8
別途部材
  6
CONTINUOUS
 10
9.823773
 20
-61.87628
 11
10.823773
 21
-60.87628
  0
LINE
  8
別途部材
  6
CONTINUOUS
 10
11.823773
 20
-60.87628
 11
12.823773
 21
-61.87628
  0
LINE
  8
別途部材
  6
CONTINUOUS
 10
10.823773
 20
-60.87628
 11
11.823773
 21
-60.87628
  0
LINE
  8
別途部材
  6
CONTINUOUS
 10
13.823773
 20
-61.87628
 11
14.823773
 21
-60.87628
  0
LINE
  8
別途部材
  6
CONTINUOUS
 10
15.823773
 20
-60.87628
 11
16.823773
 21
-61.87628
  0
LINE
  8
別途部材
  6
CONTINUOUS
 10
14.823773
 20
-60.87628
 11
15.823773
 21
-60.87628
  0
LINE
  8
別途部材
  6
CONTINUOUS
 10
17.823773
 20
-61.87628
 11
18.823773
 21
-60.87628
  0
LINE
  8
別途部材
  6
CONTINUOUS
 10
19.823773
 20
-60.87628
 11
20.823773
 21
-61.87628
  0
LINE
  8
別途部材
  6
CONTINUOUS
 10
18.823773
 20
-60.87628
 11
19.823773
 21
-60.87628
  0
LINE
  8
別途部材
  6
CONTINUOUS
 10
21.823773
 20
-61.87628
 11
22.823773
 21
-60.87628
  0
LINE
  8
別途部材
  6
CONTINUOUS
 10
23.823773
 20
-60.87628
 11
24.823773
 21
-61.87628
  0
LINE
  8
別途部材
  6
CONTINUOUS
 10
22.823773
 20
-60.87628
 11
23.823773
 21
-60.87628
  0
LINE
  8
別途部材
  6
CONTINUOUS
 10
25.823773
 20
-61.87628
 11
26.823773
 21
-60.87628
  0
LINE
  8
別途部材
  6
CONTINUOUS
 10
27.823773
 20
-60.87628
 11
28.823773
 21
-61.87628
  0
LINE
  8
別途部材
  6
CONTINUOUS
 10
26.823773
 20
-60.87628
 11
27.823773
 21
-60.87628
  0
LINE
  8
別途部材
  6
CONTINUOUS
 10
29.823773
 20
-61.87628
 11
30.823773
 21
-60.87628
  0
LINE
  8
別途部材
  6
CONTINUOUS
 10
31.823773
 20
-60.87628
 11
32.823773
 21
-61.87628
  0
LINE
  8
別途部材
  6
CONTINUOUS
 10
30.823773
 20
-60.87628
 11
31.823773
 21
-60.87628
  0
LINE
  8
別途部材
  6
CONTINUOUS
 10
33.823773
 20
-61.87628
 11
34.823773
 21
-60.87628
  0
LINE
  8
別途部材
  6
CONTINUOUS
 10
35.823773
 20
-60.87628
 11
36.823773
 21
-61.87628
  0
LINE
  8
別途部材
  6
CONTINUOUS
 10
34.823773
 20
-60.87628
 11
35.823773
 21
-60.87628
  0
LINE
  8
別途部材
  6
CONTINUOUS
 10
32.823773
 20
-61.87628
 11
33.823773
 21
-61.87628
  0
LINE
  8
別途部材
  6
CONTINUOUS
 10
28.823773
 20
-61.87628
 11
29.823773
 21
-61.87628
  0
LINE
  8
別途部材
  6
CONTINUOUS
 10
24.823773
 20
-61.87628
 11
25.823773
 21
-61.87628
  0
LINE
  8
別途部材
  6
CONTINUOUS
 10
20.823773
 20
-61.87628
 11
21.823773
 21
-61.87628
  0
LINE
  8
別途部材
  6
CONTINUOUS
 10
16.823773
 20
-61.87628
 11
17.823773
 21
-61.87628
  0
LINE
  8
別途部材
  6
CONTINUOUS
 10
12.823773
 20
-61.87628
 11
13.823773
 21
-61.87628
  0
LINE
  8
別途部材
  6
CONTINUOUS
 10
8.823773
 20
-61.87628
 11
9.823773
 21
-61.87628
  0
LINE
  8
別途部材
  6
CONTINUOUS
 10
4.823773
 20
-61.87628
 11
5.823773
 21
-61.87628
  0
LINE
  8
別途部材
  6
CONTINUOUS
 10
0.823773
 20
-61.87628
 11
1.823773
 21
-61.87628
  0
LINE
  8
別途部材
  6
CONTINUOUS
 10
-3.176228
 20
-61.87628
 11
-2.176228
 21
-61.87628
  0
LINE
  8
別途部材
  6
CONTINUOUS
 10
-6.176228
 20
-61.87628
 11
-7.176228
 21
-61.87628
  0
LINE
  8
別途部材
  6
CONTINUOUS
 10
37.823773
 20
-61.87628
 11
38.823773
 21
-60.87628
  0
LINE
  8
別途部材
  6
CONTINUOUS
 10
39.823773
 20
-60.87628
 11
40.823773
 21
-61.87628
  0
LINE
  8
別途部材
  6
CONTINUOUS
 10
38.823773
 20
-60.87628
 11
39.823773
 21
-60.87628
  0
LINE
  8
別途部材
  6
CONTINUOUS
 10
36.823773
 20
-61.87628
 11
37.823773
 21
-61.87628
  0
LINE
  8
別途部材
  6
CONTINUOUS
 10
35.823773
 20
-60.87628
 11
35.823773
 21
-70.209613
  0
LINE
  8
別途部材
  6
CONTINUOUS
 10
31.823773
 20
-60.87628
 11
31.823773
 21
-70.209613
  0
LINE
  8
別途部材
  6
CONTINUOUS
 10
29.823773
 20
-61.87628
 11
29.823773
 21
-70.209613
  0
LINE
  8
別途部材
  6
CONTINUOUS
 10
34.823773
 20
-60.87628
 11
34.823773
 21
-70.209613
  0
LINE
  8
別途部材
  6
CONTINUOUS
 10
38.823773
 20
-60.87628
 11
38.823773
 21
-70.209613
  0
LINE
  8
別途部材
  6
CONTINUOUS
 10
40.823773
 20
-61.87628
 11
40.823773
 21
-70.209613
  0
LINE
  8
別途部材
  6
CONTINUOUS
 10
39.823773
 20
-60.87628
 11
39.823773
 21
-70.209613
  0
LINE
  8
別途部材
  6
CONTINUOUS
 10
37.823773
 20
-61.87628
 11
37.823773
 21
-70.209613
  0
LINE
  8
別途部材
  6
CONTINUOUS
 10
36.823773
 20
-61.87628
 11
36.823773
 21
-70.209613
  0
LINE
  8
別途部材
  6
CONTINUOUS
 10
33.823773
 20
-61.87628
 11
33.823773
 21
-70.209613
  0
LINE
  8
別途部材
  6
CONTINUOUS
 10
32.823773
 20
-61.87628
 11
32.823773
 21
-70.209613
  0
LINE
  8
別途部材
  6
CONTINUOUS
 10
30.823773
 20
-60.87628
 11
30.823773
 21
-70.209613
  0
LINE
  8
別途部材
  6
CONTINUOUS
 10
27.823773
 20
-60.87628
 11
27.823773
 21
-70.209613
  0
LINE
  8
別途部材
  6
CONTINUOUS
 10
28.823773
 20
-61.87628
 11
28.823773
 21
-70.209613
  0
LINE
  8
別途部材
  6
CONTINUOUS
 10
26.823773
 20
-60.87628
 11
26.823773
 21
-70.209613
  0
LINE
  8
別途部材
  6
CONTINUOUS
 10
25.823773
 20
-61.87628
 11
25.823773
 21
-70.209613
  0
LINE
  8
別途部材
  6
CONTINUOUS
 10
24.823773
 20
-61.87628
 11
24.823773
 21
-70.209613
  0
LINE
  8
別途部材
  6
CONTINUOUS
 10
23.823773
 20
-60.87628
 11
23.823773
 21
-70.209613
  0
LINE
  8
別途部材
  6
CONTINUOUS
 10
21.823773
 20
-61.87628
 11
21.823773
 21
-70.209613
  0
LINE
  8
別途部材
  6
CONTINUOUS
 10
22.823773
 20
-60.87628
 11
22.823773
 21
-70.209613
  0
LINE
  8
別途部材
  6
CONTINUOUS
 10
19.823773
 20
-60.87628
 11
19.823773
 21
-70.209613
  0
LINE
  8
別途部材
  6
CONTINUOUS
 10
20.823773
 20
-61.87628
 11
20.823773
 21
-70.209613
  0
LINE
  8
別途部材
  6
CONTINUOUS
 10
16.823773
 20
-61.87628
 11
16.823773
 21
-70.209613
  0
LINE
  8
別途部材
  6
CONTINUOUS
 10
15.823773
 20
-60.87628
 11
15.823773
 21
-70.209613
  0
LINE
  8
別途部材
  6
CONTINUOUS
 10
14.823773
 20
-60.87628
 11
14.823773
 21
-70.209613
  0
LINE
  8
別途部材
  6
CONTINUOUS
 10
17.823773
 20
-61.87628
 11
17.823773
 21
-70.209613
  0
LINE
  8
別途部材
  6
CONTINUOUS
 10
18.823773
 20
-60.87628
 11
18.823773
 21
-70.209613
  0
LINE
  8
別途部材
  6
CONTINUOUS
 10
10.823773
 20
-60.87628
 11
10.823773
 21
-70.209613
  0
LINE
  8
別途部材
  6
CONTINUOUS
 10
12.823773
 20
-61.87628
 11
12.823773
 21
-70.209613
  0
LINE
  8
別途部材
  6
CONTINUOUS
 10
13.823773
 20
-61.87628
 11
13.823773
 21
-70.209613
  0
LINE
  8
別途部材
  6
CONTINUOUS
 10
11.823773
 20
-60.87628
 11
11.823773
 21
-70.209613
  0
LINE
  8
別途部材
  6
CONTINUOUS
 10
9.823773
 20
-61.87628
 11
9.823773
 21
-70.209613
  0
LINE
  8
別途部材
  6
CONTINUOUS
 10
7.823773
 20
-60.87628
 11
7.823773
 21
-70.209613
  0
LINE
  8
別途部材
  6
CONTINUOUS
 10
6.823773
 20
-60.87628
 11
6.823773
 21
-70.209613
  0
LINE
  8
別途部材
  6
CONTINUOUS
 10
4.823773
 20
-61.87628
 11
4.823773
 21
-70.209613
  0
LINE
  8
別途部材
  6
CONTINUOUS
 10
5.823773
 20
-61.87628
 11
5.823773
 21
-70.209613
  0
LINE
  8
別途部材
  6
CONTINUOUS
 10
8.823773
 20
-61.87628
 11
8.823773
 21
-70.209613
  0
LINE
  8
別途部材
  6
CONTINUOUS
 10
3.823773
 20
-60.87628
 11
3.823773
 21
-70.209613
  0
LINE
  8
別途部材
  6
CONTINUOUS
 10
1.823773
 20
-61.87628
 11
1.823773
 21
-70.209613
  0
LINE
  8
別途部材
  6
CONTINUOUS
 10
2.823773
 20
-60.87628
 11
2.823773
 21
-70.209613
  0
LINE
  8
別途部材
  6
CONTINUOUS
 10
0.823773
 20
-61.87628
 11
0.823773
 21
-70.209613
  0
LINE
  8
別途部材
  6
CONTINUOUS
 10
-0.176228
 20
-60.87628
 11
-0.176228
 21
-70.209613
  0
LINE
  8
別途部材
  6
CONTINUOUS
 10
-2.176228
 20
-61.87628
 11
-2.176228
 21
-70.209613
  0
LINE
  8
別途部材
  6
CONTINUOUS
 10
-1.176228
 20
-60.87628
 11
-1.176228
 21
-70.209613
  0
LINE
  8
別途部材
  6
CONTINUOUS
 10
-3.176228
 20
-61.87628
 11
-3.176228
 21
-70.209613
  0
LINE
  8
別途部材
  6
CONTINUOUS
 10
-4.176228
 20
-60.87628
 11
-4.176228
 21
-70.209613
  0
LINE
  8
別途部材
  6
CONTINUOUS
 10
-6.176228
 20
-61.87628
 11
-6.176228
 21
-70.209613
  0
LINE
  8
別途部材
  6
CONTINUOUS
 10
-5.176228
 20
-60.87628
 11
-5.176228
 21
-70.209613
  0
LINE
  8
別途部材
  6
CONTINUOUS
 10
-7.176228
 20
-61.87628
 11
-7.176228
 21
-70.209613
  0
LINE
  8
別途部材
  6
CONTINUOUS
 10
-8.176228
 20
-60.87628
 11
-8.176228
 21
-70.209613
  0
LINE
  8
別途部材
  6
CONTINUOUS
 10
40.823773
 20
-61.87628
 11
42.990438
 21
-61.87628
  0
ENDBLK
  0
BLOCK
  2
*GRP_0016
 70
    65
 10
0.0
 20
0.0
  0
LINE
  8
補助線
  6
BYBLOCK
 62
    64
 10
-63.61249
 20
-75.190572
 11
-63.739975
 21
-75.297933
  0
LINE
  8
補助線
  6
BYBLOCK
 62
    64
 10
-63.729912
 20
-75.180508
 11
-63.622552
 21
-75.307995
  0
LINE
  8
補助線
  6
BYBLOCK
 62
    64
 10
-55.122073
 20
-68.04055
 11
-55.249557
 21
-68.147905
  0
LINE
  8
補助線
  6
BYBLOCK
 62
    64
 10
-55.239495
 20
-68.030485
 11
-55.132135
 21
-68.157967
  0
LINE
  8
補助線
  6
BYBLOCK
 62
    64
 10
-46.759137
 20
-60.99788
 11
-46.631655
 21
-60.890523
  0
LINE
  8
補助線
  6
BYBLOCK
 62
    64
 10
-46.749078
 20
-60.880458
 11
-46.641717
 21
-61.007945
  0
LINE
  8
型材断面
  6
CONTINUOUS
 10
-64.467987
 20
-74.82155
 11
-64.528365
 21
-75.526075
  0
LINE
  8
型材断面
  6
CONTINUOUS
 10
-64.528365
 20
-75.526075
 11
-64.098932
 21
-76.03601
  0
LINE
  8
型材断面
  6
CONTINUOUS
 10
-64.098932
 20
-76.03601
 11
-63.394408
 21
-76.096388
  0
LINE
  8
型材断面
  6
CONTINUOUS
 10
-46.97722
 20
-60.09207
 11
-46.272695
 21
-60.152448
  0
LINE
  8
型材断面
  6
CONTINUOUS
 10
-46.272695
 20
-60.152448
 11
-45.843263
 21
-60.662382
  0
LINE
  8
型材断面
  6
CONTINUOUS
 10
-45.843263
 20
-60.662382
 11
-45.90364
 21
-61.366907
  0
LINE
  8
型材断面
  6
CONTINUOUS
 10
-64.467987
 20
-74.82155
 11
-46.97722
 21
-60.09207
  0
LINE
  8
型材断面
  6
CONTINUOUS
 10
-63.394408
 20
-76.096388
 11
-45.90364
 21
-61.366907
  0
CIRCLE
  8
ボルト／ビス
  6
CONTINUOUS
 10
-63.676232
 20
-75.244253
 40
0.250185
  0
CIRCLE
  8
ボルト／ビス
  6
CONTINUOUS
 10
-63.676232
 20
-75.244253
 40
0.301025
  0
LINE
  8
ボルト／ビス
  6
CONTINUOUS
 62
    64
 10
-63.92254
 20
-75.288135
 11
-63.837388
 21
-75.052887
  0
LINE
  8
ボルト／ビス
  6
CONTINUOUS
 62
    64
 10
-63.59108
 20
-75.009003
 11
-63.837388
 21
-75.052887
  0
LINE
  8
ボルト／ビス
  6
CONTINUOUS
 62
    64
 10
-63.761385
 20
-75.479503
 11
-63.515078
 21
-75.435617
  0
LINE
  8
ボルト／ビス
  6
CONTINUOUS
 62
    64
 10
-63.429925
 20
-75.20037
 11
-63.515078
 21
-75.435617
  0
LINE
  8
ボルト／ビス
  6
CONTINUOUS
 62
    64
 10
-63.92254
 20
-75.288135
 11
-63.761385
 21
-75.479503
  0
LINE
  8
ボルト／ビス
  6
CONTINUOUS
 62
    64
 10
-63.59108
 20
-75.009003
 11
-63.429925
 21
-75.20037
  0
CIRCLE
  8
ボルト／ビス
  6
CONTINUOUS
 62
    64
 10
-63.676232
 20
-75.244253
 40
0.216668
  0
CIRCLE
  8
ボルト／ビス
  6
CONTINUOUS
 10
-55.185815
 20
-68.094228
 40
0.250185
  0
CIRCLE
  8
ボルト／ビス
  6
CONTINUOUS
 10
-55.185815
 20
-68.094228
 40
0.301025
  0
LINE
  8
ボルト／ビス
  6
CONTINUOUS
 62
    64
 10
-55.432122
 20
-68.13811
 11
-55.34697
 21
-67.90286
  0
LINE
  8
ボルト／ビス
  6
CONTINUOUS
 62
    64
 10
-55.100662
 20
-67.858978
 11
-55.34697
 21
-67.90286
  0
LINE
  8
ボルト／ビス
  6
CONTINUOUS
 62
    64
 10
-55.270968
 20
-68.329478
 11
-55.024658
 21
-68.285595
  0
LINE
  8
ボルト／ビス
  6
CONTINUOUS
 62
    64
 10
-54.939508
 20
-68.050348
 11
-55.024658
 21
-68.285595
  0
LINE
  8
ボルト／ビス
  6
CONTINUOUS
 62
    64
 10
-55.432122
 20
-68.13811
 11
-55.270968
 21
-68.329478
  0
LINE
  8
ボルト／ビス
  6
CONTINUOUS
 62
    64
 10
-55.100662
 20
-67.858978
 11
-54.939508
 21
-68.050348
  0
CIRCLE
  8
ボルト／ビス
  6
CONTINUOUS
 62
    64
 10
-55.185815
 20
-68.094228
 40
0.216668
  0
CIRCLE
  8
ボルト／ビス
  6
CONTINUOUS
 10
-46.695395
 20
-60.944203
 40
0.250185
  0
CIRCLE
  8
ボルト／ビス
  6
CONTINUOUS
 10
-46.695395
 20
-60.944203
 40
0.301025
  0
LINE
  8
ボルト／ビス
  6
CONTINUOUS
 62
    64
 10
-46.610243
 20
-60.708953
 11
-46.856552
 21
-60.752837
  0
LINE
  8
ボルト／ビス
  6
CONTINUOUS
 62
    64
 10
-46.941705
 20
-60.988085
 11
-46.856552
 21
-60.752837
  0
LINE
  8
ボルト／ビス
  6
CONTINUOUS
 62
    64
 10
-46.44909
 20
-60.90032
 11
-46.53424
 21
-61.135567
  0
LINE
  8
ボルト／ビス
  6
CONTINUOUS
 62
    64
 10
-46.78055
 20
-61.179453
 11
-46.53424
 21
-61.135567
  0
LINE
  8
ボルト／ビス
  6
CONTINUOUS
 62
    64
 10
-46.610243
 20
-60.708953
 11
-46.44909
 21
-60.90032
  0
LINE
  8
ボルト／ビス
  6
CONTINUOUS
 62
    64
 10
-46.941705
 20
-60.988085
 11
-46.78055
 21
-61.179453
  0
CIRCLE
  8
ボルト／ビス
  6
CONTINUOUS
 62
    64
 10
-46.695395
 20
-60.944203
 40
0.216668
  0
ENDBLK
  0
BLOCK
  2
*GRP_0017
 70
    65
 10
0.0
 20
0.0
  0
LINE
  8
補助線
  6
BYBLOCK
 62
    64
 10
-46.75914
 20
-75.190572
 11
-46.631655
 21
-75.297933
  0
LINE
  8
補助線
  6
BYBLOCK
 62
    64
 10
-46.641717
 20
-75.180508
 11
-46.749078
 21
-75.307995
  0
LINE
  8
補助線
  6
BYBLOCK
 62
    64
 10
-55.249557
 20
-68.04055
 11
-55.122073
 21
-68.147905
  0
LINE
  8
補助線
  6
BYBLOCK
 62
    64
 10
-55.132135
 20
-68.030485
 11
-55.239495
 21
-68.157967
  0
LINE
  8
補助線
  6
BYBLOCK
 62
    64
 10
-63.612493
 20
-60.99788
 11
-63.739975
 21
-60.890523
  0
LINE
  8
補助線
  6
BYBLOCK
 62
    64
 10
-63.622552
 20
-60.880458
 11
-63.729912
 21
-61.007945
  0
LINE
  8
型材断面
  6
CONTINUOUS
 10
-45.903643
 20
-74.82155
 11
-45.843265
 21
-75.526075
  0
LINE
  8
型材断面
  6
CONTINUOUS
 10
-45.843265
 20
-75.526075
 11
-46.272697
 21
-76.03601
  0
LINE
  8
型材断面
  6
CONTINUOUS
 10
-46.272697
 20
-76.03601
 11
-46.977222
 21
-76.096388
  0
LINE
  8
型材断面
  6
CONTINUOUS
 10
-63.39441
 20
-60.09207
 11
-64.098935
 21
-60.152448
  0
LINE
  8
型材断面
  6
CONTINUOUS
 10
-64.098935
 20
-60.152448
 11
-64.528367
 21
-60.662382
  0
LINE
  8
型材断面
  6
CONTINUOUS
 10
-64.528367
 20
-60.662382
 11
-64.46799
 21
-61.366907
  0
LINE
  8
型材断面
  6
CONTINUOUS
 10
-45.903643
 20
-74.82155
 11
-63.39441
 21
-60.09207
  0
LINE
  8
型材断面
  6
CONTINUOUS
 10
-46.977222
 20
-76.096388
 11
-64.46799
 21
-61.366907
  0
CIRCLE
  8
ボルト／ビス
  6
CONTINUOUS
 10
-46.695398
 20
-75.244253
 40
0.250185
  0
CIRCLE
  8
ボルト／ビス
  6
CONTINUOUS
 10
-46.695398
 20
-75.244253
 40
0.301025
  0
LINE
  8
ボルト／ビス
  6
CONTINUOUS
 62
    64
 10
-46.44909
 20
-75.288135
 11
-46.534242
 21
-75.052887
  0
LINE
  8
ボルト／ビス
  6
CONTINUOUS
 62
    64
 10
-46.78055
 20
-75.009003
 11
-46.534242
 21
-75.052887
  0
LINE
  8
ボルト／ビス
  6
CONTINUOUS
 62
    64
 10
-46.610245
 20
-75.479503
 11
-46.856552
 21
-75.435617
  0
LINE
  8
ボルト／ビス
  6
CONTINUOUS
 62
    64
 10
-46.941705
 20
-75.20037
 11
-46.856552
 21
-75.435617
  0
LINE
  8
ボルト／ビス
  6
CONTINUOUS
 62
    64
 10
-46.44909
 20
-75.288135
 11
-46.610245
 21
-75.479503
  0
LINE
  8
ボルト／ビス
  6
CONTINUOUS
 62
    64
 10
-46.78055
 20
-75.009003
 11
-46.941705
 21
-75.20037
  0
CIRCLE
  8
ボルト／ビス
  6
CONTINUOUS
 62
    64
 10
-46.695398
 20
-75.244253
 40
0.216668
  0
CIRCLE
  8
ボルト／ビス
  6
CONTINUOUS
 10
-55.185815
 20
-68.094228
 40
0.250185
  0
CIRCLE
  8
ボルト／ビス
  6
CONTINUOUS
 10
-55.185815
 20
-68.094228
 40
0.301025
  0
LINE
  8
ボルト／ビス
  6
CONTINUOUS
 62
    64
 10
-54.939508
 20
-68.13811
 11
-55.02466
 21
-67.90286
  0
LINE
  8
ボルト／ビス
  6
CONTINUOUS
 62
    64
 10
-55.270968
 20
-67.858978
 11
-55.02466
 21
-67.90286
  0
LINE
  8
ボルト／ビス
  6
CONTINUOUS
 62
    64
 10
-55.100662
 20
-68.329478
 11
-55.346972
 21
-68.285595
  0
LINE
  8
ボルト／ビス
  6
CONTINUOUS
 62
    64
 10
-55.432122
 20
-68.050348
 11
-55.346972
 21
-68.285595
  0
LINE
  8
ボルト／ビス
  6
CONTINUOUS
 62
    64
 10
-54.939508
 20
-68.13811
 11
-55.100662
 21
-68.329478
  0
LINE
  8
ボルト／ビス
  6
CONTINUOUS
 62
    64
 10
-55.270968
 20
-67.858978
 11
-55.432122
 21
-68.050348
  0
CIRCLE
  8
ボルト／ビス
  6
CONTINUOUS
 62
    64
 10
-55.185815
 20
-68.094228
 40
0.216668
  0
CIRCLE
  8
ボルト／ビス
  6
CONTINUOUS
 10
-63.676235
 20
-60.944203
 40
0.250185
  0
CIRCLE
  8
ボルト／ビス
  6
CONTINUOUS
 10
-63.676235
 20
-60.944203
 40
0.301025
  0
LINE
  8
ボルト／ビス
  6
CONTINUOUS
 62
    64
 10
-63.761387
 20
-60.708953
 11
-63.515078
 21
-60.752837
  0
LINE
  8
ボルト／ビス
  6
CONTINUOUS
 62
    64
 10
-63.429925
 20
-60.988085
 11
-63.515078
 21
-60.752837
  0
LINE
  8
ボルト／ビス
  6
CONTINUOUS
 62
    64
 10
-63.92254
 20
-60.90032
 11
-63.83739
 21
-61.135567
  0
LINE
  8
ボルト／ビス
  6
CONTINUOUS
 62
    64
 10
-63.59108
 20
-61.179453
 11
-63.83739
 21
-61.135567
  0
LINE
  8
ボルト／ビス
  6
CONTINUOUS
 62
    64
 10
-63.761387
 20
-60.708953
 11
-63.92254
 21
-60.90032
  0
LINE
  8
ボルト／ビス
  6
CONTINUOUS
 62
    64
 10
-63.429925
 20
-60.988085
 11
-63.59108
 21
-61.179453
  0
CIRCLE
  8
ボルト／ビス
  6
CONTINUOUS
 62
    64
 10
-63.676235
 20
-60.944203
 40
0.216668
  0
ENDBLK
  0
BLOCK
  2
*GRP_0018
 70
    65
 10
0.0
 20
0.0
  0
LINE
  8
補助線
  6
BYBLOCK
 62
    64
 10
46.26003
 20
-75.190572
 11
46.387515
 21
-75.297933
  0
LINE
  8
補助線
  6
BYBLOCK
 62
    64
 10
46.377453
 20
-75.180508
 11
46.270092
 21
-75.307995
  0
LINE
  8
補助線
  6
BYBLOCK
 62
    64
 10
37.769613
 20
-68.04055
 11
37.897098
 21
-68.147905
  0
LINE
  8
補助線
  6
BYBLOCK
 62
    64
 10
37.887035
 20
-68.030485
 11
37.779675
 21
-68.157967
  0
LINE
  8
補助線
  6
BYBLOCK
 62
    64
 10
29.406677
 20
-60.99788
 11
29.279195
 21
-60.890523
  0
LINE
  8
補助線
  6
BYBLOCK
 62
    64
 10
29.396617
 20
-60.880458
 11
29.289257
 21
-61.007945
  0
LINE
  8
型材断面
  6
CONTINUOUS
 10
47.115527
 20
-74.82155
 11
47.175905
 21
-75.526075
  0
LINE
  8
型材断面
  6
CONTINUOUS
 10
47.175905
 20
-75.526075
 11
46.746472
 21
-76.03601
  0
LINE
  8
型材断面
  6
CONTINUOUS
 10
46.746472
 20
-76.03601
 11
46.041948
 21
-76.096388
  0
LINE
  8
型材断面
  6
CONTINUOUS
 10
29.62476
 20
-60.09207
 11
28.920235
 21
-60.152448
  0
LINE
  8
型材断面
  6
CONTINUOUS
 10
28.920235
 20
-60.152448
 11
28.490803
 21
-60.662382
  0
LINE
  8
型材断面
  6
CONTINUOUS
 10
28.490803
 20
-60.662382
 11
28.55118
 21
-61.366907
  0
LINE
  8
型材断面
  6
CONTINUOUS
 10
47.115527
 20
-74.82155
 11
29.62476
 21
-60.09207
  0
LINE
  8
型材断面
  6
CONTINUOUS
 10
46.041948
 20
-76.096388
 11
28.55118
 21
-61.366907
  0
CIRCLE
  8
ボルト／ビス
  6
CONTINUOUS
 10
46.323773
 20
-75.244253
 40
0.250185
  0
CIRCLE
  8
ボルト／ビス
  6
CONTINUOUS
 10
46.323773
 20
-75.244253
 40
0.301025
  0
LINE
  8
ボルト／ビス
  6
CONTINUOUS
 62
    64
 10
46.57008
 20
-75.288135
 11
46.484928
 21
-75.052887
  0
LINE
  8
ボルト／ビス
  6
CONTINUOUS
 62
    64
 10
46.23862
 20
-75.009003
 11
46.484928
 21
-75.052887
  0
LINE
  8
ボルト／ビス
  6
CONTINUOUS
 62
    64
 10
46.408925
 20
-75.479503
 11
46.162617
 21
-75.435617
  0
LINE
  8
ボルト／ビス
  6
CONTINUOUS
 62
    64
 10
46.077465
 20
-75.20037
 11
46.162617
 21
-75.435617
  0
LINE
  8
ボルト／ビス
  6
CONTINUOUS
 62
    64
 10
46.57008
 20
-75.288135
 11
46.408925
 21
-75.479503
  0
LINE
  8
ボルト／ビス
  6
CONTINUOUS
 62
    64
 10
46.23862
 20
-75.009003
 11
46.077465
 21
-75.20037
  0
CIRCLE
  8
ボルト／ビス
  6
CONTINUOUS
 62
    64
 10
46.323773
 20
-75.244253
 40
0.216668
  0
CIRCLE
  8
ボルト／ビス
  6
CONTINUOUS
 10
37.833355
 20
-68.094228
 40
0.250185
  0
CIRCLE
  8
ボルト／ビス
  6
CONTINUOUS
 10
37.833355
 20
-68.094228
 40
0.301025
  0
LINE
  8
ボルト／ビス
  6
CONTINUOUS
 62
    64
 10
38.079663
 20
-68.13811
 11
37.99451
 21
-67.90286
  0
LINE
  8
ボルト／ビス
  6
CONTINUOUS
 62
    64
 10
37.748202
 20
-67.858978
 11
37.99451
 21
-67.90286
  0
LINE
  8
ボルト／ビス
  6
CONTINUOUS
 62
    64
 10
37.918507
 20
-68.329478
 11
37.672198
 21
-68.285595
  0
LINE
  8
ボルト／ビス
  6
CONTINUOUS
 62
    64
 10
37.587047
 20
-68.050348
 11
37.672198
 21
-68.285595
  0
LINE
  8
ボルト／ビス
  6
CONTINUOUS
 62
    64
 10
38.079663
 20
-68.13811
 11
37.918507
 21
-68.329478
  0
LINE
  8
ボルト／ビス
  6
CONTINUOUS
 62
    64
 10
37.748202
 20
-67.858978
 11
37.587047
 21
-68.050348
  0
CIRCLE
  8
ボルト／ビス
  6
CONTINUOUS
 62
    64
 10
37.833355
 20
-68.094228
 40
0.216668
  0
CIRCLE
  8
ボルト／ビス
  6
CONTINUOUS
 10
29.342935
 20
-60.944203
 40
0.250185
  0
CIRCLE
  8
ボルト／ビス
  6
CONTINUOUS
 10
29.342935
 20
-60.944203
 40
0.301025
  0
LINE
  8
ボルト／ビス
  6
CONTINUOUS
 62
    64
 10
29.257783
 20
-60.708953
 11
29.504092
 21
-60.752837
  0
LINE
  8
ボルト／ビス
  6
CONTINUOUS
 62
    64
 10
29.589245
 20
-60.988085
 11
29.504092
 21
-60.752837
  0
LINE
  8
ボルト／ビス
  6
CONTINUOUS
 62
    64
 10
29.09663
 20
-60.90032
 11
29.18178
 21
-61.135567
  0
LINE
  8
ボルト／ビス
  6
CONTINUOUS
 62
    64
 10
29.42809
 20
-61.179453
 11
29.18178
 21
-61.135567
  0
LINE
  8
ボルト／ビス
  6
CONTINUOUS
 62
    64
 10
29.257783
 20
-60.708953
 11
29.09663
 21
-60.90032
  0
LINE
  8
ボルト／ビス
  6
CONTINUOUS
 62
    64
 10
29.589245
 20
-60.988085
 11
29.42809
 21
-61.179453
  0
CIRCLE
  8
ボルト／ビス
  6
CONTINUOUS
 62
    64
 10
29.342935
 20
-60.944203
 40
0.216668
  0
ENDBLK
  0
BLOCK
  2
*GRP_0019
 70
    65
 10
0.0
 20
0.0
  0
LINE
  8
補助線
  6
BYBLOCK
 62
    64
 10
29.40668
 20
-75.190572
 11
29.279195
 21
-75.297933
  0
LINE
  8
補助線
  6
BYBLOCK
 62
    64
 10
29.289257
 20
-75.180508
 11
29.396617
 21
-75.307995
  0
LINE
  8
補助線
  6
BYBLOCK
 62
    64
 10
37.897098
 20
-68.04055
 11
37.769613
 21
-68.147905
  0
LINE
  8
補助線
  6
BYBLOCK
 62
    64
 10
37.779675
 20
-68.030485
 11
37.887035
 21
-68.157967
  0
LINE
  8
補助線
  6
BYBLOCK
 62
    64
 10
46.260032
 20
-60.99788
 11
46.387515
 21
-60.890523
  0
LINE
  8
補助線
  6
BYBLOCK
 62
    64
 10
46.270092
 20
-60.880458
 11
46.377453
 21
-61.007945
  0
LINE
  8
型材断面
  6
CONTINUOUS
 10
28.551182
 20
-74.82155
 11
28.490805
 21
-75.526075
  0
LINE
  8
型材断面
  6
CONTINUOUS
 10
28.490805
 20
-75.526075
 11
28.920238
 21
-76.03601
  0
LINE
  8
型材断面
  6
CONTINUOUS
 10
28.920238
 20
-76.03601
 11
29.624762
 21
-76.096388
  0
LINE
  8
型材断面
  6
CONTINUOUS
 10
46.04195
 20
-60.09207
 11
46.746475
 21
-60.152448
  0
LINE
  8
型材断面
  6
CONTINUOUS
 10
46.746475
 20
-60.152448
 11
47.175907
 21
-60.662382
  0
LINE
  8
型材断面
  6
CONTINUOUS
 10
47.175907
 20
-60.662382
 11
47.11553
 21
-61.366907
  0
LINE
  8
型材断面
  6
CONTINUOUS
 10
28.551182
 20
-74.82155
 11
46.04195
 21
-60.09207
  0
LINE
  8
型材断面
  6
CONTINUOUS
 10
29.624762
 20
-76.096388
 11
47.11553
 21
-61.366907
  0
CIRCLE
  8
ボルト／ビス
  6
CONTINUOUS
 10
29.342937
 20
-75.244253
 40
0.250185
  0
CIRCLE
  8
ボルト／ビス
  6
CONTINUOUS
 10
29.342937
 20
-75.244253
 40
0.301025
  0
LINE
  8
ボルト／ビス
  6
CONTINUOUS
 62
    64
 10
29.09663
 20
-75.288135
 11
29.181783
 21
-75.052887
  0
LINE
  8
ボルト／ビス
  6
CONTINUOUS
 62
    64
 10
29.42809
 20
-75.009003
 11
29.181783
 21
-75.052887
  0
LINE
  8
ボルト／ビス
  6
CONTINUOUS
 62
    64
 10
29.257785
 20
-75.479503
 11
29.504092
 21
-75.435617
  0
LINE
  8
ボルト／ビス
  6
CONTINUOUS
 62
    64
 10
29.589245
 20
-75.20037
 11
29.504092
 21
-75.435617
  0
LINE
  8
ボルト／ビス
  6
CONTINUOUS
 62
    64
 10
29.09663
 20
-75.288135
 11
29.257785
 21
-75.479503
  0
LINE
  8
ボルト／ビス
  6
CONTINUOUS
 62
    64
 10
29.42809
 20
-75.009003
 11
29.589245
 21
-75.20037
  0
CIRCLE
  8
ボルト／ビス
  6
CONTINUOUS
 62
    64
 10
29.342937
 20
-75.244253
 40
0.216668
  0
CIRCLE
  8
ボルト／ビス
  6
CONTINUOUS
 10
37.833355
 20
-68.094228
 40
0.250185
  0
CIRCLE
  8
ボルト／ビス
  6
CONTINUOUS
 10
37.833355
 20
-68.094228
 40
0.301025
  0
LINE
  8
ボルト／ビス
  6
CONTINUOUS
 62
    64
 10
37.587047
 20
-68.13811
 11
37.6722
 21
-67.90286
  0
LINE
  8
ボルト／ビス
  6
CONTINUOUS
 62
    64
 10
37.918507
 20
-67.858978
 11
37.6722
 21
-67.90286
  0
LINE
  8
ボルト／ビス
  6
CONTINUOUS
 62
    64
 10
37.748202
 20
-68.329478
 11
37.994513
 21
-68.285595
  0
LINE
  8
ボルト／ビス
  6
CONTINUOUS
 62
    64
 10
38.079663
 20
-68.050348
 11
37.994513
 21
-68.285595
  0
LINE
  8
ボルト／ビス
  6
CONTINUOUS
 62
    64
 10
37.587047
 20
-68.13811
 11
37.748202
 21
-68.329478
  0
LINE
  8
ボルト／ビス
  6
CONTINUOUS
 62
    64
 10
37.918507
 20
-67.858978
 11
38.079663
 21
-68.050348
  0
CIRCLE
  8
ボルト／ビス
  6
CONTINUOUS
 62
    64
 10
37.833355
 20
-68.094228
 40
0.216668
  0
CIRCLE
  8
ボルト／ビス
  6
CONTINUOUS
 10
46.323775
 20
-60.944203
 40
0.250185
  0
CIRCLE
  8
ボルト／ビス
  6
CONTINUOUS
 10
46.323775
 20
-60.944203
 40
0.301025
  0
LINE
  8
ボルト／ビス
  6
CONTINUOUS
 62
    64
 10
46.408928
 20
-60.708953
 11
46.162617
 21
-60.752837
  0
LINE
  8
ボルト／ビス
  6
CONTINUOUS
 62
    64
 10
46.077465
 20
-60.988085
 11
46.162617
 21
-60.752837
  0
LINE
  8
ボルト／ビス
  6
CONTINUOUS
 62
    64
 10
46.57008
 20
-60.90032
 11
46.48493
 21
-61.135567
  0
LINE
  8
ボルト／ビス
  6
CONTINUOUS
 62
    64
 10
46.23862
 20
-61.179453
 11
46.48493
 21
-61.135567
  0
LINE
  8
ボルト／ビス
  6
CONTINUOUS
 62
    64
 10
46.408928
 20
-60.708953
 11
46.57008
 21
-60.90032
  0
LINE
  8
ボルト／ビス
  6
CONTINUOUS
 62
    64
 10
46.077465
 20
-60.988085
 11
46.23862
 21
-61.179453
  0
CIRCLE
  8
ボルト／ビス
  6
CONTINUOUS
 62
    64
 10
46.323775
 20
-60.944203
 40
0.216668
  0
ENDBLK
  0
BLOCK
  2
*DIM_0020
 70
    65
 10
0.0
 20
0.0
  0
LINE
  8
寸法
  6
BYBLOCK
 62
     0
 10
-78.342895
 20
47.814033
 11
-91.635732
 21
47.814033
  0
LINE
  8
寸法
  6
BYBLOCK
 62
     0
 10
-78.342895
 20
27.814033
 11
-91.635732
 21
27.814033
  0
LINE
  8
寸法
  6
BYBLOCK
 62
     0
 10
-91.635732
 20
47.814033
 11
-91.635732
 21
27.814033
  0
POINT
  8
寸法
 62
     0
 10
-91.635732
 20
47.814033
  0
POINT
  8
寸法
 62
     0
 10
-91.635732
 20
27.814033
  0
TEXT
  7
TextStyle03
  8
寸法
  6
CONTINUOUS
 62
     0
 10
-92.025
 20
35.3625
  1
600
 40
3.0
 50
90.0
 72
     5
 11
-92.025
 21
40.2375
  0
ENDBLK
  0
BLOCK
  2
*DIM_0021
 70
    65
 10
0.0
 20
0.0
  0
LINE
  8
寸法
  6
BYBLOCK
 62
     0
 10
-67.009562
 20
55.814033
 11
-67.009562
 21
84.922105
  0
LINE
  8
寸法
  6
BYBLOCK
 62
     0
 10
-43.67623
 20
55.814033
 11
-43.67623
 21
84.922105
  0
LINE
  8
寸法
  6
BYBLOCK
 62
     0
 10
-67.009562
 20
84.922105
 11
-43.67623
 21
84.922105
  0
POINT
  8
寸法
 62
     0
 10
-67.009562
 20
84.922105
  0
POINT
  8
寸法
 62
     0
 10
-43.67623
 20
84.922105
  0
TEXT
  7
TextStyle03
  8
寸法
  6
CONTINUOUS
 62
     0
 10
-57.8125
 20
85.3
  1
700
 40
3.0
 72
     5
 11
-52.9375
 21
85.3
  0
ENDBLK
  0
BLOCK
  2
*DIM_0022
 70
    65
 10
0.0
 20
0.0
  0
LINE
  8
寸法
  6
BYBLOCK
 62
     0
 10
-20.342897
 20
55.814033
 11
-20.342897
 21
84.922105
  0
LINE
  8
寸法
  6
BYBLOCK
 62
     0
 10
-43.67623
 20
84.922105
 11
-20.342897
 21
84.922105
  0
POINT
  8
寸法
 62
     0
 10
-20.342897
 20
84.922105
  0
TEXT
  7
TextStyle03
  8
寸法
  6
CONTINUOUS
 62
     0
 10
-34.4875
 20
85.3
  1
700
 40
3.0
 72
     5
 11
-29.6125
 21
85.3
  0
ENDBLK
  0
BLOCK
  2
*DIM_0023
 70
    65
 10
0.0
 20
0.0
  0
LINE
  8
寸法
  6
BYBLOCK
 62
     0
 10
2.990438
 20
55.814033
 11
2.990438
 21
84.922105
  0
LINE
  8
寸法
  6
BYBLOCK
 62
     0
 10
-20.342897
 20
84.922105
 11
2.990438
 21
84.922105
  0
POINT
  8
寸法
 62
     0
 10
2.990438
 20
84.922105
  0
TEXT
  7
TextStyle03
  8
寸法
  6
CONTINUOUS
 62
     0
 10
-11.1625
 20
85.3
  1
700
 40
3.0
 72
     5
 11
-6.2875
 21
85.3
  0
ENDBLK
  0
BLOCK
  2
*DIM_0024
 70
    65
 10
0.0
 20
0.0
  0
LINE
  8
寸法
  6
BYBLOCK
 62
     0
 10
26.32377
 20
55.814033
 11
26.32377
 21
84.922105
  0
LINE
  8
寸法
  6
BYBLOCK
 62
     0
 10
2.990438
 20
84.922105
 11
26.32377
 21
84.922105
  0
POINT
  8
寸法
 62
     0
 10
26.32377
 20
84.922105
  0
TEXT
  7
TextStyle03
  8
寸法
  6
CONTINUOUS
 62
     0
 10
12.1875
 20
85.3
  1
700
 40
3.0
 72
     5
 11
17.0625
 21
85.3
  0
ENDBLK
  0
BLOCK
  2
*DIM_0025
 70
    65
 10
0.0
 20
0.0
  0
LINE
  8
寸法
  6
BYBLOCK
 62
     0
 10
49.657102
 20
55.814033
 11
49.657102
 21
84.922105
  0
LINE
  8
寸法
  6
BYBLOCK
 62
     0
 10
26.32377
 20
84.922105
 11
49.657102
 21
84.922105
  0
POINT
  8
寸法
 62
     0
 10
49.657102
 20
84.922105
  0
TEXT
  7
TextStyle03
  8
寸法
  6
CONTINUOUS
 62
     0
 10
35.5125
 20
85.3
  1
700
 40
3.0
 72
     5
 11
40.3875
 21
85.3
  0
ENDBLK
  0
BLOCK
  2
*DIM_0026
 70
    65
 10
0.0
 20
0.0
  0
LINE
  8
寸法
  6
CONTINUOUS
 10
120.74366
 20
-51.73949
 11
120.74366
 21
-39.363543
  0
LINE
  8
寸法
  6
CONTINUOUS
 10
153.076993
 20
-51.73949
 11
153.076993
 21
-39.363543
  0
LINE
  8
寸法
  6
CONTINUOUS
 10
120.74366
 20
-39.363543
 11
153.076993
 21
-39.363543
  0
POINT
  8
寸法
 10
120.74366
 20
-39.363543
  0
POINT
  8
寸法
 10
153.076993
 20
-39.363543
  0
TEXT
  7
TextStyle03
  8
寸法
  6
CONTINUOUS
 10
134.4625
 20
-39.0
  1
970
 40
3.0
 72
     5
 11
139.3375
 21
-39.0
  0
ENDBLK
  0
BLOCK
  2
*DIM_0027
 70
    65
 10
0.0
 20
0.0
  0
LINE
  8
寸法
  6
BYBLOCK
 62
     0
 10
45.990438
 20
-50.209613
 11
73.960088
 21
-50.209613
  0
LINE
  8
寸法
  6
BYBLOCK
 62
     0
 10
73.960088
 20
-61.87628
 11
73.960088
 21
-50.209613
  0
POINT
  8
寸法
 62
     0
 10
73.960088
 20
-61.87628
  0
POINT
  8
寸法
 62
     0
 10
73.960088
 20
-50.209613
  0
TEXT
  7
TextStyle03
  8
寸法
  6
CONTINUOUS
 62
     0
 10
78.675
 20
-65.04375
  1
上昇304以上
 40
3.0
 50
90.0
 72
     5
 11
78.675
 21
-46.85625
  0
ENDBLK
  0
BLOCK
  2
*DIM_0028
 70
    65
 10
0.0
 20
0.0
  0
LINE
  8
寸法
  6
CONTINUOUS
 10
158.076993
 20
-53.748967
 11
166.370097
 21
-53.748967
  0
LINE
  8
寸法
  6
CONTINUOUS
 10
158.076993
 20
-83.0823
 11
166.370097
 21
-83.0823
  0
LINE
  8
寸法
  6
CONTINUOUS
 10
166.370097
 20
-53.748967
 11
166.370097
 21
-83.0823
  0
POINT
  8
寸法
 10
166.370097
 20
-53.748967
  0
POINT
  8
寸法
 10
166.370097
 20
-83.0823
  0
TEXT
  7
TextStyle03
  8
寸法
  6
CONTINUOUS
 10
165.975
 20
-70.8625
  1
880
 40
3.0
 50
90.0
 72
     5
 11
165.975
 21
-65.9875
  0
ENDBLK
  0
BLOCK
  2
*GRP_0029
 70
    65
 10
0.0
 20
0.0
  0
LINE
  8
ボルト／ビス
  6
CONTINUOUS
 10
147.68612
 20
53.4807
 11
147.219455
 21
53.4807
  0
LINE
  8
ボルト／ビス
  6
CONTINUOUS
 10
147.68612
 20
53.847365
 11
147.619455
 21
53.847365
  0
LINE
  8
ボルト／ビス
  6
CONTINUOUS
 10
147.619455
 20
53.847365
 11
147.619455
 21
53.114033
  0
LINE
  8
ボルト／ビス
  6
CONTINUOUS
 10
147.619455
 20
53.114033
 11
147.68612
 21
53.114033
  0
LINE
  8
ボルト／ビス
  6
CONTINUOUS
 10
147.68612
 20
53.847365
 11
147.68612
 21
53.114033
  0
LINE
  8
ボルト／ビス
  6
CONTINUOUS
 10
147.58612
 20
53.7807
 11
147.619455
 21
53.7807
  0
LINE
  8
ボルト／ビス
  6
CONTINUOUS
 10
147.58612
 20
53.7807
 11
147.58612
 21
53.1807
  0
LINE
  8
ボルト／ビス
  6
CONTINUOUS
 10
147.58612
 20
53.1807
 11
147.619455
 21
53.1807
  0
LINE
  8
ボルト／ビス
  6
CONTINUOUS
 62
    64
 10
147.38612
 20
53.641075
 11
147.397795
 21
53.67315
  0
ARC
  8
ボルト／ビス
  6
CONTINUOUS
 62
    64
 10
147.491098
 20
53.625036
 40
0.104978
 50
180.0
 51
207.278033
  0
ARC
  8
ボルト／ビス
  6
CONTINUOUS
 62
    64
 10
147.788522
 20
53.480699
 40
0.402402
 50
166.165015
 51
193.834998
  0
LINE
  8
ボルト／ビス
  6
CONTINUOUS
 62
    64
 10
147.38612
 20
53.320325
 11
147.397795
 21
53.28825
  0
ARC
  8
ボルト／ビス
  6
CONTINUOUS
 62
    64
 10
147.491098
 20
53.336361
 40
0.104978
 50
152.721967
 51
180.0
  0
LINE
  8
ボルト／ビス
  6
CONTINUOUS
 62
    64
 10
147.38612
 20
53.641075
 11
147.38612
 21
53.320325
  0
LINE
  8
ボルト／ビス
  6
CONTINUOUS
 62
    64
 10
147.397795
 20
53.28825
 11
147.519455
 21
53.28825
  0
LINE
  8
ボルト／ビス
  6
CONTINUOUS
 62
    64
 10
147.397795
 20
53.384475
 11
147.519455
 21
53.384475
  0
LINE
  8
ボルト／ビス
  6
CONTINUOUS
 62
    64
 10
147.397795
 20
53.67315
 11
147.519455
 21
53.67315
  0
LINE
  8
ボルト／ビス
  6
CONTINUOUS
 62
    64
 10
147.397795
 20
53.576925
 11
147.519455
 21
53.576925
  0
LINE
  8
ボルト／ビス
  6
CONTINUOUS
 10
147.519455
 20
53.67315
 11
147.519455
 21
53.28825
  0
LINE
  8
ボルト／ビス
  6
CONTINUOUS
 10
147.519455
 20
53.6807
 11
147.58612
 21
53.6807
  0
LINE
  8
ボルト／ビス
  6
CONTINUOUS
 10
147.519455
 20
53.6807
 11
147.519455
 21
53.2807
  0
LINE
  8
ボルト／ビス
  6
CONTINUOUS
 10
147.519455
 20
53.2807
 11
147.58612
 21
53.2807
  0
ENDBLK
  0
BLOCK
  2
*GRP_0030
 70
    65
 10
0.0
 20
0.0
  0
LINE
  8
ボルト／ビス
  6
CONTINUOUS
 10
147.68612
 20
22.147365
 11
147.219455
 21
22.147365
  0
LINE
  8
ボルト／ビス
  6
CONTINUOUS
 10
147.68612
 20
22.51403
 11
147.619455
 21
22.51403
  0
LINE
  8
ボルト／ビス
  6
CONTINUOUS
 10
147.619455
 20
22.51403
 11
147.619455
 21
21.780697
  0
LINE
  8
ボルト／ビス
  6
CONTINUOUS
 10
147.619455
 20
21.780697
 11
147.68612
 21
21.780697
  0
LINE
  8
ボルト／ビス
  6
CONTINUOUS
 10
147.68612
 20
22.51403
 11
147.68612
 21
21.780697
  0
LINE
  8
ボルト／ビス
  6
CONTINUOUS
 10
147.58612
 20
22.447365
 11
147.619455
 21
22.447365
  0
LINE
  8
ボルト／ビス
  6
CONTINUOUS
 10
147.58612
 20
22.447365
 11
147.58612
 21
21.847365
  0
LINE
  8
ボルト／ビス
  6
CONTINUOUS
 10
147.58612
 20
21.847365
 11
147.619455
 21
21.847365
  0
LINE
  8
ボルト／ビス
  6
CONTINUOUS
 62
    64
 10
147.38612
 20
22.30774
 11
147.397795
 21
22.339815
  0
ARC
  8
ボルト／ビス
  6
CONTINUOUS
 62
    64
 10
147.491098
 20
22.291701
 40
0.104978
 50
180.0
 51
207.278033
  0
ARC
  8
ボルト／ビス
  6
CONTINUOUS
 62
    64
 10
147.788522
 20
22.147364
 40
0.402402
 50
166.165015
 51
193.834998
  0
LINE
  8
ボルト／ビス
  6
CONTINUOUS
 62
    64
 10
147.38612
 20
21.98699
 11
147.397795
 21
21.954915
  0
ARC
  8
ボルト／ビス
  6
CONTINUOUS
 62
    64
 10
147.491098
 20
22.003026
 40
0.104978
 50
152.721967
 51
180.0
  0
LINE
  8
ボルト／ビス
  6
CONTINUOUS
 62
    64
 10
147.38612
 20
22.30774
 11
147.38612
 21
21.98699
  0
LINE
  8
ボルト／ビス
  6
CONTINUOUS
 62
    64
 10
147.397795
 20
21.954915
 11
147.519455
 21
21.954915
  0
LINE
  8
ボルト／ビス
  6
CONTINUOUS
 62
    64
 10
147.397795
 20
22.05114
 11
147.519455
 21
22.05114
  0
LINE
  8
ボルト／ビス
  6
CONTINUOUS
 62
    64
 10
147.397795
 20
22.339815
 11
147.519455
 21
22.339815
  0
LINE
  8
ボルト／ビス
  6
CONTINUOUS
 62
    64
 10
147.397795
 20
22.24359
 11
147.519455
 21
22.24359
  0
LINE
  8
ボルト／ビス
  6
CONTINUOUS
 10
147.519455
 20
22.339815
 11
147.519455
 21
21.954915
  0
LINE
  8
ボルト／ビス
  6
CONTINUOUS
 10
147.519455
 20
22.347365
 11
147.58612
 21
22.347365
  0
LINE
  8
ボルト／ビス
  6
CONTINUOUS
 10
147.519455
 20
22.347365
 11
147.519455
 21
21.947365
  0
LINE
  8
ボルト／ビス
  6
CONTINUOUS
 10
147.519455
 20
21.947365
 11
147.58612
 21
21.947365
  0
ENDBLK
  0
BLOCK
  2
*GRP_0031
 70
    65
 10
0.0
 20
0.0
  0
LINE
  8
ボルト／ビス
  6
CONTINUOUS
 10
58.657105
 20
-70.209613
 11
58.657105
 21
-69.742947
  0
LINE
  8
ボルト／ビス
  6
CONTINUOUS
 10
58.29044
 20
-70.209613
 11
58.29044
 21
-70.142947
  0
LINE
  8
ボルト／ビス
  6
CONTINUOUS
 10
58.29044
 20
-70.142947
 11
59.023773
 21
-70.142947
  0
LINE
  8
ボルト／ビス
  6
CONTINUOUS
 10
59.023773
 20
-70.142947
 11
59.023773
 21
-70.209613
  0
LINE
  8
ボルト／ビス
  6
CONTINUOUS
 10
58.29044
 20
-70.209613
 11
59.023773
 21
-70.209613
  0
LINE
  8
ボルト／ビス
  6
CONTINUOUS
 10
58.357105
 20
-70.109612
 11
58.357105
 21
-70.142947
  0
LINE
  8
ボルト／ビス
  6
CONTINUOUS
 10
58.357105
 20
-70.109612
 11
58.957105
 21
-70.109612
  0
LINE
  8
ボルト／ビス
  6
CONTINUOUS
 10
58.957105
 20
-70.109612
 11
58.957105
 21
-70.142947
  0
LINE
  8
ボルト／ビス
  6
CONTINUOUS
 62
    64
 10
58.49673
 20
-69.909613
 11
58.464655
 21
-69.921288
  0
ARC
  8
ボルト／ビス
  6
CONTINUOUS
 62
    64
 10
58.512768
 20
-70.01459
 40
0.104978
 50
62.721967
 51
90.0
  0
ARC
  8
ボルト／ビス
  6
CONTINUOUS
 62
    64
 10
58.657106
 20
-70.312014
 40
0.402402
 50
76.165002
 51
103.834985
  0
LINE
  8
ボルト／ビス
  6
CONTINUOUS
 62
    64
 10
58.81748
 20
-69.909613
 11
58.849555
 21
-69.921288
  0
ARC
  8
ボルト／ビス
  6
CONTINUOUS
 62
    64
 10
58.801443
 20
-70.01459
 40
0.104978
 50
90.0
 51
117.278033
  0
LINE
  8
ボルト／ビス
  6
CONTINUOUS
 62
    64
 10
58.49673
 20
-69.909613
 11
58.81748
 21
-69.909613
  0
LINE
  8
ボルト／ビス
  6
CONTINUOUS
 62
    64
 10
58.849555
 20
-69.921288
 11
58.849555
 21
-70.042947
  0
LINE
  8
ボルト／ビス
  6
CONTINUOUS
 62
    64
 10
58.75333
 20
-69.921288
 11
58.75333
 21
-70.042947
  0
LINE
  8
ボルト／ビス
  6
CONTINUOUS
 62
    64
 10
58.464655
 20
-69.921288
 11
58.464655
 21
-70.042947
  0
LINE
  8
ボルト／ビス
  6
CONTINUOUS
 62
    64
 10
58.56088
 20
-69.921288
 11
58.56088
 21
-70.042947
  0
LINE
  8
ボルト／ビス
  6
CONTINUOUS
 10
58.464655
 20
-70.042947
 11
58.849555
 21
-70.042947
  0
LINE
  8
ボルト／ビス
  6
CONTINUOUS
 10
58.457105
 20
-70.042947
 11
58.457105
 21
-70.109612
  0
LINE
  8
ボルト／ビス
  6
CONTINUOUS
 10
58.457105
 20
-70.042947
 11
58.857105
 21
-70.042947
  0
LINE
  8
ボルト／ビス
  6
CONTINUOUS
 10
58.857105
 20
-70.042947
 11
58.857105
 21
-70.109612
  0
ENDBLK
  0
BLOCK
  2
*GRP_0032
 70
    65
 10
0.0
 20
0.0
  0
LINE
  8
ボルト／ビス
  6
DOT
 10
58.657105
 20
-58.542945
 11
58.657105
 21
-58.07628
  0
LINE
  8
ボルト／ビス
  6
DOT
 10
58.29044
 20
-58.542945
 11
58.29044
 21
-58.47628
  0
LINE
  8
ボルト／ビス
  6
DOT
 10
58.29044
 20
-58.47628
 11
59.023773
 21
-58.47628
  0
LINE
  8
ボルト／ビス
  6
DOT
 10
59.023773
 20
-58.47628
 11
59.023773
 21
-58.542945
  0
LINE
  8
ボルト／ビス
  6
DOT
 10
58.29044
 20
-58.542945
 11
59.023773
 21
-58.542945
  0
LINE
  8
ボルト／ビス
  6
DOT
 10
58.357105
 20
-58.442945
 11
58.357105
 21
-58.47628
  0
LINE
  8
ボルト／ビス
  6
DOT
 10
58.357105
 20
-58.442945
 11
58.957105
 21
-58.442945
  0
LINE
  8
ボルト／ビス
  6
DOT
 10
58.957105
 20
-58.442945
 11
58.957105
 21
-58.47628
  0
LINE
  8
ボルト／ビス
  6
DOT
 62
    64
 10
58.49673
 20
-58.242945
 11
58.464655
 21
-58.25462
  0
ARC
  8
ボルト／ビス
  6
DOT
 62
    64
 10
58.512768
 20
-58.347922
 40
0.104978
 50
62.721967
 51
90.0
  0
ARC
  8
ボルト／ビス
  6
DOT
 62
    64
 10
58.657106
 20
-58.645346
 40
0.402402
 50
76.165002
 51
103.834985
  0
LINE
  8
ボルト／ビス
  6
DOT
 62
    64
 10
58.81748
 20
-58.242945
 11
58.849555
 21
-58.25462
  0
ARC
  8
ボルト／ビス
  6
DOT
 62
    64
 10
58.801443
 20
-58.347922
 40
0.104978
 50
90.0
 51
117.278033
  0
LINE
  8
ボルト／ビス
  6
DOT
 62
    64
 10
58.49673
 20
-58.242945
 11
58.81748
 21
-58.242945
  0
LINE
  8
ボルト／ビス
  6
DOT
 62
    64
 10
58.849555
 20
-58.25462
 11
58.849555
 21
-58.37628
  0
LINE
  8
ボルト／ビス
  6
DOT
 62
    64
 10
58.75333
 20
-58.25462
 11
58.75333
 21
-58.37628
  0
LINE
  8
ボルト／ビス
  6
DOT
 62
    64
 10
58.464655
 20
-58.25462
 11
58.464655
 21
-58.37628
  0
LINE
  8
ボルト／ビス
  6
DOT
 62
    64
 10
58.56088
 20
-58.25462
 11
58.56088
 21
-58.37628
  0
LINE
  8
ボルト／ビス
  6
DOT
 10
58.464655
 20
-58.37628
 11
58.849555
 21
-58.37628
  0
LINE
  8
ボルト／ビス
  6
DOT
 10
58.457105
 20
-58.37628
 11
58.457105
 21
-58.442945
  0
LINE
  8
ボルト／ビス
  6
DOT
 10
58.457105
 20
-58.37628
 11
58.857105
 21
-58.37628
  0
LINE
  8
ボルト／ビス
  6
DOT
 10
58.857105
 20
-58.37628
 11
58.857105
 21
-58.442945
  0
ENDBLK
  0
BLOCK
  2
*GRP_0033
 70
    65
 10
0.0
 20
0.0
  0
LINE
  8
ボルト／ビス
  6
CONTINUOUS
 10
-76.009565
 20
-70.209613
 11
-76.009565
 21
-69.742947
  0
LINE
  8
ボルト／ビス
  6
CONTINUOUS
 10
-76.37623
 20
-70.209613
 11
-76.37623
 21
-70.142947
  0
LINE
  8
ボルト／ビス
  6
CONTINUOUS
 10
-76.37623
 20
-70.142947
 11
-75.642897
 21
-70.142947
  0
LINE
  8
ボルト／ビス
  6
CONTINUOUS
 10
-75.642897
 20
-70.142947
 11
-75.642897
 21
-70.209613
  0
LINE
  8
ボルト／ビス
  6
CONTINUOUS
 10
-76.37623
 20
-70.209613
 11
-75.642897
 21
-70.209613
  0
LINE
  8
ボルト／ビス
  6
CONTINUOUS
 10
-76.309565
 20
-70.109612
 11
-76.309565
 21
-70.142947
  0
LINE
  8
ボルト／ビス
  6
CONTINUOUS
 10
-76.309565
 20
-70.109612
 11
-75.709565
 21
-70.109612
  0
LINE
  8
ボルト／ビス
  6
CONTINUOUS
 10
-75.709565
 20
-70.109612
 11
-75.709565
 21
-70.142947
  0
LINE
  8
ボルト／ビス
  6
CONTINUOUS
 62
    64
 10
-76.16994
 20
-69.909613
 11
-76.202015
 21
-69.921288
  0
ARC
  8
ボルト／ビス
  6
CONTINUOUS
 62
    64
 10
-76.153902
 20
-70.01459
 40
0.104978
 50
62.721967
 51
90.0
  0
ARC
  8
ボルト／ビス
  6
CONTINUOUS
 62
    64
 10
-76.009564
 20
-70.312014
 40
0.402402
 50
76.165002
 51
103.834985
  0
LINE
  8
ボルト／ビス
  6
CONTINUOUS
 62
    64
 10
-75.84919
 20
-69.909613
 11
-75.817115
 21
-69.921288
  0
ARC
  8
ボルト／ビス
  6
CONTINUOUS
 62
    64
 10
-75.865227
 20
-70.01459
 40
0.104978
 50
90.0
 51
117.278033
  0
LINE
  8
ボルト／ビス
  6
CONTINUOUS
 62
    64
 10
-76.16994
 20
-69.909613
 11
-75.84919
 21
-69.909613
  0
LINE
  8
ボルト／ビス
  6
CONTINUOUS
 62
    64
 10
-75.817115
 20
-69.921288
 11
-75.817115
 21
-70.042947
  0
LINE
  8
ボルト／ビス
  6
CONTINUOUS
 62
    64
 10
-75.91334
 20
-69.921288
 11
-75.91334
 21
-70.042947
  0
LINE
  8
ボルト／ビス
  6
CONTINUOUS
 62
    64
 10
-76.202015
 20
-69.921288
 11
-76.202015
 21
-70.042947
  0
LINE
  8
ボルト／ビス
  6
CONTINUOUS
 62
    64
 10
-76.10579
 20
-69.921288
 11
-76.10579
 21
-70.042947
  0
LINE
  8
ボルト／ビス
  6
CONTINUOUS
 10
-76.202015
 20
-70.042947
 11
-75.817115
 21
-70.042947
  0
LINE
  8
ボルト／ビス
  6
CONTINUOUS
 10
-76.209565
 20
-70.042947
 11
-76.209565
 21
-70.109612
  0
LINE
  8
ボルト／ビス
  6
CONTINUOUS
 10
-76.209565
 20
-70.042947
 11
-75.809565
 21
-70.042947
  0
LINE
  8
ボルト／ビス
  6
CONTINUOUS
 10
-75.809565
 20
-70.042947
 11
-75.809565
 21
-70.109612
  0
ENDBLK
  0
BLOCK
  2
*GRP_0034
 70
    65
 10
0.0
 20
0.0
  0
LINE
  8
ボルト／ビス
  6
DOT
 10
-76.009565
 20
-58.542945
 11
-76.009565
 21
-58.07628
  0
LINE
  8
ボルト／ビス
  6
DOT
 10
-76.37623
 20
-58.542945
 11
-76.37623
 21
-58.47628
  0
LINE
  8
ボルト／ビス
  6
DOT
 10
-76.37623
 20
-58.47628
 11
-75.642897
 21
-58.47628
  0
LINE
  8
ボルト／ビス
  6
DOT
 10
-75.642897
 20
-58.47628
 11
-75.642897
 21
-58.542945
  0
LINE
  8
ボルト／ビス
  6
DOT
 10
-76.37623
 20
-58.542945
 11
-75.642897
 21
-58.542945
  0
LINE
  8
ボルト／ビス
  6
DOT
 10
-76.309565
 20
-58.442945
 11
-76.309565
 21
-58.47628
  0
LINE
  8
ボルト／ビス
  6
DOT
 10
-76.309565
 20
-58.442945
 11
-75.709565
 21
-58.442945
  0
LINE
  8
ボルト／ビス
  6
DOT
 10
-75.709565
 20
-58.442945
 11
-75.709565
 21
-58.47628
  0
LINE
  8
ボルト／ビス
  6
DOT
 62
    64
 10
-76.16994
 20
-58.242945
 11
-76.202015
 21
-58.25462
  0
ARC
  8
ボルト／ビス
  6
DOT
 62
    64
 10
-76.153902
 20
-58.347922
 40
0.104978
 50
62.721967
 51
90.0
  0
ARC
  8
ボルト／ビス
  6
DOT
 62
    64
 10
-76.009564
 20
-58.645346
 40
0.402402
 50
76.165002
 51
103.834985
  0
LINE
  8
ボルト／ビス
  6
DOT
 62
    64
 10
-75.84919
 20
-58.242945
 11
-75.817115
 21
-58.25462
  0
ARC
  8
ボルト／ビス
  6
DOT
 62
    64
 10
-75.865227
 20
-58.347922
 40
0.104978
 50
90.0
 51
117.278033
  0
LINE
  8
ボルト／ビス
  6
DOT
 62
    64
 10
-76.16994
 20
-58.242945
 11
-75.84919
 21
-58.242945
  0
LINE
  8
ボルト／ビス
  6
DOT
 62
    64
 10
-75.817115
 20
-58.25462
 11
-75.817115
 21
-58.37628
  0
LINE
  8
ボルト／ビス
  6
DOT
 62
    64
 10
-75.91334
 20
-58.25462
 11
-75.91334
 21
-58.37628
  0
LINE
  8
ボルト／ビス
  6
DOT
 62
    64
 10
-76.202015
 20
-58.25462
 11
-76.202015
 21
-58.37628
  0
LINE
  8
ボルト／ビス
  6
DOT
 62
    64
 10
-76.10579
 20
-58.25462
 11
-76.10579
 21
-58.37628
  0
LINE
  8
ボルト／ビス
  6
DOT
 10
-76.202015
 20
-58.37628
 11
-75.817115
 21
-58.37628
  0
LINE
  8
ボルト／ビス
  6
DOT
 10
-76.209565
 20
-58.37628
 11
-76.209565
 21
-58.442945
  0
LINE
  8
ボルト／ビス
  6
DOT
 10
-76.209565
 20
-58.37628
 11
-75.809565
 21
-58.37628
  0
LINE
  8
ボルト／ビス
  6
DOT
 10
-75.809565
 20
-58.37628
 11
-75.809565
 21
-58.442945
  0
ENDBLK
  0
ENDSEC
  0
SECTION
  2
ENTITIES
  0
POLYLINE
  8
通り芯
  6
CONTINUOUS
 66
     1
 70
     1
  0
VERTEX
  8
通り芯
 10
-210.0
 20
-148.5
  0
VERTEX
  8
通り芯
 10
210.0
 20
-148.5
  0
VERTEX
  8
通り芯
 10
210.0
 20
148.5
  0
VERTEX
  8
通り芯
 10
-210.0
 20
148.5
  0
SEQEND
  0
INSERT
  2
*GRP_0001
  8
型材断面
  6
CONTINUOUS
 10
0.0
 20
0.0
  0
LINE
  8
型材断面
  6
DASHDOT
 10
57.990438
 20
-77.836442
 11
57.990438
 21
52.814033
  0
LINE
  8
型材断面
  6
DASHDOT
 10
-8.67623
 20
-77.836442
 11
-8.67623
 21
52.814033
  0
LINE
  8
型材断面
  6
DASHDOT
 10
-75.342895
 20
-77.836442
 11
-75.342895
 21
52.814033
  0
LINE
  8
型材断面
  6
DASHDOT
 10
155.6672
 20
52.814033
 11
-75.342895
 21
52.814033
  0
LINE
  8
型材断面
  6
DASHDOT
 10
155.6672
 20
37.814033
 11
-75.342895
 21
37.814033
  0
LINE
  8
型材断面
  6
DASHDOT
 10
155.6672
 20
22.814033
 11
-75.342895
 21
22.814033
  0
LINE
  8
型材断面
  6
DOT
 10
-7.42623
 20
22.814033
 11
-7.42623
 21
52.814033
  0
LINE
  8
型材断面
  6
DOT
 10
-9.92623
 20
22.814033
 11
-9.92623
 21
52.814033
  0
LINE
  8
型材断面
  6
DASHDOT
 10
-8.67623
 20
22.814033
 11
-8.67623
 21
52.814033
  0
POLYLINE
  8
型材断面
  6
CONTINUOUS
 66
     1
 70
     1
  0
VERTEX
  8
型材断面
 10
0.847602
 20
13.03811
  0
VERTEX
  8
型材断面
 10
-17.924327
 20
13.03811
  0
VERTEX
  8
型材断面
 10
-17.924327
 20
8.301267
  0
VERTEX
  8
型材断面
 10
0.847602
 20
8.301267
  0
SEQEND
  0
POLYLINE
  8
型材断面
  6
CONTINUOUS
 66
     1
 70
     1
  0
VERTEX
  8
型材断面
 10
0.847602
 20
62.589955
  0
VERTEX
  8
型材断面
 10
-17.924327
 20
62.589955
  0
VERTEX
  8
型材断面
 10
-17.924327
 20
67.326798
  0
VERTEX
  8
型材断面
 10
0.847602
 20
67.326798
  0
SEQEND
  0
LINE
  8
型材断面
  6
CONTINUOUS
 10
-58.676228
 20
55.444162
 11
-60.171857
 21
58.03467
  0
LINE
  8
型材断面
  6
CONTINUOUS
 10
-58.676228
 20
55.444162
 11
-57.180598
 21
58.03467
  0
LINE
  8
型材断面
  6
CONTINUOUS
 10
-57.180598
 20
58.03467
 11
-60.171857
 21
58.03467
  0
LINE
  8
型材断面
  6
CONTINUOUS
 10
-77.973025
 20
37.814033
 11
-80.563533
 21
39.309663
  0
LINE
  8
型材断面
  6
CONTINUOUS
 10
-77.973025
 20
37.814033
 11
-80.563533
 21
36.318403
  0
LINE
  8
型材断面
  6
CONTINUOUS
 10
-80.563533
 20
36.318403
 11
-80.563533
 21
39.309663
  0
LINE
  8
型材断面
  6
CONTINUOUS
 10
-58.676228
 20
20.183902
 11
-60.171857
 21
17.593395
  0
LINE
  8
型材断面
  6
CONTINUOUS
 10
-58.676228
 20
20.183902
 11
-57.180598
 21
17.593395
  0
LINE
  8
型材断面
  6
CONTINUOUS
 10
-57.180598
 20
17.593395
 11
-60.171857
 21
17.593395
  0
LINE
  8
型材断面
  6
CONTINUOUS
 10
41.323768
 20
55.444162
 11
42.819398
 21
58.03467
  0
LINE
  8
型材断面
  6
CONTINUOUS
 10
41.323768
 20
55.444162
 11
39.828138
 21
58.03467
  0
LINE
  8
型材断面
  6
CONTINUOUS
 10
39.828138
 20
58.03467
 11
42.819398
 21
58.03467
  0
LINE
  8
型材断面
  6
CONTINUOUS
 10
41.323768
 20
20.183902
 11
42.819398
 21
17.593395
  0
LINE
  8
型材断面
  6
CONTINUOUS
 10
41.323768
 20
20.183902
 11
39.828138
 21
17.593395
  0
LINE
  8
型材断面
  6
CONTINUOUS
 10
39.828138
 20
17.593395
 11
42.819398
 21
17.593395
  0
LINE
  8
型材断面
  6
CONTINUOUS
 10
-129.221418
 20
90.791505
 11
-128.625363
 21
88.200998
  0
LINE
  8
型材断面
  6
CONTINUOUS
 10
-129.221418
 20
90.791505
 11
-129.817475
 21
88.200998
  0
LINE
  8
型材断面
  6
CONTINUOUS
 10
-129.817475
 20
88.200998
 11
-128.625363
 21
88.200998
  0
LINE
  8
型材断面
  6
CONTINUOUS
 10
-135.244005
 20
84.922105
 11
-89.002228
 21
84.922105
  0
LINE
  8
型材断面
  6
CONTINUOUS
 10
-129.221418
 20
97.32138
 11
-130.717047
 21
94.730873
  0
LINE
  8
型材断面
  6
CONTINUOUS
 10
-129.221418
 20
97.32138
 11
-127.725788
 21
94.730873
  0
LINE
  8
型材断面
  6
CONTINUOUS
 10
-127.725788
 20
94.730873
 11
-130.717047
 21
94.730873
  0
LINE
  8
型材断面
  6
CONTINUOUS
 10
-135.244005
 20
93.792277
 11
-89.002228
 21
93.792277
  0
LINE
  8
型材断面
  6
CONTINUOUS
 10
-135.244005
 20
79.134073
 11
-89.002228
 21
79.134073
  0
LINE
  8
型材断面
  6
DASHDOT
 10
148.719403
 20
22.81403
 11
154.739467
 21
22.81403
  0
LINE
  8
型材断面
  6
CONTINUOUS
 62
    47
 10
151.002735
 20
21.417365
 11
151.002735
 21
22.197365
  0
LINE
  8
型材断面
  6
CONTINUOUS
 10
149.169403
 20
21.317365
 11
148.719403
 21
21.317365
  0
LINE
  8
型材断面
  6
CONTINUOUS
 62
    47
 10
151.842095
 20
20.53403
 11
151.50876
 21
20.53403
  0
LINE
  8
型材断面
  6
CONTINUOUS
 62
    47
 10
151.50876
 20
20.53403
 11
151.40876
 21
21.317365
  0
LINE
  8
型材断面
  6
CONTINUOUS
 62
    47
 10
151.002735
 20
21.317365
 11
151.40876
 21
21.317365
  0
LINE
  8
型材断面
  6
CONTINUOUS
 62
    47
 10
151.002735
 20
20.847365
 11
149.169403
 21
20.847365
  0
LINE
  8
型材断面
  6
CONTINUOUS
 62
    47
 10
154.969403
 20
21.41403
 11
154.469403
 21
21.41403
  0
LINE
  8
型材断面
  6
CONTINUOUS
 62
    47
 10
154.469403
 20
20.847365
 11
151.842095
 21
20.847365
  0
LINE
  8
型材断面
  6
CONTINUOUS
 62
    47
 10
154.469403
 20
20.847365
 11
154.469403
 21
37.814033
  0
LINE
  8
型材断面
  6
CONTINUOUS
 62
    47
 10
154.969403
 20
21.41403
 11
154.969403
 21
37.814033
  0
LINE
  8
型材断面
  6
CONTINUOUS
 62
    47
 10
151.002735
 20
20.847365
 11
151.002735
 21
37.814033
  0
LINE
  8
型材断面
  6
CONTINUOUS
 10
151.40876
 20
21.317365
 11
151.40876
 21
37.814033
  0
LINE
  8
型材断面
  6
CONTINUOUS
 10
151.50876
 20
20.53403
 11
151.50876
 21
37.814033
  0
LINE
  8
型材断面
  6
CONTINUOUS
 62
    47
 10
151.842095
 20
20.53403
 11
151.842095
 21
37.814033
  0
LINE
  8
型材断面
  6
CONTINUOUS
 10
149.169403
 20
20.847365
 11
149.169403
 21
37.814033
  0
LINE
  8
型材断面
  6
DASHDOT
 10
148.719403
 20
52.814035
 11
154.739467
 21
52.814035
  0
LINE
  8
型材断面
  6
CONTINUOUS
 62
    47
 10
151.002735
 20
54.2107
 11
151.002735
 21
53.4307
  0
LINE
  8
型材断面
  6
CONTINUOUS
 10
149.169403
 20
54.3107
 11
148.719403
 21
54.3107
  0
LINE
  8
型材断面
  6
CONTINUOUS
 62
    47
 10
151.842095
 20
55.094035
 11
151.50876
 21
55.094035
  0
LINE
  8
型材断面
  6
CONTINUOUS
 62
    47
 10
151.50876
 20
55.094035
 11
151.40876
 21
54.3107
  0
LINE
  8
型材断面
  6
CONTINUOUS
 62
    47
 10
151.002735
 20
54.3107
 11
151.40876
 21
54.3107
  0
LINE
  8
型材断面
  6
CONTINUOUS
 62
    47
 10
151.002735
 20
54.7807
 11
149.169403
 21
54.7807
  0
LINE
  8
型材断面
  6
CONTINUOUS
 62
    47
 10
154.969403
 20
54.214035
 11
154.469403
 21
54.214035
  0
LINE
  8
型材断面
  6
CONTINUOUS
 62
    47
 10
154.469403
 20
54.7807
 11
151.842095
 21
54.7807
  0
LINE
  8
型材断面
  6
CONTINUOUS
 62
    47
 10
154.469403
 20
54.7807
 11
154.469403
 21
37.814033
  0
LINE
  8
型材断面
  6
CONTINUOUS
 62
    47
 10
154.969403
 20
54.214035
 11
154.969403
 21
37.814033
  0
LINE
  8
型材断面
  6
CONTINUOUS
 62
    47
 10
151.002735
 20
54.7807
 11
151.002735
 21
37.814033
  0
LINE
  8
型材断面
  6
CONTINUOUS
 10
151.40876
 20
54.3107
 11
151.40876
 21
37.814033
  0
LINE
  8
型材断面
  6
CONTINUOUS
 10
151.50876
 20
55.094035
 11
151.50876
 21
37.814033
  0
LINE
  8
型材断面
  6
CONTINUOUS
 62
    47
 10
151.842095
 20
55.094035
 11
151.842095
 21
37.814033
  0
LINE
  8
型材断面
  6
CONTINUOUS
 10
149.169403
 20
54.7807
 11
149.169403
 21
37.814033
  0
LINE
  8
型材断面
  6
DASHDOT
 10
57.99044
 20
-71.242897
 11
57.99044
 21
-77.262962
  0
LINE
  8
型材断面
  6
CONTINUOUS
 62
    47
 10
59.387105
 20
-73.52623
 11
58.607105
 21
-73.52623
  0
LINE
  8
型材断面
  6
CONTINUOUS
 10
59.487105
 20
-71.692897
 11
59.487105
 21
-71.242897
  0
LINE
  8
型材断面
  6
CONTINUOUS
 62
    47
 10
60.27044
 20
-74.36559
 11
60.27044
 21
-74.032255
  0
LINE
  8
型材断面
  6
CONTINUOUS
 62
    47
 10
60.27044
 20
-74.032255
 11
59.487105
 21
-73.932255
  0
LINE
  8
型材断面
  6
CONTINUOUS
 62
    47
 10
59.487105
 20
-73.52623
 11
59.487105
 21
-73.932255
  0
LINE
  8
型材断面
  6
CONTINUOUS
 62
    47
 10
59.957105
 20
-73.52623
 11
59.957105
 21
-71.692897
  0
LINE
  8
型材断面
  6
CONTINUOUS
 62
    47
 10
59.39044
 20
-77.492897
 11
59.39044
 21
-76.992897
  0
LINE
  8
型材断面
  6
CONTINUOUS
 62
    47
 10
59.957105
 20
-76.992897
 11
59.957105
 21
-74.36559
  0
LINE
  8
型材断面
  6
CONTINUOUS
 10
60.27044
 20
37.814033
 11
60.27044
 21
20.53403
  0
LINE
  8
型材断面
  6
CONTINUOUS
 10
60.057105
 20
20.747365
 11
60.27044
 21
20.53403
  0
LINE
  8
型材断面
  6
CONTINUOUS
 10
59.957105
 20
-71.692897
 11
-8.67623
 21
-71.692897
  0
LINE
  8
型材断面
  6
CONTINUOUS
 62
    47
 10
59.957105
 20
-73.52623
 11
-8.67623
 21
-73.52623
  0
LINE
  8
型材断面
  6
CONTINUOUS
 10
60.27044
 20
-74.032255
 11
-8.67623
 21
-74.032255
  0
LINE
  8
型材断面
  6
CONTINUOUS
 62
    47
 10
60.27044
 20
-74.36559
 11
-8.67623
 21
-74.36559
  0
LINE
  8
型材断面
  6
CONTINUOUS
 10
59.487105
 20
-73.932255
 11
-8.67623
 21
-73.932255
  0
LINE
  8
型材断面
  6
CONTINUOUS
 62
    47
 10
59.39044
 20
-77.492897
 11
-8.67623
 21
-77.492897
  0
LINE
  8
型材断面
  6
CONTINUOUS
 62
    47
 10
59.957105
 20
-76.992897
 11
-8.67623
 21
-76.992897
  0
LINE
  8
型材断面
  6
DASHDOT
 10
-75.3429
 20
-71.242897
 11
-75.3429
 21
-77.262962
  0
LINE
  8
型材断面
  6
CONTINUOUS
 62
    47
 10
-76.739565
 20
-73.52623
 11
-75.959565
 21
-73.52623
  0
LINE
  8
型材断面
  6
CONTINUOUS
 10
-76.839565
 20
-71.692897
 11
-76.839565
 21
-71.242897
  0
LINE
  8
型材断面
  6
CONTINUOUS
 62
    47
 10
-77.6229
 20
-74.36559
 11
-77.6229
 21
-74.032255
  0
LINE
  8
型材断面
  6
CONTINUOUS
 62
    47
 10
-77.6229
 20
-74.032255
 11
-76.839565
 21
-73.932255
  0
LINE
  8
型材断面
  6
CONTINUOUS
 62
    47
 10
-76.839565
 20
-73.52623
 11
-76.839565
 21
-73.932255
  0
LINE
  8
型材断面
  6
CONTINUOUS
 62
    47
 10
-77.309565
 20
-73.52623
 11
-77.309565
 21
-71.692897
  0
LINE
  8
型材断面
  6
CONTINUOUS
 62
    47
 10
-76.7429
 20
-77.492897
 11
-76.7429
 21
-76.992897
  0
LINE
  8
型材断面
  6
CONTINUOUS
 62
    47
 10
-77.309565
 20
-76.992897
 11
-77.309565
 21
-74.36559
  0
LINE
  8
型材断面
  6
CONTINUOUS
 10
-77.309565
 20
-71.692897
 11
-8.67623
 21
-71.692897
  0
LINE
  8
型材断面
  6
CONTINUOUS
 62
    47
 10
-77.309565
 20
-73.52623
 11
-8.67623
 21
-73.52623
  0
LINE
  8
型材断面
  6
CONTINUOUS
 10
-77.6229
 20
-74.032255
 11
-8.67623
 21
-74.032255
  0
LINE
  8
型材断面
  6
CONTINUOUS
 62
    47
 10
-77.6229
 20
-74.36559
 11
-8.67623
 21
-74.36559
  0
LINE
  8
型材断面
  6
CONTINUOUS
 10
-76.839565
 20
-73.932255
 11
-8.67623
 21
-73.932255
  0
LINE
  8
型材断面
  6
CONTINUOUS
 62
    47
 10
-76.7429
 20
-77.492897
 11
-8.67623
 21
-77.492897
  0
LINE
  8
型材断面
  6
CONTINUOUS
 62
    47
 10
-77.309565
 20
-76.992897
 11
-8.67623
 21
-76.992897
  0
LINE
  8
型材断面
  6
DOT
 62
    47
 10
59.387105
 20
-61.859562
 11
58.607105
 21
-61.859562
  0
LINE
  8
型材断面
  6
DOT
 10
59.487105
 20
-60.02623
 11
59.487105
 21
-59.57623
  0
LINE
  8
型材断面
  6
DOT
 62
    47
 10
60.27044
 20
-62.698923
 11
60.27044
 21
-62.365588
  0
LINE
  8
型材断面
  6
DOT
 62
    47
 10
60.27044
 20
-62.365588
 11
59.487105
 21
-62.265588
  0
LINE
  8
型材断面
  6
DOT
 62
    47
 10
59.487105
 20
-61.859562
 11
59.487105
 21
-62.265588
  0
LINE
  8
型材断面
  6
DOT
 62
    47
 10
59.957105
 20
-61.859562
 11
59.957105
 21
-60.02623
  0
LINE
  8
型材断面
  6
DOT
 10
59.957105
 20
-60.02623
 11
-8.67623
 21
-60.02623
  0
LINE
  8
型材断面
  6
DOT
 62
    47
 10
59.957105
 20
-61.859562
 11
-8.67623
 21
-61.859562
  0
LINE
  8
型材断面
  6
DOT
 10
60.27044
 20
-62.365588
 11
-8.67623
 21
-62.365588
  0
LINE
  8
型材断面
  6
DOT
 62
    47
 10
60.27044
 20
-62.698923
 11
-8.67623
 21
-62.698923
  0
LINE
  8
型材断面
  6
DOT
 10
59.487105
 20
-62.265588
 11
-8.67623
 21
-62.265588
  0
LINE
  8
型材断面
  6
DOT
 62
    47
 10
-76.739565
 20
-61.859562
 11
-75.959565
 21
-61.859562
  0
LINE
  8
型材断面
  6
DOT
 10
-76.839565
 20
-60.02623
 11
-76.839565
 21
-59.57623
  0
LINE
  8
型材断面
  6
DOT
 62
    47
 10
-77.6229
 20
-62.698923
 11
-77.6229
 21
-62.365588
  0
LINE
  8
型材断面
  6
DOT
 62
    47
 10
-77.6229
 20
-62.365588
 11
-76.839565
 21
-62.265588
  0
LINE
  8
型材断面
  6
DOT
 62
    47
 10
-76.839565
 20
-61.859562
 11
-76.839565
 21
-62.265588
  0
LINE
  8
型材断面
  6
DOT
 62
    47
 10
-77.309565
 20
-61.859562
 11
-77.309565
 21
-60.02623
  0
LINE
  8
型材断面
  6
DOT
 10
-77.309565
 20
-60.02623
 11
-8.67623
 21
-60.02623
  0
LINE
  8
型材断面
  6
DOT
 62
    47
 10
-77.309565
 20
-61.859562
 11
-8.67623
 21
-61.859562
  0
LINE
  8
型材断面
  6
DOT
 10
-77.6229
 20
-62.365588
 11
-8.67623
 21
-62.365588
  0
LINE
  8
型材断面
  6
DOT
 62
    47
 10
-77.6229
 20
-62.698923
 11
-8.67623
 21
-62.698923
  0
LINE
  8
型材断面
  6
DOT
 10
-76.839565
 20
-62.265588
 11
-8.67623
 21
-62.265588
  0
LINE
  8
型材断面
  6
CONTINUOUS
 10
60.27044
 20
20.53403
 11
-8.67623
 21
20.53405
  0
LINE
  8
型材断面
  6
CONTINUOUS
 10
60.27044
 20
37.814033
 11
60.27044
 21
55.094035
  0
LINE
  8
型材断面
  6
CONTINUOUS
 10
60.057105
 20
54.8807
 11
60.27044
 21
55.094035
  0
LINE
  8
型材断面
  6
CONTINUOUS
 10
60.27044
 20
55.094035
 11
-8.67623
 21
55.094015
  0
LINE
  8
型材断面
  6
CONTINUOUS
 10
-77.6229
 20
37.814033
 11
-77.6229
 21
55.094035
  0
LINE
  8
型材断面
  6
CONTINUOUS
 10
-77.409565
 20
54.8807
 11
-77.6229
 21
55.094035
  0
LINE
  8
型材断面
  6
CONTINUOUS
 10
-77.6229
 20
55.094035
 11
-8.67623
 21
55.094015
  0
LINE
  8
型材断面
  6
CONTINUOUS
 10
-77.6229
 20
37.814033
 11
-77.6229
 21
20.53403
  0
LINE
  8
型材断面
  6
CONTINUOUS
 10
-77.409565
 20
20.747365
 11
-77.6229
 21
20.53403
  0
LINE
  8
型材断面
  6
CONTINUOUS
 10
-77.6229
 20
20.53403
 11
-8.67623
 21
20.53405
  0
LINE
  8
型材断面
  6
CONTINUOUS
 10
60.620565
 20
48.914033
 11
63.211073
 21
48.317975
  0
LINE
  8
型材断面
  6
CONTINUOUS
 10
60.620565
 20
48.914033
 11
63.211073
 21
49.51009
  0
LINE
  8
型材断面
  6
CONTINUOUS
 10
63.211073
 20
49.51009
 11
63.211073
 21
48.317975
  0
LINE
  8
型材断面
  6
CONTINUOUS
 10
60.620565
 20
26.714033
 11
63.211073
 21
27.31009
  0
LINE
  8
型材断面
  6
CONTINUOUS
 10
60.620565
 20
26.714033
 11
63.211073
 21
26.117975
  0
LINE
  8
型材断面
  6
CONTINUOUS
 10
63.211073
 20
26.117975
 11
63.211073
 21
27.31009
  0
LINE
  8
型材断面
  6
CONTINUOUS
 10
-77.973025
 20
48.914033
 11
-80.563533
 21
48.317975
  0
LINE
  8
型材断面
  6
CONTINUOUS
 10
-77.973025
 20
48.914033
 11
-80.563533
 21
49.51009
  0
LINE
  8
型材断面
  6
CONTINUOUS
 10
-80.563533
 20
49.51009
 11
-80.563533
 21
48.317975
  0
LINE
  8
型材断面
  6
CONTINUOUS
 10
-77.973025
 20
26.714033
 11
-80.563533
 21
27.31009
  0
LINE
  8
型材断面
  6
CONTINUOUS
 10
-77.973025
 20
26.714033
 11
-80.563533
 21
26.117975
  0
LINE
  8
型材断面
  6
CONTINUOUS
 10
-80.563533
 20
26.117975
 11
-80.563533
 21
27.31009
  0
INSERT
  2
*GRP_0016
  8
型材断面
  6
CONTINUOUS
 10
0.0
 20
0.0
  0
INSERT
  2
*GRP_0017
  8
型材断面
  6
CONTINUOUS
 10
0.0
 20
0.0
  0
INSERT
  2
*GRP_0018
  8
型材断面
  6
CONTINUOUS
 10
0.0
 20
0.0
  0
INSERT
  2
*GRP_0019
  8
型材断面
  6
CONTINUOUS
 10
0.0
 20
0.0
  0
LINE
  8
型材断面
  6
CONTINUOUS
 10
-135.244005
 20
73.34604
 11
-89.002228
 21
73.34604
  0
LINE
  8
型材断面
  6
DOT
 10
-40.929562
 20
22.814033
 11
-40.929562
 21
52.814033
  0
LINE
  8
型材断面
  6
DOT
 10
-43.429562
 20
22.814033
 11
-43.429562
 21
52.814033
  0
LINE
  8
型材断面
  6
DASHDOT
 10
-42.179562
 20
22.814033
 11
-42.179562
 21
52.814033
  0
LINE
  8
型材断面
  6
DOT
 10
23.577103
 20
22.814033
 11
23.577103
 21
52.814033
  0
LINE
  8
型材断面
  6
DOT
 10
26.077103
 20
22.814033
 11
26.077103
 21
52.814033
  0
LINE
  8
型材断面
  6
DASHDOT
 10
24.827103
 20
22.814033
 11
24.827103
 21
52.814033
  0
LINE
  8
型材断面
  6
CONTINUOUS
 10
60.620565
 20
37.814033
 11
63.211073
 21
39.309663
  0
LINE
  8
型材断面
  6
CONTINUOUS
 10
60.620565
 20
37.814033
 11
63.211073
 21
36.318403
  0
LINE
  8
型材断面
  6
CONTINUOUS
 10
63.211073
 20
36.318403
 11
63.211073
 21
39.309663
  0
TEXT
  7
TextStyle03
  8
文字
  6
CONTINUOUS
 10
134.525
 20
-76.7
  1
網入り6.8t
 40
3.0
 72
     5
 11
151.2125
 21
-76.7
  0
TEXT
  7
TextStyle03
  8
文字
  6
CONTINUOUS
 10
141.2
 20
-81.375
  1
×４枚
 40
3.0
 72
     5
 11
150.95
 21
-81.375
  0
TEXT
  7
TextStyle03
  8
文字
  6
CONTINUOUS
 10
-16.85
 20
9.325
  1
可動装置側
 40
3.0
 72
     5
 11
-0.35
 21
9.325
  0
TEXT
  7
TextStyle03
  8
文字
  6
CONTINUOUS
 10
-16.85
 20
63.275
  1
可動装置側
 40
3.0
 72
     5
 11
-0.35
 21
63.275
  0
TEXT
  7
TextStyle03
  8
文字
  6
CONTINUOUS
 10
-126.45
 20
89.4
  1
はケーシング位置を示す
 40
3.0
 72
     5
 11
-89.7
 21
89.4
  0
TEXT
  7
TextStyle03
  8
文字
  6
CONTINUOUS
 10
-126.45
 20
86.025
  1
４ヶ所中1ヶ所に設定
 40
3.0
 72
     5
 11
-94.7625
 21
86.025
  0
TEXT
  7
TextStyle03
  8
文字
  6
CONTINUOUS
 10
-126.45
 20
94.925
  1
は排水穴位置を示す
 40
3.0
 72
     5
 11
-96.45
 21
94.925
  0
TEXT
  7
TextStyle03
  8
文字
  6
CONTINUOUS
 10
-96.35
 20
16.275
  1
アンカーピッチ
 40
3.0
 50
90.0
 72
     5
 11
-96.35
 21
39.525
  0
TEXT
  7
TextStyle03
  8
文字
  6
CONTINUOUS
 10
-67.275
 20
90.85
  1
アンカーピッチ
 40
3.0
 72
     5
 11
-44.025
 21
90.85
  0
TEXT
  7
TextStyle03
  8
文字
  6
CONTINUOUS
 10
-130.175
 20
80.05
  1
アンカー数量　１６ヶ所
 40
3.0
 72
     5
 11
-93.425
 21
80.05
  0
TEXT
  7
TextStyle03
  8
文字
  6
CONTINUOUS
 10
-130.225
 20
74.3
  1
アームユニット数　４ヶ所
 40
3.0
 72
     5
 11
-90.1
 21
74.3
  0
TEXT
  7
TextStyle03
  8
文字
  6
CONTINUOUS
 10
78.1
 20
125.25
  1
シリーズ：ＳＴＤＬ
 40
5.0
 72
     5
 11
128.1
 21
125.25
  0
TEXT
  7
TextStyle03
  8
文字
  6
CONTINUOUS
 10
78.1
 20
119.625
  1
　　　　　（上下可動）900×4000タイプ
 40
5.0
 72
     5
 11
181.5375
 21
119.625
  0
TEXT
  7
TextStyle03
  8
文字
  6
CONTINUOUS
 10
78.1
 20
114.0
  1
図面名　：外観姿図
 40
5.0
 72
     5
 11
128.1
 21
114.0
  0
TEXT
  7
TextStyle03
  8
文字
  6
CONTINUOUS
 10
78.1
 20
108.375
  1
　　　　　　
 40
5.0
 72
     5
 11
111.225
 21
108.375
  0
TEXT
  7
TextStyle03
  8
文字
  6
CONTINUOUS
 10
77.425
 20
103.975
  1
ＮＳコード：ＮＳＤＳＬ
 40
5.0
 72
     5
 11
138.675
 21
103.975
  0
INSERT
  2
*DIM_0002
  8
寸法
  6
CONTINUOUS
 10
0.0
 20
0.0
  0
INSERT
  2
*DIM_0003
  8
寸法
  6
CONTINUOUS
 10
0.0
 20
0.0
  0
INSERT
  2
*DIM_0004
  8
寸法
  6
CONTINUOUS
 10
0.0
 20
0.0
  0
INSERT
  2
*DIM_0005
  8
寸法
  6
CONTINUOUS
 10
0.0
 20
0.0
  0
INSERT
  2
*DIM_0006
  8
寸法
  6
CONTINUOUS
 10
0.0
 20
0.0
  0
INSERT
  2
*DIM_0007
  8
寸法
  6
CONTINUOUS
 10
0.0
 20
0.0
  0
INSERT
  2
*DIM_0008
  8
寸法
  6
CONTINUOUS
 10
0.0
 20
0.0
  0
INSERT
  2
*DIM_0009
  8
寸法
  6
CONTINUOUS
 10
0.0
 20
0.0
  0
INSERT
  2
*DIM_0010
  8
寸法
  6
CONTINUOUS
 10
0.0
 20
0.0
  0
INSERT
  2
*DIM_0011
  8
寸法
  6
CONTINUOUS
 10
0.0
 20
0.0
  0
INSERT
  2
*DIM_0012
  8
寸法
  6
CONTINUOUS
 10
0.0
 20
0.0
  0
INSERT
  2
*DIM_0013
  8
寸法
  6
CONTINUOUS
 10
0.0
 20
0.0
  0
INSERT
  2
*DIM_0014
  8
寸法
  6
CONTINUOUS
 10
0.0
 20
0.0
  0
INSERT
  2
*DIM_0020
  8
寸法
  6
CONTINUOUS
 10
0.0
 20
0.0
  0
INSERT
  2
*DIM_0021
  8
寸法
  6
CONTINUOUS
 10
0.0
 20
0.0
  0
INSERT
  2
*DIM_0022
  8
寸法
  6
CONTINUOUS
 10
0.0
 20
0.0
  0
INSERT
  2
*DIM_0023
  8
寸法
  6
CONTINUOUS
 10
0.0
 20
0.0
  0
INSERT
  2
*DIM_0024
  8
寸法
  6
CONTINUOUS
 10
0.0
 20
0.0
  0
INSERT
  2
*DIM_0025
  8
寸法
  6
CONTINUOUS
 10
0.0
 20
0.0
  0
INSERT
  2
*DIM_0026
  8
寸法
  6
CONTINUOUS
 10
0.0
 20
0.0
  0
INSERT
  2
*DIM_0027
  8
寸法
  6
CONTINUOUS
 10
0.0
 20
0.0
  0
INSERT
  2
*DIM_0028
  8
寸法
  6
CONTINUOUS
 10
0.0
 20
0.0
  0
LINE
  8
別途部材
  6
CONTINUOUS
 10
60.057105
 20
20.747365
 11
59.657105
 21
21.147365
  0
LINE
  8
別途部材
  6
CONTINUOUS
 10
57.990438
 20
22.814033
 11
49.931183
 21
30.87329
  0
LINE
  8
別途部材
  6
CONTINUOUS
 10
59.657105
 20
21.147365
 11
59.657105
 21
37.814033
  0
LINE
  8
別途部材
  6
CONTINUOUS
 10
60.057105
 20
20.747365
 11
60.057105
 21
37.814033
  0
LINE
  8
別途部材
  6
CONTINUOUS
 10
60.057105
 20
54.8807
 11
59.657105
 21
54.4807
  0
LINE
  8
別途部材
  6
CONTINUOUS
 10
57.990438
 20
52.814033
 11
49.931183
 21
44.754775
  0
LINE
  8
別途部材
  6
CONTINUOUS
 10
59.657105
 20
54.4807
 11
59.657105
 21
37.814033
  0
LINE
  8
別途部材
  6
CONTINUOUS
 10
60.057105
 20
54.8807
 11
60.057105
 21
37.814033
  0
LINE
  8
別途部材
  6
CONTINUOUS
 10
59.657105
 20
54.4807
 11
-8.67623
 21
54.4807
  0
LINE
  8
別途部材
  6
CONTINUOUS
 10
60.057105
 20
54.8807
 11
-8.67623
 21
54.8807
  0
LINE
  8
別途部材
  6
CONTINUOUS
 10
60.057105
 20
20.747365
 11
-8.67623
 21
20.747365
  0
LINE
  8
別途部材
  6
CONTINUOUS
 10
59.657105
 20
21.147365
 11
-8.67623
 21
21.147365
  0
LINE
  8
別途部材
  6
CONTINUOUS
 10
-77.409565
 20
20.747365
 11
-77.009565
 21
21.147365
  0
LINE
  8
別途部材
  6
CONTINUOUS
 10
-75.342897
 20
22.814033
 11
-67.283643
 21
30.87329
  0
LINE
  8
別途部材
  6
CONTINUOUS
 10
-77.009565
 20
21.147365
 11
-77.009565
 21
37.814033
  0
LINE
  8
別途部材
  6
CONTINUOUS
 10
-77.409565
 20
20.747365
 11
-77.409565
 21
37.814033
  0
LINE
  8
別途部材
  6
CONTINUOUS
 10
-77.409565
 20
54.8807
 11
-77.009565
 21
54.4807
  0
LINE
  8
別途部材
  6
CONTINUOUS
 10
-75.342897
 20
52.814033
 11
-67.283643
 21
44.754775
  0
LINE
  8
別途部材
  6
CONTINUOUS
 10
-77.009565
 20
54.4807
 11
-77.009565
 21
37.814033
  0
LINE
  8
別途部材
  6
CONTINUOUS
 10
-77.409565
 20
54.8807
 11
-77.409565
 21
37.814033
  0
LINE
  8
別途部材
  6
CONTINUOUS
 10
-77.009565
 20
54.4807
 11
-8.67623
 21
54.4807
  0
LINE
  8
別途部材
  6
CONTINUOUS
 10
-77.409565
 20
54.8807
 11
-8.67623
 21
54.8807
  0
LINE
  8
別途部材
  6
CONTINUOUS
 10
-77.409565
 20
20.747365
 11
-8.67623
 21
20.747365
  0
LINE
  8
別途部材
  6
CONTINUOUS
 10
-77.009565
 20
21.147365
 11
-8.67623
 21
21.147365
  0
LINE
  8
別途部材
  6
CONTINUOUS
 62
    96
 10
147.68612
 20
21.147365
 11
148.68612
 21
20.747365
  0
LINE
  8
別途部材
  6
CONTINUOUS
 62
    96
 10
147.68612
 20
21.147365
 11
147.68612
 21
37.814033
  0
LINE
  8
別途部材
  6
CONTINUOUS
 10
148.68612
 20
20.747365
 11
148.68612
 21
37.814033
  0
LINE
  8
別途部材
  6
CONTINUOUS
 62
    96
 10
147.68612
 20
54.4807
 11
148.68612
 21
54.8807
  0
LINE
  8
別途部材
  6
CONTINUOUS
 62
    96
 10
147.68612
 20
54.4807
 11
147.68612
 21
37.814033
  0
LINE
  8
別途部材
  6
CONTINUOUS
 10
148.68612
 20
54.8807
 11
148.68612
 21
37.814033
  0
ARC
  8
別途部材
  6
CONTINUOUS
 10
157.019452
 20
37.814033
 40
17.666667
 50
121.890796
 51
238.109204
  0
LINE
  8
別途部材
  6
DOT
 62
    96
 10
59.657105
 20
-58.542945
 11
60.057105
 21
-59.542945
  0
ARC
  8
別途部材
  6
DOT
 10
42.990437
 20
-67.876279
 40
17.666667
 50
31.890796
 51
90.0
  0
LINE
  8
別途部材
  6
DOT
 10
42.990438
 20
-50.209613
 11
-8.67623
 21
-50.209613
  0
LINE
  8
別途部材
  6
DOT
 62
    96
 10
59.657105
 20
-58.542945
 11
-8.67623
 21
-58.542945
  0
LINE
  8
別途部材
  6
DOT
 10
60.057105
 20
-59.542945
 11
-8.67623
 21
-59.542945
  0
LINE
  8
別途部材
  6
DOT
 62
    96
 10
-77.009565
 20
-58.542945
 11
-77.409565
 21
-59.542945
  0
ARC
  8
別途部材
  6
DOT
 10
-60.342897
 20
-67.876279
 40
17.666667
 50
90.0
 51
148.109204
  0
LINE
  8
別途部材
  6
DOT
 10
-60.342897
 20
-50.209613
 11
-8.67623
 21
-50.209613
  0
LINE
  8
別途部材
  6
DOT
 62
    96
 10
-77.009565
 20
-58.542945
 11
-8.67623
 21
-58.542945
  0
LINE
  8
別途部材
  6
DOT
 10
-77.409565
 20
-59.542945
 11
-8.67623
 21
-59.542945
  0
INSERT
  2
*GRP_0015
  8
別途部材
  6
CONTINUOUS
 10
0.0
 20
0.0
  0
INSERT
  2
*GRP_0029
  8
別途部材
  6
DOT
 10
0.0
 20
0.0
  0
INSERT
  2
*GRP_0030
  8
別途部材
  6
DOT
 10
0.0
 20
0.0
  0
INSERT
  2
*GRP_0031
  8
別途部材
  6
DOT
 10
0.0
 20
0.0
  0
INSERT
  2
*GRP_0032
  8
別途部材
  6
DOT
 10
0.0
 20
0.0
  0
INSERT
  2
*GRP_0033
  8
別途部材
  6
DOT
 10
0.0
 20
0.0
  0
INSERT
  2
*GRP_0034
  8
別途部材
  6
DOT
 10
0.0
 20
0.0
  0
LINE
  8
曲げ物
  6
CONTINUOUS
 10
153.076993
 20
-53.748967
 11
120.74366
 21
-53.748967
  0
LINE
  8
曲げ物
  6
CONTINUOUS
 10
153.076993
 20
-83.0823
 11
120.74366
 21
-83.0823
  0
LINE
  8
曲げ物
  6
CONTINUOUS
 10
153.076993
 20
-53.785395
 11
153.076993
 21
-83.0823
  0
LINE
  8
曲げ物
  6
CONTINUOUS
 10
120.74366
 20
-53.785395
 11
120.74366
 21
-83.0823
  0
ENDSEC
  0
EOF
