  0
SECTION
  2
HEADER
  9
$EXTMIN
 10
-210.0
 20
-148.5
  9
$EXTMAX
 10
210.0
 20
148.5
  9
$PDMODE
 70
    32
  9
$PDSIZE
 40
1.5
  9
$LTSCALE
 40
10.0
  0
ENDSEC
  0
SECTION
  2
TABLES
  0
TABLE
  2
LTYPE
 70
    15
  0
LTYPE
  2
CONTINUOUS
 70
    64
  3
実線
 72
    65
 73
     0
 40
0.0
  0
LTYPE
  2
DASHED
 70
    64
  3
破線A
 72
    65
 73
     2
 40
0.6
 49
0.4
 49
-0.2
  0
LTYPE
  2
DASHEDX2
 70
    64
  3
破線B
 72
    65
 73
     2
 40
1.3
 49
0.9
 49
-0.4
  0
LTYPE
  2
DASHDOT
 70
    64
  3
１点鎖線A
 72
    65
 73
     4
 40
0.5375
 49
0.375
 49
-0.05
 49
0.0625
 49
-0.05
  0
LTYPE
  2
DASHDOTX2
 70
    64
  3
１点鎖線B
 72
    65
 73
     4
 40
1.075
 49
0.75
 49
-0.1
 49
0.125
 49
-0.1
  0
LTYPE
  2
DIVIDE2
 70
    64
  3
２点鎖線A
 72
    65
 73
     6
 40
0.5125
 49
0.3
 49
-0.0375
 49
0.05
 49
-0.0375
 49
0.05
 49
-0.0375
  0
LTYPE
  2
DIVIDE
 70
    64
  3
２点鎖線B
 72
    65
 73
     6
 40
1.05
 49
0.55
 49
-0.1
 49
0.1
 49
-0.1
 49
0.1
 49
-0.1
  0
LTYPE
  2
DOT
 70
    64
  3
点線A
 72
    65
 73
     2
 40
0.1125
 49
0.0625
 49
-0.05
  0
LTYPE
  2
DOTX2
 70
    64
  3
点線B
 72
    65
 73
     2
 40
0.275
 49
0.15
 49
-0.125
  0
LTYPE
  2
CONTINUOUS
 70
    64
  3
実線
 72
    65
 73
     0
 40
0.0
  0
LTYPE
  2
CONTINUOUS
 70
    64
  3
実線
 72
    65
 73
     0
 40
0.0
  0
LTYPE
  2
CONTINUOUS
 70
    64
  3
実線
 72
    65
 73
     0
 40
0.0
  0
LTYPE
  2
CONTINUOUS
 70
    64
  3
実線
 72
    65
 73
     0
 40
0.0
  0
LTYPE
  2
CONTINUOUS
 70
    64
  3
実線
 72
    65
 73
     0
 40
0.0
  0
LTYPE
  2
CONTINUOUS
 70
    64
  3
実線
 72
    65
 73
     0
 40
0.0
  0
ENDTAB
  0
TABLE
  2
LAYER
 70
    34
  0
LAYER
  2
通り芯
 70
     0
 62
    15
  6
CONTINUOUS
  0
LAYER
  2
補助線
 70
     0
 62
    16
  6
DOT
  0
LAYER
  2
躯体
 70
     0
 62
    31
  6
CONTINUOUS
  0
LAYER
  2
型材
 70
     0
 62
    32
  6
CONTINUOUS
  0
LAYER
  2
型材断面
 70
     0
 62
    47
  6
CONTINUOUS
  0
LAYER
  2
ガラス
 70
     0
 62
    48
  6
CONTINUOUS
  0
LAYER
  2
ゴム等
 70
     0
 62
    63
  6
CONTINUOUS
  0
LAYER
  2
ボルト／ビス
 70
     0
 62
    64
  6
CONTINUOUS
  0
LAYER
  2
文字
 70
     0
 62
    79
  6
CONTINUOUS
  0
LAYER
  2
寸法
 70
     0
 62
    80
  6
CONTINUOUS
  0
LAYER
  2
ﾊｯﾁﾝｸﾞ
 70
     0
 62
    95
  6
CONTINUOUS
  0
LAYER
  2
別途部材
 70
     0
 62
    96
  6
CONTINUOUS
  0
LAYER
  2
曲げ物
 70
     0
 62
   111
  6
CONTINUOUS
  0
LAYER
  2
鉄骨等
 70
     0
 62
   112
  6
CONTINUOUS
  0
LAYER
  2
St
 70
     0
 62
   127
  6
CONTINUOUS
  0
LAYER
  2
その他部品等
 70
     0
 62
   128
  6
CONTINUOUS
  0
LAYER
  2
ｶﾞｽｹｯﾄ
 70
     0
 62
   143
  6
CONTINUOUS
  0
LAYER
  2
ｽｹｯﾁ
 70
     0
 62
    14
  6
CONTINUOUS
  0
LAYER
  2
0
 70
     0
 62
    17
  6
CONTINUOUS
  0
LAYER
  2
1
 70
     0
 62
    30
  6
CONTINUOUS
  0
LAYER
  2
4
 70
     0
 62
    33
  6
CONTINUOUS
  0
LAYER
  2
ﾚｲﾔ3
 70
     0
 62
    46
  6
CONTINUOUS
  0
LAYER
  2
外形線
 70
     0
 62
    49
  6
CONTINUOUS
  0
LAYER
  2
部品
 70
     0
 62
    14
  6
CONTINUOUS
  0
LAYER
  2
サッシ芯
 70
     0
 62
    17
  6
DASHDOTX2
  0
LAYER
  2
寸法線
 70
     0
 62
    62
  6
CONTINUOUS
  0
LAYER
  2
姿図外形線
 70
     0
 62
    65
  6
CONTINUOUS
  0
LAYER
  2
姿補助線
 70
     0
 62
    30
  6
CONTINUOUS
  0
LAYER
  2
透視線
 70
     0
 62
    78
  6
DOT
  0
LAYER
  2
用紙
 70
     0
 62
    81
  6
CONTINUOUS
  0
LAYER
  2
実線図枠
 70
     0
 62
    94
  6
CONTINUOUS
  0
LAYER
  2
補助図枠
 70
     0
 62
    97
  6
CONTINUOUS
  0
LAYER
  2
建具記号
 70
     0
 62
   110
  6
CONTINUOUS
  0
LAYER
  2
補助文字
 70
     0
 62
   113
  6
CONTINUOUS
  0
ENDTAB
  0
TABLE
  2
STYLE
 70
    10
  0
STYLE
  2
STANDARD
 70
     0
 40
1.0
 41
1.0
 42
1.0
 50
0.0
 71
     0
  3
TXT
  4
BIGFONT
  0
STYLE
  2
TATE
 70
     4
 40
1.0
 41
1.0
 42
1.0
 50
0.0
 71
     0
  3
TXT
  4
BIGFONT
  0
STYLE
  2
TextStyle03
 70
     0
 40
1.0
 41
1.0
 42
1.0
 50
0.0
 71
     0
  3
MONOTXT
  4
BIGFONT
  0
STYLE
  2
TextStyle04
 70
     0
 40
1.0
 41
1.0
 42
1.0
 50
0.0
 71
     0
  3
MONOTXT
  4
BIGFONT
  0
STYLE
  2
TextStyle05
 70
     0
 40
1.0
 41
1.0
 42
1.0
 50
0.0
 71
     0
  3
MONOTXT
  4
BIGFONT
  0
STYLE
  2
TextStyle06
 70
     0
 40
1.0
 41
1.0
 42
1.0
 50
0.0
 71
     0
  3
MONOTXT
  4
BIGFONT
  0
STYLE
  2
TextStyle07
 70
     0
 40
1.0
 41
1.0
 42
1.0
 50
0.0
 71
     0
  3
MONOTXT
  4
BIGFONT
  0
STYLE
  2
TextStyle08
 70
     0
 40
1.0
 41
1.0
 42
1.0
 50
0.0
 71
     0
  3
MONOTXT
  4
BIGFONT
  0
STYLE
  2
TextStyle09
 70
     0
 40
1.0
 41
1.0
 42
1.0
 50
0.0
 71
     0
  3
MONOTXT
  4
BIGFONT
  0
STYLE
  2
TextStyle10
 70
     0
 40
1.0
 41
1.0
 42
1.0
 50
0.0
 71
     0
  3
MONOTXT
  4
BIGFONT
  0
ENDTAB
  0
ENDSEC
  0
SECTION
  2
BLOCKS
  0
BLOCK
  2
*GRP_0001
 70
    65
 10
0.0
 20
0.0
  0
LINE
  8
型材断面
  6
CONTINUOUS
 10
195.0
 20
133.5
 11
195.0
 21
-133.5
  0
LINE
  8
型材断面
  6
CONTINUOUS
 10
195.0
 20
-133.5
 11
-185.0
 21
-133.5
  0
LINE
  8
型材断面
  6
CONTINUOUS
 10
-185.0
 20
-133.5
 11
-185.0
 21
133.5
  0
LINE
  8
型材断面
  6
CONTINUOUS
 10
195.0
 20
133.5
 11
-185.0
 21
133.5
  0
LINE
  8
型材断面
  6
CONTINUOUS
 10
145.0
 20
-133.5
 11
145.0
 21
-118.5
  0
LINE
  8
型材断面
  6
CONTINUOUS
 10
195.0
 20
-118.5
 11
145.0
 21
-118.5
  0
ENDBLK
  0
BLOCK
  2
*DIM_0002
 70
    65
 10
0.0
 20
0.0
  0
LINE
  8
寸法
  6
BYBLOCK
 62
     0
 10
43.990438
 20
-61.87628
 11
73.960088
 21
-61.87628
  0
LINE
  8
寸法
  6
BYBLOCK
 62
     0
 10
73.960088
 20
-70.209613
 11
73.960088
 21
-61.87628
  0
POINT
  8
寸法
 62
     0
 10
73.960088
 20
-70.209613
  0
POINT
  8
寸法
 62
     0
 10
73.960088
 20
-61.87628
  0
TEXT
  7
TextStyle03
  8
寸法
  6
CONTINUOUS
 62
     0
 10
73.6
 20
-68.5125
  1
250
 40
3.0
 50
90.0
 72
     5
 11
73.6
 21
-63.6375
  0
ENDBLK
  0
BLOCK
  2
*DIM_0003
 70
    65
 10
0.0
 20
0.0
  0
LINE
  8
寸法
  6
BYBLOCK
 62
     0
 10
-108.676228
 20
-13.511205
 11
-108.676228
 21
-13.121378
  0
LINE
  8
寸法
  6
BYBLOCK
 62
     0
 10
57.990438
 20
-13.121378
 11
-108.676228
 21
-13.121378
  0
POINT
  8
寸法
 62
     0
 10
57.990438
 20
-13.121378
  0
POINT
  8
寸法
 62
     0
 10
-108.676228
 20
-13.121378
  0
TEXT
  7
TextStyle03
  8
寸法
  6
CONTINUOUS
 62
     0
 10
-37.06875
 20
-12.775
  1
呼称寸法　5000
 40
3.0
 72
     5
 11
-13.63125
 21
-12.775
  0
ENDBLK
  0
BLOCK
  2
*DIM_0004
 70
    65
 10
0.0
 20
0.0
  0
LINE
  8
寸法
  6
BYBLOCK
 62
     0
 10
-92.00956
 20
19.183902
 11
-92.00956
 21
13.88158
  0
LINE
  8
寸法
  6
BYBLOCK
 62
     0
 10
-25.342895
 20
19.183905
 11
-25.342895
 21
13.88158
  0
LINE
  8
寸法
  6
BYBLOCK
 62
     0
 10
-92.00956
 20
13.88158
 11
-25.342895
 21
13.88158
  0
POINT
  8
寸法
 62
     0
 10
-92.00956
 20
13.88158
  0
POINT
  8
寸法
 62
     0
 10
-25.342895
 20
13.88158
  0
TEXT
  7
TextStyle03
  8
寸法
  6
CONTINUOUS
 62
     0
 10
-61.98125
 20
14.25
  1
2000
 40
3.0
 72
     5
 11
-55.41875
 21
14.25
  0
ENDBLK
  0
BLOCK
  2
*DIM_0005
 70
    65
 10
0.0
 20
0.0
  0
LINE
  8
寸法
  6
BYBLOCK
 62
     0
 10
41.32377
 20
19.183902
 11
41.32377
 21
13.88158
  0
LINE
  8
寸法
  6
BYBLOCK
 62
     0
 10
-25.342895
 20
13.88158
 11
41.32377
 21
13.88158
  0
POINT
  8
寸法
 62
     0
 10
41.32377
 20
13.88158
  0
TEXT
  7
TextStyle03
  8
寸法
  6
CONTINUOUS
 62
     0
 10
4.69375
 20
14.25
  1
2000
 40
3.0
 72
     5
 11
11.25625
 21
14.25
  0
ENDBLK
  0
BLOCK
  2
*DIM_0006
 70
    65
 10
0.0
 20
0.0
  0
LINE
  8
寸法
  6
BYBLOCK
 62
     0
 10
139.352787
 20
38.814033
 11
139.352787
 21
68.369967
  0
LINE
  8
寸法
  6
BYBLOCK
 62
     0
 10
147.68612
 20
68.369967
 11
139.352787
 21
68.369967
  0
POINT
  8
寸法
 62
     0
 10
147.68612
 20
68.369967
  0
POINT
  8
寸法
 62
     0
 10
139.352787
 20
68.369967
  0
TEXT
  7
TextStyle03
  8
寸法
  6
CONTINUOUS
 62
     0
 10
141.0625
 20
68.725
  1
250
 40
3.0
 72
     5
 11
145.9375
 21
68.725
  0
ENDBLK
  0
BLOCK
  2
*DIM_0007
 70
    65
 10
0.0
 20
0.0
  0
LINE
  8
寸法
  6
BYBLOCK
 62
     0
 10
92.172505
 20
22.814033
 11
92.172505
 21
52.814033
  0
POINT
  8
寸法
 62
     0
 10
92.172505
 20
22.814033
  0
POINT
  8
寸法
 62
     0
 10
92.172505
 20
52.814033
  0
TEXT
  7
TextStyle03
  8
寸法
  6
CONTINUOUS
 62
     0
 10
91.8
 20
26.9
  1
呼称寸法　900
 40
3.0
 50
90.0
 72
     5
 11
91.8
 21
48.65
  0
ENDBLK
  0
BLOCK
  2
*DIM_0008
 70
    65
 10
0.0
 20
0.0
  0
LINE
  8
寸法
  6
BYBLOCK
 62
     0
 10
147.68612
 20
55.4807
 11
147.68612
 21
68.369967
  0
LINE
  8
寸法
  6
BYBLOCK
 62
     0
 10
154.469403
 20
55.7807
 11
154.469403
 21
68.369967
  0
LINE
  8
寸法
  6
BYBLOCK
 62
     0
 10
147.68612
 20
68.369967
 11
154.469403
 21
68.369967
  0
POINT
  8
寸法
 62
     0
 10
147.68612
 20
68.369967
  0
POINT
  8
寸法
 62
     0
 10
154.469403
 20
68.369967
  0
TEXT
  7
TextStyle03
  8
寸法
  6
CONTINUOUS
 62
     0
 10
155.325
 20
68.725
  1
203.5
 40
3.0
 72
     5
 11
163.575
 21
68.725
  0
ENDBLK
  0
BLOCK
  2
*DIM_0009
 70
    65
 10
0.0
 20
0.0
  0
LINE
  8
寸法
  6
BYBLOCK
 62
     0
 10
150.50876
 20
55.094035
 11
92.172505
 21
55.094035
  0
LINE
  8
寸法
  6
BYBLOCK
 62
     0
 10
92.172505
 20
52.814033
 11
92.172505
 21
55.094035
  0
POINT
  8
寸法
 62
     0
 10
92.172505
 20
52.814033
  0
POINT
  8
寸法
 62
     0
 10
92.172505
 20
55.094035
  0
TEXT
  7
TextStyle03
  8
寸法
  6
CONTINUOUS
 62
     0
 10
91.725
 20
57.41875
  1
68.4
 40
3.0
 50
90.0
 72
     5
 11
91.725
 21
63.98125
  0
ENDBLK
  0
BLOCK
  2
*DIM_0010
 70
    65
 10
0.0
 20
0.0
  0
LINE
  8
寸法
  6
BYBLOCK
 62
     0
 10
150.50876
 20
20.53403
 11
92.172505
 21
20.53403
  0
LINE
  8
寸法
  6
BYBLOCK
 62
     0
 10
92.172505
 20
22.814033
 11
92.172505
 21
20.53403
  0
POINT
  8
寸法
 62
     0
 10
92.172505
 20
22.814033
  0
POINT
  8
寸法
 62
     0
 10
92.172505
 20
20.53403
  0
TEXT
  7
TextStyle03
  8
寸法
  6
CONTINUOUS
 62
     0
 10
91.725
 20
11.61875
  1
68.4
 40
3.0
 50
90.0
 72
     5
 11
91.725
 21
18.18125
  0
ENDBLK
  0
BLOCK
  2
*DIM_0011
 70
    65
 10
0.0
 20
0.0
  0
LINE
  8
寸法
  6
BYBLOCK
 62
     0
 10
60.657105
 20
-70.209613
 11
73.960088
 21
-70.209613
  0
LINE
  8
寸法
  6
BYBLOCK
 62
     0
 10
60.957105
 20
-76.992897
 11
73.960088
 21
-76.992897
  0
LINE
  8
寸法
  6
BYBLOCK
 62
     0
 10
73.960088
 20
-70.209613
 11
73.960088
 21
-76.992897
  0
POINT
  8
寸法
 62
     0
 10
73.960088
 20
-70.209613
  0
POINT
  8
寸法
 62
     0
 10
73.960088
 20
-76.992897
  0
TEXT
  7
TextStyle03
  8
寸法
  6
CONTINUOUS
 62
     0
 10
73.525
 20
-86.175
  1
203.5
 40
3.0
 50
90.0
 72
     5
 11
73.525
 21
-77.925
  0
ENDBLK
  0
BLOCK
  2
*DIM_0012
 70
    65
 10
0.0
 20
0.0
  0
LINE
  8
寸法
  6
BYBLOCK
 62
     0
 10
60.27044
 20
-73.032255
 11
60.27044
 21
-13.121378
  0
LINE
  8
寸法
  6
BYBLOCK
 62
     0
 10
57.990438
 20
-13.121378
 11
60.27044
 21
-13.121378
  0
POINT
  8
寸法
 62
     0
 10
57.990438
 20
-13.121378
  0
POINT
  8
寸法
 62
     0
 10
60.27044
 20
-13.121378
  0
TEXT
  7
TextStyle03
  8
寸法
  6
CONTINUOUS
 62
     0
 10
62.54375
 20
-12.75
  1
68.4
 40
3.0
 72
     5
 11
69.10625
 21
-12.75
  0
ENDBLK
  0
BLOCK
  2
*DIM_0013
 70
    65
 10
0.0
 20
0.0
  0
LINE
  8
寸法
  6
BYBLOCK
 62
     0
 10
-110.95623
 20
-73.032255
 11
-110.95623
 21
-13.121378
  0
LINE
  8
寸法
  6
BYBLOCK
 62
     0
 10
-108.676228
 20
-13.121378
 11
-110.95623
 21
-13.121378
  0
POINT
  8
寸法
 62
     0
 10
-108.676228
 20
-13.121378
  0
POINT
  8
寸法
 62
     0
 10
-110.95623
 20
-13.121378
  0
TEXT
  7
TextStyle03
  8
寸法
  6
CONTINUOUS
 62
     0
 10
-119.85625
 20
-12.75
  1
68.4
 40
3.0
 72
     5
 11
-113.29375
 21
-12.75
  0
ENDBLK
  0
BLOCK
  2
*DIM_0014
 70
    65
 10
0.0
 20
0.0
  0
LINE
  8
寸法
  6
BYBLOCK
 62
     0
 10
120.730325
 20
-52.785395
 11
120.730325
 21
-44.477985
  0
LINE
  8
寸法
  6
BYBLOCK
 62
     0
 10
152.863658
 20
-52.785395
 11
152.863658
 21
-44.477985
  0
LINE
  8
寸法
  6
BYBLOCK
 62
     0
 10
120.730325
 20
-44.477985
 11
152.863658
 21
-44.477985
  0
POINT
  8
寸法
 62
     0
 10
120.730325
 20
-44.477985
  0
POINT
  8
寸法
 62
     0
 10
152.863658
 20
-44.477985
  0
TEXT
  7
TextStyle03
  8
寸法
  6
CONTINUOUS
 62
     0
 10
134.3375
 20
-44.125
  1
964
 40
3.0
 72
     5
 11
139.2125
 21
-44.125
  0
ENDBLK
  0
BLOCK
  2
*DIM_0015
 70
    65
 10
0.0
 20
0.0
  0
LINE
  8
寸法
  6
BYBLOCK
 62
     0
 10
153.863658
 20
-53.785395
 11
162.87164
 21
-53.785395
  0
LINE
  8
寸法
  6
BYBLOCK
 62
     0
 10
153.863658
 20
-83.118728
 11
162.87164
 21
-83.118728
  0
LINE
  8
寸法
  6
BYBLOCK
 62
     0
 10
162.87164
 20
-53.785395
 11
162.87164
 21
-83.118728
  0
POINT
  8
寸法
 62
     0
 10
162.87164
 20
-53.785395
  0
POINT
  8
寸法
 62
     0
 10
162.87164
 20
-83.118728
  0
TEXT
  7
TextStyle03
  8
寸法
  6
CONTINUOUS
 62
     0
 10
162.475
 20
-70.9125
  1
880
 40
3.0
 50
90.0
 72
     5
 11
162.475
 21
-66.0375
  0
ENDBLK
  0
BLOCK
  2
*DIM_0016
 70
    65
 10
0.0
 20
0.0
  0
LINE
  8
寸法
  6
BYBLOCK
 62
     0
 10
61.620565
 20
48.914033
 11
68.397857
 21
48.914033
  0
LINE
  8
寸法
  6
BYBLOCK
 62
     0
 10
68.397857
 20
52.814033
 11
68.397857
 21
48.914033
  0
POINT
  8
寸法
 62
     0
 10
68.397857
 20
52.814033
  0
POINT
  8
寸法
 62
     0
 10
68.397857
 20
48.914033
  0
TEXT
  7
TextStyle03
  8
寸法
  6
CONTINUOUS
 62
     0
 10
68.075
 20
53.4875
  1
117
 40
3.0
 50
90.0
 72
     5
 11
68.075
 21
58.3625
  0
ENDBLK
  0
BLOCK
  2
*DIM_0017
 70
    65
 10
0.0
 20
0.0
  0
LINE
  8
寸法
  6
BYBLOCK
 62
     0
 10
61.620565
 20
26.714033
 11
68.397857
 21
26.714033
  0
LINE
  8
寸法
  6
BYBLOCK
 62
     0
 10
68.397857
 20
22.814033
 11
68.397857
 21
26.714033
  0
POINT
  8
寸法
 62
     0
 10
68.397857
 20
22.814033
  0
POINT
  8
寸法
 62
     0
 10
68.397857
 20
26.714033
  0
TEXT
  7
TextStyle03
  8
寸法
  6
CONTINUOUS
 62
     0
 10
68.45
 20
17.2125
  1
117
 40
3.0
 50
90.0
 72
     5
 11
68.45
 21
22.0875
  0
ENDBLK
  0
BLOCK
  2
*GRP_0018
 70
    65
 10
0.0
 20
0.0
  0
LINE
  8
別途部材
  6
CONTINUOUS
 62
    96
 10
-110.342895
 20
-70.209613
 11
-110.742895
 21
-71.209613
  0
LINE
  8
別途部材
  6
CONTINUOUS
 62
    96
 10
-110.342895
 20
-70.209613
 11
-25.342895
 21
-70.209613
  0
LINE
  8
別途部材
  6
CONTINUOUS
 10
-110.742895
 20
-71.209613
 11
-25.342895
 21
-71.209613
  0
LINE
  8
別途部材
  6
CONTINUOUS
 10
-25.842895
 20
-60.87628
 11
-26.842895
 21
-61.87628
  0
LINE
  8
別途部材
  6
CONTINUOUS
 10
-27.842895
 20
-61.87628
 11
-28.842895
 21
-60.87628
  0
LINE
  8
別途部材
  6
CONTINUOUS
 10
-29.842895
 20
-60.87628
 11
-30.842895
 21
-61.87628
  0
LINE
  8
別途部材
  6
CONTINUOUS
 10
-28.842895
 20
-60.87628
 11
-29.842895
 21
-60.87628
  0
LINE
  8
別途部材
  6
CONTINUOUS
 10
-25.842895
 20
-60.87628
 11
-25.342895
 21
-60.87628
  0
LINE
  8
別途部材
  6
CONTINUOUS
 10
-31.842895
 20
-61.87628
 11
-32.842895
 21
-60.87628
  0
LINE
  8
別途部材
  6
CONTINUOUS
 10
-33.842895
 20
-60.87628
 11
-34.842895
 21
-61.87628
  0
LINE
  8
別途部材
  6
CONTINUOUS
 10
-32.842895
 20
-60.87628
 11
-33.842895
 21
-60.87628
  0
LINE
  8
別途部材
  6
CONTINUOUS
 10
-35.842895
 20
-61.87628
 11
-36.842895
 21
-60.87628
  0
LINE
  8
別途部材
  6
CONTINUOUS
 10
-37.842895
 20
-60.87628
 11
-38.842895
 21
-61.87628
  0
LINE
  8
別途部材
  6
CONTINUOUS
 10
-36.842895
 20
-60.87628
 11
-37.842895
 21
-60.87628
  0
LINE
  8
別途部材
  6
CONTINUOUS
 10
-39.842895
 20
-61.87628
 11
-40.842895
 21
-60.87628
  0
LINE
  8
別途部材
  6
CONTINUOUS
 10
-41.842895
 20
-60.87628
 11
-42.842895
 21
-61.87628
  0
LINE
  8
別途部材
  6
CONTINUOUS
 10
-40.842895
 20
-60.87628
 11
-41.842895
 21
-60.87628
  0
LINE
  8
別途部材
  6
CONTINUOUS
 10
-43.842895
 20
-61.87628
 11
-44.842895
 21
-60.87628
  0
LINE
  8
別途部材
  6
CONTINUOUS
 10
-45.842895
 20
-60.87628
 11
-46.842895
 21
-61.87628
  0
LINE
  8
別途部材
  6
CONTINUOUS
 10
-44.842895
 20
-60.87628
 11
-45.842895
 21
-60.87628
  0
LINE
  8
別途部材
  6
CONTINUOUS
 10
-47.842895
 20
-61.87628
 11
-48.842895
 21
-60.87628
  0
LINE
  8
別途部材
  6
CONTINUOUS
 10
-49.842895
 20
-60.87628
 11
-50.842895
 21
-61.87628
  0
LINE
  8
別途部材
  6
CONTINUOUS
 10
-48.842895
 20
-60.87628
 11
-49.842895
 21
-60.87628
  0
LINE
  8
別途部材
  6
CONTINUOUS
 10
-51.842895
 20
-61.87628
 11
-52.842895
 21
-60.87628
  0
LINE
  8
別途部材
  6
CONTINUOUS
 10
-53.842895
 20
-60.87628
 11
-54.842895
 21
-61.87628
  0
LINE
  8
別途部材
  6
CONTINUOUS
 10
-52.842895
 20
-60.87628
 11
-53.842895
 21
-60.87628
  0
LINE
  8
別途部材
  6
CONTINUOUS
 10
-55.842895
 20
-61.87628
 11
-56.842895
 21
-60.87628
  0
LINE
  8
別途部材
  6
CONTINUOUS
 10
-57.842895
 20
-60.87628
 11
-58.842895
 21
-61.87628
  0
LINE
  8
別途部材
  6
CONTINUOUS
 10
-56.842895
 20
-60.87628
 11
-57.842895
 21
-60.87628
  0
LINE
  8
別途部材
  6
CONTINUOUS
 10
-59.842895
 20
-61.87628
 11
-60.842895
 21
-60.87628
  0
LINE
  8
別途部材
  6
CONTINUOUS
 10
-61.842895
 20
-60.87628
 11
-62.842895
 21
-61.87628
  0
LINE
  8
別途部材
  6
CONTINUOUS
 10
-60.842895
 20
-60.87628
 11
-61.842895
 21
-60.87628
  0
LINE
  8
別途部材
  6
CONTINUOUS
 10
-63.842895
 20
-61.87628
 11
-64.842895
 21
-60.87628
  0
LINE
  8
別途部材
  6
CONTINUOUS
 10
-65.842895
 20
-60.87628
 11
-66.842895
 21
-61.87628
  0
LINE
  8
別途部材
  6
CONTINUOUS
 10
-64.842895
 20
-60.87628
 11
-65.842895
 21
-60.87628
  0
LINE
  8
別途部材
  6
CONTINUOUS
 10
-67.842895
 20
-61.87628
 11
-68.842895
 21
-60.87628
  0
LINE
  8
別途部材
  6
CONTINUOUS
 10
-69.842895
 20
-60.87628
 11
-70.842895
 21
-61.87628
  0
LINE
  8
別途部材
  6
CONTINUOUS
 10
-68.842895
 20
-60.87628
 11
-69.842895
 21
-60.87628
  0
LINE
  8
別途部材
  6
CONTINUOUS
 10
-66.842895
 20
-61.87628
 11
-67.842895
 21
-61.87628
  0
LINE
  8
別途部材
  6
CONTINUOUS
 10
-62.842895
 20
-61.87628
 11
-63.842895
 21
-61.87628
  0
LINE
  8
別途部材
  6
CONTINUOUS
 10
-58.842895
 20
-61.87628
 11
-59.842895
 21
-61.87628
  0
LINE
  8
別途部材
  6
CONTINUOUS
 10
-54.842895
 20
-61.87628
 11
-55.842895
 21
-61.87628
  0
LINE
  8
別途部材
  6
CONTINUOUS
 10
-50.842895
 20
-61.87628
 11
-51.842895
 21
-61.87628
  0
LINE
  8
別途部材
  6
CONTINUOUS
 10
-46.842895
 20
-61.87628
 11
-47.842895
 21
-61.87628
  0
LINE
  8
別途部材
  6
CONTINUOUS
 10
-42.842895
 20
-61.87628
 11
-43.842895
 21
-61.87628
  0
LINE
  8
別途部材
  6
CONTINUOUS
 10
-38.842895
 20
-61.87628
 11
-39.842895
 21
-61.87628
  0
LINE
  8
別途部材
  6
CONTINUOUS
 10
-34.842895
 20
-61.87628
 11
-35.842895
 21
-61.87628
  0
LINE
  8
別途部材
  6
CONTINUOUS
 10
-30.842895
 20
-61.87628
 11
-31.842895
 21
-61.87628
  0
LINE
  8
別途部材
  6
CONTINUOUS
 10
-27.842895
 20
-61.87628
 11
-26.842895
 21
-61.87628
  0
LINE
  8
別途部材
  6
CONTINUOUS
 10
-71.842895
 20
-61.87628
 11
-72.842895
 21
-60.87628
  0
LINE
  8
別途部材
  6
CONTINUOUS
 10
-73.842895
 20
-60.87628
 11
-74.842895
 21
-61.87628
  0
LINE
  8
別途部材
  6
CONTINUOUS
 10
-72.842895
 20
-60.87628
 11
-73.842895
 21
-60.87628
  0
LINE
  8
別途部材
  6
CONTINUOUS
 10
-75.842895
 20
-61.87628
 11
-76.842895
 21
-60.87628
  0
LINE
  8
別途部材
  6
CONTINUOUS
 10
-77.842895
 20
-60.87628
 11
-78.842895
 21
-61.87628
  0
LINE
  8
別途部材
  6
CONTINUOUS
 10
-76.842895
 20
-60.87628
 11
-77.842895
 21
-60.87628
  0
LINE
  8
別途部材
  6
CONTINUOUS
 10
-79.842895
 20
-61.87628
 11
-80.842895
 21
-60.87628
  0
LINE
  8
別途部材
  6
CONTINUOUS
 10
-81.842895
 20
-60.87628
 11
-82.842895
 21
-61.87628
  0
LINE
  8
別途部材
  6
CONTINUOUS
 10
-80.842895
 20
-60.87628
 11
-81.842895
 21
-60.87628
  0
LINE
  8
別途部材
  6
CONTINUOUS
 10
-83.842895
 20
-61.87628
 11
-84.842895
 21
-60.87628
  0
LINE
  8
別途部材
  6
CONTINUOUS
 10
-85.842895
 20
-60.87628
 11
-86.842895
 21
-61.87628
  0
LINE
  8
別途部材
  6
CONTINUOUS
 10
-84.842895
 20
-60.87628
 11
-85.842895
 21
-60.87628
  0
LINE
  8
別途部材
  6
CONTINUOUS
 10
-87.842895
 20
-61.87628
 11
-88.842895
 21
-60.87628
  0
LINE
  8
別途部材
  6
CONTINUOUS
 10
-89.842895
 20
-60.87628
 11
-90.842895
 21
-61.87628
  0
LINE
  8
別途部材
  6
CONTINUOUS
 10
-88.842895
 20
-60.87628
 11
-89.842895
 21
-60.87628
  0
LINE
  8
別途部材
  6
CONTINUOUS
 10
-91.842895
 20
-61.87628
 11
-92.842895
 21
-60.87628
  0
LINE
  8
別途部材
  6
CONTINUOUS
 10
-93.842895
 20
-60.87628
 11
-94.842895
 21
-61.87628
  0
LINE
  8
別途部材
  6
CONTINUOUS
 10
-92.842895
 20
-60.87628
 11
-93.842895
 21
-60.87628
  0
LINE
  8
別途部材
  6
CONTINUOUS
 10
-90.842895
 20
-61.87628
 11
-91.842895
 21
-61.87628
  0
LINE
  8
別途部材
  6
CONTINUOUS
 10
-86.842895
 20
-61.87628
 11
-87.842895
 21
-61.87628
  0
LINE
  8
別途部材
  6
CONTINUOUS
 10
-82.842895
 20
-61.87628
 11
-83.842895
 21
-61.87628
  0
LINE
  8
別途部材
  6
CONTINUOUS
 10
-78.842895
 20
-61.87628
 11
-79.842895
 21
-61.87628
  0
LINE
  8
別途部材
  6
CONTINUOUS
 10
-74.842895
 20
-61.87628
 11
-75.842895
 21
-61.87628
  0
LINE
  8
別途部材
  6
CONTINUOUS
 10
-70.842895
 20
-61.87628
 11
-71.842895
 21
-61.87628
  0
LINE
  8
別途部材
  6
CONTINUOUS
 10
-94.842895
 20
-61.87628
 11
-94.842895
 21
-70.209613
  0
LINE
  8
別途部材
  6
CONTINUOUS
 10
-93.842895
 20
-60.87628
 11
-93.842895
 21
-70.209613
  0
LINE
  8
別途部材
  6
CONTINUOUS
 10
-91.842895
 20
-61.87628
 11
-91.842895
 21
-70.209613
  0
LINE
  8
別途部材
  6
CONTINUOUS
 10
-92.842895
 20
-60.87628
 11
-92.842895
 21
-70.209613
  0
LINE
  8
別途部材
  6
CONTINUOUS
 10
-89.842895
 20
-60.87628
 11
-89.842895
 21
-70.209613
  0
LINE
  8
別途部材
  6
CONTINUOUS
 10
-90.842895
 20
-61.87628
 11
-90.842895
 21
-70.209613
  0
LINE
  8
別途部材
  6
CONTINUOUS
 10
-87.842895
 20
-61.87628
 11
-87.842895
 21
-70.209613
  0
LINE
  8
別途部材
  6
CONTINUOUS
 10
-88.842895
 20
-60.87628
 11
-88.842895
 21
-70.209613
  0
LINE
  8
別途部材
  6
CONTINUOUS
 10
-86.842895
 20
-61.87628
 11
-86.842895
 21
-70.209613
  0
LINE
  8
別途部材
  6
CONTINUOUS
 10
-84.842895
 20
-60.87628
 11
-84.842895
 21
-70.209613
  0
LINE
  8
別途部材
  6
CONTINUOUS
 10
-85.842895
 20
-60.87628
 11
-85.842895
 21
-70.209613
  0
LINE
  8
別途部材
  6
CONTINUOUS
 10
-83.842895
 20
-61.87628
 11
-83.842895
 21
-70.209613
  0
LINE
  8
別途部材
  6
CONTINUOUS
 10
-82.842895
 20
-61.87628
 11
-82.842895
 21
-70.209613
  0
LINE
  8
別途部材
  6
CONTINUOUS
 10
-81.842895
 20
-60.87628
 11
-81.842895
 21
-70.209613
  0
LINE
  8
別途部材
  6
CONTINUOUS
 10
-80.842895
 20
-60.87628
 11
-80.842895
 21
-70.209613
  0
LINE
  8
別途部材
  6
CONTINUOUS
 10
-76.842895
 20
-60.87628
 11
-76.842895
 21
-70.209613
  0
LINE
  8
別途部材
  6
CONTINUOUS
 10
-69.842895
 20
-60.87628
 11
-69.842895
 21
-70.209613
  0
LINE
  8
別途部材
  6
CONTINUOUS
 10
-65.842895
 20
-60.87628
 11
-65.842895
 21
-70.209613
  0
LINE
  8
別途部材
  6
CONTINUOUS
 10
-63.842895
 20
-61.87628
 11
-63.842895
 21
-70.209613
  0
LINE
  8
別途部材
  6
CONTINUOUS
 10
-68.842895
 20
-60.87628
 11
-68.842895
 21
-70.209613
  0
LINE
  8
別途部材
  6
CONTINUOUS
 10
-72.842895
 20
-60.87628
 11
-72.842895
 21
-70.209613
  0
LINE
  8
別途部材
  6
CONTINUOUS
 10
-74.842895
 20
-61.87628
 11
-74.842895
 21
-70.209613
  0
LINE
  8
別途部材
  6
CONTINUOUS
 10
-77.842895
 20
-60.87628
 11
-77.842895
 21
-70.209613
  0
LINE
  8
別途部材
  6
CONTINUOUS
 10
-78.842895
 20
-61.87628
 11
-78.842895
 21
-70.209613
  0
LINE
  8
別途部材
  6
CONTINUOUS
 10
-79.842895
 20
-61.87628
 11
-79.842895
 21
-70.209613
  0
LINE
  8
別途部材
  6
CONTINUOUS
 10
-75.842895
 20
-61.87628
 11
-75.842895
 21
-70.209613
  0
LINE
  8
別途部材
  6
CONTINUOUS
 10
-73.842895
 20
-60.87628
 11
-73.842895
 21
-70.209613
  0
LINE
  8
別途部材
  6
CONTINUOUS
 10
-71.842895
 20
-61.87628
 11
-71.842895
 21
-70.209613
  0
LINE
  8
別途部材
  6
CONTINUOUS
 10
-70.842895
 20
-61.87628
 11
-70.842895
 21
-70.209613
  0
LINE
  8
別途部材
  6
CONTINUOUS
 10
-67.842895
 20
-61.87628
 11
-67.842895
 21
-70.209613
  0
LINE
  8
別途部材
  6
CONTINUOUS
 10
-66.842895
 20
-61.87628
 11
-66.842895
 21
-70.209613
  0
LINE
  8
別途部材
  6
CONTINUOUS
 10
-64.842895
 20
-60.87628
 11
-64.842895
 21
-70.209613
  0
LINE
  8
別途部材
  6
CONTINUOUS
 10
-61.842895
 20
-60.87628
 11
-61.842895
 21
-70.209613
  0
LINE
  8
別途部材
  6
CONTINUOUS
 10
-62.842895
 20
-61.87628
 11
-62.842895
 21
-70.209613
  0
LINE
  8
別途部材
  6
CONTINUOUS
 10
-60.842895
 20
-60.87628
 11
-60.842895
 21
-70.209613
  0
LINE
  8
別途部材
  6
CONTINUOUS
 10
-59.842895
 20
-61.87628
 11
-59.842895
 21
-70.209613
  0
LINE
  8
別途部材
  6
CONTINUOUS
 10
-58.842895
 20
-61.87628
 11
-58.842895
 21
-70.209613
  0
LINE
  8
別途部材
  6
CONTINUOUS
 10
-57.842895
 20
-60.87628
 11
-57.842895
 21
-70.209613
  0
LINE
  8
別途部材
  6
CONTINUOUS
 10
-55.842895
 20
-61.87628
 11
-55.842895
 21
-70.209613
  0
LINE
  8
別途部材
  6
CONTINUOUS
 10
-56.842895
 20
-60.87628
 11
-56.842895
 21
-70.209613
  0
LINE
  8
別途部材
  6
CONTINUOUS
 10
-53.842895
 20
-60.87628
 11
-53.842895
 21
-70.209613
  0
LINE
  8
別途部材
  6
CONTINUOUS
 10
-54.842895
 20
-61.87628
 11
-54.842895
 21
-70.209613
  0
LINE
  8
別途部材
  6
CONTINUOUS
 10
-50.842895
 20
-61.87628
 11
-50.842895
 21
-70.209613
  0
LINE
  8
別途部材
  6
CONTINUOUS
 10
-49.842895
 20
-60.87628
 11
-49.842895
 21
-70.209613
  0
LINE
  8
別途部材
  6
CONTINUOUS
 10
-48.842895
 20
-60.87628
 11
-48.842895
 21
-70.209613
  0
LINE
  8
別途部材
  6
CONTINUOUS
 10
-51.842895
 20
-61.87628
 11
-51.842895
 21
-70.209613
  0
LINE
  8
別途部材
  6
CONTINUOUS
 10
-52.842895
 20
-60.87628
 11
-52.842895
 21
-70.209613
  0
LINE
  8
別途部材
  6
CONTINUOUS
 10
-44.842895
 20
-60.87628
 11
-44.842895
 21
-70.209613
  0
LINE
  8
別途部材
  6
CONTINUOUS
 10
-46.842895
 20
-61.87628
 11
-46.842895
 21
-70.209613
  0
LINE
  8
別途部材
  6
CONTINUOUS
 10
-47.842895
 20
-61.87628
 11
-47.842895
 21
-70.209613
  0
LINE
  8
別途部材
  6
CONTINUOUS
 10
-45.842895
 20
-60.87628
 11
-45.842895
 21
-70.209613
  0
LINE
  8
別途部材
  6
CONTINUOUS
 10
-43.842895
 20
-61.87628
 11
-43.842895
 21
-70.209613
  0
LINE
  8
別途部材
  6
CONTINUOUS
 10
-41.842895
 20
-60.87628
 11
-41.842895
 21
-70.209613
  0
LINE
  8
別途部材
  6
CONTINUOUS
 10
-40.842895
 20
-60.87628
 11
-40.842895
 21
-70.209613
  0
LINE
  8
別途部材
  6
CONTINUOUS
 10
-38.842895
 20
-61.87628
 11
-38.842895
 21
-70.209613
  0
LINE
  8
別途部材
  6
CONTINUOUS
 10
-39.842895
 20
-61.87628
 11
-39.842895
 21
-70.209613
  0
LINE
  8
別途部材
  6
CONTINUOUS
 10
-42.842895
 20
-61.87628
 11
-42.842895
 21
-70.209613
  0
LINE
  8
別途部材
  6
CONTINUOUS
 10
-37.842895
 20
-60.87628
 11
-37.842895
 21
-70.209613
  0
LINE
  8
別途部材
  6
CONTINUOUS
 10
-35.842895
 20
-61.87628
 11
-35.842895
 21
-70.209613
  0
LINE
  8
別途部材
  6
CONTINUOUS
 10
-36.842895
 20
-60.87628
 11
-36.842895
 21
-70.209613
  0
LINE
  8
別途部材
  6
CONTINUOUS
 10
-34.842895
 20
-61.87628
 11
-34.842895
 21
-70.209613
  0
LINE
  8
別途部材
  6
CONTINUOUS
 10
-33.842895
 20
-60.87628
 11
-33.842895
 21
-70.209613
  0
LINE
  8
別途部材
  6
CONTINUOUS
 10
-31.842895
 20
-61.87628
 11
-31.842895
 21
-70.209613
  0
LINE
  8
別途部材
  6
CONTINUOUS
 10
-32.842895
 20
-60.87628
 11
-32.842895
 21
-70.209613
  0
LINE
  8
別途部材
  6
CONTINUOUS
 10
-30.842895
 20
-61.87628
 11
-30.842895
 21
-70.209613
  0
LINE
  8
別途部材
  6
CONTINUOUS
 10
-29.842895
 20
-60.87628
 11
-29.842895
 21
-70.209613
  0
LINE
  8
別途部材
  6
CONTINUOUS
 10
-27.842895
 20
-61.87628
 11
-27.842895
 21
-70.209613
  0
LINE
  8
別途部材
  6
CONTINUOUS
 10
-28.842895
 20
-60.87628
 11
-28.842895
 21
-70.209613
  0
LINE
  8
別途部材
  6
CONTINUOUS
 10
-26.842895
 20
-61.87628
 11
-26.842895
 21
-70.209613
  0
LINE
  8
別途部材
  6
CONTINUOUS
 10
-25.842895
 20
-60.87628
 11
-25.842895
 21
-70.209613
  0
ARC
  8
別途部材
  6
CONTINUOUS
 10
-93.676227
 20
-79.542947
 40
17.666667
 50
93.786444
 51
148.109204
  0
LINE
  8
別途部材
  6
CONTINUOUS
 62
    96
 10
59.657105
 20
-70.209613
 11
60.057105
 21
-71.209613
  0
LINE
  8
別途部材
  6
CONTINUOUS
 62
    96
 10
59.657105
 20
-70.209613
 11
-25.342895
 21
-70.209613
  0
LINE
  8
別途部材
  6
CONTINUOUS
 10
60.057105
 20
-71.209613
 11
-25.342895
 21
-71.209613
  0
LINE
  8
別途部材
  6
CONTINUOUS
 10
-24.842895
 20
-60.87628
 11
-23.842895
 21
-61.87628
  0
LINE
  8
別途部材
  6
CONTINUOUS
 10
-22.842895
 20
-61.87628
 11
-21.842895
 21
-60.87628
  0
LINE
  8
別途部材
  6
CONTINUOUS
 10
-20.842895
 20
-60.87628
 11
-19.842895
 21
-61.87628
  0
LINE
  8
別途部材
  6
CONTINUOUS
 10
-21.842895
 20
-60.87628
 11
-20.842895
 21
-60.87628
  0
LINE
  8
別途部材
  6
CONTINUOUS
 10
-24.842895
 20
-60.87628
 11
-25.342895
 21
-60.87628
  0
LINE
  8
別途部材
  6
CONTINUOUS
 10
-18.842895
 20
-61.87628
 11
-17.842895
 21
-60.87628
  0
LINE
  8
別途部材
  6
CONTINUOUS
 10
-16.842895
 20
-60.87628
 11
-15.842895
 21
-61.87628
  0
LINE
  8
別途部材
  6
CONTINUOUS
 10
-17.842895
 20
-60.87628
 11
-16.842895
 21
-60.87628
  0
LINE
  8
別途部材
  6
CONTINUOUS
 10
-14.842895
 20
-61.87628
 11
-13.842895
 21
-60.87628
  0
LINE
  8
別途部材
  6
CONTINUOUS
 10
-12.842895
 20
-60.87628
 11
-11.842895
 21
-61.87628
  0
LINE
  8
別途部材
  6
CONTINUOUS
 10
-13.842895
 20
-60.87628
 11
-12.842895
 21
-60.87628
  0
LINE
  8
別途部材
  6
CONTINUOUS
 10
-10.842895
 20
-61.87628
 11
-9.842895
 21
-60.87628
  0
LINE
  8
別途部材
  6
CONTINUOUS
 10
-8.842895
 20
-60.87628
 11
-7.842895
 21
-61.87628
  0
LINE
  8
別途部材
  6
CONTINUOUS
 10
-9.842895
 20
-60.87628
 11
-8.842895
 21
-60.87628
  0
LINE
  8
別途部材
  6
CONTINUOUS
 10
-6.842895
 20
-61.87628
 11
-5.842895
 21
-60.87628
  0
LINE
  8
別途部材
  6
CONTINUOUS
 10
-4.842895
 20
-60.87628
 11
-3.842895
 21
-61.87628
  0
LINE
  8
別途部材
  6
CONTINUOUS
 10
-5.842895
 20
-60.87628
 11
-4.842895
 21
-60.87628
  0
LINE
  8
別途部材
  6
CONTINUOUS
 10
-2.842895
 20
-61.87628
 11
-1.842895
 21
-60.87628
  0
LINE
  8
別途部材
  6
CONTINUOUS
 10
-0.842895
 20
-60.87628
 11
0.157105
 21
-61.87628
  0
LINE
  8
別途部材
  6
CONTINUOUS
 10
-1.842895
 20
-60.87628
 11
-0.842895
 21
-60.87628
  0
LINE
  8
別途部材
  6
CONTINUOUS
 10
1.157105
 20
-61.87628
 11
2.157105
 21
-60.87628
  0
LINE
  8
別途部材
  6
CONTINUOUS
 10
3.157105
 20
-60.87628
 11
4.157105
 21
-61.87628
  0
LINE
  8
別途部材
  6
CONTINUOUS
 10
2.157105
 20
-60.87628
 11
3.157105
 21
-60.87628
  0
LINE
  8
別途部材
  6
CONTINUOUS
 10
5.157105
 20
-61.87628
 11
6.157105
 21
-60.87628
  0
LINE
  8
別途部材
  6
CONTINUOUS
 10
7.157105
 20
-60.87628
 11
8.157105
 21
-61.87628
  0
LINE
  8
別途部材
  6
CONTINUOUS
 10
6.157105
 20
-60.87628
 11
7.157105
 21
-60.87628
  0
LINE
  8
別途部材
  6
CONTINUOUS
 10
9.157105
 20
-61.87628
 11
10.157105
 21
-60.87628
  0
LINE
  8
別途部材
  6
CONTINUOUS
 10
11.157105
 20
-60.87628
 11
12.157105
 21
-61.87628
  0
LINE
  8
別途部材
  6
CONTINUOUS
 10
10.157105
 20
-60.87628
 11
11.157105
 21
-60.87628
  0
LINE
  8
別途部材
  6
CONTINUOUS
 10
13.157105
 20
-61.87628
 11
14.157105
 21
-60.87628
  0
LINE
  8
別途部材
  6
CONTINUOUS
 10
15.157105
 20
-60.87628
 11
16.157105
 21
-61.87628
  0
LINE
  8
別途部材
  6
CONTINUOUS
 10
14.157105
 20
-60.87628
 11
15.157105
 21
-60.87628
  0
LINE
  8
別途部材
  6
CONTINUOUS
 10
17.157105
 20
-61.87628
 11
18.157105
 21
-60.87628
  0
LINE
  8
別途部材
  6
CONTINUOUS
 10
19.157105
 20
-60.87628
 11
20.157105
 21
-61.87628
  0
LINE
  8
別途部材
  6
CONTINUOUS
 10
18.157105
 20
-60.87628
 11
19.157105
 21
-60.87628
  0
LINE
  8
別途部材
  6
CONTINUOUS
 10
16.157105
 20
-61.87628
 11
17.157105
 21
-61.87628
  0
LINE
  8
別途部材
  6
CONTINUOUS
 10
12.157105
 20
-61.87628
 11
13.157105
 21
-61.87628
  0
LINE
  8
別途部材
  6
CONTINUOUS
 10
8.157105
 20
-61.87628
 11
9.157105
 21
-61.87628
  0
LINE
  8
別途部材
  6
CONTINUOUS
 10
4.157105
 20
-61.87628
 11
5.157105
 21
-61.87628
  0
LINE
  8
別途部材
  6
CONTINUOUS
 10
0.157105
 20
-61.87628
 11
1.157105
 21
-61.87628
  0
LINE
  8
別途部材
  6
CONTINUOUS
 10
-3.842895
 20
-61.87628
 11
-2.842895
 21
-61.87628
  0
LINE
  8
別途部材
  6
CONTINUOUS
 10
-7.842895
 20
-61.87628
 11
-6.842895
 21
-61.87628
  0
LINE
  8
別途部材
  6
CONTINUOUS
 10
-11.842895
 20
-61.87628
 11
-10.842895
 21
-61.87628
  0
LINE
  8
別途部材
  6
CONTINUOUS
 10
-15.842895
 20
-61.87628
 11
-14.842895
 21
-61.87628
  0
LINE
  8
別途部材
  6
CONTINUOUS
 10
-19.842895
 20
-61.87628
 11
-18.842895
 21
-61.87628
  0
LINE
  8
別途部材
  6
CONTINUOUS
 10
-22.842895
 20
-61.87628
 11
-23.842895
 21
-61.87628
  0
LINE
  8
別途部材
  6
CONTINUOUS
 10
21.157105
 20
-61.87628
 11
22.157105
 21
-60.87628
  0
LINE
  8
別途部材
  6
CONTINUOUS
 10
23.157105
 20
-60.87628
 11
24.157105
 21
-61.87628
  0
LINE
  8
別途部材
  6
CONTINUOUS
 10
22.157105
 20
-60.87628
 11
23.157105
 21
-60.87628
  0
LINE
  8
別途部材
  6
CONTINUOUS
 10
25.157105
 20
-61.87628
 11
26.157105
 21
-60.87628
  0
LINE
  8
別途部材
  6
CONTINUOUS
 10
27.157105
 20
-60.87628
 11
28.157105
 21
-61.87628
  0
LINE
  8
別途部材
  6
CONTINUOUS
 10
26.157105
 20
-60.87628
 11
27.157105
 21
-60.87628
  0
LINE
  8
別途部材
  6
CONTINUOUS
 10
29.157105
 20
-61.87628
 11
30.157105
 21
-60.87628
  0
LINE
  8
別途部材
  6
CONTINUOUS
 10
31.157105
 20
-60.87628
 11
32.157105
 21
-61.87628
  0
LINE
  8
別途部材
  6
CONTINUOUS
 10
30.157105
 20
-60.87628
 11
31.157105
 21
-60.87628
  0
LINE
  8
別途部材
  6
CONTINUOUS
 10
33.157105
 20
-61.87628
 11
34.157105
 21
-60.87628
  0
LINE
  8
別途部材
  6
CONTINUOUS
 10
35.157105
 20
-60.87628
 11
36.157105
 21
-61.87628
  0
LINE
  8
別途部材
  6
CONTINUOUS
 10
34.157105
 20
-60.87628
 11
35.157105
 21
-60.87628
  0
LINE
  8
別途部材
  6
CONTINUOUS
 10
37.157105
 20
-61.87628
 11
38.157105
 21
-60.87628
  0
LINE
  8
別途部材
  6
CONTINUOUS
 10
39.157105
 20
-60.87628
 11
40.157105
 21
-61.87628
  0
LINE
  8
別途部材
  6
CONTINUOUS
 10
38.157105
 20
-60.87628
 11
39.157105
 21
-60.87628
  0
LINE
  8
別途部材
  6
CONTINUOUS
 10
41.157105
 20
-61.87628
 11
42.157105
 21
-60.87628
  0
LINE
  8
別途部材
  6
CONTINUOUS
 10
43.157105
 20
-60.87628
 11
44.157105
 21
-61.87628
  0
LINE
  8
別途部材
  6
CONTINUOUS
 10
42.157105
 20
-60.87628
 11
43.157105
 21
-60.87628
  0
LINE
  8
別途部材
  6
CONTINUOUS
 10
40.157105
 20
-61.87628
 11
41.157105
 21
-61.87628
  0
LINE
  8
別途部材
  6
CONTINUOUS
 10
36.157105
 20
-61.87628
 11
37.157105
 21
-61.87628
  0
LINE
  8
別途部材
  6
CONTINUOUS
 10
32.157105
 20
-61.87628
 11
33.157105
 21
-61.87628
  0
LINE
  8
別途部材
  6
CONTINUOUS
 10
28.157105
 20
-61.87628
 11
29.157105
 21
-61.87628
  0
LINE
  8
別途部材
  6
CONTINUOUS
 10
24.157105
 20
-61.87628
 11
25.157105
 21
-61.87628
  0
LINE
  8
別途部材
  6
CONTINUOUS
 10
20.157105
 20
-61.87628
 11
21.157105
 21
-61.87628
  0
LINE
  8
別途部材
  6
CONTINUOUS
 10
44.157105
 20
-61.87628
 11
44.157105
 21
-70.209613
  0
LINE
  8
別途部材
  6
CONTINUOUS
 10
43.157105
 20
-60.87628
 11
43.157105
 21
-70.209613
  0
LINE
  8
別途部材
  6
CONTINUOUS
 10
41.157105
 20
-61.87628
 11
41.157105
 21
-70.209613
  0
LINE
  8
別途部材
  6
CONTINUOUS
 10
42.157105
 20
-60.87628
 11
42.157105
 21
-70.209613
  0
LINE
  8
別途部材
  6
CONTINUOUS
 10
39.157105
 20
-60.87628
 11
39.157105
 21
-70.209613
  0
LINE
  8
別途部材
  6
CONTINUOUS
 10
40.157105
 20
-61.87628
 11
40.157105
 21
-70.209613
  0
LINE
  8
別途部材
  6
CONTINUOUS
 10
37.157105
 20
-61.87628
 11
37.157105
 21
-70.209613
  0
LINE
  8
別途部材
  6
CONTINUOUS
 10
38.157105
 20
-60.87628
 11
38.157105
 21
-70.209613
  0
LINE
  8
別途部材
  6
CONTINUOUS
 10
36.157105
 20
-61.87628
 11
36.157105
 21
-70.209613
  0
LINE
  8
別途部材
  6
CONTINUOUS
 10
34.157105
 20
-60.87628
 11
34.157105
 21
-70.209613
  0
LINE
  8
別途部材
  6
CONTINUOUS
 10
35.157105
 20
-60.87628
 11
35.157105
 21
-70.209613
  0
LINE
  8
別途部材
  6
CONTINUOUS
 10
33.157105
 20
-61.87628
 11
33.157105
 21
-70.209613
  0
LINE
  8
別途部材
  6
CONTINUOUS
 10
32.157105
 20
-61.87628
 11
32.157105
 21
-70.209613
  0
LINE
  8
別途部材
  6
CONTINUOUS
 10
31.157105
 20
-60.87628
 11
31.157105
 21
-70.209613
  0
LINE
  8
別途部材
  6
CONTINUOUS
 10
30.157105
 20
-60.87628
 11
30.157105
 21
-70.209613
  0
LINE
  8
別途部材
  6
CONTINUOUS
 10
26.157105
 20
-60.87628
 11
26.157105
 21
-70.209613
  0
LINE
  8
別途部材
  6
CONTINUOUS
 10
19.157105
 20
-60.87628
 11
19.157105
 21
-70.209613
  0
LINE
  8
別途部材
  6
CONTINUOUS
 10
15.157105
 20
-60.87628
 11
15.157105
 21
-70.209613
  0
LINE
  8
別途部材
  6
CONTINUOUS
 10
13.157105
 20
-61.87628
 11
13.157105
 21
-70.209613
  0
LINE
  8
別途部材
  6
CONTINUOUS
 10
18.157105
 20
-60.87628
 11
18.157105
 21
-70.209613
  0
LINE
  8
別途部材
  6
CONTINUOUS
 10
22.157105
 20
-60.87628
 11
22.157105
 21
-70.209613
  0
LINE
  8
別途部材
  6
CONTINUOUS
 10
24.157105
 20
-61.87628
 11
24.157105
 21
-70.209613
  0
LINE
  8
別途部材
  6
CONTINUOUS
 10
27.157105
 20
-60.87628
 11
27.157105
 21
-70.209613
  0
LINE
  8
別途部材
  6
CONTINUOUS
 10
28.157105
 20
-61.87628
 11
28.157105
 21
-70.209613
  0
LINE
  8
別途部材
  6
CONTINUOUS
 10
29.157105
 20
-61.87628
 11
29.157105
 21
-70.209613
  0
LINE
  8
別途部材
  6
CONTINUOUS
 10
25.157105
 20
-61.87628
 11
25.157105
 21
-70.209613
  0
LINE
  8
別途部材
  6
CONTINUOUS
 10
23.157105
 20
-60.87628
 11
23.157105
 21
-70.209613
  0
LINE
  8
別途部材
  6
CONTINUOUS
 10
21.157105
 20
-61.87628
 11
21.157105
 21
-70.209613
  0
LINE
  8
別途部材
  6
CONTINUOUS
 10
20.157105
 20
-61.87628
 11
20.157105
 21
-70.209613
  0
LINE
  8
別途部材
  6
CONTINUOUS
 10
17.157105
 20
-61.87628
 11
17.157105
 21
-70.209613
  0
LINE
  8
別途部材
  6
CONTINUOUS
 10
16.157105
 20
-61.87628
 11
16.157105
 21
-70.209613
  0
LINE
  8
別途部材
  6
CONTINUOUS
 10
14.157105
 20
-60.87628
 11
14.157105
 21
-70.209613
  0
LINE
  8
別途部材
  6
CONTINUOUS
 10
11.157105
 20
-60.87628
 11
11.157105
 21
-70.209613
  0
LINE
  8
別途部材
  6
CONTINUOUS
 10
12.157105
 20
-61.87628
 11
12.157105
 21
-70.209613
  0
LINE
  8
別途部材
  6
CONTINUOUS
 10
10.157105
 20
-60.87628
 11
10.157105
 21
-70.209613
  0
LINE
  8
別途部材
  6
CONTINUOUS
 10
9.157105
 20
-61.87628
 11
9.157105
 21
-70.209613
  0
LINE
  8
別途部材
  6
CONTINUOUS
 10
8.157105
 20
-61.87628
 11
8.157105
 21
-70.209613
  0
LINE
  8
別途部材
  6
CONTINUOUS
 10
7.157105
 20
-60.87628
 11
7.157105
 21
-70.209613
  0
LINE
  8
別途部材
  6
CONTINUOUS
 10
5.157105
 20
-61.87628
 11
5.157105
 21
-70.209613
  0
LINE
  8
別途部材
  6
CONTINUOUS
 10
6.157105
 20
-60.87628
 11
6.157105
 21
-70.209613
  0
LINE
  8
別途部材
  6
CONTINUOUS
 10
3.157105
 20
-60.87628
 11
3.157105
 21
-70.209613
  0
LINE
  8
別途部材
  6
CONTINUOUS
 10
4.157105
 20
-61.87628
 11
4.157105
 21
-70.209613
  0
LINE
  8
別途部材
  6
CONTINUOUS
 10
0.157105
 20
-61.87628
 11
0.157105
 21
-70.209613
  0
LINE
  8
別途部材
  6
CONTINUOUS
 10
-0.842895
 20
-60.87628
 11
-0.842895
 21
-70.209613
  0
LINE
  8
別途部材
  6
CONTINUOUS
 10
-1.842895
 20
-60.87628
 11
-1.842895
 21
-70.209613
  0
LINE
  8
別途部材
  6
CONTINUOUS
 10
1.157105
 20
-61.87628
 11
1.157105
 21
-70.209613
  0
LINE
  8
別途部材
  6
CONTINUOUS
 10
2.157105
 20
-60.87628
 11
2.157105
 21
-70.209613
  0
LINE
  8
別途部材
  6
CONTINUOUS
 10
-5.842895
 20
-60.87628
 11
-5.842895
 21
-70.209613
  0
LINE
  8
別途部材
  6
CONTINUOUS
 10
-3.842895
 20
-61.87628
 11
-3.842895
 21
-70.209613
  0
LINE
  8
別途部材
  6
CONTINUOUS
 10
-2.842895
 20
-61.87628
 11
-2.842895
 21
-70.209613
  0
LINE
  8
別途部材
  6
CONTINUOUS
 10
-4.842895
 20
-60.87628
 11
-4.842895
 21
-70.209613
  0
LINE
  8
別途部材
  6
CONTINUOUS
 10
-6.842895
 20
-61.87628
 11
-6.842895
 21
-70.209613
  0
LINE
  8
別途部材
  6
CONTINUOUS
 10
-8.842895
 20
-60.87628
 11
-8.842895
 21
-70.209613
  0
LINE
  8
別途部材
  6
CONTINUOUS
 10
-9.842895
 20
-60.87628
 11
-9.842895
 21
-70.209613
  0
LINE
  8
別途部材
  6
CONTINUOUS
 10
-11.842895
 20
-61.87628
 11
-11.842895
 21
-70.209613
  0
LINE
  8
別途部材
  6
CONTINUOUS
 10
-10.842895
 20
-61.87628
 11
-10.842895
 21
-70.209613
  0
LINE
  8
別途部材
  6
CONTINUOUS
 10
-7.842895
 20
-61.87628
 11
-7.842895
 21
-70.209613
  0
LINE
  8
別途部材
  6
CONTINUOUS
 10
-12.842895
 20
-60.87628
 11
-12.842895
 21
-70.209613
  0
LINE
  8
別途部材
  6
CONTINUOUS
 10
-14.842895
 20
-61.87628
 11
-14.842895
 21
-70.209613
  0
LINE
  8
別途部材
  6
CONTINUOUS
 10
-13.842895
 20
-60.87628
 11
-13.842895
 21
-70.209613
  0
LINE
  8
別途部材
  6
CONTINUOUS
 10
-15.842895
 20
-61.87628
 11
-15.842895
 21
-70.209613
  0
LINE
  8
別途部材
  6
CONTINUOUS
 10
-16.842895
 20
-60.87628
 11
-16.842895
 21
-70.209613
  0
LINE
  8
別途部材
  6
CONTINUOUS
 10
-18.842895
 20
-61.87628
 11
-18.842895
 21
-70.209613
  0
LINE
  8
別途部材
  6
CONTINUOUS
 10
-17.842895
 20
-60.87628
 11
-17.842895
 21
-70.209613
  0
LINE
  8
別途部材
  6
CONTINUOUS
 10
-19.842895
 20
-61.87628
 11
-19.842895
 21
-70.209613
  0
LINE
  8
別途部材
  6
CONTINUOUS
 10
-20.842895
 20
-60.87628
 11
-20.842895
 21
-70.209613
  0
LINE
  8
別途部材
  6
CONTINUOUS
 10
-22.842895
 20
-61.87628
 11
-22.842895
 21
-70.209613
  0
LINE
  8
別途部材
  6
CONTINUOUS
 10
-21.842895
 20
-60.87628
 11
-21.842895
 21
-70.209613
  0
LINE
  8
別途部材
  6
CONTINUOUS
 10
-23.842895
 20
-61.87628
 11
-23.842895
 21
-70.209613
  0
LINE
  8
別途部材
  6
CONTINUOUS
 10
-24.842895
 20
-60.87628
 11
-24.842895
 21
-70.209613
  0
ARC
  8
別途部材
  6
CONTINUOUS
 10
42.990437
 20
-79.542947
 40
17.666667
 50
31.890796
 51
86.213556
  0
ENDBLK
  0
BLOCK
  2
*GRP_0019
 70
    65
 10
0.0
 20
0.0
  0
LINE
  8
補助線
  6
BYBLOCK
 62
    64
 10
-105.279152
 20
-75.190572
 11
-105.406638
 21
-75.297933
  0
LINE
  8
補助線
  6
BYBLOCK
 62
    64
 10
-105.396575
 20
-75.180508
 11
-105.289215
 21
-75.307995
  0
LINE
  8
補助線
  6
BYBLOCK
 62
    64
 10
-96.788735
 20
-68.04055
 11
-96.91622
 21
-68.147905
  0
LINE
  8
補助線
  6
BYBLOCK
 62
    64
 10
-96.906157
 20
-68.030485
 11
-96.798798
 21
-68.157967
  0
LINE
  8
補助線
  6
BYBLOCK
 62
    64
 10
-88.4258
 20
-60.99788
 11
-88.298318
 21
-60.890523
  0
LINE
  8
補助線
  6
BYBLOCK
 62
    64
 10
-88.41574
 20
-60.880458
 11
-88.30838
 21
-61.007945
  0
LINE
  8
型材断面
  6
CONTINUOUS
 10
-106.13465
 20
-74.82155
 11
-106.195028
 21
-75.526075
  0
LINE
  8
型材断面
  6
CONTINUOUS
 10
-106.195028
 20
-75.526075
 11
-105.765595
 21
-76.03601
  0
LINE
  8
型材断面
  6
CONTINUOUS
 10
-105.765595
 20
-76.03601
 11
-105.06107
 21
-76.096388
  0
LINE
  8
型材断面
  6
CONTINUOUS
 10
-88.643883
 20
-60.09207
 11
-87.939358
 21
-60.152448
  0
LINE
  8
型材断面
  6
CONTINUOUS
 10
-87.939358
 20
-60.152448
 11
-87.509925
 21
-60.662382
  0
LINE
  8
型材断面
  6
CONTINUOUS
 10
-87.509925
 20
-60.662382
 11
-87.570302
 21
-61.366907
  0
LINE
  8
型材断面
  6
CONTINUOUS
 10
-106.13465
 20
-74.82155
 11
-88.643883
 21
-60.09207
  0
LINE
  8
型材断面
  6
CONTINUOUS
 10
-105.06107
 20
-76.096388
 11
-87.570302
 21
-61.366907
  0
CIRCLE
  8
ボルト／ビス
  6
CONTINUOUS
 10
-105.342895
 20
-75.244253
 40
0.250185
  0
CIRCLE
  8
ボルト／ビス
  6
CONTINUOUS
 10
-105.342895
 20
-75.244253
 40
0.301025
  0
LINE
  8
ボルト／ビス
  6
CONTINUOUS
 62
    64
 10
-105.589203
 20
-75.288135
 11
-105.50405
 21
-75.052887
  0
LINE
  8
ボルト／ビス
  6
CONTINUOUS
 62
    64
 10
-105.257743
 20
-75.009003
 11
-105.50405
 21
-75.052887
  0
LINE
  8
ボルト／ビス
  6
CONTINUOUS
 62
    64
 10
-105.428047
 20
-75.479503
 11
-105.18174
 21
-75.435617
  0
LINE
  8
ボルト／ビス
  6
CONTINUOUS
 62
    64
 10
-105.096587
 20
-75.20037
 11
-105.18174
 21
-75.435617
  0
LINE
  8
ボルト／ビス
  6
CONTINUOUS
 62
    64
 10
-105.589203
 20
-75.288135
 11
-105.428047
 21
-75.479503
  0
LINE
  8
ボルト／ビス
  6
CONTINUOUS
 62
    64
 10
-105.257743
 20
-75.009003
 11
-105.096587
 21
-75.20037
  0
CIRCLE
  8
ボルト／ビス
  6
CONTINUOUS
 62
    64
 10
-105.342895
 20
-75.244253
 40
0.216668
  0
CIRCLE
  8
ボルト／ビス
  6
CONTINUOUS
 10
-96.852477
 20
-68.094228
 40
0.250185
  0
CIRCLE
  8
ボルト／ビス
  6
CONTINUOUS
 10
-96.852477
 20
-68.094228
 40
0.301025
  0
LINE
  8
ボルト／ビス
  6
CONTINUOUS
 62
    64
 10
-97.098785
 20
-68.13811
 11
-97.013633
 21
-67.90286
  0
LINE
  8
ボルト／ビス
  6
CONTINUOUS
 62
    64
 10
-96.767325
 20
-67.858978
 11
-97.013633
 21
-67.90286
  0
LINE
  8
ボルト／ビス
  6
CONTINUOUS
 62
    64
 10
-96.93763
 20
-68.329478
 11
-96.69132
 21
-68.285595
  0
LINE
  8
ボルト／ビス
  6
CONTINUOUS
 62
    64
 10
-96.60617
 20
-68.050348
 11
-96.69132
 21
-68.285595
  0
LINE
  8
ボルト／ビス
  6
CONTINUOUS
 62
    64
 10
-97.098785
 20
-68.13811
 11
-96.93763
 21
-68.329478
  0
LINE
  8
ボルト／ビス
  6
CONTINUOUS
 62
    64
 10
-96.767325
 20
-67.858978
 11
-96.60617
 21
-68.050348
  0
CIRCLE
  8
ボルト／ビス
  6
CONTINUOUS
 62
    64
 10
-96.852477
 20
-68.094228
 40
0.216668
  0
CIRCLE
  8
ボルト／ビス
  6
CONTINUOUS
 10
-88.362057
 20
-60.944203
 40
0.250185
  0
CIRCLE
  8
ボルト／ビス
  6
CONTINUOUS
 10
-88.362057
 20
-60.944203
 40
0.301025
  0
LINE
  8
ボルト／ビス
  6
CONTINUOUS
 62
    64
 10
-88.276905
 20
-60.708953
 11
-88.523215
 21
-60.752837
  0
LINE
  8
ボルト／ビス
  6
CONTINUOUS
 62
    64
 10
-88.608367
 20
-60.988085
 11
-88.523215
 21
-60.752837
  0
LINE
  8
ボルト／ビス
  6
CONTINUOUS
 62
    64
 10
-88.115752
 20
-60.90032
 11
-88.200903
 21
-61.135567
  0
LINE
  8
ボルト／ビス
  6
CONTINUOUS
 62
    64
 10
-88.447213
 20
-61.179453
 11
-88.200903
 21
-61.135567
  0
LINE
  8
ボルト／ビス
  6
CONTINUOUS
 62
    64
 10
-88.276905
 20
-60.708953
 11
-88.115752
 21
-60.90032
  0
LINE
  8
ボルト／ビス
  6
CONTINUOUS
 62
    64
 10
-88.608367
 20
-60.988085
 11
-88.447213
 21
-61.179453
  0
CIRCLE
  8
ボルト／ビス
  6
CONTINUOUS
 62
    64
 10
-88.362057
 20
-60.944203
 40
0.216668
  0
ENDBLK
  0
BLOCK
  2
*GRP_0020
 70
    65
 10
0.0
 20
0.0
  0
LINE
  8
補助線
  6
BYBLOCK
 62
    64
 10
-88.425803
 20
-75.190572
 11
-88.298318
 21
-75.297933
  0
LINE
  8
補助線
  6
BYBLOCK
 62
    64
 10
-88.30838
 20
-75.180508
 11
-88.41574
 21
-75.307995
  0
LINE
  8
補助線
  6
BYBLOCK
 62
    64
 10
-96.91622
 20
-68.04055
 11
-96.788735
 21
-68.147905
  0
LINE
  8
補助線
  6
BYBLOCK
 62
    64
 10
-96.798798
 20
-68.030485
 11
-96.906157
 21
-68.157967
  0
LINE
  8
補助線
  6
BYBLOCK
 62
    64
 10
-105.279155
 20
-60.99788
 11
-105.406638
 21
-60.890523
  0
LINE
  8
補助線
  6
BYBLOCK
 62
    64
 10
-105.289215
 20
-60.880458
 11
-105.396575
 21
-61.007945
  0
LINE
  8
型材断面
  6
CONTINUOUS
 10
-87.570305
 20
-74.82155
 11
-87.509927
 21
-75.526075
  0
LINE
  8
型材断面
  6
CONTINUOUS
 10
-87.509927
 20
-75.526075
 11
-87.93936
 21
-76.03601
  0
LINE
  8
型材断面
  6
CONTINUOUS
 10
-87.93936
 20
-76.03601
 11
-88.643885
 21
-76.096388
  0
LINE
  8
型材断面
  6
CONTINUOUS
 10
-105.061072
 20
-60.09207
 11
-105.765597
 21
-60.152448
  0
LINE
  8
型材断面
  6
CONTINUOUS
 10
-105.765597
 20
-60.152448
 11
-106.19503
 21
-60.662382
  0
LINE
  8
型材断面
  6
CONTINUOUS
 10
-106.19503
 20
-60.662382
 11
-106.134652
 21
-61.366907
  0
LINE
  8
型材断面
  6
CONTINUOUS
 10
-87.570305
 20
-74.82155
 11
-105.061072
 21
-60.09207
  0
LINE
  8
型材断面
  6
CONTINUOUS
 10
-88.643885
 20
-76.096388
 11
-106.134652
 21
-61.366907
  0
CIRCLE
  8
ボルト／ビス
  6
CONTINUOUS
 10
-88.36206
 20
-75.244253
 40
0.250185
  0
CIRCLE
  8
ボルト／ビス
  6
CONTINUOUS
 10
-88.36206
 20
-75.244253
 40
0.301025
  0
LINE
  8
ボルト／ビス
  6
CONTINUOUS
 62
    64
 10
-88.115752
 20
-75.288135
 11
-88.200905
 21
-75.052887
  0
LINE
  8
ボルト／ビス
  6
CONTINUOUS
 62
    64
 10
-88.447213
 20
-75.009003
 11
-88.200905
 21
-75.052887
  0
LINE
  8
ボルト／ビス
  6
CONTINUOUS
 62
    64
 10
-88.276908
 20
-75.479503
 11
-88.523215
 21
-75.435617
  0
LINE
  8
ボルト／ビス
  6
CONTINUOUS
 62
    64
 10
-88.608367
 20
-75.20037
 11
-88.523215
 21
-75.435617
  0
LINE
  8
ボルト／ビス
  6
CONTINUOUS
 62
    64
 10
-88.115752
 20
-75.288135
 11
-88.276908
 21
-75.479503
  0
LINE
  8
ボルト／ビス
  6
CONTINUOUS
 62
    64
 10
-88.447213
 20
-75.009003
 11
-88.608367
 21
-75.20037
  0
CIRCLE
  8
ボルト／ビス
  6
CONTINUOUS
 62
    64
 10
-88.36206
 20
-75.244253
 40
0.216668
  0
CIRCLE
  8
ボルト／ビス
  6
CONTINUOUS
 10
-96.852477
 20
-68.094228
 40
0.250185
  0
CIRCLE
  8
ボルト／ビス
  6
CONTINUOUS
 10
-96.852477
 20
-68.094228
 40
0.301025
  0
LINE
  8
ボルト／ビス
  6
CONTINUOUS
 62
    64
 10
-96.60617
 20
-68.13811
 11
-96.691323
 21
-67.90286
  0
LINE
  8
ボルト／ビス
  6
CONTINUOUS
 62
    64
 10
-96.93763
 20
-67.858978
 11
-96.691323
 21
-67.90286
  0
LINE
  8
ボルト／ビス
  6
CONTINUOUS
 62
    64
 10
-96.767325
 20
-68.329478
 11
-97.013635
 21
-68.285595
  0
LINE
  8
ボルト／ビス
  6
CONTINUOUS
 62
    64
 10
-97.098785
 20
-68.050348
 11
-97.013635
 21
-68.285595
  0
LINE
  8
ボルト／ビス
  6
CONTINUOUS
 62
    64
 10
-96.60617
 20
-68.13811
 11
-96.767325
 21
-68.329478
  0
LINE
  8
ボルト／ビス
  6
CONTINUOUS
 62
    64
 10
-96.93763
 20
-67.858978
 11
-97.098785
 21
-68.050348
  0
CIRCLE
  8
ボルト／ビス
  6
CONTINUOUS
 62
    64
 10
-96.852477
 20
-68.094228
 40
0.216668
  0
CIRCLE
  8
ボルト／ビス
  6
CONTINUOUS
 10
-105.342897
 20
-60.944203
 40
0.250185
  0
CIRCLE
  8
ボルト／ビス
  6
CONTINUOUS
 10
-105.342897
 20
-60.944203
 40
0.301025
  0
LINE
  8
ボルト／ビス
  6
CONTINUOUS
 62
    64
 10
-105.42805
 20
-60.708953
 11
-105.18174
 21
-60.752837
  0
LINE
  8
ボルト／ビス
  6
CONTINUOUS
 62
    64
 10
-105.096587
 20
-60.988085
 11
-105.18174
 21
-60.752837
  0
LINE
  8
ボルト／ビス
  6
CONTINUOUS
 62
    64
 10
-105.589203
 20
-60.90032
 11
-105.504053
 21
-61.135567
  0
LINE
  8
ボルト／ビス
  6
CONTINUOUS
 62
    64
 10
-105.257743
 20
-61.179453
 11
-105.504053
 21
-61.135567
  0
LINE
  8
ボルト／ビス
  6
CONTINUOUS
 62
    64
 10
-105.42805
 20
-60.708953
 11
-105.589203
 21
-60.90032
  0
LINE
  8
ボルト／ビス
  6
CONTINUOUS
 62
    64
 10
-105.096587
 20
-60.988085
 11
-105.257743
 21
-61.179453
  0
CIRCLE
  8
ボルト／ビス
  6
CONTINUOUS
 62
    64
 10
-105.342897
 20
-60.944203
 40
0.216668
  0
ENDBLK
  0
BLOCK
  2
*GRP_0021
 70
    65
 10
0.0
 20
0.0
  0
LINE
  8
補助線
  6
BYBLOCK
 62
    64
 10
54.593362
 20
-75.190572
 11
54.720847
 21
-75.297933
  0
LINE
  8
補助線
  6
BYBLOCK
 62
    64
 10
54.710785
 20
-75.180508
 11
54.603425
 21
-75.307995
  0
LINE
  8
補助線
  6
BYBLOCK
 62
    64
 10
46.102945
 20
-68.04055
 11
46.23043
 21
-68.147905
  0
LINE
  8
補助線
  6
BYBLOCK
 62
    64
 10
46.220368
 20
-68.030485
 11
46.113007
 21
-68.157967
  0
LINE
  8
補助線
  6
BYBLOCK
 62
    64
 10
37.74001
 20
-60.99788
 11
37.612528
 21
-60.890523
  0
LINE
  8
補助線
  6
BYBLOCK
 62
    64
 10
37.72995
 20
-60.880458
 11
37.62259
 21
-61.007945
  0
LINE
  8
型材断面
  6
CONTINUOUS
 10
55.44886
 20
-74.82155
 11
55.509238
 21
-75.526075
  0
LINE
  8
型材断面
  6
CONTINUOUS
 10
55.509238
 20
-75.526075
 11
55.079805
 21
-76.03601
  0
LINE
  8
型材断面
  6
CONTINUOUS
 10
55.079805
 20
-76.03601
 11
54.37528
 21
-76.096388
  0
LINE
  8
型材断面
  6
CONTINUOUS
 10
37.958093
 20
-60.09207
 11
37.253567
 21
-60.152448
  0
LINE
  8
型材断面
  6
CONTINUOUS
 10
37.253567
 20
-60.152448
 11
36.824135
 21
-60.662382
  0
LINE
  8
型材断面
  6
CONTINUOUS
 10
36.824135
 20
-60.662382
 11
36.884512
 21
-61.366907
  0
LINE
  8
型材断面
  6
CONTINUOUS
 10
55.44886
 20
-74.82155
 11
37.958093
 21
-60.09207
  0
LINE
  8
型材断面
  6
CONTINUOUS
 10
54.37528
 20
-76.096388
 11
36.884512
 21
-61.366907
  0
CIRCLE
  8
ボルト／ビス
  6
CONTINUOUS
 10
54.657105
 20
-75.244253
 40
0.250185
  0
CIRCLE
  8
ボルト／ビス
  6
CONTINUOUS
 10
54.657105
 20
-75.244253
 40
0.301025
  0
LINE
  8
ボルト／ビス
  6
CONTINUOUS
 62
    64
 10
54.903413
 20
-75.288135
 11
54.81826
 21
-75.052887
  0
LINE
  8
ボルト／ビス
  6
CONTINUOUS
 62
    64
 10
54.571953
 20
-75.009003
 11
54.81826
 21
-75.052887
  0
LINE
  8
ボルト／ビス
  6
CONTINUOUS
 62
    64
 10
54.742258
 20
-75.479503
 11
54.49595
 21
-75.435617
  0
LINE
  8
ボルト／ビス
  6
CONTINUOUS
 62
    64
 10
54.410798
 20
-75.20037
 11
54.49595
 21
-75.435617
  0
LINE
  8
ボルト／ビス
  6
CONTINUOUS
 62
    64
 10
54.903413
 20
-75.288135
 11
54.742258
 21
-75.479503
  0
LINE
  8
ボルト／ビス
  6
CONTINUOUS
 62
    64
 10
54.571953
 20
-75.009003
 11
54.410798
 21
-75.20037
  0
CIRCLE
  8
ボルト／ビス
  6
CONTINUOUS
 62
    64
 10
54.657105
 20
-75.244253
 40
0.216668
  0
CIRCLE
  8
ボルト／ビス
  6
CONTINUOUS
 10
46.166688
 20
-68.094228
 40
0.250185
  0
CIRCLE
  8
ボルト／ビス
  6
CONTINUOUS
 10
46.166688
 20
-68.094228
 40
0.301025
  0
LINE
  8
ボルト／ビス
  6
CONTINUOUS
 62
    64
 10
46.412995
 20
-68.13811
 11
46.327843
 21
-67.90286
  0
LINE
  8
ボルト／ビス
  6
CONTINUOUS
 62
    64
 10
46.081535
 20
-67.858978
 11
46.327843
 21
-67.90286
  0
LINE
  8
ボルト／ビス
  6
CONTINUOUS
 62
    64
 10
46.25184
 20
-68.329478
 11
46.00553
 21
-68.285595
  0
LINE
  8
ボルト／ビス
  6
CONTINUOUS
 62
    64
 10
45.92038
 20
-68.050348
 11
46.00553
 21
-68.285595
  0
LINE
  8
ボルト／ビス
  6
CONTINUOUS
 62
    64
 10
46.412995
 20
-68.13811
 11
46.25184
 21
-68.329478
  0
LINE
  8
ボルト／ビス
  6
CONTINUOUS
 62
    64
 10
46.081535
 20
-67.858978
 11
45.92038
 21
-68.050348
  0
CIRCLE
  8
ボルト／ビス
  6
CONTINUOUS
 62
    64
 10
46.166688
 20
-68.094228
 40
0.216668
  0
CIRCLE
  8
ボルト／ビス
  6
CONTINUOUS
 10
37.676267
 20
-60.944203
 40
0.250185
  0
CIRCLE
  8
ボルト／ビス
  6
CONTINUOUS
 10
37.676267
 20
-60.944203
 40
0.301025
  0
LINE
  8
ボルト／ビス
  6
CONTINUOUS
 62
    64
 10
37.591115
 20
-60.708953
 11
37.837425
 21
-60.752837
  0
LINE
  8
ボルト／ビス
  6
CONTINUOUS
 62
    64
 10
37.922578
 20
-60.988085
 11
37.837425
 21
-60.752837
  0
LINE
  8
ボルト／ビス
  6
CONTINUOUS
 62
    64
 10
37.429962
 20
-60.90032
 11
37.515113
 21
-61.135567
  0
LINE
  8
ボルト／ビス
  6
CONTINUOUS
 62
    64
 10
37.761422
 20
-61.179453
 11
37.515113
 21
-61.135567
  0
LINE
  8
ボルト／ビス
  6
CONTINUOUS
 62
    64
 10
37.591115
 20
-60.708953
 11
37.429962
 21
-60.90032
  0
LINE
  8
ボルト／ビス
  6
CONTINUOUS
 62
    64
 10
37.922578
 20
-60.988085
 11
37.761422
 21
-61.179453
  0
CIRCLE
  8
ボルト／ビス
  6
CONTINUOUS
 62
    64
 10
37.676267
 20
-60.944203
 40
0.216668
  0
ENDBLK
  0
BLOCK
  2
*GRP_0022
 70
    65
 10
0.0
 20
0.0
  0
LINE
  8
補助線
  6
BYBLOCK
 62
    64
 10
37.740013
 20
-75.190572
 11
37.612528
 21
-75.297933
  0
LINE
  8
補助線
  6
BYBLOCK
 62
    64
 10
37.62259
 20
-75.180508
 11
37.72995
 21
-75.307995
  0
LINE
  8
補助線
  6
BYBLOCK
 62
    64
 10
46.23043
 20
-68.04055
 11
46.102945
 21
-68.147905
  0
LINE
  8
補助線
  6
BYBLOCK
 62
    64
 10
46.113007
 20
-68.030485
 11
46.220368
 21
-68.157967
  0
LINE
  8
補助線
  6
BYBLOCK
 62
    64
 10
54.593365
 20
-60.99788
 11
54.720847
 21
-60.890523
  0
LINE
  8
補助線
  6
BYBLOCK
 62
    64
 10
54.603425
 20
-60.880458
 11
54.710785
 21
-61.007945
  0
LINE
  8
型材断面
  6
CONTINUOUS
 10
36.884515
 20
-74.82155
 11
36.824137
 21
-75.526075
  0
LINE
  8
型材断面
  6
CONTINUOUS
 10
36.824137
 20
-75.526075
 11
37.25357
 21
-76.03601
  0
LINE
  8
型材断面
  6
CONTINUOUS
 10
37.25357
 20
-76.03601
 11
37.958095
 21
-76.096388
  0
LINE
  8
型材断面
  6
CONTINUOUS
 10
54.375282
 20
-60.09207
 11
55.079808
 21
-60.152448
  0
LINE
  8
型材断面
  6
CONTINUOUS
 10
55.079808
 20
-60.152448
 11
55.50924
 21
-60.662382
  0
LINE
  8
型材断面
  6
CONTINUOUS
 10
55.50924
 20
-60.662382
 11
55.448862
 21
-61.366907
  0
LINE
  8
型材断面
  6
CONTINUOUS
 10
36.884515
 20
-74.82155
 11
54.375282
 21
-60.09207
  0
LINE
  8
型材断面
  6
CONTINUOUS
 10
37.958095
 20
-76.096388
 11
55.448862
 21
-61.366907
  0
CIRCLE
  8
ボルト／ビス
  6
CONTINUOUS
 10
37.67627
 20
-75.244253
 40
0.250185
  0
CIRCLE
  8
ボルト／ビス
  6
CONTINUOUS
 10
37.67627
 20
-75.244253
 40
0.301025
  0
LINE
  8
ボルト／ビス
  6
CONTINUOUS
 62
    64
 10
37.429962
 20
-75.288135
 11
37.515115
 21
-75.052887
  0
LINE
  8
ボルト／ビス
  6
CONTINUOUS
 62
    64
 10
37.761422
 20
-75.009003
 11
37.515115
 21
-75.052887
  0
LINE
  8
ボルト／ビス
  6
CONTINUOUS
 62
    64
 10
37.591117
 20
-75.479503
 11
37.837425
 21
-75.435617
  0
LINE
  8
ボルト／ビス
  6
CONTINUOUS
 62
    64
 10
37.922578
 20
-75.20037
 11
37.837425
 21
-75.435617
  0
LINE
  8
ボルト／ビス
  6
CONTINUOUS
 62
    64
 10
37.429962
 20
-75.288135
 11
37.591117
 21
-75.479503
  0
LINE
  8
ボルト／ビス
  6
CONTINUOUS
 62
    64
 10
37.761422
 20
-75.009003
 11
37.922578
 21
-75.20037
  0
CIRCLE
  8
ボルト／ビス
  6
CONTINUOUS
 62
    64
 10
37.67627
 20
-75.244253
 40
0.216668
  0
CIRCLE
  8
ボルト／ビス
  6
CONTINUOUS
 10
46.166688
 20
-68.094228
 40
0.250185
  0
CIRCLE
  8
ボルト／ビス
  6
CONTINUOUS
 10
46.166688
 20
-68.094228
 40
0.301025
  0
LINE
  8
ボルト／ビス
  6
CONTINUOUS
 62
    64
 10
45.92038
 20
-68.13811
 11
46.005532
 21
-67.90286
  0
LINE
  8
ボルト／ビス
  6
CONTINUOUS
 62
    64
 10
46.25184
 20
-67.858978
 11
46.005532
 21
-67.90286
  0
LINE
  8
ボルト／ビス
  6
CONTINUOUS
 62
    64
 10
46.081535
 20
-68.329478
 11
46.327845
 21
-68.285595
  0
LINE
  8
ボルト／ビス
  6
CONTINUOUS
 62
    64
 10
46.412995
 20
-68.050348
 11
46.327845
 21
-68.285595
  0
LINE
  8
ボルト／ビス
  6
CONTINUOUS
 62
    64
 10
45.92038
 20
-68.13811
 11
46.081535
 21
-68.329478
  0
LINE
  8
ボルト／ビス
  6
CONTINUOUS
 62
    64
 10
46.25184
 20
-67.858978
 11
46.412995
 21
-68.050348
  0
CIRCLE
  8
ボルト／ビス
  6
CONTINUOUS
 62
    64
 10
46.166688
 20
-68.094228
 40
0.216668
  0
CIRCLE
  8
ボルト／ビス
  6
CONTINUOUS
 10
54.657107
 20
-60.944203
 40
0.250185
  0
CIRCLE
  8
ボルト／ビス
  6
CONTINUOUS
 10
54.657107
 20
-60.944203
 40
0.301025
  0
LINE
  8
ボルト／ビス
  6
CONTINUOUS
 62
    64
 10
54.74226
 20
-60.708953
 11
54.49595
 21
-60.752837
  0
LINE
  8
ボルト／ビス
  6
CONTINUOUS
 62
    64
 10
54.410798
 20
-60.988085
 11
54.49595
 21
-60.752837
  0
LINE
  8
ボルト／ビス
  6
CONTINUOUS
 62
    64
 10
54.903413
 20
-60.90032
 11
54.818262
 21
-61.135567
  0
LINE
  8
ボルト／ビス
  6
CONTINUOUS
 62
    64
 10
54.571953
 20
-61.179453
 11
54.818262
 21
-61.135567
  0
LINE
  8
ボルト／ビス
  6
CONTINUOUS
 62
    64
 10
54.74226
 20
-60.708953
 11
54.903413
 21
-60.90032
  0
LINE
  8
ボルト／ビス
  6
CONTINUOUS
 62
    64
 10
54.410798
 20
-60.988085
 11
54.571953
 21
-61.179453
  0
CIRCLE
  8
ボルト／ビス
  6
CONTINUOUS
 62
    64
 10
54.657107
 20
-60.944203
 40
0.216668
  0
ENDBLK
  0
BLOCK
  2
*DIM_0023
 70
    65
 10
0.0
 20
0.0
  0
LINE
  8
寸法
  6
BYBLOCK
 62
     0
 10
-111.676228
 20
47.814033
 11
-124.969065
 21
47.814033
  0
LINE
  8
寸法
  6
BYBLOCK
 62
     0
 10
-111.676228
 20
27.814033
 11
-124.969065
 21
27.814033
  0
LINE
  8
寸法
  6
BYBLOCK
 62
     0
 10
-124.969065
 20
47.814033
 11
-124.969065
 21
27.814033
  0
POINT
  8
寸法
 62
     0
 10
-124.969065
 20
47.814033
  0
POINT
  8
寸法
 62
     0
 10
-124.969065
 20
27.814033
  0
TEXT
  7
TextStyle03
  8
寸法
  6
CONTINUOUS
 62
     0
 10
-125.325
 20
35.3625
  1
600
 40
3.0
 50
90.0
 72
     5
 11
-125.325
 21
40.2375
  0
ENDBLK
  0
BLOCK
  2
*DIM_0024
 70
    65
 10
0.0
 20
0.0
  0
LINE
  8
寸法
  6
BYBLOCK
 62
     0
 10
-100.342893
 20
55.814033
 11
-100.342893
 21
84.922105
  0
LINE
  8
寸法
  6
BYBLOCK
 62
     0
 10
-75.342893
 20
55.814033
 11
-75.342893
 21
84.922105
  0
LINE
  8
寸法
  6
BYBLOCK
 62
     0
 10
-100.342893
 20
84.922105
 11
-75.342893
 21
84.922105
  0
POINT
  8
寸法
 62
     0
 10
-100.342893
 20
84.922105
  0
POINT
  8
寸法
 62
     0
 10
-75.342893
 20
84.922105
  0
TEXT
  7
TextStyle03
  8
寸法
  6
CONTINUOUS
 62
     0
 10
-90.3125
 20
85.3
  1
750
 40
3.0
 72
     5
 11
-85.4375
 21
85.3
  0
ENDBLK
  0
BLOCK
  2
*DIM_0025
 70
    65
 10
0.0
 20
0.0
  0
LINE
  8
寸法
  6
BYBLOCK
 62
     0
 10
-50.342893
 20
55.814033
 11
-50.342893
 21
84.922105
  0
LINE
  8
寸法
  6
BYBLOCK
 62
     0
 10
-75.342893
 20
84.922105
 11
-50.342893
 21
84.922105
  0
POINT
  8
寸法
 62
     0
 10
-50.342893
 20
84.922105
  0
TEXT
  7
TextStyle03
  8
寸法
  6
CONTINUOUS
 62
     0
 10
-65.3125
 20
85.3
  1
750
 40
3.0
 72
     5
 11
-60.4375
 21
85.3
  0
ENDBLK
  0
BLOCK
  2
*DIM_0026
 70
    65
 10
0.0
 20
0.0
  0
LINE
  8
寸法
  6
BYBLOCK
 62
     0
 10
-25.342893
 20
55.814033
 11
-25.342893
 21
84.922105
  0
LINE
  8
寸法
  6
BYBLOCK
 62
     0
 10
-50.342893
 20
84.922105
 11
-25.342893
 21
84.922105
  0
POINT
  8
寸法
 62
     0
 10
-25.342893
 20
84.922105
  0
TEXT
  7
TextStyle03
  8
寸法
  6
CONTINUOUS
 62
     0
 10
-40.3125
 20
85.3
  1
750
 40
3.0
 72
     5
 11
-35.4375
 21
85.3
  0
ENDBLK
  0
BLOCK
  2
*DIM_0027
 70
    65
 10
0.0
 20
0.0
  0
LINE
  8
寸法
  6
BYBLOCK
 62
     0
 10
-0.342893
 20
55.814033
 11
-0.342893
 21
84.922105
  0
LINE
  8
寸法
  6
BYBLOCK
 62
     0
 10
-25.342893
 20
84.922105
 11
-0.342893
 21
84.922105
  0
POINT
  8
寸法
 62
     0
 10
-0.342893
 20
84.922105
  0
TEXT
  7
TextStyle03
  8
寸法
  6
CONTINUOUS
 62
     0
 10
-15.3125
 20
85.3
  1
750
 40
3.0
 72
     5
 11
-10.4375
 21
85.3
  0
ENDBLK
  0
BLOCK
  2
*DIM_0028
 70
    65
 10
0.0
 20
0.0
  0
LINE
  8
寸法
  6
BYBLOCK
 62
     0
 10
24.657107
 20
55.814033
 11
24.657107
 21
84.922105
  0
LINE
  8
寸法
  6
BYBLOCK
 62
     0
 10
-0.342893
 20
84.922105
 11
24.657107
 21
84.922105
  0
POINT
  8
寸法
 62
     0
 10
24.657107
 20
84.922105
  0
TEXT
  7
TextStyle03
  8
寸法
  6
CONTINUOUS
 62
     0
 10
9.6875
 20
85.3
  1
750
 40
3.0
 72
     5
 11
14.5625
 21
85.3
  0
ENDBLK
  0
BLOCK
  2
*DIM_0029
 70
    65
 10
0.0
 20
0.0
  0
LINE
  8
寸法
  6
BYBLOCK
 62
     0
 10
49.657107
 20
55.814033
 11
49.657107
 21
84.922105
  0
LINE
  8
寸法
  6
BYBLOCK
 62
     0
 10
24.657107
 20
84.922105
 11
49.657107
 21
84.922105
  0
POINT
  8
寸法
 62
     0
 10
49.657107
 20
84.922105
  0
TEXT
  7
TextStyle03
  8
寸法
  6
CONTINUOUS
 62
     0
 10
34.6875
 20
85.3
  1
750
 40
3.0
 72
     5
 11
39.5625
 21
85.3
  0
ENDBLK
  0
BLOCK
  2
*DIM_0030
 70
    65
 10
0.0
 20
0.0
  0
LINE
  8
寸法
  6
BYBLOCK
 62
     0
 10
45.990438
 20
-50.209613
 11
73.960088
 21
-50.209613
  0
LINE
  8
寸法
  6
BYBLOCK
 62
     0
 10
73.960088
 20
-61.87628
 11
73.960088
 21
-50.209613
  0
POINT
  8
寸法
 62
     0
 10
73.960088
 20
-61.87628
  0
POINT
  8
寸法
 62
     0
 10
73.960088
 20
-50.209613
  0
TEXT
  7
TextStyle03
  8
寸法
  6
CONTINUOUS
 62
     0
 10
78.55
 20
-65.46875
  1
上昇319以上
 40
3.0
 50
90.0
 72
     5
 11
78.55
 21
-47.28125
  0
ENDBLK
  0
BLOCK
  2
*GRP_0031
 70
    65
 10
0.0
 20
0.0
  0
LINE
  8
ボルト／ビス
  6
CONTINUOUS
 10
147.68612
 20
53.4807
 11
147.219455
 21
53.4807
  0
LINE
  8
ボルト／ビス
  6
CONTINUOUS
 10
147.68612
 20
53.847365
 11
147.619455
 21
53.847365
  0
LINE
  8
ボルト／ビス
  6
CONTINUOUS
 10
147.619455
 20
53.847365
 11
147.619455
 21
53.114033
  0
LINE
  8
ボルト／ビス
  6
CONTINUOUS
 10
147.619455
 20
53.114033
 11
147.68612
 21
53.114033
  0
LINE
  8
ボルト／ビス
  6
CONTINUOUS
 10
147.68612
 20
53.847365
 11
147.68612
 21
53.114033
  0
LINE
  8
ボルト／ビス
  6
CONTINUOUS
 10
147.58612
 20
53.7807
 11
147.619455
 21
53.7807
  0
LINE
  8
ボルト／ビス
  6
CONTINUOUS
 10
147.58612
 20
53.7807
 11
147.58612
 21
53.1807
  0
LINE
  8
ボルト／ビス
  6
CONTINUOUS
 10
147.58612
 20
53.1807
 11
147.619455
 21
53.1807
  0
LINE
  8
ボルト／ビス
  6
CONTINUOUS
 62
    64
 10
147.38612
 20
53.641075
 11
147.397795
 21
53.67315
  0
ARC
  8
ボルト／ビス
  6
CONTINUOUS
 62
    64
 10
147.491098
 20
53.625036
 40
0.104978
 50
180.0
 51
207.278033
  0
ARC
  8
ボルト／ビス
  6
CONTINUOUS
 62
    64
 10
147.788522
 20
53.480699
 40
0.402402
 50
166.165015
 51
193.834998
  0
LINE
  8
ボルト／ビス
  6
CONTINUOUS
 62
    64
 10
147.38612
 20
53.320325
 11
147.397795
 21
53.28825
  0
ARC
  8
ボルト／ビス
  6
CONTINUOUS
 62
    64
 10
147.491098
 20
53.336361
 40
0.104978
 50
152.721967
 51
180.0
  0
LINE
  8
ボルト／ビス
  6
CONTINUOUS
 62
    64
 10
147.38612
 20
53.641075
 11
147.38612
 21
53.320325
  0
LINE
  8
ボルト／ビス
  6
CONTINUOUS
 62
    64
 10
147.397795
 20
53.28825
 11
147.519455
 21
53.28825
  0
LINE
  8
ボルト／ビス
  6
CONTINUOUS
 62
    64
 10
147.397795
 20
53.384475
 11
147.519455
 21
53.384475
  0
LINE
  8
ボルト／ビス
  6
CONTINUOUS
 62
    64
 10
147.397795
 20
53.67315
 11
147.519455
 21
53.67315
  0
LINE
  8
ボルト／ビス
  6
CONTINUOUS
 62
    64
 10
147.397795
 20
53.576925
 11
147.519455
 21
53.576925
  0
LINE
  8
ボルト／ビス
  6
CONTINUOUS
 10
147.519455
 20
53.67315
 11
147.519455
 21
53.28825
  0
LINE
  8
ボルト／ビス
  6
CONTINUOUS
 10
147.519455
 20
53.6807
 11
147.58612
 21
53.6807
  0
LINE
  8
ボルト／ビス
  6
CONTINUOUS
 10
147.519455
 20
53.6807
 11
147.519455
 21
53.2807
  0
LINE
  8
ボルト／ビス
  6
CONTINUOUS
 10
147.519455
 20
53.2807
 11
147.58612
 21
53.2807
  0
ENDBLK
  0
BLOCK
  2
*GRP_0032
 70
    65
 10
0.0
 20
0.0
  0
LINE
  8
ボルト／ビス
  6
CONTINUOUS
 10
147.68612
 20
22.147365
 11
147.219455
 21
22.147365
  0
LINE
  8
ボルト／ビス
  6
CONTINUOUS
 10
147.68612
 20
22.51403
 11
147.619455
 21
22.51403
  0
LINE
  8
ボルト／ビス
  6
CONTINUOUS
 10
147.619455
 20
22.51403
 11
147.619455
 21
21.780697
  0
LINE
  8
ボルト／ビス
  6
CONTINUOUS
 10
147.619455
 20
21.780697
 11
147.68612
 21
21.780697
  0
LINE
  8
ボルト／ビス
  6
CONTINUOUS
 10
147.68612
 20
22.51403
 11
147.68612
 21
21.780697
  0
LINE
  8
ボルト／ビス
  6
CONTINUOUS
 10
147.58612
 20
22.447365
 11
147.619455
 21
22.447365
  0
LINE
  8
ボルト／ビス
  6
CONTINUOUS
 10
147.58612
 20
22.447365
 11
147.58612
 21
21.847365
  0
LINE
  8
ボルト／ビス
  6
CONTINUOUS
 10
147.58612
 20
21.847365
 11
147.619455
 21
21.847365
  0
LINE
  8
ボルト／ビス
  6
CONTINUOUS
 62
    64
 10
147.38612
 20
22.30774
 11
147.397795
 21
22.339815
  0
ARC
  8
ボルト／ビス
  6
CONTINUOUS
 62
    64
 10
147.491098
 20
22.291701
 40
0.104978
 50
180.0
 51
207.278033
  0
ARC
  8
ボルト／ビス
  6
CONTINUOUS
 62
    64
 10
147.788522
 20
22.147364
 40
0.402402
 50
166.165015
 51
193.834998
  0
LINE
  8
ボルト／ビス
  6
CONTINUOUS
 62
    64
 10
147.38612
 20
21.98699
 11
147.397795
 21
21.954915
  0
ARC
  8
ボルト／ビス
  6
CONTINUOUS
 62
    64
 10
147.491098
 20
22.003026
 40
0.104978
 50
152.721967
 51
180.0
  0
LINE
  8
ボルト／ビス
  6
CONTINUOUS
 62
    64
 10
147.38612
 20
22.30774
 11
147.38612
 21
21.98699
  0
LINE
  8
ボルト／ビス
  6
CONTINUOUS
 62
    64
 10
147.397795
 20
21.954915
 11
147.519455
 21
21.954915
  0
LINE
  8
ボルト／ビス
  6
CONTINUOUS
 62
    64
 10
147.397795
 20
22.05114
 11
147.519455
 21
22.05114
  0
LINE
  8
ボルト／ビス
  6
CONTINUOUS
 62
    64
 10
147.397795
 20
22.339815
 11
147.519455
 21
22.339815
  0
LINE
  8
ボルト／ビス
  6
CONTINUOUS
 62
    64
 10
147.397795
 20
22.24359
 11
147.519455
 21
22.24359
  0
LINE
  8
ボルト／ビス
  6
CONTINUOUS
 10
147.519455
 20
22.339815
 11
147.519455
 21
21.954915
  0
LINE
  8
ボルト／ビス
  6
CONTINUOUS
 10
147.519455
 20
22.347365
 11
147.58612
 21
22.347365
  0
LINE
  8
ボルト／ビス
  6
CONTINUOUS
 10
147.519455
 20
22.347365
 11
147.519455
 21
21.947365
  0
LINE
  8
ボルト／ビス
  6
CONTINUOUS
 10
147.519455
 20
21.947365
 11
147.58612
 21
21.947365
  0
ENDBLK
  0
BLOCK
  2
*GRP_0033
 70
    65
 10
0.0
 20
0.0
  0
LINE
  8
ボルト／ビス
  6
CONTINUOUS
 10
58.657105
 20
-70.209613
 11
58.657105
 21
-69.742947
  0
LINE
  8
ボルト／ビス
  6
CONTINUOUS
 10
58.29044
 20
-70.209613
 11
58.29044
 21
-70.142947
  0
LINE
  8
ボルト／ビス
  6
CONTINUOUS
 10
58.29044
 20
-70.142947
 11
59.023773
 21
-70.142947
  0
LINE
  8
ボルト／ビス
  6
CONTINUOUS
 10
59.023773
 20
-70.142947
 11
59.023773
 21
-70.209613
  0
LINE
  8
ボルト／ビス
  6
CONTINUOUS
 10
58.29044
 20
-70.209613
 11
59.023773
 21
-70.209613
  0
LINE
  8
ボルト／ビス
  6
CONTINUOUS
 10
58.357105
 20
-70.109612
 11
58.357105
 21
-70.142947
  0
LINE
  8
ボルト／ビス
  6
CONTINUOUS
 10
58.357105
 20
-70.109612
 11
58.957105
 21
-70.109612
  0
LINE
  8
ボルト／ビス
  6
CONTINUOUS
 10
58.957105
 20
-70.109612
 11
58.957105
 21
-70.142947
  0
LINE
  8
ボルト／ビス
  6
CONTINUOUS
 62
    64
 10
58.49673
 20
-69.909613
 11
58.464655
 21
-69.921288
  0
ARC
  8
ボルト／ビス
  6
CONTINUOUS
 62
    64
 10
58.512768
 20
-70.01459
 40
0.104978
 50
62.721967
 51
90.0
  0
ARC
  8
ボルト／ビス
  6
CONTINUOUS
 62
    64
 10
58.657106
 20
-70.312014
 40
0.402402
 50
76.165002
 51
103.834985
  0
LINE
  8
ボルト／ビス
  6
CONTINUOUS
 62
    64
 10
58.81748
 20
-69.909613
 11
58.849555
 21
-69.921288
  0
ARC
  8
ボルト／ビス
  6
CONTINUOUS
 62
    64
 10
58.801443
 20
-70.01459
 40
0.104978
 50
90.0
 51
117.278033
  0
LINE
  8
ボルト／ビス
  6
CONTINUOUS
 62
    64
 10
58.49673
 20
-69.909613
 11
58.81748
 21
-69.909613
  0
LINE
  8
ボルト／ビス
  6
CONTINUOUS
 62
    64
 10
58.849555
 20
-69.921288
 11
58.849555
 21
-70.042947
  0
LINE
  8
ボルト／ビス
  6
CONTINUOUS
 62
    64
 10
58.75333
 20
-69.921288
 11
58.75333
 21
-70.042947
  0
LINE
  8
ボルト／ビス
  6
CONTINUOUS
 62
    64
 10
58.464655
 20
-69.921288
 11
58.464655
 21
-70.042947
  0
LINE
  8
ボルト／ビス
  6
CONTINUOUS
 62
    64
 10
58.56088
 20
-69.921288
 11
58.56088
 21
-70.042947
  0
LINE
  8
ボルト／ビス
  6
CONTINUOUS
 10
58.464655
 20
-70.042947
 11
58.849555
 21
-70.042947
  0
LINE
  8
ボルト／ビス
  6
CONTINUOUS
 10
58.457105
 20
-70.042947
 11
58.457105
 21
-70.109612
  0
LINE
  8
ボルト／ビス
  6
CONTINUOUS
 10
58.457105
 20
-70.042947
 11
58.857105
 21
-70.042947
  0
LINE
  8
ボルト／ビス
  6
CONTINUOUS
 10
58.857105
 20
-70.042947
 11
58.857105
 21
-70.109612
  0
ENDBLK
  0
BLOCK
  2
*GRP_0034
 70
    65
 10
0.0
 20
0.0
  0
LINE
  8
ボルト／ビス
  6
DOT
 10
58.657105
 20
-58.542945
 11
58.657105
 21
-58.07628
  0
LINE
  8
ボルト／ビス
  6
DOT
 10
58.29044
 20
-58.542945
 11
58.29044
 21
-58.47628
  0
LINE
  8
ボルト／ビス
  6
DOT
 10
58.29044
 20
-58.47628
 11
59.023773
 21
-58.47628
  0
LINE
  8
ボルト／ビス
  6
DOT
 10
59.023773
 20
-58.47628
 11
59.023773
 21
-58.542945
  0
LINE
  8
ボルト／ビス
  6
DOT
 10
58.29044
 20
-58.542945
 11
59.023773
 21
-58.542945
  0
LINE
  8
ボルト／ビス
  6
DOT
 10
58.357105
 20
-58.442945
 11
58.357105
 21
-58.47628
  0
LINE
  8
ボルト／ビス
  6
DOT
 10
58.357105
 20
-58.442945
 11
58.957105
 21
-58.442945
  0
LINE
  8
ボルト／ビス
  6
DOT
 10
58.957105
 20
-58.442945
 11
58.957105
 21
-58.47628
  0
LINE
  8
ボルト／ビス
  6
DOT
 62
    64
 10
58.49673
 20
-58.242945
 11
58.464655
 21
-58.25462
  0
ARC
  8
ボルト／ビス
  6
DOT
 62
    64
 10
58.512768
 20
-58.347922
 40
0.104978
 50
62.721967
 51
90.0
  0
ARC
  8
ボルト／ビス
  6
DOT
 62
    64
 10
58.657106
 20
-58.645346
 40
0.402402
 50
76.165002
 51
103.834985
  0
LINE
  8
ボルト／ビス
  6
DOT
 62
    64
 10
58.81748
 20
-58.242945
 11
58.849555
 21
-58.25462
  0
ARC
  8
ボルト／ビス
  6
DOT
 62
    64
 10
58.801443
 20
-58.347922
 40
0.104978
 50
90.0
 51
117.278033
  0
LINE
  8
ボルト／ビス
  6
DOT
 62
    64
 10
58.49673
 20
-58.242945
 11
58.81748
 21
-58.242945
  0
LINE
  8
ボルト／ビス
  6
DOT
 62
    64
 10
58.849555
 20
-58.25462
 11
58.849555
 21
-58.37628
  0
LINE
  8
ボルト／ビス
  6
DOT
 62
    64
 10
58.75333
 20
-58.25462
 11
58.75333
 21
-58.37628
  0
LINE
  8
ボルト／ビス
  6
DOT
 62
    64
 10
58.464655
 20
-58.25462
 11
58.464655
 21
-58.37628
  0
LINE
  8
ボルト／ビス
  6
DOT
 62
    64
 10
58.56088
 20
-58.25462
 11
58.56088
 21
-58.37628
  0
LINE
  8
ボルト／ビス
  6
DOT
 10
58.464655
 20
-58.37628
 11
58.849555
 21
-58.37628
  0
LINE
  8
ボルト／ビス
  6
DOT
 10
58.457105
 20
-58.37628
 11
58.457105
 21
-58.442945
  0
LINE
  8
ボルト／ビス
  6
DOT
 10
58.457105
 20
-58.37628
 11
58.857105
 21
-58.37628
  0
LINE
  8
ボルト／ビス
  6
DOT
 10
58.857105
 20
-58.37628
 11
58.857105
 21
-58.442945
  0
ENDBLK
  0
BLOCK
  2
*GRP_0035
 70
    65
 10
0.0
 20
0.0
  0
LINE
  8
ボルト／ビス
  6
CONTINUOUS
 10
-109.342895
 20
-70.209613
 11
-109.342895
 21
-69.742947
  0
LINE
  8
ボルト／ビス
  6
CONTINUOUS
 10
-109.70956
 20
-70.209613
 11
-109.70956
 21
-70.142947
  0
LINE
  8
ボルト／ビス
  6
CONTINUOUS
 10
-109.70956
 20
-70.142947
 11
-108.976228
 21
-70.142947
  0
LINE
  8
ボルト／ビス
  6
CONTINUOUS
 10
-108.976228
 20
-70.142947
 11
-108.976228
 21
-70.209613
  0
LINE
  8
ボルト／ビス
  6
CONTINUOUS
 10
-109.70956
 20
-70.209613
 11
-108.976228
 21
-70.209613
  0
LINE
  8
ボルト／ビス
  6
CONTINUOUS
 10
-109.642895
 20
-70.109612
 11
-109.642895
 21
-70.142947
  0
LINE
  8
ボルト／ビス
  6
CONTINUOUS
 10
-109.642895
 20
-70.109612
 11
-109.042895
 21
-70.109612
  0
LINE
  8
ボルト／ビス
  6
CONTINUOUS
 10
-109.042895
 20
-70.109612
 11
-109.042895
 21
-70.142947
  0
LINE
  8
ボルト／ビス
  6
CONTINUOUS
 62
    64
 10
-109.50327
 20
-69.909613
 11
-109.535345
 21
-69.921288
  0
ARC
  8
ボルト／ビス
  6
CONTINUOUS
 62
    64
 10
-109.487232
 20
-70.01459
 40
0.104978
 50
62.721967
 51
90.0
  0
ARC
  8
ボルト／ビス
  6
CONTINUOUS
 62
    64
 10
-109.342894
 20
-70.312014
 40
0.402402
 50
76.165002
 51
103.834985
  0
LINE
  8
ボルト／ビス
  6
CONTINUOUS
 62
    64
 10
-109.18252
 20
-69.909613
 11
-109.150445
 21
-69.921288
  0
ARC
  8
ボルト／ビス
  6
CONTINUOUS
 62
    64
 10
-109.198557
 20
-70.01459
 40
0.104978
 50
90.0
 51
117.278033
  0
LINE
  8
ボルト／ビス
  6
CONTINUOUS
 62
    64
 10
-109.50327
 20
-69.909613
 11
-109.18252
 21
-69.909613
  0
LINE
  8
ボルト／ビス
  6
CONTINUOUS
 62
    64
 10
-109.150445
 20
-69.921288
 11
-109.150445
 21
-70.042947
  0
LINE
  8
ボルト／ビス
  6
CONTINUOUS
 62
    64
 10
-109.24667
 20
-69.921288
 11
-109.24667
 21
-70.042947
  0
LINE
  8
ボルト／ビス
  6
CONTINUOUS
 62
    64
 10
-109.535345
 20
-69.921288
 11
-109.535345
 21
-70.042947
  0
LINE
  8
ボルト／ビス
  6
CONTINUOUS
 62
    64
 10
-109.43912
 20
-69.921288
 11
-109.43912
 21
-70.042947
  0
LINE
  8
ボルト／ビス
  6
CONTINUOUS
 10
-109.535345
 20
-70.042947
 11
-109.150445
 21
-70.042947
  0
LINE
  8
ボルト／ビス
  6
CONTINUOUS
 10
-109.542895
 20
-70.042947
 11
-109.542895
 21
-70.109612
  0
LINE
  8
ボルト／ビス
  6
CONTINUOUS
 10
-109.542895
 20
-70.042947
 11
-109.142895
 21
-70.042947
  0
LINE
  8
ボルト／ビス
  6
CONTINUOUS
 10
-109.142895
 20
-70.042947
 11
-109.142895
 21
-70.109612
  0
ENDBLK
  0
BLOCK
  2
*GRP_0036
 70
    65
 10
0.0
 20
0.0
  0
LINE
  8
ボルト／ビス
  6
DOT
 10
-109.342895
 20
-58.542945
 11
-109.342895
 21
-58.07628
  0
LINE
  8
ボルト／ビス
  6
DOT
 10
-109.70956
 20
-58.542945
 11
-109.70956
 21
-58.47628
  0
LINE
  8
ボルト／ビス
  6
DOT
 10
-109.70956
 20
-58.47628
 11
-108.976228
 21
-58.47628
  0
LINE
  8
ボルト／ビス
  6
DOT
 10
-108.976228
 20
-58.47628
 11
-108.976228
 21
-58.542945
  0
LINE
  8
ボルト／ビス
  6
DOT
 10
-109.70956
 20
-58.542945
 11
-108.976228
 21
-58.542945
  0
LINE
  8
ボルト／ビス
  6
DOT
 10
-109.642895
 20
-58.442945
 11
-109.642895
 21
-58.47628
  0
LINE
  8
ボルト／ビス
  6
DOT
 10
-109.642895
 20
-58.442945
 11
-109.042895
 21
-58.442945
  0
LINE
  8
ボルト／ビス
  6
DOT
 10
-109.042895
 20
-58.442945
 11
-109.042895
 21
-58.47628
  0
LINE
  8
ボルト／ビス
  6
DOT
 62
    64
 10
-109.50327
 20
-58.242945
 11
-109.535345
 21
-58.25462
  0
ARC
  8
ボルト／ビス
  6
DOT
 62
    64
 10
-109.487232
 20
-58.347922
 40
0.104978
 50
62.721967
 51
90.0
  0
ARC
  8
ボルト／ビス
  6
DOT
 62
    64
 10
-109.342894
 20
-58.645346
 40
0.402402
 50
76.165002
 51
103.834985
  0
LINE
  8
ボルト／ビス
  6
DOT
 62
    64
 10
-109.18252
 20
-58.242945
 11
-109.150445
 21
-58.25462
  0
ARC
  8
ボルト／ビス
  6
DOT
 62
    64
 10
-109.198557
 20
-58.347922
 40
0.104978
 50
90.0
 51
117.278033
  0
LINE
  8
ボルト／ビス
  6
DOT
 62
    64
 10
-109.50327
 20
-58.242945
 11
-109.18252
 21
-58.242945
  0
LINE
  8
ボルト／ビス
  6
DOT
 62
    64
 10
-109.150445
 20
-58.25462
 11
-109.150445
 21
-58.37628
  0
LINE
  8
ボルト／ビス
  6
DOT
 62
    64
 10
-109.24667
 20
-58.25462
 11
-109.24667
 21
-58.37628
  0
LINE
  8
ボルト／ビス
  6
DOT
 62
    64
 10
-109.535345
 20
-58.25462
 11
-109.535345
 21
-58.37628
  0
LINE
  8
ボルト／ビス
  6
DOT
 62
    64
 10
-109.43912
 20
-58.25462
 11
-109.43912
 21
-58.37628
  0
LINE
  8
ボルト／ビス
  6
DOT
 10
-109.535345
 20
-58.37628
 11
-109.150445
 21
-58.37628
  0
LINE
  8
ボルト／ビス
  6
DOT
 10
-109.542895
 20
-58.37628
 11
-109.542895
 21
-58.442945
  0
LINE
  8
ボルト／ビス
  6
DOT
 10
-109.542895
 20
-58.37628
 11
-109.142895
 21
-58.37628
  0
LINE
  8
ボルト／ビス
  6
DOT
 10
-109.142895
 20
-58.37628
 11
-109.142895
 21
-58.442945
  0
ENDBLK
  0
ENDSEC
  0
SECTION
  2
ENTITIES
  0
POLYLINE
  8
通り芯
  6
CONTINUOUS
 66
     1
 70
     1
  0
VERTEX
  8
通り芯
 10
-210.0
 20
-148.5
  0
VERTEX
  8
通り芯
 10
210.0
 20
-148.5
  0
VERTEX
  8
通り芯
 10
210.0
 20
148.5
  0
VERTEX
  8
通り芯
 10
-210.0
 20
148.5
  0
SEQEND
  0
INSERT
  2
*GRP_0001
  8
型材断面
  6
CONTINUOUS
 10
0.0
 20
0.0
  0
LINE
  8
型材断面
  6
DASHDOT
 10
57.990438
 20
-77.836442
 11
57.990438
 21
52.814033
  0
LINE
  8
型材断面
  6
DASHDOT
 10
-25.342895
 20
-77.836442
 11
-25.342895
 21
52.814033
  0
LINE
  8
型材断面
  6
DASHDOT
 10
-108.676228
 20
-77.836442
 11
-108.676228
 21
52.814033
  0
LINE
  8
型材断面
  6
DASHDOT
 10
155.6672
 20
52.814033
 11
-108.676228
 21
52.814033
  0
LINE
  8
型材断面
  6
DASHDOT
 10
155.6672
 20
37.814033
 11
-108.676228
 21
37.814033
  0
LINE
  8
型材断面
  6
DASHDOT
 10
155.6672
 20
22.814033
 11
-108.676228
 21
22.814033
  0
POLYLINE
  8
型材断面
  6
CONTINUOUS
 66
     1
 70
     1
  0
VERTEX
  8
型材断面
 10
-16.01484
 20
13.03811
  0
VERTEX
  8
型材断面
 10
-34.78677
 20
13.03811
  0
VERTEX
  8
型材断面
 10
-34.78677
 20
8.301267
  0
VERTEX
  8
型材断面
 10
-16.01484
 20
8.301267
  0
SEQEND
  0
POLYLINE
  8
型材断面
  6
CONTINUOUS
 66
     1
 70
     1
  0
VERTEX
  8
型材断面
 10
-16.01484
 20
62.589955
  0
VERTEX
  8
型材断面
 10
-34.78677
 20
62.589955
  0
VERTEX
  8
型材断面
 10
-34.78677
 20
67.326798
  0
VERTEX
  8
型材断面
 10
-16.01484
 20
67.326798
  0
SEQEND
  0
LINE
  8
型材断面
  6
CONTINUOUS
 10
-92.00956
 20
55.444162
 11
-93.50519
 21
58.03467
  0
LINE
  8
型材断面
  6
CONTINUOUS
 10
-92.00956
 20
55.444162
 11
-90.51393
 21
58.03467
  0
LINE
  8
型材断面
  6
CONTINUOUS
 10
-90.51393
 20
58.03467
 11
-93.50519
 21
58.03467
  0
LINE
  8
型材断面
  6
CONTINUOUS
 10
-149.528435
 20
90.791505
 11
-148.93238
 21
88.200998
  0
LINE
  8
型材断面
  6
CONTINUOUS
 10
-149.528435
 20
90.791505
 11
-150.124493
 21
88.200998
  0
LINE
  8
型材断面
  6
CONTINUOUS
 10
-150.124493
 20
88.200998
 11
-148.93238
 21
88.200998
  0
LINE
  8
型材断面
  6
CONTINUOUS
 10
-155.551022
 20
84.922105
 11
-109.309245
 21
84.922105
  0
LINE
  8
型材断面
  6
CONTINUOUS
 10
-149.528435
 20
97.32138
 11
-151.024065
 21
94.730873
  0
LINE
  8
型材断面
  6
CONTINUOUS
 10
-149.528435
 20
97.32138
 11
-148.032805
 21
94.730873
  0
LINE
  8
型材断面
  6
CONTINUOUS
 10
-148.032805
 20
94.730873
 11
-151.024065
 21
94.730873
  0
LINE
  8
型材断面
  6
CONTINUOUS
 10
-155.551022
 20
93.792277
 11
-109.309245
 21
93.792277
  0
LINE
  8
型材断面
  6
CONTINUOUS
 10
-155.551022
 20
79.134073
 11
-109.309245
 21
79.134073
  0
LINE
  8
型材断面
  6
CONTINUOUS
 10
-111.306358
 20
37.814033
 11
-113.896865
 21
39.309663
  0
LINE
  8
型材断面
  6
CONTINUOUS
 10
-111.306358
 20
37.814033
 11
-113.896865
 21
36.318403
  0
LINE
  8
型材断面
  6
CONTINUOUS
 10
-113.896865
 20
36.318403
 11
-113.896865
 21
39.309663
  0
LINE
  8
型材断面
  6
CONTINUOUS
 10
-92.00956
 20
20.183902
 11
-93.50519
 21
17.593395
  0
LINE
  8
型材断面
  6
CONTINUOUS
 10
-92.00956
 20
20.183902
 11
-90.51393
 21
17.593395
  0
LINE
  8
型材断面
  6
CONTINUOUS
 10
-90.51393
 20
17.593395
 11
-93.50519
 21
17.593395
  0
LINE
  8
型材断面
  6
CONTINUOUS
 10
41.32377
 20
55.444162
 11
42.8194
 21
58.03467
  0
LINE
  8
型材断面
  6
CONTINUOUS
 10
41.32377
 20
55.444162
 11
39.82814
 21
58.03467
  0
LINE
  8
型材断面
  6
CONTINUOUS
 10
39.82814
 20
58.03467
 11
42.8194
 21
58.03467
  0
LINE
  8
型材断面
  6
CONTINUOUS
 10
60.620567
 20
37.814033
 11
63.211075
 21
39.309663
  0
LINE
  8
型材断面
  6
CONTINUOUS
 10
60.620567
 20
37.814033
 11
63.211075
 21
36.318403
  0
LINE
  8
型材断面
  6
CONTINUOUS
 10
63.211075
 20
36.318403
 11
63.211075
 21
39.309663
  0
LINE
  8
型材断面
  6
CONTINUOUS
 10
41.32377
 20
20.183902
 11
42.8194
 21
17.593395
  0
LINE
  8
型材断面
  6
CONTINUOUS
 10
41.32377
 20
20.183902
 11
39.82814
 21
17.593395
  0
LINE
  8
型材断面
  6
CONTINUOUS
 10
39.82814
 20
17.593395
 11
42.8194
 21
17.593395
  0
LINE
  8
型材断面
  6
CONTINUOUS
 10
-25.342895
 20
55.44416
 11
-23.847265
 21
58.034668
  0
LINE
  8
型材断面
  6
CONTINUOUS
 10
-25.342895
 20
55.44416
 11
-26.838525
 21
58.034668
  0
LINE
  8
型材断面
  6
CONTINUOUS
 10
-26.838525
 20
58.034668
 11
-23.847265
 21
58.034668
  0
LINE
  8
型材断面
  6
CONTINUOUS
 10
-25.342895
 20
20.1839
 11
-23.847265
 21
17.593392
  0
LINE
  8
型材断面
  6
CONTINUOUS
 10
-25.342895
 20
20.1839
 11
-26.838525
 21
17.593392
  0
LINE
  8
型材断面
  6
CONTINUOUS
 10
-26.838525
 20
17.593392
 11
-23.847265
 21
17.593392
  0
LINE
  8
型材断面
  6
DASHDOT
 10
148.719403
 20
22.81403
 11
154.739467
 21
22.81403
  0
LINE
  8
型材断面
  6
CONTINUOUS
 62
    47
 10
151.002735
 20
21.417365
 11
151.002735
 21
22.197365
  0
LINE
  8
型材断面
  6
CONTINUOUS
 10
149.169403
 20
21.317365
 11
148.719403
 21
21.317365
  0
LINE
  8
型材断面
  6
CONTINUOUS
 62
    47
 10
151.842095
 20
20.53403
 11
151.50876
 21
20.53403
  0
LINE
  8
型材断面
  6
CONTINUOUS
 62
    47
 10
151.50876
 20
20.53403
 11
151.40876
 21
21.317365
  0
LINE
  8
型材断面
  6
CONTINUOUS
 62
    47
 10
151.002735
 20
21.317365
 11
151.40876
 21
21.317365
  0
LINE
  8
型材断面
  6
CONTINUOUS
 62
    47
 10
151.002735
 20
20.847365
 11
149.169403
 21
20.847365
  0
LINE
  8
型材断面
  6
CONTINUOUS
 62
    47
 10
154.969403
 20
21.41403
 11
154.469403
 21
21.41403
  0
LINE
  8
型材断面
  6
CONTINUOUS
 62
    47
 10
154.469403
 20
20.847365
 11
151.842095
 21
20.847365
  0
LINE
  8
型材断面
  6
CONTINUOUS
 62
    47
 10
154.469403
 20
20.847365
 11
154.469403
 21
37.814033
  0
LINE
  8
型材断面
  6
CONTINUOUS
 62
    47
 10
154.969403
 20
21.41403
 11
154.969403
 21
37.814033
  0
LINE
  8
型材断面
  6
CONTINUOUS
 62
    47
 10
151.002735
 20
20.847365
 11
151.002735
 21
37.814033
  0
LINE
  8
型材断面
  6
CONTINUOUS
 10
151.40876
 20
21.317365
 11
151.40876
 21
37.814033
  0
LINE
  8
型材断面
  6
CONTINUOUS
 10
151.50876
 20
20.53403
 11
151.50876
 21
37.814033
  0
LINE
  8
型材断面
  6
CONTINUOUS
 62
    47
 10
151.842095
 20
20.53403
 11
151.842095
 21
37.814033
  0
LINE
  8
型材断面
  6
CONTINUOUS
 10
149.169403
 20
20.847365
 11
149.169403
 21
37.814033
  0
LINE
  8
型材断面
  6
DASHDOT
 10
148.719403
 20
52.814035
 11
154.739467
 21
52.814035
  0
LINE
  8
型材断面
  6
CONTINUOUS
 62
    47
 10
151.002735
 20
54.2107
 11
151.002735
 21
53.4307
  0
LINE
  8
型材断面
  6
CONTINUOUS
 10
149.169403
 20
54.3107
 11
148.719403
 21
54.3107
  0
LINE
  8
型材断面
  6
CONTINUOUS
 62
    47
 10
151.842095
 20
55.094035
 11
151.50876
 21
55.094035
  0
LINE
  8
型材断面
  6
CONTINUOUS
 62
    47
 10
151.50876
 20
55.094035
 11
151.40876
 21
54.3107
  0
LINE
  8
型材断面
  6
CONTINUOUS
 62
    47
 10
151.002735
 20
54.3107
 11
151.40876
 21
54.3107
  0
LINE
  8
型材断面
  6
CONTINUOUS
 62
    47
 10
151.002735
 20
54.7807
 11
149.169403
 21
54.7807
  0
LINE
  8
型材断面
  6
CONTINUOUS
 62
    47
 10
154.969403
 20
54.214035
 11
154.469403
 21
54.214035
  0
LINE
  8
型材断面
  6
CONTINUOUS
 62
    47
 10
154.469403
 20
54.7807
 11
151.842095
 21
54.7807
  0
LINE
  8
型材断面
  6
CONTINUOUS
 62
    47
 10
154.469403
 20
54.7807
 11
154.469403
 21
37.814033
  0
LINE
  8
型材断面
  6
CONTINUOUS
 62
    47
 10
154.969403
 20
54.214035
 11
154.969403
 21
37.814033
  0
LINE
  8
型材断面
  6
CONTINUOUS
 62
    47
 10
151.002735
 20
54.7807
 11
151.002735
 21
37.814033
  0
LINE
  8
型材断面
  6
CONTINUOUS
 10
151.40876
 20
54.3107
 11
151.40876
 21
37.814033
  0
LINE
  8
型材断面
  6
CONTINUOUS
 10
151.50876
 20
55.094035
 11
151.50876
 21
37.814033
  0
LINE
  8
型材断面
  6
CONTINUOUS
 62
    47
 10
151.842095
 20
55.094035
 11
151.842095
 21
37.814033
  0
LINE
  8
型材断面
  6
CONTINUOUS
 10
149.169403
 20
54.7807
 11
149.169403
 21
37.814033
  0
LINE
  8
型材断面
  6
DASHDOT
 10
57.99044
 20
-71.242897
 11
57.99044
 21
-77.262962
  0
LINE
  8
型材断面
  6
CONTINUOUS
 62
    47
 10
59.387105
 20
-73.52623
 11
58.607105
 21
-73.52623
  0
LINE
  8
型材断面
  6
CONTINUOUS
 10
59.487105
 20
-71.692897
 11
59.487105
 21
-71.242897
  0
LINE
  8
型材断面
  6
CONTINUOUS
 62
    47
 10
60.27044
 20
-74.36559
 11
60.27044
 21
-74.032255
  0
LINE
  8
型材断面
  6
CONTINUOUS
 62
    47
 10
60.27044
 20
-74.032255
 11
59.487105
 21
-73.932255
  0
LINE
  8
型材断面
  6
CONTINUOUS
 62
    47
 10
59.487105
 20
-73.52623
 11
59.487105
 21
-73.932255
  0
LINE
  8
型材断面
  6
CONTINUOUS
 62
    47
 10
59.957105
 20
-73.52623
 11
59.957105
 21
-71.692897
  0
LINE
  8
型材断面
  6
CONTINUOUS
 62
    47
 10
59.39044
 20
-77.492897
 11
59.39044
 21
-76.992897
  0
LINE
  8
型材断面
  6
CONTINUOUS
 62
    47
 10
59.957105
 20
-76.992897
 11
59.957105
 21
-74.36559
  0
LINE
  8
型材断面
  6
CONTINUOUS
 10
60.27044
 20
37.814033
 11
60.27044
 21
20.53403
  0
LINE
  8
型材断面
  6
CONTINUOUS
 10
60.057105
 20
20.747365
 11
60.27044
 21
20.53403
  0
LINE
  8
型材断面
  6
CONTINUOUS
 10
59.957105
 20
-71.692897
 11
-25.342895
 21
-71.692897
  0
LINE
  8
型材断面
  6
CONTINUOUS
 62
    47
 10
59.957105
 20
-73.52623
 11
-25.342895
 21
-73.52623
  0
LINE
  8
型材断面
  6
CONTINUOUS
 62
    47
 10
60.27044
 20
-74.36559
 11
-25.342895
 21
-74.36559
  0
LINE
  8
型材断面
  6
CONTINUOUS
 10
59.487105
 20
-73.932255
 11
-25.342895
 21
-73.932255
  0
LINE
  8
型材断面
  6
CONTINUOUS
 10
60.27044
 20
-74.032255
 11
-25.342895
 21
-74.032255
  0
LINE
  8
型材断面
  6
CONTINUOUS
 62
    47
 10
59.39044
 20
-77.492897
 11
-25.342895
 21
-77.492897
  0
LINE
  8
型材断面
  6
CONTINUOUS
 62
    47
 10
59.957105
 20
-76.992897
 11
-25.342895
 21
-76.992897
  0
LINE
  8
型材断面
  6
DASHDOT
 10
-108.67623
 20
-71.242897
 11
-108.67623
 21
-77.262962
  0
LINE
  8
型材断面
  6
CONTINUOUS
 62
    47
 10
-110.072895
 20
-73.52623
 11
-109.292895
 21
-73.52623
  0
LINE
  8
型材断面
  6
CONTINUOUS
 10
-110.172895
 20
-71.692897
 11
-110.172895
 21
-71.242897
  0
LINE
  8
型材断面
  6
CONTINUOUS
 62
    47
 10
-110.95623
 20
-74.36559
 11
-110.95623
 21
-74.032255
  0
LINE
  8
型材断面
  6
CONTINUOUS
 62
    47
 10
-110.95623
 20
-74.032255
 11
-110.172895
 21
-73.932255
  0
LINE
  8
型材断面
  6
CONTINUOUS
 62
    47
 10
-110.172895
 20
-73.52623
 11
-110.172895
 21
-73.932255
  0
LINE
  8
型材断面
  6
CONTINUOUS
 62
    47
 10
-110.642895
 20
-73.52623
 11
-110.642895
 21
-71.692897
  0
LINE
  8
型材断面
  6
CONTINUOUS
 62
    47
 10
-110.07623
 20
-77.492897
 11
-110.07623
 21
-76.992897
  0
LINE
  8
型材断面
  6
CONTINUOUS
 62
    47
 10
-110.642895
 20
-76.992897
 11
-110.642895
 21
-74.36559
  0
LINE
  8
型材断面
  6
CONTINUOUS
 10
-110.642895
 20
-71.692897
 11
-25.342895
 21
-71.692897
  0
LINE
  8
型材断面
  6
CONTINUOUS
 62
    47
 10
-110.642895
 20
-73.52623
 11
-25.342895
 21
-73.52623
  0
LINE
  8
型材断面
  6
CONTINUOUS
 62
    47
 10
-110.95623
 20
-74.36559
 11
-25.342895
 21
-74.36559
  0
LINE
  8
型材断面
  6
CONTINUOUS
 10
-110.172895
 20
-73.932255
 11
-25.342895
 21
-73.932255
  0
LINE
  8
型材断面
  6
CONTINUOUS
 10
-110.95623
 20
-74.032255
 11
-25.342895
 21
-74.032255
  0
LINE
  8
型材断面
  6
CONTINUOUS
 62
    47
 10
-110.07623
 20
-77.492897
 11
-25.342895
 21
-77.492897
  0
LINE
  8
型材断面
  6
CONTINUOUS
 62
    47
 10
-110.642895
 20
-76.992897
 11
-25.342895
 21
-76.992897
  0
LINE
  8
型材断面
  6
DOT
 62
    47
 10
59.387105
 20
-61.859562
 11
58.607105
 21
-61.859562
  0
LINE
  8
型材断面
  6
DOT
 10
59.487105
 20
-60.02623
 11
59.487105
 21
-59.57623
  0
LINE
  8
型材断面
  6
DOT
 62
    47
 10
60.27044
 20
-62.698923
 11
60.27044
 21
-62.365588
  0
LINE
  8
型材断面
  6
DOT
 62
    47
 10
60.27044
 20
-62.365588
 11
59.487105
 21
-62.265588
  0
LINE
  8
型材断面
  6
DOT
 62
    47
 10
59.487105
 20
-61.859562
 11
59.487105
 21
-62.265588
  0
LINE
  8
型材断面
  6
DOT
 62
    47
 10
59.957105
 20
-61.859562
 11
59.957105
 21
-60.02623
  0
LINE
  8
型材断面
  6
DOT
 10
59.957105
 20
-60.02623
 11
-25.342895
 21
-60.02623
  0
LINE
  8
型材断面
  6
DOT
 62
    47
 10
59.957105
 20
-61.859562
 11
-25.342895
 21
-61.859562
  0
LINE
  8
型材断面
  6
DOT
 62
    47
 10
60.27044
 20
-62.698923
 11
-25.342895
 21
-62.698923
  0
LINE
  8
型材断面
  6
DOT
 10
59.487105
 20
-62.265588
 11
-25.342895
 21
-62.265588
  0
LINE
  8
型材断面
  6
DOT
 10
60.27044
 20
-62.365588
 11
-25.342895
 21
-62.365588
  0
LINE
  8
型材断面
  6
DOT
 62
    47
 10
-110.072895
 20
-61.859562
 11
-109.292895
 21
-61.859562
  0
LINE
  8
型材断面
  6
DOT
 10
-110.172895
 20
-60.02623
 11
-110.172895
 21
-59.57623
  0
LINE
  8
型材断面
  6
DOT
 62
    47
 10
-110.95623
 20
-62.698923
 11
-110.95623
 21
-62.365588
  0
LINE
  8
型材断面
  6
DOT
 62
    47
 10
-110.95623
 20
-62.365588
 11
-110.172895
 21
-62.265588
  0
LINE
  8
型材断面
  6
DOT
 62
    47
 10
-110.172895
 20
-61.859562
 11
-110.172895
 21
-62.265588
  0
LINE
  8
型材断面
  6
DOT
 62
    47
 10
-110.642895
 20
-61.859562
 11
-110.642895
 21
-60.02623
  0
LINE
  8
型材断面
  6
DOT
 10
-110.642895
 20
-60.02623
 11
-25.342895
 21
-60.02623
  0
LINE
  8
型材断面
  6
DOT
 62
    47
 10
-110.642895
 20
-61.859562
 11
-25.342895
 21
-61.859562
  0
LINE
  8
型材断面
  6
DOT
 62
    47
 10
-110.95623
 20
-62.698923
 11
-25.342895
 21
-62.698923
  0
LINE
  8
型材断面
  6
DOT
 10
-110.172895
 20
-62.265588
 11
-25.342895
 21
-62.265588
  0
LINE
  8
型材断面
  6
DOT
 10
-110.95623
 20
-62.365588
 11
-25.342895
 21
-62.365588
  0
LINE
  8
型材断面
  6
CONTINUOUS
 10
60.27044
 20
20.53403
 11
-25.342895
 21
20.534055
  0
LINE
  8
型材断面
  6
CONTINUOUS
 10
60.27044
 20
37.814033
 11
60.27044
 21
55.094035
  0
LINE
  8
型材断面
  6
CONTINUOUS
 10
60.057105
 20
54.8807
 11
60.27044
 21
55.094035
  0
LINE
  8
型材断面
  6
CONTINUOUS
 10
60.27044
 20
55.094035
 11
-25.342895
 21
55.09401
  0
LINE
  8
型材断面
  6
CONTINUOUS
 10
-110.95623
 20
37.814033
 11
-110.95623
 21
55.094035
  0
LINE
  8
型材断面
  6
CONTINUOUS
 10
-110.742895
 20
54.8807
 11
-110.95623
 21
55.094035
  0
LINE
  8
型材断面
  6
CONTINUOUS
 10
-110.95623
 20
55.094035
 11
-25.342895
 21
55.09401
  0
LINE
  8
型材断面
  6
CONTINUOUS
 10
-110.95623
 20
37.814033
 11
-110.95623
 21
20.53403
  0
LINE
  8
型材断面
  6
CONTINUOUS
 10
-110.742895
 20
20.747365
 11
-110.95623
 21
20.53403
  0
LINE
  8
型材断面
  6
CONTINUOUS
 10
-110.95623
 20
20.53403
 11
-25.342895
 21
20.534055
  0
LINE
  8
型材断面
  6
CONTINUOUS
 10
60.620565
 20
48.914033
 11
63.211073
 21
48.317975
  0
LINE
  8
型材断面
  6
CONTINUOUS
 10
60.620565
 20
48.914033
 11
63.211073
 21
49.51009
  0
LINE
  8
型材断面
  6
CONTINUOUS
 10
63.211073
 20
49.51009
 11
63.211073
 21
48.317975
  0
LINE
  8
型材断面
  6
CONTINUOUS
 10
60.620565
 20
26.714033
 11
63.211073
 21
27.31009
  0
LINE
  8
型材断面
  6
CONTINUOUS
 10
60.620565
 20
26.714033
 11
63.211073
 21
26.117975
  0
LINE
  8
型材断面
  6
CONTINUOUS
 10
63.211073
 20
26.117975
 11
63.211073
 21
27.31009
  0
LINE
  8
型材断面
  6
CONTINUOUS
 10
-111.306355
 20
48.914033
 11
-113.896863
 21
48.317975
  0
LINE
  8
型材断面
  6
CONTINUOUS
 10
-111.306355
 20
48.914033
 11
-113.896863
 21
49.51009
  0
LINE
  8
型材断面
  6
CONTINUOUS
 10
-113.896863
 20
49.51009
 11
-113.896863
 21
48.317975
  0
LINE
  8
型材断面
  6
CONTINUOUS
 10
-111.306355
 20
26.714033
 11
-113.896863
 21
27.31009
  0
LINE
  8
型材断面
  6
CONTINUOUS
 10
-111.306355
 20
26.714033
 11
-113.896863
 21
26.117975
  0
LINE
  8
型材断面
  6
CONTINUOUS
 10
-113.896863
 20
26.117975
 11
-113.896863
 21
27.31009
  0
INSERT
  2
*GRP_0019
  8
型材断面
  6
CONTINUOUS
 10
0.0
 20
0.0
  0
INSERT
  2
*GRP_0020
  8
型材断面
  6
CONTINUOUS
 10
0.0
 20
0.0
  0
INSERT
  2
*GRP_0021
  8
型材断面
  6
CONTINUOUS
 10
0.0
 20
0.0
  0
INSERT
  2
*GRP_0022
  8
型材断面
  6
CONTINUOUS
 10
0.0
 20
0.0
  0
LINE
  8
型材断面
  6
CONTINUOUS
 10
-155.551022
 20
73.34604
 11
-109.309245
 21
73.34604
  0
LINE
  8
型材断面
  6
DOT
 10
-74.28623
 20
22.814033
 11
-74.28623
 21
52.814033
  0
LINE
  8
型材断面
  6
DOT
 10
-76.78623
 20
22.814033
 11
-76.78623
 21
52.814033
  0
LINE
  8
型材断面
  6
DASHDOT
 10
-75.53623
 20
22.814033
 11
-75.53623
 21
52.814033
  0
LINE
  8
型材断面
  6
DASHDOT
 10
-42.05623
 20
22.814033
 11
-42.05623
 21
52.814033
  0
LINE
  8
型材断面
  6
DOT
 10
-40.80623
 20
22.814033
 11
-40.80623
 21
52.814033
  0
LINE
  8
型材断面
  6
DOT
 10
-43.30623
 20
22.814033
 11
-43.30623
 21
52.814033
  0
LINE
  8
型材断面
  6
DOT
 10
23.60044
 20
22.814033
 11
23.60044
 21
52.814033
  0
LINE
  8
型材断面
  6
DOT
 10
26.10044
 20
22.814033
 11
26.10044
 21
52.814033
  0
LINE
  8
型材断面
  6
DASHDOT
 10
24.85044
 20
22.814033
 11
24.85044
 21
52.814033
  0
LINE
  8
型材断面
  6
DASHDOT
 10
-8.62956
 20
22.814033
 11
-8.62956
 21
52.814033
  0
LINE
  8
型材断面
  6
DOT
 10
-9.87956
 20
22.814033
 11
-9.87956
 21
52.814033
  0
LINE
  8
型材断面
  6
DOT
 10
-7.37956
 20
22.814033
 11
-7.37956
 21
52.814033
  0
TEXT
  7
TextStyle03
  8
文字
  6
CONTINUOUS
 10
134.525
 20
-76.7
  1
網入り6.8t
 40
3.0
 72
     5
 11
151.2125
 21
-76.7
  0
TEXT
  7
TextStyle03
  8
文字
  6
CONTINUOUS
 10
141.2
 20
-81.375
  1
×５枚
 40
3.0
 72
     5
 11
150.95
 21
-81.375
  0
TEXT
  7
TextStyle03
  8
文字
  6
CONTINUOUS
 10
-33.7
 20
9.325
  1
可動装置側
 40
3.0
 72
     5
 11
-17.2
 21
9.325
  0
TEXT
  7
TextStyle03
  8
文字
  6
CONTINUOUS
 10
-33.7
 20
63.275
  1
可動装置側
 40
3.0
 72
     5
 11
-17.2
 21
63.275
  0
TEXT
  7
TextStyle03
  8
文字
  6
CONTINUOUS
 10
-146.725
 20
89.4
  1
はケーシング位置を示す
 40
3.0
 72
     5
 11
-109.975
 21
89.4
  0
TEXT
  7
TextStyle03
  8
文字
  6
CONTINUOUS
 10
-146.725
 20
86.025
  1
４ヶ所中1ヶ所に設定
 40
3.0
 72
     5
 11
-115.0375
 21
86.025
  0
TEXT
  7
TextStyle03
  8
文字
  6
CONTINUOUS
 10
-146.725
 20
94.925
  1
は排水穴位置を示す
 40
3.0
 72
     5
 11
-116.725
 21
94.925
  0
TEXT
  7
TextStyle03
  8
文字
  6
CONTINUOUS
 10
-129.65
 20
16.275
  1
アンカーピッチ
 40
3.0
 50
90.0
 72
     5
 11
-129.65
 21
39.525
  0
TEXT
  7
TextStyle03
  8
文字
  6
CONTINUOUS
 10
-97.95
 20
90.275
  1
アンカーピッチ
 40
3.0
 72
     5
 11
-74.7
 21
90.275
  0
TEXT
  7
TextStyle03
  8
文字
  6
CONTINUOUS
 10
-150.45
 20
80.05
  1
アンカー数量　１８ヶ所
 40
3.0
 72
     5
 11
-113.7
 21
80.05
  0
TEXT
  7
TextStyle03
  8
文字
  6
CONTINUOUS
 10
-150.5
 20
74.3
  1
アームユニット数　４ヶ所
 40
3.0
 72
     5
 11
-110.375
 21
74.3
  0
TEXT
  7
TextStyle03
  8
文字
  6
CONTINUOUS
 10
78.1
 20
125.25
  1
シリーズ：ＳＴＤＬ
 40
5.0
 72
     5
 11
128.1
 21
125.25
  0
TEXT
  7
TextStyle03
  8
文字
  6
CONTINUOUS
 10
78.1
 20
119.625
  1
　　　　　（上下可動）900×5000タイプ
 40
5.0
 72
     5
 11
181.5375
 21
119.625
  0
TEXT
  7
TextStyle03
  8
文字
  6
CONTINUOUS
 10
78.1
 20
114.0
  1
図面名　：外観姿図
 40
5.0
 72
     5
 11
128.1
 21
114.0
  0
TEXT
  7
TextStyle03
  8
文字
  6
CONTINUOUS
 10
78.1
 20
108.375
  1
　　　　　　
 40
5.0
 72
     5
 11
111.225
 21
108.375
  0
TEXT
  7
TextStyle03
  8
文字
  6
CONTINUOUS
 10
77.425
 20
103.975
  1
ＮＳコード：ＮＳＤＳＬ
 40
5.0
 72
     5
 11
138.675
 21
103.975
  0
INSERT
  2
*DIM_0002
  8
寸法
  6
CONTINUOUS
 10
0.0
 20
0.0
  0
INSERT
  2
*DIM_0003
  8
寸法
  6
CONTINUOUS
 10
0.0
 20
0.0
  0
INSERT
  2
*DIM_0004
  8
寸法
  6
CONTINUOUS
 10
0.0
 20
0.0
  0
INSERT
  2
*DIM_0005
  8
寸法
  6
CONTINUOUS
 10
0.0
 20
0.0
  0
INSERT
  2
*DIM_0006
  8
寸法
  6
CONTINUOUS
 10
0.0
 20
0.0
  0
INSERT
  2
*DIM_0007
  8
寸法
  6
CONTINUOUS
 10
0.0
 20
0.0
  0
INSERT
  2
*DIM_0008
  8
寸法
  6
CONTINUOUS
 10
0.0
 20
0.0
  0
INSERT
  2
*DIM_0009
  8
寸法
  6
CONTINUOUS
 10
0.0
 20
0.0
  0
INSERT
  2
*DIM_0010
  8
寸法
  6
CONTINUOUS
 10
0.0
 20
0.0
  0
INSERT
  2
*DIM_0011
  8
寸法
  6
CONTINUOUS
 10
0.0
 20
0.0
  0
INSERT
  2
*DIM_0012
  8
寸法
  6
CONTINUOUS
 10
0.0
 20
0.0
  0
INSERT
  2
*DIM_0013
  8
寸法
  6
CONTINUOUS
 10
0.0
 20
0.0
  0
INSERT
  2
*DIM_0014
  8
寸法
  6
CONTINUOUS
 10
0.0
 20
0.0
  0
INSERT
  2
*DIM_0015
  8
寸法
  6
CONTINUOUS
 10
0.0
 20
0.0
  0
INSERT
  2
*DIM_0016
  8
寸法
  6
CONTINUOUS
 10
0.0
 20
0.0
  0
INSERT
  2
*DIM_0017
  8
寸法
  6
CONTINUOUS
 10
0.0
 20
0.0
  0
INSERT
  2
*DIM_0023
  8
寸法
  6
CONTINUOUS
 10
0.0
 20
0.0
  0
INSERT
  2
*DIM_0024
  8
寸法
  6
CONTINUOUS
 10
0.0
 20
0.0
  0
INSERT
  2
*DIM_0025
  8
寸法
  6
CONTINUOUS
 10
0.0
 20
0.0
  0
INSERT
  2
*DIM_0026
  8
寸法
  6
CONTINUOUS
 10
0.0
 20
0.0
  0
INSERT
  2
*DIM_0027
  8
寸法
  6
CONTINUOUS
 10
0.0
 20
0.0
  0
INSERT
  2
*DIM_0028
  8
寸法
  6
CONTINUOUS
 10
0.0
 20
0.0
  0
INSERT
  2
*DIM_0029
  8
寸法
  6
CONTINUOUS
 10
0.0
 20
0.0
  0
INSERT
  2
*DIM_0030
  8
寸法
  6
CONTINUOUS
 10
0.0
 20
0.0
  0
LINE
  8
別途部材
  6
CONTINUOUS
 10
60.057105
 20
20.747365
 11
59.657105
 21
21.147365
  0
LINE
  8
別途部材
  6
CONTINUOUS
 10
57.990438
 20
22.814033
 11
49.931183
 21
30.87329
  0
LINE
  8
別途部材
  6
CONTINUOUS
 10
59.657105
 20
21.147365
 11
59.657105
 21
37.814033
  0
LINE
  8
別途部材
  6
CONTINUOUS
 10
60.057105
 20
20.747365
 11
60.057105
 21
37.814033
  0
LINE
  8
別途部材
  6
CONTINUOUS
 10
60.057105
 20
54.8807
 11
59.657105
 21
54.4807
  0
LINE
  8
別途部材
  6
CONTINUOUS
 10
57.990438
 20
52.814033
 11
49.931183
 21
44.754775
  0
LINE
  8
別途部材
  6
CONTINUOUS
 10
59.657105
 20
54.4807
 11
59.657105
 21
37.814033
  0
LINE
  8
別途部材
  6
CONTINUOUS
 10
60.057105
 20
54.8807
 11
60.057105
 21
37.814033
  0
LINE
  8
別途部材
  6
CONTINUOUS
 10
59.657105
 20
54.4807
 11
-25.342895
 21
54.4807
  0
LINE
  8
別途部材
  6
CONTINUOUS
 10
60.057105
 20
54.8807
 11
-25.342895
 21
54.8807
  0
LINE
  8
別途部材
  6
CONTINUOUS
 10
59.657105
 20
21.147365
 11
-25.342895
 21
21.147365
  0
LINE
  8
別途部材
  6
CONTINUOUS
 10
60.057105
 20
20.747365
 11
-25.342895
 21
20.747365
  0
LINE
  8
別途部材
  6
CONTINUOUS
 10
-110.742895
 20
20.747365
 11
-110.342895
 21
21.147365
  0
LINE
  8
別途部材
  6
CONTINUOUS
 10
-108.676228
 20
22.814033
 11
-100.616972
 21
30.87329
  0
LINE
  8
別途部材
  6
CONTINUOUS
 10
-110.342895
 20
21.147365
 11
-110.342895
 21
37.814033
  0
LINE
  8
別途部材
  6
CONTINUOUS
 10
-110.742895
 20
20.747365
 11
-110.742895
 21
37.814033
  0
LINE
  8
別途部材
  6
CONTINUOUS
 10
-110.742895
 20
54.8807
 11
-110.342895
 21
54.4807
  0
LINE
  8
別途部材
  6
CONTINUOUS
 10
-108.676228
 20
52.814033
 11
-100.616972
 21
44.754775
  0
LINE
  8
別途部材
  6
CONTINUOUS
 10
-110.342895
 20
54.4807
 11
-110.342895
 21
37.814033
  0
LINE
  8
別途部材
  6
CONTINUOUS
 10
-110.742895
 20
54.8807
 11
-110.742895
 21
37.814033
  0
LINE
  8
別途部材
  6
CONTINUOUS
 10
-110.342895
 20
54.4807
 11
-25.342895
 21
54.4807
  0
LINE
  8
別途部材
  6
CONTINUOUS
 10
-110.742895
 20
54.8807
 11
-25.342895
 21
54.8807
  0
LINE
  8
別途部材
  6
CONTINUOUS
 10
-110.342895
 20
21.147365
 11
-25.342895
 21
21.147365
  0
LINE
  8
別途部材
  6
CONTINUOUS
 10
-110.742895
 20
20.747365
 11
-25.342895
 21
20.747365
  0
LINE
  8
別途部材
  6
CONTINUOUS
 62
    96
 10
147.68612
 20
21.147365
 11
148.68612
 21
20.747365
  0
LINE
  8
別途部材
  6
CONTINUOUS
 62
    96
 10
147.68612
 20
21.147365
 11
147.68612
 21
37.814033
  0
LINE
  8
別途部材
  6
CONTINUOUS
 10
148.68612
 20
20.747365
 11
148.68612
 21
37.814033
  0
LINE
  8
別途部材
  6
CONTINUOUS
 62
    96
 10
147.68612
 20
54.4807
 11
148.68612
 21
54.8807
  0
LINE
  8
別途部材
  6
CONTINUOUS
 62
    96
 10
147.68612
 20
54.4807
 11
147.68612
 21
37.814033
  0
LINE
  8
別途部材
  6
CONTINUOUS
 10
148.68612
 20
54.8807
 11
148.68612
 21
37.814033
  0
ARC
  8
別途部材
  6
CONTINUOUS
 10
157.019452
 20
37.814033
 40
17.666667
 50
121.890796
 51
238.109204
  0
LINE
  8
別途部材
  6
DOT
 62
    96
 10
59.657105
 20
-58.542945
 11
60.057105
 21
-59.542945
  0
ARC
  8
別途部材
  6
DOT
 10
42.990437
 20
-67.876279
 40
17.666667
 50
31.890796
 51
90.0
  0
LINE
  8
別途部材
  6
DOT
 10
42.990438
 20
-50.209613
 11
-25.342895
 21
-50.209613
  0
LINE
  8
別途部材
  6
DOT
 62
    96
 10
59.657105
 20
-58.542945
 11
-25.342895
 21
-58.542945
  0
LINE
  8
別途部材
  6
DOT
 10
60.057105
 20
-59.542945
 11
-25.342895
 21
-59.542945
  0
LINE
  8
別途部材
  6
DOT
 62
    96
 10
-110.342895
 20
-58.542945
 11
-110.742895
 21
-59.542945
  0
ARC
  8
別途部材
  6
DOT
 10
-93.676228
 20
-67.876279
 40
17.666667
 50
90.0
 51
148.109204
  0
LINE
  8
別途部材
  6
DOT
 10
-93.676228
 20
-50.209613
 11
-25.342895
 21
-50.209613
  0
LINE
  8
別途部材
  6
DOT
 62
    96
 10
-110.342895
 20
-58.542945
 11
-25.342895
 21
-58.542945
  0
LINE
  8
別途部材
  6
DOT
 10
-110.742895
 20
-59.542945
 11
-25.342895
 21
-59.542945
  0
INSERT
  2
*GRP_0018
  8
別途部材
  6
CONTINUOUS
 10
0.0
 20
0.0
  0
INSERT
  2
*GRP_0031
  8
別途部材
  6
DOT
 10
0.0
 20
0.0
  0
INSERT
  2
*GRP_0032
  8
別途部材
  6
DOT
 10
0.0
 20
0.0
  0
INSERT
  2
*GRP_0033
  8
別途部材
  6
DOT
 10
0.0
 20
0.0
  0
INSERT
  2
*GRP_0034
  8
別途部材
  6
DOT
 10
0.0
 20
0.0
  0
INSERT
  2
*GRP_0035
  8
別途部材
  6
DOT
 10
0.0
 20
0.0
  0
INSERT
  2
*GRP_0036
  8
別途部材
  6
DOT
 10
0.0
 20
0.0
  0
LINE
  8
曲げ物
  6
CONTINUOUS
 10
120.730325
 20
-53.785395
 11
152.863658
 21
-53.785395
  0
LINE
  8
曲げ物
  6
CONTINUOUS
 10
152.863658
 20
-53.785395
 11
152.863658
 21
-83.118728
  0
LINE
  8
曲げ物
  6
CONTINUOUS
 10
152.863658
 20
-83.118728
 11
120.730325
 21
-83.118728
  0
LINE
  8
曲げ物
  6
CONTINUOUS
 10
120.730325
 20
-53.785395
 11
120.730325
 21
-83.118728
  0
ENDSEC
  0
EOF
