  0
SECTION
  2
HEADER
  9
$EXTMIN
 10
-210.0
 20
-148.5
  9
$EXTMAX
 10
210.0
 20
148.5
  9
$PDMODE
 70
    32
  9
$PDSIZE
 40
1.5
  9
$LTSCALE
 40
10.0
  0
ENDSEC
  0
SECTION
  2
TABLES
  0
TABLE
  2
LTYPE
 70
    15
  0
LTYPE
  2
CONTINUOUS
 70
    64
  3
実線
 72
    65
 73
     0
 40
0.0
  0
LTYPE
  2
DASHED
 70
    64
  3
破線A
 72
    65
 73
     2
 40
0.6
 49
0.4
 49
-0.2
  0
LTYPE
  2
DASHEDX2
 70
    64
  3
破線B
 72
    65
 73
     2
 40
1.3
 49
0.9
 49
-0.4
  0
LTYPE
  2
DASHDOT
 70
    64
  3
１点鎖線A
 72
    65
 73
     4
 40
0.5375
 49
0.375
 49
-0.05
 49
0.0625
 49
-0.05
  0
LTYPE
  2
DASHDOTX2
 70
    64
  3
１点鎖線B
 72
    65
 73
     4
 40
1.075
 49
0.75
 49
-0.1
 49
0.125
 49
-0.1
  0
LTYPE
  2
DIVIDE2
 70
    64
  3
２点鎖線A
 72
    65
 73
     6
 40
0.5125
 49
0.3
 49
-0.0375
 49
0.05
 49
-0.0375
 49
0.05
 49
-0.0375
  0
LTYPE
  2
DIVIDE
 70
    64
  3
２点鎖線B
 72
    65
 73
     6
 40
1.05
 49
0.55
 49
-0.1
 49
0.1
 49
-0.1
 49
0.1
 49
-0.1
  0
LTYPE
  2
DOT
 70
    64
  3
点線A
 72
    65
 73
     2
 40
0.1125
 49
0.0625
 49
-0.05
  0
LTYPE
  2
DOTX2
 70
    64
  3
点線B
 72
    65
 73
     2
 40
0.275
 49
0.15
 49
-0.125
  0
LTYPE
  2
CONTINUOUS
 70
    64
  3
実線
 72
    65
 73
     0
 40
0.0
  0
LTYPE
  2
CONTINUOUS
 70
    64
  3
実線
 72
    65
 73
     0
 40
0.0
  0
LTYPE
  2
CONTINUOUS
 70
    64
  3
実線
 72
    65
 73
     0
 40
0.0
  0
LTYPE
  2
CONTINUOUS
 70
    64
  3
実線
 72
    65
 73
     0
 40
0.0
  0
LTYPE
  2
CONTINUOUS
 70
    64
  3
実線
 72
    65
 73
     0
 40
0.0
  0
LTYPE
  2
CONTINUOUS
 70
    64
  3
実線
 72
    65
 73
     0
 40
0.0
  0
ENDTAB
  0
TABLE
  2
LAYER
 70
    34
  0
LAYER
  2
通り芯
 70
     0
 62
    15
  6
CONTINUOUS
  0
LAYER
  2
補助線
 70
     0
 62
    16
  6
DOT
  0
LAYER
  2
躯体
 70
     0
 62
    31
  6
CONTINUOUS
  0
LAYER
  2
型材
 70
     0
 62
    32
  6
CONTINUOUS
  0
LAYER
  2
型材断面
 70
     0
 62
    47
  6
CONTINUOUS
  0
LAYER
  2
ガラス
 70
     0
 62
    48
  6
CONTINUOUS
  0
LAYER
  2
ゴム等
 70
     0
 62
    63
  6
CONTINUOUS
  0
LAYER
  2
ボルト／ビス
 70
     0
 62
    64
  6
CONTINUOUS
  0
LAYER
  2
文字
 70
     0
 62
    79
  6
CONTINUOUS
  0
LAYER
  2
寸法
 70
     0
 62
    80
  6
CONTINUOUS
  0
LAYER
  2
ﾊｯﾁﾝｸﾞ
 70
     0
 62
    95
  6
CONTINUOUS
  0
LAYER
  2
別途部材
 70
     0
 62
    96
  6
CONTINUOUS
  0
LAYER
  2
曲げ物
 70
     0
 62
   111
  6
CONTINUOUS
  0
LAYER
  2
鉄骨等
 70
     0
 62
   112
  6
CONTINUOUS
  0
LAYER
  2
St
 70
     0
 62
   127
  6
CONTINUOUS
  0
LAYER
  2
その他部品等
 70
     0
 62
   128
  6
CONTINUOUS
  0
LAYER
  2
ｶﾞｽｹｯﾄ
 70
     0
 62
   143
  6
CONTINUOUS
  0
LAYER
  2
ｽｹｯﾁ
 70
     0
 62
    14
  6
CONTINUOUS
  0
LAYER
  2
0
 70
     0
 62
    17
  6
CONTINUOUS
  0
LAYER
  2
1
 70
     0
 62
    30
  6
CONTINUOUS
  0
LAYER
  2
4
 70
     0
 62
    33
  6
CONTINUOUS
  0
LAYER
  2
ﾚｲﾔ3
 70
     0
 62
    46
  6
CONTINUOUS
  0
LAYER
  2
外形線
 70
     0
 62
    49
  6
CONTINUOUS
  0
LAYER
  2
部品
 70
     0
 62
    14
  6
CONTINUOUS
  0
LAYER
  2
サッシ芯
 70
     0
 62
    17
  6
DASHDOTX2
  0
LAYER
  2
寸法線
 70
     0
 62
    62
  6
CONTINUOUS
  0
LAYER
  2
姿図外形線
 70
     0
 62
    65
  6
CONTINUOUS
  0
LAYER
  2
姿補助線
 70
     0
 62
    30
  6
CONTINUOUS
  0
LAYER
  2
透視線
 70
     0
 62
    78
  6
DOT
  0
LAYER
  2
用紙
 70
     0
 62
    81
  6
CONTINUOUS
  0
LAYER
  2
実線図枠
 70
     0
 62
    94
  6
CONTINUOUS
  0
LAYER
  2
補助図枠
 70
     0
 62
    97
  6
CONTINUOUS
  0
LAYER
  2
建具記号
 70
     0
 62
   110
  6
CONTINUOUS
  0
LAYER
  2
補助文字
 70
     0
 62
   113
  6
CONTINUOUS
  0
ENDTAB
  0
TABLE
  2
STYLE
 70
    10
  0
STYLE
  2
STANDARD
 70
     0
 40
1.0
 41
1.0
 42
1.0
 50
0.0
 71
     0
  3
TXT
  4
BIGFONT
  0
STYLE
  2
TATE
 70
     4
 40
1.0
 41
1.0
 42
1.0
 50
0.0
 71
     0
  3
TXT
  4
BIGFONT
  0
STYLE
  2
TextStyle03
 70
     0
 40
1.0
 41
1.0
 42
1.0
 50
0.0
 71
     0
  3
MONOTXT
  4
BIGFONT
  0
STYLE
  2
TextStyle04
 70
     0
 40
1.0
 41
1.0
 42
1.0
 50
0.0
 71
     0
  3
MONOTXT
  4
BIGFONT
  0
STYLE
  2
TextStyle05
 70
     0
 40
1.0
 41
1.0
 42
1.0
 50
0.0
 71
     0
  3
MONOTXT
  4
BIGFONT
  0
STYLE
  2
TextStyle06
 70
     0
 40
1.0
 41
1.0
 42
1.0
 50
0.0
 71
     0
  3
MONOTXT
  4
BIGFONT
  0
STYLE
  2
TextStyle07
 70
     0
 40
1.0
 41
1.0
 42
1.0
 50
0.0
 71
     0
  3
MONOTXT
  4
BIGFONT
  0
STYLE
  2
TextStyle08
 70
     0
 40
1.0
 41
1.0
 42
1.0
 50
0.0
 71
     0
  3
MONOTXT
  4
BIGFONT
  0
STYLE
  2
TextStyle09
 70
     0
 40
1.0
 41
1.0
 42
1.0
 50
0.0
 71
     0
  3
MONOTXT
  4
BIGFONT
  0
STYLE
  2
TextStyle10
 70
     0
 40
1.0
 41
1.0
 42
1.0
 50
0.0
 71
     0
  3
MONOTXT
  4
BIGFONT
  0
ENDTAB
  0
ENDSEC
  0
SECTION
  2
BLOCKS
  0
BLOCK
  2
*GRP_0001
 70
    65
 10
0.0
 20
0.0
  0
LINE
  8
型材断面
  6
CONTINUOUS
 10
195.0
 20
133.5
 11
195.0
 21
-133.5
  0
LINE
  8
型材断面
  6
CONTINUOUS
 10
195.0
 20
-133.5
 11
-185.0
 21
-133.5
  0
LINE
  8
型材断面
  6
CONTINUOUS
 10
-185.0
 20
-133.5
 11
-185.0
 21
133.5
  0
LINE
  8
型材断面
  6
CONTINUOUS
 10
195.0
 20
133.5
 11
-185.0
 21
133.5
  0
LINE
  8
型材断面
  6
CONTINUOUS
 10
145.0
 20
-133.5
 11
145.0
 21
-118.5
  0
LINE
  8
型材断面
  6
CONTINUOUS
 10
195.0
 20
-118.5
 11
145.0
 21
-118.5
  0
ENDBLK
  0
BLOCK
  2
*DIM_0002
 70
    65
 10
0.0
 20
0.0
  0
LINE
  8
寸法
  6
BYBLOCK
 62
     0
 10
57.257007
 20
-71.291265
 11
87.226657
 21
-71.291265
  0
LINE
  8
寸法
  6
BYBLOCK
 62
     0
 10
87.226657
 20
-79.624597
 11
87.226657
 21
-71.291265
  0
POINT
  8
寸法
 62
     0
 10
87.226657
 20
-79.624597
  0
POINT
  8
寸法
 62
     0
 10
87.226657
 20
-71.291265
  0
TEXT
  7
TextStyle03
  8
寸法
  6
CONTINUOUS
 62
     0
 10
86.85
 20
-77.9125
  1
250
 40
3.0
 50
90.0
 72
     5
 11
86.85
 21
-73.0375
  0
ENDBLK
  0
BLOCK
  2
*DIM_0003
 70
    65
 10
0.0
 20
0.0
  0
LINE
  8
寸法
  6
BYBLOCK
 62
     0
 10
167.343563
 20
-63.20038
 11
175.401852
 21
-63.20038
  0
LINE
  8
寸法
  6
BYBLOCK
 62
     0
 10
167.343563
 20
-92.533713
 11
175.401852
 21
-92.533713
  0
LINE
  8
寸法
  6
BYBLOCK
 62
     0
 10
175.401852
 20
-63.20038
 11
175.401852
 21
-92.533713
  0
POINT
  8
寸法
 62
     0
 10
175.401852
 20
-63.20038
  0
POINT
  8
寸法
 62
     0
 10
175.401852
 20
-92.533713
  0
TEXT
  7
TextStyle03
  8
寸法
  6
CONTINUOUS
 62
     0
 10
175.025
 20
-80.3125
  1
880
 40
3.0
 50
90.0
 72
     5
 11
175.025
 21
-75.4375
  0
ENDBLK
  0
BLOCK
  2
*DIM_0004
 70
    65
 10
0.0
 20
0.0
  0
LINE
  8
寸法
  6
BYBLOCK
 62
     0
 10
-112.076325
 20
-22.92619
 11
-112.076325
 21
-22.536362
  0
LINE
  8
寸法
  6
BYBLOCK
 62
     0
 10
71.257007
 20
-22.536362
 11
-112.076325
 21
-22.536362
  0
POINT
  8
寸法
 62
     0
 10
71.257007
 20
-22.536362
  0
POINT
  8
寸法
 62
     0
 10
-112.076325
 20
-22.536362
  0
TEXT
  7
TextStyle03
  8
寸法
  6
CONTINUOUS
 62
     0
 10
-32.14375
 20
-22.175
  1
呼称寸法　5500
 40
3.0
 72
     5
 11
-8.70625
 21
-22.175
  0
ENDBLK
  0
BLOCK
  2
*DIM_0005
 70
    65
 10
0.0
 20
0.0
  0
LINE
  8
寸法
  6
BYBLOCK
 62
     0
 10
-95.409657
 20
9.768917
 11
-95.409657
 21
4.783553
  0
LINE
  8
寸法
  6
BYBLOCK
 62
     0
 10
-20.40966
 20
9.76892
 11
-20.40966
 21
4.783553
  0
LINE
  8
寸法
  6
BYBLOCK
 62
     0
 10
-95.409657
 20
4.783553
 11
-20.40966
 21
4.783553
  0
POINT
  8
寸法
 62
     0
 10
-95.409657
 20
4.783553
  0
POINT
  8
寸法
 62
     0
 10
-20.40966
 20
4.783553
  0
TEXT
  7
TextStyle03
  8
寸法
  6
CONTINUOUS
 62
     0
 10
-61.20625
 20
5.15
  1
2250
 40
3.0
 72
     5
 11
-54.64375
 21
5.15
  0
ENDBLK
  0
BLOCK
  2
*DIM_0006
 70
    65
 10
0.0
 20
0.0
  0
LINE
  8
寸法
  6
BYBLOCK
 62
     0
 10
54.590337
 20
9.768917
 11
54.590337
 21
4.783553
  0
LINE
  8
寸法
  6
BYBLOCK
 62
     0
 10
-20.40966
 20
4.783553
 11
54.590337
 21
4.783553
  0
POINT
  8
寸法
 62
     0
 10
54.590337
 20
4.783553
  0
TEXT
  7
TextStyle03
  8
寸法
  6
CONTINUOUS
 62
     0
 10
13.79375
 20
5.15
  1
2250
 40
3.0
 72
     5
 11
20.35625
 21
5.15
  0
ENDBLK
  0
BLOCK
  2
*DIM_0007
 70
    65
 10
0.0
 20
0.0
  0
LINE
  8
寸法
  6
BYBLOCK
 62
     0
 10
152.619357
 20
29.399048
 11
152.619357
 21
58.954983
  0
LINE
  8
寸法
  6
BYBLOCK
 62
     0
 10
160.95269
 20
58.954983
 11
152.619357
 21
58.954983
  0
POINT
  8
寸法
 62
     0
 10
160.95269
 20
58.954983
  0
POINT
  8
寸法
 62
     0
 10
152.619357
 20
58.954983
  0
TEXT
  7
TextStyle03
  8
寸法
  6
CONTINUOUS
 62
     0
 10
154.3125
 20
59.325
  1
250
 40
3.0
 72
     5
 11
159.1875
 21
59.325
  0
ENDBLK
  0
BLOCK
  2
*DIM_0008
 70
    65
 10
0.0
 20
0.0
  0
LINE
  8
寸法
  6
BYBLOCK
 62
     0
 10
105.439075
 20
13.399048
 11
105.439075
 21
43.399048
  0
POINT
  8
寸法
 62
     0
 10
105.439075
 20
13.399048
  0
POINT
  8
寸法
 62
     0
 10
105.439075
 20
43.399048
  0
TEXT
  7
TextStyle03
  8
寸法
  6
CONTINUOUS
 62
     0
 10
105.05
 20
17.5
  1
呼称寸法　900
 40
3.0
 50
90.0
 72
     5
 11
105.05
 21
39.25
  0
ENDBLK
  0
BLOCK
  2
*DIM_0009
 70
    65
 10
0.0
 20
0.0
  0
LINE
  8
寸法
  6
BYBLOCK
 62
     0
 10
160.95269
 20
46.065715
 11
160.95269
 21
58.954983
  0
LINE
  8
寸法
  6
BYBLOCK
 62
     0
 10
167.735973
 20
46.365715
 11
167.735973
 21
58.954983
  0
LINE
  8
寸法
  6
BYBLOCK
 62
     0
 10
160.95269
 20
58.954983
 11
167.735973
 21
58.954983
  0
POINT
  8
寸法
 62
     0
 10
160.95269
 20
58.954983
  0
POINT
  8
寸法
 62
     0
 10
167.735973
 20
58.954983
  0
TEXT
  7
TextStyle03
  8
寸法
  6
CONTINUOUS
 62
     0
 10
168.575
 20
59.325
  1
203.5
 40
3.0
 72
     5
 11
176.825
 21
59.325
  0
ENDBLK
  0
BLOCK
  2
*DIM_0010
 70
    65
 10
0.0
 20
0.0
  0
LINE
  8
寸法
  6
BYBLOCK
 62
     0
 10
163.77533
 20
45.67905
 11
105.439075
 21
45.67905
  0
LINE
  8
寸法
  6
BYBLOCK
 62
     0
 10
105.439075
 20
43.399048
 11
105.439075
 21
45.67905
  0
POINT
  8
寸法
 62
     0
 10
105.439075
 20
43.399048
  0
POINT
  8
寸法
 62
     0
 10
105.439075
 20
45.67905
  0
TEXT
  7
TextStyle03
  8
寸法
  6
CONTINUOUS
 62
     0
 10
104.975
 20
48.01875
  1
68.4
 40
3.0
 50
90.0
 72
     5
 11
104.975
 21
54.58125
  0
ENDBLK
  0
BLOCK
  2
*DIM_0011
 70
    65
 10
0.0
 20
0.0
  0
LINE
  8
寸法
  6
BYBLOCK
 62
     0
 10
163.77533
 20
11.119045
 11
105.439075
 21
11.119045
  0
LINE
  8
寸法
  6
BYBLOCK
 62
     0
 10
105.439075
 20
13.399048
 11
105.439075
 21
11.119045
  0
POINT
  8
寸法
 62
     0
 10
105.439075
 20
13.399048
  0
POINT
  8
寸法
 62
     0
 10
105.439075
 20
11.119045
  0
TEXT
  7
TextStyle03
  8
寸法
  6
CONTINUOUS
 62
     0
 10
104.975
 20
2.21875
  1
68.4
 40
3.0
 50
90.0
 72
     5
 11
104.975
 21
8.78125
  0
ENDBLK
  0
BLOCK
  2
*DIM_0012
 70
    65
 10
0.0
 20
0.0
  0
LINE
  8
寸法
  6
BYBLOCK
 62
     0
 10
73.923675
 20
-79.624597
 11
87.226657
 21
-79.624597
  0
LINE
  8
寸法
  6
BYBLOCK
 62
     0
 10
74.223675
 20
-86.407882
 11
87.226657
 21
-86.407882
  0
LINE
  8
寸法
  6
BYBLOCK
 62
     0
 10
87.226657
 20
-79.624597
 11
87.226657
 21
-86.407882
  0
POINT
  8
寸法
 62
     0
 10
87.226657
 20
-79.624597
  0
POINT
  8
寸法
 62
     0
 10
87.226657
 20
-86.407882
  0
TEXT
  7
TextStyle03
  8
寸法
  6
CONTINUOUS
 62
     0
 10
86.775
 20
-95.575
  1
203.5
 40
3.0
 50
90.0
 72
     5
 11
86.775
 21
-87.325
  0
ENDBLK
  0
BLOCK
  2
*DIM_0013
 70
    65
 10
0.0
 20
0.0
  0
LINE
  8
寸法
  6
BYBLOCK
 62
     0
 10
73.53701
 20
-82.44724
 11
73.53701
 21
-22.536362
  0
LINE
  8
寸法
  6
BYBLOCK
 62
     0
 10
71.257007
 20
-22.536362
 11
73.53701
 21
-22.536362
  0
POINT
  8
寸法
 62
     0
 10
71.257007
 20
-22.536362
  0
POINT
  8
寸法
 62
     0
 10
73.53701
 20
-22.536362
  0
TEXT
  7
TextStyle03
  8
寸法
  6
CONTINUOUS
 62
     0
 10
75.79375
 20
-22.15
  1
68.4
 40
3.0
 72
     5
 11
82.35625
 21
-22.15
  0
ENDBLK
  0
BLOCK
  2
*DIM_0014
 70
    65
 10
0.0
 20
0.0
  0
LINE
  8
寸法
  6
BYBLOCK
 62
     0
 10
-114.35633
 20
-82.44724
 11
-114.35633
 21
-22.536362
  0
LINE
  8
寸法
  6
BYBLOCK
 62
     0
 10
-112.076325
 20
-22.536362
 11
-114.35633
 21
-22.536362
  0
POINT
  8
寸法
 62
     0
 10
-112.076325
 20
-22.536362
  0
POINT
  8
寸法
 62
     0
 10
-114.35633
 20
-22.536362
  0
TEXT
  7
TextStyle03
  8
寸法
  6
CONTINUOUS
 62
     0
 10
-123.25625
 20
-22.175
  1
68.4
 40
3.0
 72
     5
 11
-116.69375
 21
-22.175
  0
ENDBLK
  0
BLOCK
  2
*DIM_0015
 70
    65
 10
0.0
 20
0.0
  0
LINE
  8
寸法
  6
BYBLOCK
 62
     0
 10
130.876895
 20
-62.20038
 11
130.876895
 21
-53.508572
  0
LINE
  8
寸法
  6
BYBLOCK
 62
     0
 10
166.343563
 20
-62.20038
 11
166.343563
 21
-53.508572
  0
LINE
  8
寸法
  6
BYBLOCK
 62
     0
 10
130.876895
 20
-53.508572
 11
166.343563
 21
-53.508572
  0
POINT
  8
寸法
 62
     0
 10
130.876895
 20
-53.508572
  0
POINT
  8
寸法
 62
     0
 10
166.343563
 20
-53.508572
  0
TEXT
  7
TextStyle03
  8
寸法
  6
CONTINUOUS
 62
     0
 10
145.31875
 20
-53.15
  1
1064
 40
3.0
 72
     5
 11
151.88125
 21
-53.15
  0
ENDBLK
  0
BLOCK
  2
*DIM_0016
 70
    65
 10
0.0
 20
0.0
  0
LINE
  8
寸法
  6
BYBLOCK
 62
     0
 10
74.887135
 20
39.499048
 11
81.664428
 21
39.499048
  0
LINE
  8
寸法
  6
BYBLOCK
 62
     0
 10
81.664428
 20
43.399048
 11
81.664428
 21
39.499048
  0
POINT
  8
寸法
 62
     0
 10
81.664428
 20
43.399048
  0
POINT
  8
寸法
 62
     0
 10
81.664428
 20
39.499048
  0
TEXT
  7
TextStyle03
  8
寸法
  6
CONTINUOUS
 62
     0
 10
81.325
 20
44.0875
  1
117
 40
3.0
 50
90.0
 72
     5
 11
81.325
 21
48.9625
  0
ENDBLK
  0
BLOCK
  2
*DIM_0017
 70
    65
 10
0.0
 20
0.0
  0
LINE
  8
寸法
  6
BYBLOCK
 62
     0
 10
74.887135
 20
17.299048
 11
81.664428
 21
17.299048
  0
LINE
  8
寸法
  6
BYBLOCK
 62
     0
 10
81.664428
 20
13.399048
 11
81.664428
 21
17.299048
  0
POINT
  8
寸法
 62
     0
 10
81.664428
 20
13.399048
  0
POINT
  8
寸法
 62
     0
 10
81.664428
 20
17.299048
  0
TEXT
  7
TextStyle03
  8
寸法
  6
CONTINUOUS
 62
     0
 10
81.7
 20
7.8125
  1
117
 40
3.0
 50
90.0
 72
     5
 11
81.7
 21
12.6875
  0
ENDBLK
  0
BLOCK
  2
*GRP_0018
 70
    65
 10
0.0
 20
0.0
  0
LINE
  8
別途部材
  6
CONTINUOUS
 62
    96
 10
-113.742993
 20
-79.624597
 11
-114.142993
 21
-80.624597
  0
LINE
  8
別途部材
  6
CONTINUOUS
 10
-114.142993
 20
-80.624597
 11
-20.409657
 21
-80.624597
  0
LINE
  8
別途部材
  6
CONTINUOUS
 62
    96
 10
-113.742993
 20
-79.624597
 11
-20.409657
 21
-79.624597
  0
LINE
  8
別途部材
  6
CONTINUOUS
 10
-20.909657
 20
-70.291265
 11
-21.909657
 21
-71.291265
  0
LINE
  8
別途部材
  6
CONTINUOUS
 10
-22.909657
 20
-71.291265
 11
-23.909657
 21
-70.291265
  0
LINE
  8
別途部材
  6
CONTINUOUS
 10
-24.909657
 20
-70.291265
 11
-25.909657
 21
-71.291265
  0
LINE
  8
別途部材
  6
CONTINUOUS
 10
-23.909657
 20
-70.291265
 11
-24.909657
 21
-70.291265
  0
LINE
  8
別途部材
  6
CONTINUOUS
 10
-20.909657
 20
-70.291265
 11
-20.409657
 21
-70.291265
  0
LINE
  8
別途部材
  6
CONTINUOUS
 10
-26.909657
 20
-71.291265
 11
-27.909657
 21
-70.291265
  0
LINE
  8
別途部材
  6
CONTINUOUS
 10
-28.909657
 20
-70.291265
 11
-29.909657
 21
-71.291265
  0
LINE
  8
別途部材
  6
CONTINUOUS
 10
-27.909657
 20
-70.291265
 11
-28.909657
 21
-70.291265
  0
LINE
  8
別途部材
  6
CONTINUOUS
 10
-30.909657
 20
-71.291265
 11
-31.909657
 21
-70.291265
  0
LINE
  8
別途部材
  6
CONTINUOUS
 10
-32.909657
 20
-70.291265
 11
-33.909657
 21
-71.291265
  0
LINE
  8
別途部材
  6
CONTINUOUS
 10
-31.909657
 20
-70.291265
 11
-32.909657
 21
-70.291265
  0
LINE
  8
別途部材
  6
CONTINUOUS
 10
-34.909657
 20
-71.291265
 11
-35.909657
 21
-70.291265
  0
LINE
  8
別途部材
  6
CONTINUOUS
 10
-36.909657
 20
-70.291265
 11
-37.909657
 21
-71.291265
  0
LINE
  8
別途部材
  6
CONTINUOUS
 10
-35.909657
 20
-70.291265
 11
-36.909657
 21
-70.291265
  0
LINE
  8
別途部材
  6
CONTINUOUS
 10
-38.909657
 20
-71.291265
 11
-39.909657
 21
-70.291265
  0
LINE
  8
別途部材
  6
CONTINUOUS
 10
-40.909657
 20
-70.291265
 11
-41.909657
 21
-71.291265
  0
LINE
  8
別途部材
  6
CONTINUOUS
 10
-39.909657
 20
-70.291265
 11
-40.909657
 21
-70.291265
  0
LINE
  8
別途部材
  6
CONTINUOUS
 10
-42.909657
 20
-71.291265
 11
-43.909657
 21
-70.291265
  0
LINE
  8
別途部材
  6
CONTINUOUS
 10
-44.909657
 20
-70.291265
 11
-45.909657
 21
-71.291265
  0
LINE
  8
別途部材
  6
CONTINUOUS
 10
-43.909657
 20
-70.291265
 11
-44.909657
 21
-70.291265
  0
LINE
  8
別途部材
  6
CONTINUOUS
 10
-46.909657
 20
-71.291265
 11
-47.909657
 21
-70.291265
  0
LINE
  8
別途部材
  6
CONTINUOUS
 10
-48.909657
 20
-70.291265
 11
-49.909657
 21
-71.291265
  0
LINE
  8
別途部材
  6
CONTINUOUS
 10
-47.909657
 20
-70.291265
 11
-48.909657
 21
-70.291265
  0
LINE
  8
別途部材
  6
CONTINUOUS
 10
-50.909657
 20
-71.291265
 11
-51.909657
 21
-70.291265
  0
LINE
  8
別途部材
  6
CONTINUOUS
 10
-52.909657
 20
-70.291265
 11
-53.909657
 21
-71.291265
  0
LINE
  8
別途部材
  6
CONTINUOUS
 10
-51.909657
 20
-70.291265
 11
-52.909657
 21
-70.291265
  0
LINE
  8
別途部材
  6
CONTINUOUS
 10
-54.909657
 20
-71.291265
 11
-55.909657
 21
-70.291265
  0
LINE
  8
別途部材
  6
CONTINUOUS
 10
-56.909657
 20
-70.291265
 11
-57.909657
 21
-71.291265
  0
LINE
  8
別途部材
  6
CONTINUOUS
 10
-55.909657
 20
-70.291265
 11
-56.909657
 21
-70.291265
  0
LINE
  8
別途部材
  6
CONTINUOUS
 10
-58.909657
 20
-71.291265
 11
-59.909657
 21
-70.291265
  0
LINE
  8
別途部材
  6
CONTINUOUS
 10
-60.909657
 20
-70.291265
 11
-61.909657
 21
-71.291265
  0
LINE
  8
別途部材
  6
CONTINUOUS
 10
-59.909657
 20
-70.291265
 11
-60.909657
 21
-70.291265
  0
LINE
  8
別途部材
  6
CONTINUOUS
 10
-62.909657
 20
-71.291265
 11
-63.909657
 21
-70.291265
  0
LINE
  8
別途部材
  6
CONTINUOUS
 10
-64.909657
 20
-70.291265
 11
-65.909657
 21
-71.291265
  0
LINE
  8
別途部材
  6
CONTINUOUS
 10
-63.909657
 20
-70.291265
 11
-64.909657
 21
-70.291265
  0
LINE
  8
別途部材
  6
CONTINUOUS
 10
-61.909657
 20
-71.291265
 11
-62.909657
 21
-71.291265
  0
LINE
  8
別途部材
  6
CONTINUOUS
 10
-57.909657
 20
-71.291265
 11
-58.909657
 21
-71.291265
  0
LINE
  8
別途部材
  6
CONTINUOUS
 10
-53.909657
 20
-71.291265
 11
-54.909657
 21
-71.291265
  0
LINE
  8
別途部材
  6
CONTINUOUS
 10
-49.909657
 20
-71.291265
 11
-50.909657
 21
-71.291265
  0
LINE
  8
別途部材
  6
CONTINUOUS
 10
-45.909657
 20
-71.291265
 11
-46.909657
 21
-71.291265
  0
LINE
  8
別途部材
  6
CONTINUOUS
 10
-41.909657
 20
-71.291265
 11
-42.909657
 21
-71.291265
  0
LINE
  8
別途部材
  6
CONTINUOUS
 10
-37.909657
 20
-71.291265
 11
-38.909657
 21
-71.291265
  0
LINE
  8
別途部材
  6
CONTINUOUS
 10
-33.909657
 20
-71.291265
 11
-34.909657
 21
-71.291265
  0
LINE
  8
別途部材
  6
CONTINUOUS
 10
-29.909657
 20
-71.291265
 11
-30.909657
 21
-71.291265
  0
LINE
  8
別途部材
  6
CONTINUOUS
 10
-25.909657
 20
-71.291265
 11
-26.909657
 21
-71.291265
  0
LINE
  8
別途部材
  6
CONTINUOUS
 10
-22.909657
 20
-71.291265
 11
-21.909657
 21
-71.291265
  0
LINE
  8
別途部材
  6
CONTINUOUS
 10
-66.909657
 20
-71.291265
 11
-67.909657
 21
-70.291265
  0
LINE
  8
別途部材
  6
CONTINUOUS
 10
-68.909657
 20
-70.291265
 11
-69.909657
 21
-71.291265
  0
LINE
  8
別途部材
  6
CONTINUOUS
 10
-67.909657
 20
-70.291265
 11
-68.909657
 21
-70.291265
  0
LINE
  8
別途部材
  6
CONTINUOUS
 10
-70.909657
 20
-71.291265
 11
-71.909657
 21
-70.291265
  0
LINE
  8
別途部材
  6
CONTINUOUS
 10
-72.909657
 20
-70.291265
 11
-73.909657
 21
-71.291265
  0
LINE
  8
別途部材
  6
CONTINUOUS
 10
-71.909657
 20
-70.291265
 11
-72.909657
 21
-70.291265
  0
LINE
  8
別途部材
  6
CONTINUOUS
 10
-74.909657
 20
-71.291265
 11
-75.909657
 21
-70.291265
  0
LINE
  8
別途部材
  6
CONTINUOUS
 10
-76.909657
 20
-70.291265
 11
-77.909657
 21
-71.291265
  0
LINE
  8
別途部材
  6
CONTINUOUS
 10
-75.909657
 20
-70.291265
 11
-76.909657
 21
-70.291265
  0
LINE
  8
別途部材
  6
CONTINUOUS
 10
-78.909657
 20
-71.291265
 11
-79.909657
 21
-70.291265
  0
LINE
  8
別途部材
  6
CONTINUOUS
 10
-80.909657
 20
-70.291265
 11
-81.909657
 21
-71.291265
  0
LINE
  8
別途部材
  6
CONTINUOUS
 10
-79.909657
 20
-70.291265
 11
-80.909657
 21
-70.291265
  0
LINE
  8
別途部材
  6
CONTINUOUS
 10
-82.909657
 20
-71.291265
 11
-83.909657
 21
-70.291265
  0
LINE
  8
別途部材
  6
CONTINUOUS
 10
-84.909657
 20
-70.291265
 11
-85.909657
 21
-71.291265
  0
LINE
  8
別途部材
  6
CONTINUOUS
 10
-83.909657
 20
-70.291265
 11
-84.909657
 21
-70.291265
  0
LINE
  8
別途部材
  6
CONTINUOUS
 10
-86.909657
 20
-71.291265
 11
-87.909657
 21
-70.291265
  0
LINE
  8
別途部材
  6
CONTINUOUS
 10
-88.909657
 20
-70.291265
 11
-89.909657
 21
-71.291265
  0
LINE
  8
別途部材
  6
CONTINUOUS
 10
-87.909657
 20
-70.291265
 11
-88.909657
 21
-70.291265
  0
LINE
  8
別途部材
  6
CONTINUOUS
 10
-90.909657
 20
-71.291265
 11
-91.909657
 21
-70.291265
  0
LINE
  8
別途部材
  6
CONTINUOUS
 10
-92.909657
 20
-70.291265
 11
-93.909657
 21
-71.291265
  0
LINE
  8
別途部材
  6
CONTINUOUS
 10
-91.909657
 20
-70.291265
 11
-92.909657
 21
-70.291265
  0
LINE
  8
別途部材
  6
CONTINUOUS
 10
-94.909657
 20
-71.291265
 11
-95.909657
 21
-70.291265
  0
LINE
  8
別途部材
  6
CONTINUOUS
 10
-96.909657
 20
-70.291265
 11
-97.909657
 21
-71.291265
  0
LINE
  8
別途部材
  6
CONTINUOUS
 10
-95.909657
 20
-70.291265
 11
-96.909657
 21
-70.291265
  0
LINE
  8
別途部材
  6
CONTINUOUS
 10
-93.909657
 20
-71.291265
 11
-94.909657
 21
-71.291265
  0
LINE
  8
別途部材
  6
CONTINUOUS
 10
-89.909657
 20
-71.291265
 11
-90.909657
 21
-71.291265
  0
LINE
  8
別途部材
  6
CONTINUOUS
 10
-85.909657
 20
-71.291265
 11
-86.909657
 21
-71.291265
  0
LINE
  8
別途部材
  6
CONTINUOUS
 10
-81.909657
 20
-71.291265
 11
-82.909657
 21
-71.291265
  0
LINE
  8
別途部材
  6
CONTINUOUS
 10
-77.909657
 20
-71.291265
 11
-78.909657
 21
-71.291265
  0
LINE
  8
別途部材
  6
CONTINUOUS
 10
-73.909657
 20
-71.291265
 11
-74.909657
 21
-71.291265
  0
LINE
  8
別途部材
  6
CONTINUOUS
 10
-69.909657
 20
-71.291265
 11
-70.909657
 21
-71.291265
  0
LINE
  8
別途部材
  6
CONTINUOUS
 10
-65.909657
 20
-71.291265
 11
-66.909657
 21
-71.291265
  0
LINE
  8
別途部材
  6
CONTINUOUS
 10
-97.909657
 20
-71.291265
 11
-97.909657
 21
-79.624597
  0
LINE
  8
別途部材
  6
CONTINUOUS
 10
-95.909657
 20
-70.291265
 11
-95.909657
 21
-79.624597
  0
LINE
  8
別途部材
  6
CONTINUOUS
 10
-96.909657
 20
-70.291265
 11
-96.909657
 21
-79.624597
  0
LINE
  8
別途部材
  6
CONTINUOUS
 10
-93.909657
 20
-71.291265
 11
-93.909657
 21
-79.624597
  0
LINE
  8
別途部材
  6
CONTINUOUS
 10
-94.909657
 20
-71.291265
 11
-94.909657
 21
-79.624597
  0
LINE
  8
別途部材
  6
CONTINUOUS
 10
-92.909657
 20
-70.291265
 11
-92.909657
 21
-79.624597
  0
LINE
  8
別途部材
  6
CONTINUOUS
 10
-90.909657
 20
-71.291265
 11
-90.909657
 21
-79.624597
  0
LINE
  8
別途部材
  6
CONTINUOUS
 10
-91.909657
 20
-70.291265
 11
-91.909657
 21
-79.624597
  0
LINE
  8
別途部材
  6
CONTINUOUS
 10
-89.909657
 20
-71.291265
 11
-89.909657
 21
-79.624597
  0
LINE
  8
別途部材
  6
CONTINUOUS
 10
-88.909657
 20
-70.291265
 11
-88.909657
 21
-79.624597
  0
LINE
  8
別途部材
  6
CONTINUOUS
 10
-86.909657
 20
-71.291265
 11
-86.909657
 21
-79.624597
  0
LINE
  8
別途部材
  6
CONTINUOUS
 10
-87.909657
 20
-70.291265
 11
-87.909657
 21
-79.624597
  0
LINE
  8
別途部材
  6
CONTINUOUS
 10
-84.909657
 20
-70.291265
 11
-84.909657
 21
-79.624597
  0
LINE
  8
別途部材
  6
CONTINUOUS
 10
-85.909657
 20
-71.291265
 11
-85.909657
 21
-79.624597
  0
LINE
  8
別途部材
  6
CONTINUOUS
 10
-82.909657
 20
-71.291265
 11
-82.909657
 21
-79.624597
  0
LINE
  8
別途部材
  6
CONTINUOUS
 10
-83.909657
 20
-70.291265
 11
-83.909657
 21
-79.624597
  0
LINE
  8
別途部材
  6
CONTINUOUS
 10
-81.909657
 20
-71.291265
 11
-81.909657
 21
-79.624597
  0
LINE
  8
別途部材
  6
CONTINUOUS
 10
-79.909657
 20
-70.291265
 11
-79.909657
 21
-79.624597
  0
LINE
  8
別途部材
  6
CONTINUOUS
 10
-80.909657
 20
-70.291265
 11
-80.909657
 21
-79.624597
  0
LINE
  8
別途部材
  6
CONTINUOUS
 10
-78.909657
 20
-71.291265
 11
-78.909657
 21
-79.624597
  0
LINE
  8
別途部材
  6
CONTINUOUS
 10
-77.909657
 20
-71.291265
 11
-77.909657
 21
-79.624597
  0
LINE
  8
別途部材
  6
CONTINUOUS
 10
-76.909657
 20
-70.291265
 11
-76.909657
 21
-79.624597
  0
LINE
  8
別途部材
  6
CONTINUOUS
 10
-75.909657
 20
-70.291265
 11
-75.909657
 21
-79.624597
  0
LINE
  8
別途部材
  6
CONTINUOUS
 10
-71.909657
 20
-70.291265
 11
-71.909657
 21
-79.624597
  0
LINE
  8
別途部材
  6
CONTINUOUS
 10
-64.909657
 20
-70.291265
 11
-64.909657
 21
-79.624597
  0
LINE
  8
別途部材
  6
CONTINUOUS
 10
-60.909657
 20
-70.291265
 11
-60.909657
 21
-79.624597
  0
LINE
  8
別途部材
  6
CONTINUOUS
 10
-58.909657
 20
-71.291265
 11
-58.909657
 21
-79.624597
  0
LINE
  8
別途部材
  6
CONTINUOUS
 10
-63.909657
 20
-70.291265
 11
-63.909657
 21
-79.624597
  0
LINE
  8
別途部材
  6
CONTINUOUS
 10
-67.909657
 20
-70.291265
 11
-67.909657
 21
-79.624597
  0
LINE
  8
別途部材
  6
CONTINUOUS
 10
-69.909657
 20
-71.291265
 11
-69.909657
 21
-79.624597
  0
LINE
  8
別途部材
  6
CONTINUOUS
 10
-72.909657
 20
-70.291265
 11
-72.909657
 21
-79.624597
  0
LINE
  8
別途部材
  6
CONTINUOUS
 10
-73.909657
 20
-71.291265
 11
-73.909657
 21
-79.624597
  0
LINE
  8
別途部材
  6
CONTINUOUS
 10
-74.909657
 20
-71.291265
 11
-74.909657
 21
-79.624597
  0
LINE
  8
別途部材
  6
CONTINUOUS
 10
-70.909657
 20
-71.291265
 11
-70.909657
 21
-79.624597
  0
LINE
  8
別途部材
  6
CONTINUOUS
 10
-68.909657
 20
-70.291265
 11
-68.909657
 21
-79.624597
  0
LINE
  8
別途部材
  6
CONTINUOUS
 10
-66.909657
 20
-71.291265
 11
-66.909657
 21
-79.624597
  0
LINE
  8
別途部材
  6
CONTINUOUS
 10
-65.909657
 20
-71.291265
 11
-65.909657
 21
-79.624597
  0
LINE
  8
別途部材
  6
CONTINUOUS
 10
-62.909657
 20
-71.291265
 11
-62.909657
 21
-79.624597
  0
LINE
  8
別途部材
  6
CONTINUOUS
 10
-61.909657
 20
-71.291265
 11
-61.909657
 21
-79.624597
  0
LINE
  8
別途部材
  6
CONTINUOUS
 10
-59.909657
 20
-70.291265
 11
-59.909657
 21
-79.624597
  0
LINE
  8
別途部材
  6
CONTINUOUS
 10
-56.909657
 20
-70.291265
 11
-56.909657
 21
-79.624597
  0
LINE
  8
別途部材
  6
CONTINUOUS
 10
-57.909657
 20
-71.291265
 11
-57.909657
 21
-79.624597
  0
LINE
  8
別途部材
  6
CONTINUOUS
 10
-55.909657
 20
-70.291265
 11
-55.909657
 21
-79.624597
  0
LINE
  8
別途部材
  6
CONTINUOUS
 10
-54.909657
 20
-71.291265
 11
-54.909657
 21
-79.624597
  0
LINE
  8
別途部材
  6
CONTINUOUS
 10
-53.909657
 20
-71.291265
 11
-53.909657
 21
-79.624597
  0
LINE
  8
別途部材
  6
CONTINUOUS
 10
-52.909657
 20
-70.291265
 11
-52.909657
 21
-79.624597
  0
LINE
  8
別途部材
  6
CONTINUOUS
 10
-50.909657
 20
-71.291265
 11
-50.909657
 21
-79.624597
  0
LINE
  8
別途部材
  6
CONTINUOUS
 10
-51.909657
 20
-70.291265
 11
-51.909657
 21
-79.624597
  0
LINE
  8
別途部材
  6
CONTINUOUS
 10
-48.909657
 20
-70.291265
 11
-48.909657
 21
-79.624597
  0
LINE
  8
別途部材
  6
CONTINUOUS
 10
-49.909657
 20
-71.291265
 11
-49.909657
 21
-79.624597
  0
LINE
  8
別途部材
  6
CONTINUOUS
 10
-45.909657
 20
-71.291265
 11
-45.909657
 21
-79.624597
  0
LINE
  8
別途部材
  6
CONTINUOUS
 10
-44.909657
 20
-70.291265
 11
-44.909657
 21
-79.624597
  0
LINE
  8
別途部材
  6
CONTINUOUS
 10
-43.909657
 20
-70.291265
 11
-43.909657
 21
-79.624597
  0
LINE
  8
別途部材
  6
CONTINUOUS
 10
-46.909657
 20
-71.291265
 11
-46.909657
 21
-79.624597
  0
LINE
  8
別途部材
  6
CONTINUOUS
 10
-47.909657
 20
-70.291265
 11
-47.909657
 21
-79.624597
  0
LINE
  8
別途部材
  6
CONTINUOUS
 10
-39.909657
 20
-70.291265
 11
-39.909657
 21
-79.624597
  0
LINE
  8
別途部材
  6
CONTINUOUS
 10
-41.909657
 20
-71.291265
 11
-41.909657
 21
-79.624597
  0
LINE
  8
別途部材
  6
CONTINUOUS
 10
-42.909657
 20
-71.291265
 11
-42.909657
 21
-79.624597
  0
LINE
  8
別途部材
  6
CONTINUOUS
 10
-40.909657
 20
-70.291265
 11
-40.909657
 21
-79.624597
  0
LINE
  8
別途部材
  6
CONTINUOUS
 10
-38.909657
 20
-71.291265
 11
-38.909657
 21
-79.624597
  0
LINE
  8
別途部材
  6
CONTINUOUS
 10
-36.909657
 20
-70.291265
 11
-36.909657
 21
-79.624597
  0
LINE
  8
別途部材
  6
CONTINUOUS
 10
-35.909657
 20
-70.291265
 11
-35.909657
 21
-79.624597
  0
LINE
  8
別途部材
  6
CONTINUOUS
 10
-33.909657
 20
-71.291265
 11
-33.909657
 21
-79.624597
  0
LINE
  8
別途部材
  6
CONTINUOUS
 10
-34.909657
 20
-71.291265
 11
-34.909657
 21
-79.624597
  0
LINE
  8
別途部材
  6
CONTINUOUS
 10
-37.909657
 20
-71.291265
 11
-37.909657
 21
-79.624597
  0
LINE
  8
別途部材
  6
CONTINUOUS
 10
-32.909657
 20
-70.291265
 11
-32.909657
 21
-79.624597
  0
LINE
  8
別途部材
  6
CONTINUOUS
 10
-30.909657
 20
-71.291265
 11
-30.909657
 21
-79.624597
  0
LINE
  8
別途部材
  6
CONTINUOUS
 10
-31.909657
 20
-70.291265
 11
-31.909657
 21
-79.624597
  0
LINE
  8
別途部材
  6
CONTINUOUS
 10
-29.909657
 20
-71.291265
 11
-29.909657
 21
-79.624597
  0
LINE
  8
別途部材
  6
CONTINUOUS
 10
-28.909657
 20
-70.291265
 11
-28.909657
 21
-79.624597
  0
LINE
  8
別途部材
  6
CONTINUOUS
 10
-26.909657
 20
-71.291265
 11
-26.909657
 21
-79.624597
  0
LINE
  8
別途部材
  6
CONTINUOUS
 10
-27.909657
 20
-70.291265
 11
-27.909657
 21
-79.624597
  0
LINE
  8
別途部材
  6
CONTINUOUS
 10
-25.909657
 20
-71.291265
 11
-25.909657
 21
-79.624597
  0
LINE
  8
別途部材
  6
CONTINUOUS
 10
-24.909657
 20
-70.291265
 11
-24.909657
 21
-79.624597
  0
LINE
  8
別途部材
  6
CONTINUOUS
 10
-22.909657
 20
-71.291265
 11
-22.909657
 21
-79.624597
  0
LINE
  8
別途部材
  6
CONTINUOUS
 10
-23.909657
 20
-70.291265
 11
-23.909657
 21
-79.624597
  0
LINE
  8
別途部材
  6
CONTINUOUS
 10
-21.909657
 20
-71.291265
 11
-21.909657
 21
-79.624597
  0
LINE
  8
別途部材
  6
CONTINUOUS
 10
-20.909657
 20
-70.291265
 11
-20.909657
 21
-79.624597
  0
ARC
  8
別途部材
  6
CONTINUOUS
 10
-97.076326
 20
-88.957936
 40
17.666667
 50
92.703632
 51
148.109204
  0
LINE
  8
別途部材
  6
CONTINUOUS
 62
    96
 10
72.923675
 20
-79.624597
 11
73.323675
 21
-80.624597
  0
LINE
  8
別途部材
  6
CONTINUOUS
 10
73.323675
 20
-80.624597
 11
-20.409657
 21
-80.624597
  0
LINE
  8
別途部材
  6
CONTINUOUS
 62
    96
 10
72.923675
 20
-79.624597
 11
-20.409657
 21
-79.624597
  0
LINE
  8
別途部材
  6
CONTINUOUS
 10
-19.909657
 20
-70.291265
 11
-18.909657
 21
-71.291265
  0
LINE
  8
別途部材
  6
CONTINUOUS
 10
-17.909657
 20
-71.291265
 11
-16.909657
 21
-70.291265
  0
LINE
  8
別途部材
  6
CONTINUOUS
 10
-15.909657
 20
-70.291265
 11
-14.909657
 21
-71.291265
  0
LINE
  8
別途部材
  6
CONTINUOUS
 10
-16.909657
 20
-70.291265
 11
-15.909657
 21
-70.291265
  0
LINE
  8
別途部材
  6
CONTINUOUS
 10
-19.909657
 20
-70.291265
 11
-20.409657
 21
-70.291265
  0
LINE
  8
別途部材
  6
CONTINUOUS
 10
-13.909657
 20
-71.291265
 11
-12.909657
 21
-70.291265
  0
LINE
  8
別途部材
  6
CONTINUOUS
 10
-11.909657
 20
-70.291265
 11
-10.909657
 21
-71.291265
  0
LINE
  8
別途部材
  6
CONTINUOUS
 10
-12.909657
 20
-70.291265
 11
-11.909657
 21
-70.291265
  0
LINE
  8
別途部材
  6
CONTINUOUS
 10
-9.909657
 20
-71.291265
 11
-8.909657
 21
-70.291265
  0
LINE
  8
別途部材
  6
CONTINUOUS
 10
-7.909657
 20
-70.291265
 11
-6.909657
 21
-71.291265
  0
LINE
  8
別途部材
  6
CONTINUOUS
 10
-8.909657
 20
-70.291265
 11
-7.909657
 21
-70.291265
  0
LINE
  8
別途部材
  6
CONTINUOUS
 10
-5.909657
 20
-71.291265
 11
-4.909657
 21
-70.291265
  0
LINE
  8
別途部材
  6
CONTINUOUS
 10
-3.909657
 20
-70.291265
 11
-2.909657
 21
-71.291265
  0
LINE
  8
別途部材
  6
CONTINUOUS
 10
-4.909657
 20
-70.291265
 11
-3.909657
 21
-70.291265
  0
LINE
  8
別途部材
  6
CONTINUOUS
 10
-1.909657
 20
-71.291265
 11
-0.909657
 21
-70.291265
  0
LINE
  8
別途部材
  6
CONTINUOUS
 10
0.090343
 20
-70.291265
 11
1.090343
 21
-71.291265
  0
LINE
  8
別途部材
  6
CONTINUOUS
 10
-0.909657
 20
-70.291265
 11
0.090343
 21
-70.291265
  0
LINE
  8
別途部材
  6
CONTINUOUS
 10
2.090343
 20
-71.291265
 11
3.090343
 21
-70.291265
  0
LINE
  8
別途部材
  6
CONTINUOUS
 10
4.090343
 20
-70.291265
 11
5.090343
 21
-71.291265
  0
LINE
  8
別途部材
  6
CONTINUOUS
 10
3.090343
 20
-70.291265
 11
4.090343
 21
-70.291265
  0
LINE
  8
別途部材
  6
CONTINUOUS
 10
6.090343
 20
-71.291265
 11
7.090343
 21
-70.291265
  0
LINE
  8
別途部材
  6
CONTINUOUS
 10
8.090343
 20
-70.291265
 11
9.090343
 21
-71.291265
  0
LINE
  8
別途部材
  6
CONTINUOUS
 10
7.090343
 20
-70.291265
 11
8.090343
 21
-70.291265
  0
LINE
  8
別途部材
  6
CONTINUOUS
 10
10.090343
 20
-71.291265
 11
11.090343
 21
-70.291265
  0
LINE
  8
別途部材
  6
CONTINUOUS
 10
12.090343
 20
-70.291265
 11
13.090343
 21
-71.291265
  0
LINE
  8
別途部材
  6
CONTINUOUS
 10
11.090343
 20
-70.291265
 11
12.090343
 21
-70.291265
  0
LINE
  8
別途部材
  6
CONTINUOUS
 10
14.090343
 20
-71.291265
 11
15.090343
 21
-70.291265
  0
LINE
  8
別途部材
  6
CONTINUOUS
 10
16.090343
 20
-70.291265
 11
17.090343
 21
-71.291265
  0
LINE
  8
別途部材
  6
CONTINUOUS
 10
15.090343
 20
-70.291265
 11
16.090343
 21
-70.291265
  0
LINE
  8
別途部材
  6
CONTINUOUS
 10
18.090343
 20
-71.291265
 11
19.090343
 21
-70.291265
  0
LINE
  8
別途部材
  6
CONTINUOUS
 10
20.090343
 20
-70.291265
 11
21.090343
 21
-71.291265
  0
LINE
  8
別途部材
  6
CONTINUOUS
 10
19.090343
 20
-70.291265
 11
20.090343
 21
-70.291265
  0
LINE
  8
別途部材
  6
CONTINUOUS
 10
22.090343
 20
-71.291265
 11
23.090343
 21
-70.291265
  0
LINE
  8
別途部材
  6
CONTINUOUS
 10
24.090343
 20
-70.291265
 11
25.090343
 21
-71.291265
  0
LINE
  8
別途部材
  6
CONTINUOUS
 10
23.090343
 20
-70.291265
 11
24.090343
 21
-70.291265
  0
LINE
  8
別途部材
  6
CONTINUOUS
 10
21.090343
 20
-71.291265
 11
22.090343
 21
-71.291265
  0
LINE
  8
別途部材
  6
CONTINUOUS
 10
17.090343
 20
-71.291265
 11
18.090343
 21
-71.291265
  0
LINE
  8
別途部材
  6
CONTINUOUS
 10
13.090343
 20
-71.291265
 11
14.090343
 21
-71.291265
  0
LINE
  8
別途部材
  6
CONTINUOUS
 10
9.090343
 20
-71.291265
 11
10.090343
 21
-71.291265
  0
LINE
  8
別途部材
  6
CONTINUOUS
 10
5.090343
 20
-71.291265
 11
6.090343
 21
-71.291265
  0
LINE
  8
別途部材
  6
CONTINUOUS
 10
1.090343
 20
-71.291265
 11
2.090343
 21
-71.291265
  0
LINE
  8
別途部材
  6
CONTINUOUS
 10
-2.909657
 20
-71.291265
 11
-1.909657
 21
-71.291265
  0
LINE
  8
別途部材
  6
CONTINUOUS
 10
-6.909657
 20
-71.291265
 11
-5.909657
 21
-71.291265
  0
LINE
  8
別途部材
  6
CONTINUOUS
 10
-10.909657
 20
-71.291265
 11
-9.909657
 21
-71.291265
  0
LINE
  8
別途部材
  6
CONTINUOUS
 10
-14.909657
 20
-71.291265
 11
-13.909657
 21
-71.291265
  0
LINE
  8
別途部材
  6
CONTINUOUS
 10
-17.909657
 20
-71.291265
 11
-18.909657
 21
-71.291265
  0
LINE
  8
別途部材
  6
CONTINUOUS
 10
26.090343
 20
-71.291265
 11
27.090343
 21
-70.291265
  0
LINE
  8
別途部材
  6
CONTINUOUS
 10
28.090343
 20
-70.291265
 11
29.090343
 21
-71.291265
  0
LINE
  8
別途部材
  6
CONTINUOUS
 10
27.090343
 20
-70.291265
 11
28.090343
 21
-70.291265
  0
LINE
  8
別途部材
  6
CONTINUOUS
 10
30.090343
 20
-71.291265
 11
31.090343
 21
-70.291265
  0
LINE
  8
別途部材
  6
CONTINUOUS
 10
32.090343
 20
-70.291265
 11
33.090343
 21
-71.291265
  0
LINE
  8
別途部材
  6
CONTINUOUS
 10
31.090343
 20
-70.291265
 11
32.090343
 21
-70.291265
  0
LINE
  8
別途部材
  6
CONTINUOUS
 10
34.090343
 20
-71.291265
 11
35.090343
 21
-70.291265
  0
LINE
  8
別途部材
  6
CONTINUOUS
 10
36.090343
 20
-70.291265
 11
37.090343
 21
-71.291265
  0
LINE
  8
別途部材
  6
CONTINUOUS
 10
35.090343
 20
-70.291265
 11
36.090343
 21
-70.291265
  0
LINE
  8
別途部材
  6
CONTINUOUS
 10
38.090343
 20
-71.291265
 11
39.090343
 21
-70.291265
  0
LINE
  8
別途部材
  6
CONTINUOUS
 10
40.090343
 20
-70.291265
 11
41.090343
 21
-71.291265
  0
LINE
  8
別途部材
  6
CONTINUOUS
 10
39.090343
 20
-70.291265
 11
40.090343
 21
-70.291265
  0
LINE
  8
別途部材
  6
CONTINUOUS
 10
42.090343
 20
-71.291265
 11
43.090343
 21
-70.291265
  0
LINE
  8
別途部材
  6
CONTINUOUS
 10
44.090343
 20
-70.291265
 11
45.090343
 21
-71.291265
  0
LINE
  8
別途部材
  6
CONTINUOUS
 10
43.090343
 20
-70.291265
 11
44.090343
 21
-70.291265
  0
LINE
  8
別途部材
  6
CONTINUOUS
 10
46.090343
 20
-71.291265
 11
47.090343
 21
-70.291265
  0
LINE
  8
別途部材
  6
CONTINUOUS
 10
48.090343
 20
-70.291265
 11
49.090343
 21
-71.291265
  0
LINE
  8
別途部材
  6
CONTINUOUS
 10
47.090343
 20
-70.291265
 11
48.090343
 21
-70.291265
  0
LINE
  8
別途部材
  6
CONTINUOUS
 10
50.090343
 20
-71.291265
 11
51.090343
 21
-70.291265
  0
LINE
  8
別途部材
  6
CONTINUOUS
 10
52.090343
 20
-70.291265
 11
53.090343
 21
-71.291265
  0
LINE
  8
別途部材
  6
CONTINUOUS
 10
51.090343
 20
-70.291265
 11
52.090343
 21
-70.291265
  0
LINE
  8
別途部材
  6
CONTINUOUS
 10
54.090343
 20
-71.291265
 11
55.090343
 21
-70.291265
  0
LINE
  8
別途部材
  6
CONTINUOUS
 10
56.090343
 20
-70.291265
 11
57.090343
 21
-71.291265
  0
LINE
  8
別途部材
  6
CONTINUOUS
 10
55.090343
 20
-70.291265
 11
56.090343
 21
-70.291265
  0
LINE
  8
別途部材
  6
CONTINUOUS
 10
53.090343
 20
-71.291265
 11
54.090343
 21
-71.291265
  0
LINE
  8
別途部材
  6
CONTINUOUS
 10
49.090343
 20
-71.291265
 11
50.090343
 21
-71.291265
  0
LINE
  8
別途部材
  6
CONTINUOUS
 10
45.090343
 20
-71.291265
 11
46.090343
 21
-71.291265
  0
LINE
  8
別途部材
  6
CONTINUOUS
 10
41.090343
 20
-71.291265
 11
42.090343
 21
-71.291265
  0
LINE
  8
別途部材
  6
CONTINUOUS
 10
37.090343
 20
-71.291265
 11
38.090343
 21
-71.291265
  0
LINE
  8
別途部材
  6
CONTINUOUS
 10
33.090343
 20
-71.291265
 11
34.090343
 21
-71.291265
  0
LINE
  8
別途部材
  6
CONTINUOUS
 10
29.090343
 20
-71.291265
 11
30.090343
 21
-71.291265
  0
LINE
  8
別途部材
  6
CONTINUOUS
 10
25.090343
 20
-71.291265
 11
26.090343
 21
-71.291265
  0
LINE
  8
別途部材
  6
CONTINUOUS
 10
57.090343
 20
-71.291265
 11
57.090343
 21
-79.624597
  0
LINE
  8
別途部材
  6
CONTINUOUS
 10
55.090343
 20
-70.291265
 11
55.090343
 21
-79.624597
  0
LINE
  8
別途部材
  6
CONTINUOUS
 10
56.090343
 20
-70.291265
 11
56.090343
 21
-79.624597
  0
LINE
  8
別途部材
  6
CONTINUOUS
 10
53.090343
 20
-71.291265
 11
53.090343
 21
-79.624597
  0
LINE
  8
別途部材
  6
CONTINUOUS
 10
54.090343
 20
-71.291265
 11
54.090343
 21
-79.624597
  0
LINE
  8
別途部材
  6
CONTINUOUS
 10
52.090343
 20
-70.291265
 11
52.090343
 21
-79.624597
  0
LINE
  8
別途部材
  6
CONTINUOUS
 10
50.090343
 20
-71.291265
 11
50.090343
 21
-79.624597
  0
LINE
  8
別途部材
  6
CONTINUOUS
 10
51.090343
 20
-70.291265
 11
51.090343
 21
-79.624597
  0
LINE
  8
別途部材
  6
CONTINUOUS
 10
49.090343
 20
-71.291265
 11
49.090343
 21
-79.624597
  0
LINE
  8
別途部材
  6
CONTINUOUS
 10
48.090343
 20
-70.291265
 11
48.090343
 21
-79.624597
  0
LINE
  8
別途部材
  6
CONTINUOUS
 10
46.090343
 20
-71.291265
 11
46.090343
 21
-79.624597
  0
LINE
  8
別途部材
  6
CONTINUOUS
 10
47.090343
 20
-70.291265
 11
47.090343
 21
-79.624597
  0
LINE
  8
別途部材
  6
CONTINUOUS
 10
44.090343
 20
-70.291265
 11
44.090343
 21
-79.624597
  0
LINE
  8
別途部材
  6
CONTINUOUS
 10
45.090343
 20
-71.291265
 11
45.090343
 21
-79.624597
  0
LINE
  8
別途部材
  6
CONTINUOUS
 10
42.090343
 20
-71.291265
 11
42.090343
 21
-79.624597
  0
LINE
  8
別途部材
  6
CONTINUOUS
 10
43.090343
 20
-70.291265
 11
43.090343
 21
-79.624597
  0
LINE
  8
別途部材
  6
CONTINUOUS
 10
41.090343
 20
-71.291265
 11
41.090343
 21
-79.624597
  0
LINE
  8
別途部材
  6
CONTINUOUS
 10
39.090343
 20
-70.291265
 11
39.090343
 21
-79.624597
  0
LINE
  8
別途部材
  6
CONTINUOUS
 10
40.090343
 20
-70.291265
 11
40.090343
 21
-79.624597
  0
LINE
  8
別途部材
  6
CONTINUOUS
 10
38.090343
 20
-71.291265
 11
38.090343
 21
-79.624597
  0
LINE
  8
別途部材
  6
CONTINUOUS
 10
37.090343
 20
-71.291265
 11
37.090343
 21
-79.624597
  0
LINE
  8
別途部材
  6
CONTINUOUS
 10
36.090343
 20
-70.291265
 11
36.090343
 21
-79.624597
  0
LINE
  8
別途部材
  6
CONTINUOUS
 10
35.090343
 20
-70.291265
 11
35.090343
 21
-79.624597
  0
LINE
  8
別途部材
  6
CONTINUOUS
 10
31.090343
 20
-70.291265
 11
31.090343
 21
-79.624597
  0
LINE
  8
別途部材
  6
CONTINUOUS
 10
24.090343
 20
-70.291265
 11
24.090343
 21
-79.624597
  0
LINE
  8
別途部材
  6
CONTINUOUS
 10
20.090343
 20
-70.291265
 11
20.090343
 21
-79.624597
  0
LINE
  8
別途部材
  6
CONTINUOUS
 10
18.090343
 20
-71.291265
 11
18.090343
 21
-79.624597
  0
LINE
  8
別途部材
  6
CONTINUOUS
 10
23.090343
 20
-70.291265
 11
23.090343
 21
-79.624597
  0
LINE
  8
別途部材
  6
CONTINUOUS
 10
27.090343
 20
-70.291265
 11
27.090343
 21
-79.624597
  0
LINE
  8
別途部材
  6
CONTINUOUS
 10
29.090343
 20
-71.291265
 11
29.090343
 21
-79.624597
  0
LINE
  8
別途部材
  6
CONTINUOUS
 10
32.090343
 20
-70.291265
 11
32.090343
 21
-79.624597
  0
LINE
  8
別途部材
  6
CONTINUOUS
 10
33.090343
 20
-71.291265
 11
33.090343
 21
-79.624597
  0
LINE
  8
別途部材
  6
CONTINUOUS
 10
34.090343
 20
-71.291265
 11
34.090343
 21
-79.624597
  0
LINE
  8
別途部材
  6
CONTINUOUS
 10
30.090343
 20
-71.291265
 11
30.090343
 21
-79.624597
  0
LINE
  8
別途部材
  6
CONTINUOUS
 10
28.090343
 20
-70.291265
 11
28.090343
 21
-79.624597
  0
LINE
  8
別途部材
  6
CONTINUOUS
 10
26.090343
 20
-71.291265
 11
26.090343
 21
-79.624597
  0
LINE
  8
別途部材
  6
CONTINUOUS
 10
25.090343
 20
-71.291265
 11
25.090343
 21
-79.624597
  0
LINE
  8
別途部材
  6
CONTINUOUS
 10
22.090343
 20
-71.291265
 11
22.090343
 21
-79.624597
  0
LINE
  8
別途部材
  6
CONTINUOUS
 10
21.090343
 20
-71.291265
 11
21.090343
 21
-79.624597
  0
LINE
  8
別途部材
  6
CONTINUOUS
 10
19.090343
 20
-70.291265
 11
19.090343
 21
-79.624597
  0
LINE
  8
別途部材
  6
CONTINUOUS
 10
16.090343
 20
-70.291265
 11
16.090343
 21
-79.624597
  0
LINE
  8
別途部材
  6
CONTINUOUS
 10
17.090343
 20
-71.291265
 11
17.090343
 21
-79.624597
  0
LINE
  8
別途部材
  6
CONTINUOUS
 10
15.090343
 20
-70.291265
 11
15.090343
 21
-79.624597
  0
LINE
  8
別途部材
  6
CONTINUOUS
 10
14.090343
 20
-71.291265
 11
14.090343
 21
-79.624597
  0
LINE
  8
別途部材
  6
CONTINUOUS
 10
13.090343
 20
-71.291265
 11
13.090343
 21
-79.624597
  0
LINE
  8
別途部材
  6
CONTINUOUS
 10
12.090343
 20
-70.291265
 11
12.090343
 21
-79.624597
  0
LINE
  8
別途部材
  6
CONTINUOUS
 10
10.090343
 20
-71.291265
 11
10.090343
 21
-79.624597
  0
LINE
  8
別途部材
  6
CONTINUOUS
 10
11.090343
 20
-70.291265
 11
11.090343
 21
-79.624597
  0
LINE
  8
別途部材
  6
CONTINUOUS
 10
8.090343
 20
-70.291265
 11
8.090343
 21
-79.624597
  0
LINE
  8
別途部材
  6
CONTINUOUS
 10
9.090343
 20
-71.291265
 11
9.090343
 21
-79.624597
  0
LINE
  8
別途部材
  6
CONTINUOUS
 10
5.090343
 20
-71.291265
 11
5.090343
 21
-79.624597
  0
LINE
  8
別途部材
  6
CONTINUOUS
 10
4.090343
 20
-70.291265
 11
4.090343
 21
-79.624597
  0
LINE
  8
別途部材
  6
CONTINUOUS
 10
3.090343
 20
-70.291265
 11
3.090343
 21
-79.624597
  0
LINE
  8
別途部材
  6
CONTINUOUS
 10
6.090343
 20
-71.291265
 11
6.090343
 21
-79.624597
  0
LINE
  8
別途部材
  6
CONTINUOUS
 10
7.090343
 20
-70.291265
 11
7.090343
 21
-79.624597
  0
LINE
  8
別途部材
  6
CONTINUOUS
 10
-0.909657
 20
-70.291265
 11
-0.909657
 21
-79.624597
  0
LINE
  8
別途部材
  6
CONTINUOUS
 10
1.090343
 20
-71.291265
 11
1.090343
 21
-79.624597
  0
LINE
  8
別途部材
  6
CONTINUOUS
 10
2.090343
 20
-71.291265
 11
2.090343
 21
-79.624597
  0
LINE
  8
別途部材
  6
CONTINUOUS
 10
0.090343
 20
-70.291265
 11
0.090343
 21
-79.624597
  0
LINE
  8
別途部材
  6
CONTINUOUS
 10
-1.909657
 20
-71.291265
 11
-1.909657
 21
-79.624597
  0
LINE
  8
別途部材
  6
CONTINUOUS
 10
-3.909657
 20
-70.291265
 11
-3.909657
 21
-79.624597
  0
LINE
  8
別途部材
  6
CONTINUOUS
 10
-4.909657
 20
-70.291265
 11
-4.909657
 21
-79.624597
  0
LINE
  8
別途部材
  6
CONTINUOUS
 10
-6.909657
 20
-71.291265
 11
-6.909657
 21
-79.624597
  0
LINE
  8
別途部材
  6
CONTINUOUS
 10
-5.909657
 20
-71.291265
 11
-5.909657
 21
-79.624597
  0
LINE
  8
別途部材
  6
CONTINUOUS
 10
-2.909657
 20
-71.291265
 11
-2.909657
 21
-79.624597
  0
LINE
  8
別途部材
  6
CONTINUOUS
 10
-7.909657
 20
-70.291265
 11
-7.909657
 21
-79.624597
  0
LINE
  8
別途部材
  6
CONTINUOUS
 10
-9.909657
 20
-71.291265
 11
-9.909657
 21
-79.624597
  0
LINE
  8
別途部材
  6
CONTINUOUS
 10
-8.909657
 20
-70.291265
 11
-8.909657
 21
-79.624597
  0
LINE
  8
別途部材
  6
CONTINUOUS
 10
-10.909657
 20
-71.291265
 11
-10.909657
 21
-79.624597
  0
LINE
  8
別途部材
  6
CONTINUOUS
 10
-11.909657
 20
-70.291265
 11
-11.909657
 21
-79.624597
  0
LINE
  8
別途部材
  6
CONTINUOUS
 10
-13.909657
 20
-71.291265
 11
-13.909657
 21
-79.624597
  0
LINE
  8
別途部材
  6
CONTINUOUS
 10
-12.909657
 20
-70.291265
 11
-12.909657
 21
-79.624597
  0
LINE
  8
別途部材
  6
CONTINUOUS
 10
-14.909657
 20
-71.291265
 11
-14.909657
 21
-79.624597
  0
LINE
  8
別途部材
  6
CONTINUOUS
 10
-15.909657
 20
-70.291265
 11
-15.909657
 21
-79.624597
  0
LINE
  8
別途部材
  6
CONTINUOUS
 10
-17.909657
 20
-71.291265
 11
-17.909657
 21
-79.624597
  0
LINE
  8
別途部材
  6
CONTINUOUS
 10
-16.909657
 20
-70.291265
 11
-16.909657
 21
-79.624597
  0
LINE
  8
別途部材
  6
CONTINUOUS
 10
-18.909657
 20
-71.291265
 11
-18.909657
 21
-79.624597
  0
LINE
  8
別途部材
  6
CONTINUOUS
 10
-19.909657
 20
-70.291265
 11
-19.909657
 21
-79.624597
  0
ARC
  8
別途部材
  6
CONTINUOUS
 10
56.257009
 20
-88.957936
 40
17.666667
 50
31.890796
 51
87.296368
  0
ENDBLK
  0
BLOCK
  2
*GRP_0019
 70
    65
 10
0.0
 20
0.0
  0
LINE
  8
補助線
  6
BYBLOCK
 62
    64
 10
-108.679252
 20
-84.605558
 11
-108.806737
 21
-84.712918
  0
LINE
  8
補助線
  6
BYBLOCK
 62
    64
 10
-108.796675
 20
-84.595493
 11
-108.689315
 21
-84.72298
  0
LINE
  8
補助線
  6
BYBLOCK
 62
    64
 10
-100.188835
 20
-77.455535
 11
-100.31632
 21
-77.56289
  0
LINE
  8
補助線
  6
BYBLOCK
 62
    64
 10
-100.306257
 20
-77.44547
 11
-100.198898
 21
-77.572952
  0
LINE
  8
補助線
  6
BYBLOCK
 62
    64
 10
-91.8259
 20
-70.412865
 11
-91.698417
 21
-70.305508
  0
LINE
  8
補助線
  6
BYBLOCK
 62
    64
 10
-91.81584
 20
-70.295442
 11
-91.70848
 21
-70.42293
  0
LINE
  8
型材断面
  6
CONTINUOUS
 10
-109.53475
 20
-84.236535
 11
-109.595128
 21
-84.94106
  0
LINE
  8
型材断面
  6
CONTINUOUS
 10
-109.595128
 20
-84.94106
 11
-109.165695
 21
-85.450995
  0
LINE
  8
型材断面
  6
CONTINUOUS
 10
-109.165695
 20
-85.450995
 11
-108.46117
 21
-85.511373
  0
LINE
  8
型材断面
  6
CONTINUOUS
 10
-92.043983
 20
-69.507055
 11
-91.339458
 21
-69.567432
  0
LINE
  8
型材断面
  6
CONTINUOUS
 10
-91.339458
 20
-69.567432
 11
-90.910025
 21
-70.077368
  0
LINE
  8
型材断面
  6
CONTINUOUS
 10
-90.910025
 20
-70.077368
 11
-90.970403
 21
-70.781892
  0
LINE
  8
型材断面
  6
CONTINUOUS
 10
-109.53475
 20
-84.236535
 11
-92.043983
 21
-69.507055
  0
LINE
  8
型材断面
  6
CONTINUOUS
 10
-108.46117
 20
-85.511373
 11
-90.970403
 21
-70.781892
  0
CIRCLE
  8
ボルト／ビス
  6
CONTINUOUS
 10
-108.742995
 20
-84.659238
 40
0.250185
  0
CIRCLE
  8
ボルト／ビス
  6
CONTINUOUS
 10
-108.742995
 20
-84.659238
 40
0.301025
  0
LINE
  8
ボルト／ビス
  6
CONTINUOUS
 62
    64
 10
-108.989303
 20
-84.70312
 11
-108.90415
 21
-84.467872
  0
LINE
  8
ボルト／ビス
  6
CONTINUOUS
 62
    64
 10
-108.657842
 20
-84.423988
 11
-108.90415
 21
-84.467872
  0
LINE
  8
ボルト／ビス
  6
CONTINUOUS
 62
    64
 10
-108.828147
 20
-84.894488
 11
-108.58184
 21
-84.850602
  0
LINE
  8
ボルト／ビス
  6
CONTINUOUS
 62
    64
 10
-108.496688
 20
-84.615355
 11
-108.58184
 21
-84.850602
  0
LINE
  8
ボルト／ビス
  6
CONTINUOUS
 62
    64
 10
-108.989303
 20
-84.70312
 11
-108.828147
 21
-84.894488
  0
LINE
  8
ボルト／ビス
  6
CONTINUOUS
 62
    64
 10
-108.657842
 20
-84.423988
 11
-108.496688
 21
-84.615355
  0
CIRCLE
  8
ボルト／ビス
  6
CONTINUOUS
 62
    64
 10
-108.742995
 20
-84.659238
 40
0.216668
  0
CIRCLE
  8
ボルト／ビス
  6
CONTINUOUS
 10
-100.252578
 20
-77.509213
 40
0.250185
  0
CIRCLE
  8
ボルト／ビス
  6
CONTINUOUS
 10
-100.252578
 20
-77.509213
 40
0.301025
  0
LINE
  8
ボルト／ビス
  6
CONTINUOUS
 62
    64
 10
-100.498885
 20
-77.553095
 11
-100.413732
 21
-77.317845
  0
LINE
  8
ボルト／ビス
  6
CONTINUOUS
 62
    64
 10
-100.167425
 20
-77.273963
 11
-100.413732
 21
-77.317845
  0
LINE
  8
ボルト／ビス
  6
CONTINUOUS
 62
    64
 10
-100.33773
 20
-77.744463
 11
-100.09142
 21
-77.70058
  0
LINE
  8
ボルト／ビス
  6
CONTINUOUS
 62
    64
 10
-100.00627
 20
-77.465333
 11
-100.09142
 21
-77.70058
  0
LINE
  8
ボルト／ビス
  6
CONTINUOUS
 62
    64
 10
-100.498885
 20
-77.553095
 11
-100.33773
 21
-77.744463
  0
LINE
  8
ボルト／ビス
  6
CONTINUOUS
 62
    64
 10
-100.167425
 20
-77.273963
 11
-100.00627
 21
-77.465333
  0
CIRCLE
  8
ボルト／ビス
  6
CONTINUOUS
 62
    64
 10
-100.252578
 20
-77.509213
 40
0.216668
  0
CIRCLE
  8
ボルト／ビス
  6
CONTINUOUS
 10
-91.762158
 20
-70.359188
 40
0.250185
  0
CIRCLE
  8
ボルト／ビス
  6
CONTINUOUS
 10
-91.762158
 20
-70.359188
 40
0.301025
  0
LINE
  8
ボルト／ビス
  6
CONTINUOUS
 62
    64
 10
-91.677005
 20
-70.123938
 11
-91.923315
 21
-70.167822
  0
LINE
  8
ボルト／ビス
  6
CONTINUOUS
 62
    64
 10
-92.008468
 20
-70.40307
 11
-91.923315
 21
-70.167822
  0
LINE
  8
ボルト／ビス
  6
CONTINUOUS
 62
    64
 10
-91.515852
 20
-70.315305
 11
-91.601002
 21
-70.550552
  0
LINE
  8
ボルト／ビス
  6
CONTINUOUS
 62
    64
 10
-91.847313
 20
-70.594437
 11
-91.601002
 21
-70.550552
  0
LINE
  8
ボルト／ビス
  6
CONTINUOUS
 62
    64
 10
-91.677005
 20
-70.123938
 11
-91.515852
 21
-70.315305
  0
LINE
  8
ボルト／ビス
  6
CONTINUOUS
 62
    64
 10
-92.008468
 20
-70.40307
 11
-91.847313
 21
-70.594437
  0
CIRCLE
  8
ボルト／ビス
  6
CONTINUOUS
 62
    64
 10
-91.762158
 20
-70.359188
 40
0.216668
  0
ENDBLK
  0
BLOCK
  2
*GRP_0020
 70
    65
 10
0.0
 20
0.0
  0
LINE
  8
補助線
  6
BYBLOCK
 62
    64
 10
-91.825903
 20
-84.605558
 11
-91.698417
 21
-84.712918
  0
LINE
  8
補助線
  6
BYBLOCK
 62
    64
 10
-91.70848
 20
-84.595493
 11
-91.81584
 21
-84.72298
  0
LINE
  8
補助線
  6
BYBLOCK
 62
    64
 10
-100.31632
 20
-77.455535
 11
-100.188835
 21
-77.56289
  0
LINE
  8
補助線
  6
BYBLOCK
 62
    64
 10
-100.198898
 20
-77.44547
 11
-100.306257
 21
-77.572952
  0
LINE
  8
補助線
  6
BYBLOCK
 62
    64
 10
-108.679255
 20
-70.412865
 11
-108.806737
 21
-70.305508
  0
LINE
  8
補助線
  6
BYBLOCK
 62
    64
 10
-108.689315
 20
-70.295442
 11
-108.796675
 21
-70.42293
  0
LINE
  8
型材断面
  6
CONTINUOUS
 10
-90.970405
 20
-84.236535
 11
-90.910027
 21
-84.94106
  0
LINE
  8
型材断面
  6
CONTINUOUS
 10
-90.910027
 20
-84.94106
 11
-91.33946
 21
-85.450995
  0
LINE
  8
型材断面
  6
CONTINUOUS
 10
-91.33946
 20
-85.450995
 11
-92.043985
 21
-85.511373
  0
LINE
  8
型材断面
  6
CONTINUOUS
 10
-108.461172
 20
-69.507055
 11
-109.165697
 21
-69.567432
  0
LINE
  8
型材断面
  6
CONTINUOUS
 10
-109.165697
 20
-69.567432
 11
-109.59513
 21
-70.077368
  0
LINE
  8
型材断面
  6
CONTINUOUS
 10
-109.59513
 20
-70.077368
 11
-109.534753
 21
-70.781892
  0
LINE
  8
型材断面
  6
CONTINUOUS
 10
-90.970405
 20
-84.236535
 11
-108.461172
 21
-69.507055
  0
LINE
  8
型材断面
  6
CONTINUOUS
 10
-92.043985
 20
-85.511373
 11
-109.534753
 21
-70.781892
  0
CIRCLE
  8
ボルト／ビス
  6
CONTINUOUS
 10
-91.76216
 20
-84.659238
 40
0.250185
  0
CIRCLE
  8
ボルト／ビス
  6
CONTINUOUS
 10
-91.76216
 20
-84.659238
 40
0.301025
  0
LINE
  8
ボルト／ビス
  6
CONTINUOUS
 62
    64
 10
-91.515852
 20
-84.70312
 11
-91.601005
 21
-84.467872
  0
LINE
  8
ボルト／ビス
  6
CONTINUOUS
 62
    64
 10
-91.847313
 20
-84.423988
 11
-91.601005
 21
-84.467872
  0
LINE
  8
ボルト／ビス
  6
CONTINUOUS
 62
    64
 10
-91.677008
 20
-84.894488
 11
-91.923315
 21
-84.850602
  0
LINE
  8
ボルト／ビス
  6
CONTINUOUS
 62
    64
 10
-92.008468
 20
-84.615355
 11
-91.923315
 21
-84.850602
  0
LINE
  8
ボルト／ビス
  6
CONTINUOUS
 62
    64
 10
-91.515852
 20
-84.70312
 11
-91.677008
 21
-84.894488
  0
LINE
  8
ボルト／ビス
  6
CONTINUOUS
 62
    64
 10
-91.847313
 20
-84.423988
 11
-92.008468
 21
-84.615355
  0
CIRCLE
  8
ボルト／ビス
  6
CONTINUOUS
 62
    64
 10
-91.76216
 20
-84.659238
 40
0.216668
  0
CIRCLE
  8
ボルト／ビス
  6
CONTINUOUS
 10
-100.252578
 20
-77.509213
 40
0.250185
  0
CIRCLE
  8
ボルト／ビス
  6
CONTINUOUS
 10
-100.252578
 20
-77.509213
 40
0.301025
  0
LINE
  8
ボルト／ビス
  6
CONTINUOUS
 62
    64
 10
-100.00627
 20
-77.553095
 11
-100.091423
 21
-77.317845
  0
LINE
  8
ボルト／ビス
  6
CONTINUOUS
 62
    64
 10
-100.33773
 20
-77.273963
 11
-100.091423
 21
-77.317845
  0
LINE
  8
ボルト／ビス
  6
CONTINUOUS
 62
    64
 10
-100.167425
 20
-77.744463
 11
-100.413735
 21
-77.70058
  0
LINE
  8
ボルト／ビス
  6
CONTINUOUS
 62
    64
 10
-100.498885
 20
-77.465333
 11
-100.413735
 21
-77.70058
  0
LINE
  8
ボルト／ビス
  6
CONTINUOUS
 62
    64
 10
-100.00627
 20
-77.553095
 11
-100.167425
 21
-77.744463
  0
LINE
  8
ボルト／ビス
  6
CONTINUOUS
 62
    64
 10
-100.33773
 20
-77.273963
 11
-100.498885
 21
-77.465333
  0
CIRCLE
  8
ボルト／ビス
  6
CONTINUOUS
 62
    64
 10
-100.252578
 20
-77.509213
 40
0.216668
  0
CIRCLE
  8
ボルト／ビス
  6
CONTINUOUS
 10
-108.742998
 20
-70.359188
 40
0.250185
  0
CIRCLE
  8
ボルト／ビス
  6
CONTINUOUS
 10
-108.742998
 20
-70.359188
 40
0.301025
  0
LINE
  8
ボルト／ビス
  6
CONTINUOUS
 62
    64
 10
-108.82815
 20
-70.123938
 11
-108.58184
 21
-70.167822
  0
LINE
  8
ボルト／ビス
  6
CONTINUOUS
 62
    64
 10
-108.496688
 20
-70.40307
 11
-108.58184
 21
-70.167822
  0
LINE
  8
ボルト／ビス
  6
CONTINUOUS
 62
    64
 10
-108.989303
 20
-70.315305
 11
-108.904152
 21
-70.550552
  0
LINE
  8
ボルト／ビス
  6
CONTINUOUS
 62
    64
 10
-108.657842
 20
-70.594437
 11
-108.904152
 21
-70.550552
  0
LINE
  8
ボルト／ビス
  6
CONTINUOUS
 62
    64
 10
-108.82815
 20
-70.123938
 11
-108.989303
 21
-70.315305
  0
LINE
  8
ボルト／ビス
  6
CONTINUOUS
 62
    64
 10
-108.496688
 20
-70.40307
 11
-108.657842
 21
-70.594437
  0
CIRCLE
  8
ボルト／ビス
  6
CONTINUOUS
 62
    64
 10
-108.742998
 20
-70.359188
 40
0.216668
  0
ENDBLK
  0
BLOCK
  2
*GRP_0021
 70
    65
 10
0.0
 20
0.0
  0
LINE
  8
補助線
  6
BYBLOCK
 62
    64
 10
67.859932
 20
-84.605558
 11
67.987418
 21
-84.712918
  0
LINE
  8
補助線
  6
BYBLOCK
 62
    64
 10
67.977355
 20
-84.595493
 11
67.869995
 21
-84.72298
  0
LINE
  8
補助線
  6
BYBLOCK
 62
    64
 10
59.369515
 20
-77.455535
 11
59.497
 21
-77.56289
  0
LINE
  8
補助線
  6
BYBLOCK
 62
    64
 10
59.486938
 20
-77.44547
 11
59.379578
 21
-77.572952
  0
LINE
  8
補助線
  6
BYBLOCK
 62
    64
 10
51.00658
 20
-70.412865
 11
50.879097
 21
-70.305508
  0
LINE
  8
補助線
  6
BYBLOCK
 62
    64
 10
50.99652
 20
-70.295442
 11
50.88916
 21
-70.42293
  0
LINE
  8
型材断面
  6
CONTINUOUS
 10
68.71543
 20
-84.236535
 11
68.775807
 21
-84.94106
  0
LINE
  8
型材断面
  6
CONTINUOUS
 10
68.775807
 20
-84.94106
 11
68.346375
 21
-85.450995
  0
LINE
  8
型材断面
  6
CONTINUOUS
 10
68.346375
 20
-85.450995
 11
67.64185
 21
-85.511373
  0
LINE
  8
型材断面
  6
CONTINUOUS
 10
51.224662
 20
-69.507055
 11
50.520138
 21
-69.567432
  0
LINE
  8
型材断面
  6
CONTINUOUS
 10
50.520138
 20
-69.567432
 11
50.090705
 21
-70.077368
  0
LINE
  8
型材断面
  6
CONTINUOUS
 10
50.090705
 20
-70.077368
 11
50.151082
 21
-70.781892
  0
LINE
  8
型材断面
  6
CONTINUOUS
 10
68.71543
 20
-84.236535
 11
51.224662
 21
-69.507055
  0
LINE
  8
型材断面
  6
CONTINUOUS
 10
67.64185
 20
-85.511373
 11
50.151082
 21
-70.781892
  0
CIRCLE
  8
ボルト／ビス
  6
CONTINUOUS
 10
67.923675
 20
-84.659238
 40
0.250185
  0
CIRCLE
  8
ボルト／ビス
  6
CONTINUOUS
 10
67.923675
 20
-84.659238
 40
0.301025
  0
LINE
  8
ボルト／ビス
  6
CONTINUOUS
 62
    64
 10
68.169982
 20
-84.70312
 11
68.08483
 21
-84.467872
  0
LINE
  8
ボルト／ビス
  6
CONTINUOUS
 62
    64
 10
67.838522
 20
-84.423988
 11
68.08483
 21
-84.467872
  0
LINE
  8
ボルト／ビス
  6
CONTINUOUS
 62
    64
 10
68.008828
 20
-84.894488
 11
67.76252
 21
-84.850602
  0
LINE
  8
ボルト／ビス
  6
CONTINUOUS
 62
    64
 10
67.677368
 20
-84.615355
 11
67.76252
 21
-84.850602
  0
LINE
  8
ボルト／ビス
  6
CONTINUOUS
 62
    64
 10
68.169982
 20
-84.70312
 11
68.008828
 21
-84.894488
  0
LINE
  8
ボルト／ビス
  6
CONTINUOUS
 62
    64
 10
67.838522
 20
-84.423988
 11
67.677368
 21
-84.615355
  0
CIRCLE
  8
ボルト／ビス
  6
CONTINUOUS
 62
    64
 10
67.923675
 20
-84.659238
 40
0.216668
  0
CIRCLE
  8
ボルト／ビス
  6
CONTINUOUS
 10
59.433258
 20
-77.509213
 40
0.250185
  0
CIRCLE
  8
ボルト／ビス
  6
CONTINUOUS
 10
59.433258
 20
-77.509213
 40
0.301025
  0
LINE
  8
ボルト／ビス
  6
CONTINUOUS
 62
    64
 10
59.679565
 20
-77.553095
 11
59.594412
 21
-77.317845
  0
LINE
  8
ボルト／ビス
  6
CONTINUOUS
 62
    64
 10
59.348105
 20
-77.273963
 11
59.594412
 21
-77.317845
  0
LINE
  8
ボルト／ビス
  6
CONTINUOUS
 62
    64
 10
59.51841
 20
-77.744463
 11
59.2721
 21
-77.70058
  0
LINE
  8
ボルト／ビス
  6
CONTINUOUS
 62
    64
 10
59.18695
 20
-77.465333
 11
59.2721
 21
-77.70058
  0
LINE
  8
ボルト／ビス
  6
CONTINUOUS
 62
    64
 10
59.679565
 20
-77.553095
 11
59.51841
 21
-77.744463
  0
LINE
  8
ボルト／ビス
  6
CONTINUOUS
 62
    64
 10
59.348105
 20
-77.273963
 11
59.18695
 21
-77.465333
  0
CIRCLE
  8
ボルト／ビス
  6
CONTINUOUS
 62
    64
 10
59.433258
 20
-77.509213
 40
0.216668
  0
CIRCLE
  8
ボルト／ビス
  6
CONTINUOUS
 10
50.942837
 20
-70.359188
 40
0.250185
  0
CIRCLE
  8
ボルト／ビス
  6
CONTINUOUS
 10
50.942837
 20
-70.359188
 40
0.301025
  0
LINE
  8
ボルト／ビス
  6
CONTINUOUS
 62
    64
 10
50.857685
 20
-70.123938
 11
51.103995
 21
-70.167822
  0
LINE
  8
ボルト／ビス
  6
CONTINUOUS
 62
    64
 10
51.189148
 20
-70.40307
 11
51.103995
 21
-70.167822
  0
LINE
  8
ボルト／ビス
  6
CONTINUOUS
 62
    64
 10
50.696532
 20
-70.315305
 11
50.781682
 21
-70.550552
  0
LINE
  8
ボルト／ビス
  6
CONTINUOUS
 62
    64
 10
51.027993
 20
-70.594437
 11
50.781682
 21
-70.550552
  0
LINE
  8
ボルト／ビス
  6
CONTINUOUS
 62
    64
 10
50.857685
 20
-70.123938
 11
50.696532
 21
-70.315305
  0
LINE
  8
ボルト／ビス
  6
CONTINUOUS
 62
    64
 10
51.189148
 20
-70.40307
 11
51.027993
 21
-70.594437
  0
CIRCLE
  8
ボルト／ビス
  6
CONTINUOUS
 62
    64
 10
50.942837
 20
-70.359188
 40
0.216668
  0
ENDBLK
  0
BLOCK
  2
*GRP_0022
 70
    65
 10
0.0
 20
0.0
  0
LINE
  8
補助線
  6
BYBLOCK
 62
    64
 10
51.006582
 20
-84.605558
 11
50.879097
 21
-84.712918
  0
LINE
  8
補助線
  6
BYBLOCK
 62
    64
 10
50.88916
 20
-84.595493
 11
50.99652
 21
-84.72298
  0
LINE
  8
補助線
  6
BYBLOCK
 62
    64
 10
59.497
 20
-77.455535
 11
59.369515
 21
-77.56289
  0
LINE
  8
補助線
  6
BYBLOCK
 62
    64
 10
59.379578
 20
-77.44547
 11
59.486938
 21
-77.572952
  0
LINE
  8
補助線
  6
BYBLOCK
 62
    64
 10
67.859935
 20
-70.412865
 11
67.987418
 21
-70.305508
  0
LINE
  8
補助線
  6
BYBLOCK
 62
    64
 10
67.869995
 20
-70.295442
 11
67.977355
 21
-70.42293
  0
LINE
  8
型材断面
  6
CONTINUOUS
 10
50.151085
 20
-84.236535
 11
50.090707
 21
-84.94106
  0
LINE
  8
型材断面
  6
CONTINUOUS
 10
50.090707
 20
-84.94106
 11
50.52014
 21
-85.450995
  0
LINE
  8
型材断面
  6
CONTINUOUS
 10
50.52014
 20
-85.450995
 11
51.224665
 21
-85.511373
  0
LINE
  8
型材断面
  6
CONTINUOUS
 10
67.641852
 20
-69.507055
 11
68.346378
 21
-69.567432
  0
LINE
  8
型材断面
  6
CONTINUOUS
 10
68.346378
 20
-69.567432
 11
68.77581
 21
-70.077368
  0
LINE
  8
型材断面
  6
CONTINUOUS
 10
68.77581
 20
-70.077368
 11
68.715432
 21
-70.781892
  0
LINE
  8
型材断面
  6
CONTINUOUS
 10
50.151085
 20
-84.236535
 11
67.641852
 21
-69.507055
  0
LINE
  8
型材断面
  6
CONTINUOUS
 10
51.224665
 20
-85.511373
 11
68.715432
 21
-70.781892
  0
CIRCLE
  8
ボルト／ビス
  6
CONTINUOUS
 10
50.94284
 20
-84.659238
 40
0.250185
  0
CIRCLE
  8
ボルト／ビス
  6
CONTINUOUS
 10
50.94284
 20
-84.659238
 40
0.301025
  0
LINE
  8
ボルト／ビス
  6
CONTINUOUS
 62
    64
 10
50.696532
 20
-84.70312
 11
50.781685
 21
-84.467872
  0
LINE
  8
ボルト／ビス
  6
CONTINUOUS
 62
    64
 10
51.027993
 20
-84.423988
 11
50.781685
 21
-84.467872
  0
LINE
  8
ボルト／ビス
  6
CONTINUOUS
 62
    64
 10
50.857688
 20
-84.894488
 11
51.103995
 21
-84.850602
  0
LINE
  8
ボルト／ビス
  6
CONTINUOUS
 62
    64
 10
51.189148
 20
-84.615355
 11
51.103995
 21
-84.850602
  0
LINE
  8
ボルト／ビス
  6
CONTINUOUS
 62
    64
 10
50.696532
 20
-84.70312
 11
50.857688
 21
-84.894488
  0
LINE
  8
ボルト／ビス
  6
CONTINUOUS
 62
    64
 10
51.027993
 20
-84.423988
 11
51.189148
 21
-84.615355
  0
CIRCLE
  8
ボルト／ビス
  6
CONTINUOUS
 62
    64
 10
50.94284
 20
-84.659238
 40
0.216668
  0
CIRCLE
  8
ボルト／ビス
  6
CONTINUOUS
 10
59.433258
 20
-77.509213
 40
0.250185
  0
CIRCLE
  8
ボルト／ビス
  6
CONTINUOUS
 10
59.433258
 20
-77.509213
 40
0.301025
  0
LINE
  8
ボルト／ビス
  6
CONTINUOUS
 62
    64
 10
59.18695
 20
-77.553095
 11
59.272103
 21
-77.317845
  0
LINE
  8
ボルト／ビス
  6
CONTINUOUS
 62
    64
 10
59.51841
 20
-77.273963
 11
59.272103
 21
-77.317845
  0
LINE
  8
ボルト／ビス
  6
CONTINUOUS
 62
    64
 10
59.348105
 20
-77.744463
 11
59.594415
 21
-77.70058
  0
LINE
  8
ボルト／ビス
  6
CONTINUOUS
 62
    64
 10
59.679565
 20
-77.465333
 11
59.594415
 21
-77.70058
  0
LINE
  8
ボルト／ビス
  6
CONTINUOUS
 62
    64
 10
59.18695
 20
-77.553095
 11
59.348105
 21
-77.744463
  0
LINE
  8
ボルト／ビス
  6
CONTINUOUS
 62
    64
 10
59.51841
 20
-77.273963
 11
59.679565
 21
-77.465333
  0
CIRCLE
  8
ボルト／ビス
  6
CONTINUOUS
 62
    64
 10
59.433258
 20
-77.509213
 40
0.216668
  0
CIRCLE
  8
ボルト／ビス
  6
CONTINUOUS
 10
67.923677
 20
-70.359188
 40
0.250185
  0
CIRCLE
  8
ボルト／ビス
  6
CONTINUOUS
 10
67.923677
 20
-70.359188
 40
0.301025
  0
LINE
  8
ボルト／ビス
  6
CONTINUOUS
 62
    64
 10
68.00883
 20
-70.123938
 11
67.76252
 21
-70.167822
  0
LINE
  8
ボルト／ビス
  6
CONTINUOUS
 62
    64
 10
67.677368
 20
-70.40307
 11
67.76252
 21
-70.167822
  0
LINE
  8
ボルト／ビス
  6
CONTINUOUS
 62
    64
 10
68.169982
 20
-70.315305
 11
68.084833
 21
-70.550552
  0
LINE
  8
ボルト／ビス
  6
CONTINUOUS
 62
    64
 10
67.838522
 20
-70.594437
 11
68.084833
 21
-70.550552
  0
LINE
  8
ボルト／ビス
  6
CONTINUOUS
 62
    64
 10
68.00883
 20
-70.123938
 11
68.169982
 21
-70.315305
  0
LINE
  8
ボルト／ビス
  6
CONTINUOUS
 62
    64
 10
67.677368
 20
-70.40307
 11
67.838522
 21
-70.594437
  0
CIRCLE
  8
ボルト／ビス
  6
CONTINUOUS
 62
    64
 10
67.923677
 20
-70.359188
 40
0.216668
  0
ENDBLK
  0
BLOCK
  2
*GRP_0023
 70
    65
 10
0.0
 20
0.0
  0
LINE
  8
補助線
  6
BYBLOCK
 62
    64
 10
-11.982985
 20
-84.605558
 11
-11.8555
 21
-84.712918
  0
LINE
  8
補助線
  6
BYBLOCK
 62
    64
 10
-11.865563
 20
-84.595493
 11
-11.972923
 21
-84.72298
  0
LINE
  8
補助線
  6
BYBLOCK
 62
    64
 10
-20.473402
 20
-77.455535
 11
-20.345917
 21
-77.56289
  0
LINE
  8
補助線
  6
BYBLOCK
 62
    64
 10
-20.35598
 20
-77.44547
 11
-20.46334
 21
-77.572952
  0
LINE
  8
補助線
  6
BYBLOCK
 62
    64
 10
-28.836337
 20
-70.412865
 11
-28.96382
 21
-70.305508
  0
LINE
  8
補助線
  6
BYBLOCK
 62
    64
 10
-28.846397
 20
-70.295442
 11
-28.953758
 21
-70.42293
  0
LINE
  8
型材断面
  6
CONTINUOUS
 10
-11.127488
 20
-84.236535
 11
-11.06711
 21
-84.94106
  0
LINE
  8
型材断面
  6
CONTINUOUS
 10
-11.06711
 20
-84.94106
 11
-11.496543
 21
-85.450995
  0
LINE
  8
型材断面
  6
CONTINUOUS
 10
-11.496543
 20
-85.450995
 11
-12.201068
 21
-85.511373
  0
LINE
  8
型材断面
  6
CONTINUOUS
 10
-28.618255
 20
-69.507055
 11
-29.32278
 21
-69.567432
  0
LINE
  8
型材断面
  6
CONTINUOUS
 10
-29.32278
 20
-69.567432
 11
-29.752213
 21
-70.077368
  0
LINE
  8
型材断面
  6
CONTINUOUS
 10
-29.752213
 20
-70.077368
 11
-29.691835
 21
-70.781892
  0
LINE
  8
型材断面
  6
CONTINUOUS
 10
-11.127488
 20
-84.236535
 11
-28.618255
 21
-69.507055
  0
LINE
  8
型材断面
  6
CONTINUOUS
 10
-12.201068
 20
-85.511373
 11
-29.691835
 21
-70.781892
  0
CIRCLE
  8
ボルト／ビス
  6
CONTINUOUS
 10
-11.919243
 20
-84.659238
 40
0.250185
  0
CIRCLE
  8
ボルト／ビス
  6
CONTINUOUS
 10
-11.919243
 20
-84.659238
 40
0.301025
  0
LINE
  8
ボルト／ビス
  6
CONTINUOUS
 62
    64
 10
-11.672935
 20
-84.70312
 11
-11.758087
 21
-84.467872
  0
LINE
  8
ボルト／ビス
  6
CONTINUOUS
 62
    64
 10
-12.004395
 20
-84.423988
 11
-11.758087
 21
-84.467872
  0
LINE
  8
ボルト／ビス
  6
CONTINUOUS
 62
    64
 10
-11.83409
 20
-84.894488
 11
-12.080397
 21
-84.850602
  0
LINE
  8
ボルト／ビス
  6
CONTINUOUS
 62
    64
 10
-12.16555
 20
-84.615355
 11
-12.080397
 21
-84.850602
  0
LINE
  8
ボルト／ビス
  6
CONTINUOUS
 62
    64
 10
-11.672935
 20
-84.70312
 11
-11.83409
 21
-84.894488
  0
LINE
  8
ボルト／ビス
  6
CONTINUOUS
 62
    64
 10
-12.004395
 20
-84.423988
 11
-12.16555
 21
-84.615355
  0
CIRCLE
  8
ボルト／ビス
  6
CONTINUOUS
 62
    64
 10
-11.919243
 20
-84.659238
 40
0.216668
  0
CIRCLE
  8
ボルト／ビス
  6
CONTINUOUS
 10
-20.40966
 20
-77.509213
 40
0.250185
  0
CIRCLE
  8
ボルト／ビス
  6
CONTINUOUS
 10
-20.40966
 20
-77.509213
 40
0.301025
  0
LINE
  8
ボルト／ビス
  6
CONTINUOUS
 62
    64
 10
-20.163353
 20
-77.553095
 11
-20.248505
 21
-77.317845
  0
LINE
  8
ボルト／ビス
  6
CONTINUOUS
 62
    64
 10
-20.494812
 20
-77.273963
 11
-20.248505
 21
-77.317845
  0
LINE
  8
ボルト／ビス
  6
CONTINUOUS
 62
    64
 10
-20.324507
 20
-77.744463
 11
-20.570817
 21
-77.70058
  0
LINE
  8
ボルト／ビス
  6
CONTINUOUS
 62
    64
 10
-20.655968
 20
-77.465333
 11
-20.570817
 21
-77.70058
  0
LINE
  8
ボルト／ビス
  6
CONTINUOUS
 62
    64
 10
-20.163353
 20
-77.553095
 11
-20.324507
 21
-77.744463
  0
LINE
  8
ボルト／ビス
  6
CONTINUOUS
 62
    64
 10
-20.494812
 20
-77.273963
 11
-20.655968
 21
-77.465333
  0
CIRCLE
  8
ボルト／ビス
  6
CONTINUOUS
 62
    64
 10
-20.40966
 20
-77.509213
 40
0.216668
  0
CIRCLE
  8
ボルト／ビス
  6
CONTINUOUS
 10
-28.90008
 20
-70.359188
 40
0.250185
  0
CIRCLE
  8
ボルト／ビス
  6
CONTINUOUS
 10
-28.90008
 20
-70.359188
 40
0.301025
  0
LINE
  8
ボルト／ビス
  6
CONTINUOUS
 62
    64
 10
-28.985232
 20
-70.123938
 11
-28.738922
 21
-70.167822
  0
LINE
  8
ボルト／ビス
  6
CONTINUOUS
 62
    64
 10
-28.65377
 20
-70.40307
 11
-28.738922
 21
-70.167822
  0
LINE
  8
ボルト／ビス
  6
CONTINUOUS
 62
    64
 10
-29.146385
 20
-70.315305
 11
-29.061235
 21
-70.550552
  0
LINE
  8
ボルト／ビス
  6
CONTINUOUS
 62
    64
 10
-28.814925
 20
-70.594437
 11
-29.061235
 21
-70.550552
  0
LINE
  8
ボルト／ビス
  6
CONTINUOUS
 62
    64
 10
-28.985232
 20
-70.123938
 11
-29.146385
 21
-70.315305
  0
LINE
  8
ボルト／ビス
  6
CONTINUOUS
 62
    64
 10
-28.65377
 20
-70.40307
 11
-28.814925
 21
-70.594437
  0
CIRCLE
  8
ボルト／ビス
  6
CONTINUOUS
 62
    64
 10
-28.90008
 20
-70.359188
 40
0.216668
  0
ENDBLK
  0
BLOCK
  2
*GRP_0024
 70
    65
 10
0.0
 20
0.0
  0
LINE
  8
補助線
  6
BYBLOCK
 62
    64
 10
-28.836335
 20
-84.605558
 11
-28.96382
 21
-84.712918
  0
LINE
  8
補助線
  6
BYBLOCK
 62
    64
 10
-28.953758
 20
-84.595493
 11
-28.846397
 21
-84.72298
  0
LINE
  8
補助線
  6
BYBLOCK
 62
    64
 10
-20.345917
 20
-77.455535
 11
-20.473402
 21
-77.56289
  0
LINE
  8
補助線
  6
BYBLOCK
 62
    64
 10
-20.46334
 20
-77.44547
 11
-20.35598
 21
-77.572952
  0
LINE
  8
補助線
  6
BYBLOCK
 62
    64
 10
-11.982982
 20
-70.412865
 11
-11.8555
 21
-70.305508
  0
LINE
  8
補助線
  6
BYBLOCK
 62
    64
 10
-11.972923
 20
-70.295442
 11
-11.865563
 21
-70.42293
  0
LINE
  8
型材断面
  6
CONTINUOUS
 10
-29.691832
 20
-84.236535
 11
-29.75221
 21
-84.94106
  0
LINE
  8
型材断面
  6
CONTINUOUS
 10
-29.75221
 20
-84.94106
 11
-29.322778
 21
-85.450995
  0
LINE
  8
型材断面
  6
CONTINUOUS
 10
-29.322778
 20
-85.450995
 11
-28.618253
 21
-85.511373
  0
LINE
  8
型材断面
  6
CONTINUOUS
 10
-12.201065
 20
-69.507055
 11
-11.49654
 21
-69.567432
  0
LINE
  8
型材断面
  6
CONTINUOUS
 10
-11.49654
 20
-69.567432
 11
-11.067108
 21
-70.077368
  0
LINE
  8
型材断面
  6
CONTINUOUS
 10
-11.067108
 20
-70.077368
 11
-11.127485
 21
-70.781892
  0
LINE
  8
型材断面
  6
CONTINUOUS
 10
-29.691832
 20
-84.236535
 11
-12.201065
 21
-69.507055
  0
LINE
  8
型材断面
  6
CONTINUOUS
 10
-28.618253
 20
-85.511373
 11
-11.127485
 21
-70.781892
  0
CIRCLE
  8
ボルト／ビス
  6
CONTINUOUS
 10
-28.900078
 20
-84.659238
 40
0.250185
  0
CIRCLE
  8
ボルト／ビス
  6
CONTINUOUS
 10
-28.900078
 20
-84.659238
 40
0.301025
  0
LINE
  8
ボルト／ビス
  6
CONTINUOUS
 62
    64
 10
-29.146385
 20
-84.70312
 11
-29.061233
 21
-84.467872
  0
LINE
  8
ボルト／ビス
  6
CONTINUOUS
 62
    64
 10
-28.814925
 20
-84.423988
 11
-29.061233
 21
-84.467872
  0
LINE
  8
ボルト／ビス
  6
CONTINUOUS
 62
    64
 10
-28.98523
 20
-84.894488
 11
-28.738922
 21
-84.850602
  0
LINE
  8
ボルト／ビス
  6
CONTINUOUS
 62
    64
 10
-28.65377
 20
-84.615355
 11
-28.738922
 21
-84.850602
  0
LINE
  8
ボルト／ビス
  6
CONTINUOUS
 62
    64
 10
-29.146385
 20
-84.70312
 11
-28.98523
 21
-84.894488
  0
LINE
  8
ボルト／ビス
  6
CONTINUOUS
 62
    64
 10
-28.814925
 20
-84.423988
 11
-28.65377
 21
-84.615355
  0
CIRCLE
  8
ボルト／ビス
  6
CONTINUOUS
 62
    64
 10
-28.900078
 20
-84.659238
 40
0.216668
  0
CIRCLE
  8
ボルト／ビス
  6
CONTINUOUS
 10
-20.40966
 20
-77.509213
 40
0.250185
  0
CIRCLE
  8
ボルト／ビス
  6
CONTINUOUS
 10
-20.40966
 20
-77.509213
 40
0.301025
  0
LINE
  8
ボルト／ビス
  6
CONTINUOUS
 62
    64
 10
-20.655968
 20
-77.553095
 11
-20.570815
 21
-77.317845
  0
LINE
  8
ボルト／ビス
  6
CONTINUOUS
 62
    64
 10
-20.324507
 20
-77.273963
 11
-20.570815
 21
-77.317845
  0
LINE
  8
ボルト／ビス
  6
CONTINUOUS
 62
    64
 10
-20.494812
 20
-77.744463
 11
-20.248502
 21
-77.70058
  0
LINE
  8
ボルト／ビス
  6
CONTINUOUS
 62
    64
 10
-20.163353
 20
-77.465333
 11
-20.248502
 21
-77.70058
  0
LINE
  8
ボルト／ビス
  6
CONTINUOUS
 62
    64
 10
-20.655968
 20
-77.553095
 11
-20.494812
 21
-77.744463
  0
LINE
  8
ボルト／ビス
  6
CONTINUOUS
 62
    64
 10
-20.324507
 20
-77.273963
 11
-20.163353
 21
-77.465333
  0
CIRCLE
  8
ボルト／ビス
  6
CONTINUOUS
 62
    64
 10
-20.40966
 20
-77.509213
 40
0.216668
  0
CIRCLE
  8
ボルト／ビス
  6
CONTINUOUS
 10
-11.91924
 20
-70.359188
 40
0.250185
  0
CIRCLE
  8
ボルト／ビス
  6
CONTINUOUS
 10
-11.91924
 20
-70.359188
 40
0.301025
  0
LINE
  8
ボルト／ビス
  6
CONTINUOUS
 62
    64
 10
-11.834087
 20
-70.123938
 11
-12.080397
 21
-70.167822
  0
LINE
  8
ボルト／ビス
  6
CONTINUOUS
 62
    64
 10
-12.16555
 20
-70.40307
 11
-12.080397
 21
-70.167822
  0
LINE
  8
ボルト／ビス
  6
CONTINUOUS
 62
    64
 10
-11.672935
 20
-70.315305
 11
-11.758085
 21
-70.550552
  0
LINE
  8
ボルト／ビス
  6
CONTINUOUS
 62
    64
 10
-12.004395
 20
-70.594437
 11
-11.758085
 21
-70.550552
  0
LINE
  8
ボルト／ビス
  6
CONTINUOUS
 62
    64
 10
-11.834087
 20
-70.123938
 11
-11.672935
 21
-70.315305
  0
LINE
  8
ボルト／ビス
  6
CONTINUOUS
 62
    64
 10
-12.16555
 20
-70.40307
 11
-12.004395
 21
-70.594437
  0
CIRCLE
  8
ボルト／ビス
  6
CONTINUOUS
 62
    64
 10
-11.91924
 20
-70.359188
 40
0.216668
  0
ENDBLK
  0
BLOCK
  2
*DIM_0025
 70
    65
 10
0.0
 20
0.0
  0
LINE
  8
寸法
  6
BYBLOCK
 62
     0
 10
-115.076325
 20
38.399048
 11
-128.369163
 21
38.399048
  0
LINE
  8
寸法
  6
BYBLOCK
 62
     0
 10
-115.076325
 20
18.399048
 11
-128.369163
 21
18.399048
  0
LINE
  8
寸法
  6
BYBLOCK
 62
     0
 10
-128.369163
 20
38.399048
 11
-128.369163
 21
18.399048
  0
POINT
  8
寸法
 62
     0
 10
-128.369163
 20
38.399048
  0
POINT
  8
寸法
 62
     0
 10
-128.369163
 20
18.399048
  0
TEXT
  7
TextStyle03
  8
寸法
  6
CONTINUOUS
 62
     0
 10
-128.725
 20
25.9625
  1
600
 40
3.0
 50
90.0
 72
     5
 11
-128.725
 21
30.8375
  0
ENDBLK
  0
BLOCK
  2
*DIM_0026
 70
    65
 10
0.0
 20
0.0
  0
LINE
  8
寸法
  6
BYBLOCK
 62
     0
 10
-100.40966
 20
46.399048
 11
-100.40966
 21
75.50712
  0
LINE
  8
寸法
  6
BYBLOCK
 62
     0
 10
-73.742993
 20
46.399048
 11
-73.742993
 21
75.50712
  0
LINE
  8
寸法
  6
BYBLOCK
 62
     0
 10
-100.40966
 20
75.50712
 11
-73.742993
 21
75.50712
  0
POINT
  8
寸法
 62
     0
 10
-100.40966
 20
75.50712
  0
POINT
  8
寸法
 62
     0
 10
-73.742993
 20
75.50712
  0
TEXT
  7
TextStyle03
  8
寸法
  6
CONTINUOUS
 62
     0
 10
-89.5375
 20
75.875
  1
800
 40
3.0
 72
     5
 11
-84.6625
 21
75.875
  0
ENDBLK
  0
BLOCK
  2
*DIM_0027
 70
    65
 10
0.0
 20
0.0
  0
LINE
  8
寸法
  6
BYBLOCK
 62
     0
 10
-47.076328
 20
46.399048
 11
-47.076328
 21
75.50712
  0
LINE
  8
寸法
  6
BYBLOCK
 62
     0
 10
-73.742993
 20
75.50712
 11
-47.076328
 21
75.50712
  0
POINT
  8
寸法
 62
     0
 10
-47.076328
 20
75.50712
  0
TEXT
  7
TextStyle03
  8
寸法
  6
CONTINUOUS
 62
     0
 10
-62.8625
 20
75.875
  1
800
 40
3.0
 72
     5
 11
-57.9875
 21
75.875
  0
ENDBLK
  0
BLOCK
  2
*DIM_0028
 70
    65
 10
0.0
 20
0.0
  0
LINE
  8
寸法
  6
BYBLOCK
 62
     0
 10
-20.40966
 20
46.399048
 11
-20.40966
 21
75.50712
  0
LINE
  8
寸法
  6
BYBLOCK
 62
     0
 10
-47.076328
 20
75.50712
 11
-20.40966
 21
75.50712
  0
POINT
  8
寸法
 62
     0
 10
-20.40966
 20
75.50712
  0
TEXT
  7
TextStyle03
  8
寸法
  6
CONTINUOUS
 62
     0
 10
-36.1875
 20
75.875
  1
800
 40
3.0
 72
     5
 11
-31.3125
 21
75.875
  0
ENDBLK
  0
BLOCK
  2
*DIM_0029
 70
    65
 10
0.0
 20
0.0
  0
LINE
  8
寸法
  6
BYBLOCK
 62
     0
 10
6.257007
 20
46.399048
 11
6.257007
 21
75.50712
  0
LINE
  8
寸法
  6
BYBLOCK
 62
     0
 10
-20.40966
 20
75.50712
 11
6.257007
 21
75.50712
  0
POINT
  8
寸法
 62
     0
 10
6.257007
 20
75.50712
  0
TEXT
  7
TextStyle03
  8
寸法
  6
CONTINUOUS
 62
     0
 10
-9.5375
 20
75.875
  1
800
 40
3.0
 72
     5
 11
-4.6625
 21
75.875
  0
ENDBLK
  0
BLOCK
  2
*DIM_0030
 70
    65
 10
0.0
 20
0.0
  0
LINE
  8
寸法
  6
BYBLOCK
 62
     0
 10
32.923673
 20
46.399048
 11
32.923673
 21
75.50712
  0
LINE
  8
寸法
  6
BYBLOCK
 62
     0
 10
6.257007
 20
75.50712
 11
32.923673
 21
75.50712
  0
POINT
  8
寸法
 62
     0
 10
32.923673
 20
75.50712
  0
TEXT
  7
TextStyle03
  8
寸法
  6
CONTINUOUS
 62
     0
 10
17.1375
 20
75.875
  1
800
 40
3.0
 72
     5
 11
22.0125
 21
75.875
  0
ENDBLK
  0
BLOCK
  2
*DIM_0031
 70
    65
 10
0.0
 20
0.0
  0
LINE
  8
寸法
  6
BYBLOCK
 62
     0
 10
59.59034
 20
46.399048
 11
59.59034
 21
75.50712
  0
LINE
  8
寸法
  6
BYBLOCK
 62
     0
 10
32.923673
 20
75.50712
 11
59.59034
 21
75.50712
  0
POINT
  8
寸法
 62
     0
 10
59.59034
 20
75.50712
  0
TEXT
  7
TextStyle03
  8
寸法
  6
CONTINUOUS
 62
     0
 10
43.8125
 20
75.875
  1
800
 40
3.0
 72
     5
 11
48.6875
 21
75.875
  0
ENDBLK
  0
BLOCK
  2
*DIM_0032
 70
    65
 10
0.0
 20
0.0
  0
LINE
  8
寸法
  6
BYBLOCK
 62
     0
 10
59.257007
 20
-59.624597
 11
87.226657
 21
-59.624597
  0
LINE
  8
寸法
  6
BYBLOCK
 62
     0
 10
87.226657
 20
-71.291265
 11
87.226657
 21
-59.624597
  0
POINT
  8
寸法
 62
     0
 10
87.226657
 20
-71.291265
  0
POINT
  8
寸法
 62
     0
 10
87.226657
 20
-59.624597
  0
TEXT
  7
TextStyle03
  8
寸法
  6
CONTINUOUS
 62
     0
 10
92.0
 20
-74.19375
  1
上昇324以上
 40
3.0
 50
90.0
 72
     5
 11
92.0
 21
-56.00625
  0
ENDBLK
  0
BLOCK
  2
*GRP_0033
 70
    65
 10
0.0
 20
0.0
  0
LINE
  8
ボルト／ビス
  6
CONTINUOUS
 10
160.95269
 20
44.065715
 11
160.486025
 21
44.065715
  0
LINE
  8
ボルト／ビス
  6
CONTINUOUS
 10
160.95269
 20
44.43238
 11
160.886025
 21
44.43238
  0
LINE
  8
ボルト／ビス
  6
CONTINUOUS
 10
160.886025
 20
44.43238
 11
160.886025
 21
43.699048
  0
LINE
  8
ボルト／ビス
  6
CONTINUOUS
 10
160.886025
 20
43.699048
 11
160.95269
 21
43.699048
  0
LINE
  8
ボルト／ビス
  6
CONTINUOUS
 10
160.95269
 20
44.43238
 11
160.95269
 21
43.699048
  0
LINE
  8
ボルト／ビス
  6
CONTINUOUS
 10
160.85269
 20
44.365715
 11
160.886025
 21
44.365715
  0
LINE
  8
ボルト／ビス
  6
CONTINUOUS
 10
160.85269
 20
44.365715
 11
160.85269
 21
43.765715
  0
LINE
  8
ボルト／ビス
  6
CONTINUOUS
 10
160.85269
 20
43.765715
 11
160.886025
 21
43.765715
  0
LINE
  8
ボルト／ビス
  6
CONTINUOUS
 62
    64
 10
160.65269
 20
44.22609
 11
160.664365
 21
44.258165
  0
ARC
  8
ボルト／ビス
  6
CONTINUOUS
 62
    64
 10
160.757668
 20
44.210051
 40
0.104978
 50
180.0
 51
207.278033
  0
ARC
  8
ボルト／ビス
  6
CONTINUOUS
 62
    64
 10
161.055092
 20
44.065714
 40
0.402402
 50
166.165015
 51
193.834998
  0
LINE
  8
ボルト／ビス
  6
CONTINUOUS
 62
    64
 10
160.65269
 20
43.90534
 11
160.664365
 21
43.873265
  0
ARC
  8
ボルト／ビス
  6
CONTINUOUS
 62
    64
 10
160.757668
 20
43.921376
 40
0.104978
 50
152.721967
 51
180.0
  0
LINE
  8
ボルト／ビス
  6
CONTINUOUS
 62
    64
 10
160.65269
 20
44.22609
 11
160.65269
 21
43.90534
  0
LINE
  8
ボルト／ビス
  6
CONTINUOUS
 62
    64
 10
160.664365
 20
43.873265
 11
160.786025
 21
43.873265
  0
LINE
  8
ボルト／ビス
  6
CONTINUOUS
 62
    64
 10
160.664365
 20
43.96949
 11
160.786025
 21
43.96949
  0
LINE
  8
ボルト／ビス
  6
CONTINUOUS
 62
    64
 10
160.664365
 20
44.258165
 11
160.786025
 21
44.258165
  0
LINE
  8
ボルト／ビス
  6
CONTINUOUS
 62
    64
 10
160.664365
 20
44.16194
 11
160.786025
 21
44.16194
  0
LINE
  8
ボルト／ビス
  6
CONTINUOUS
 10
160.786025
 20
44.258165
 11
160.786025
 21
43.873265
  0
LINE
  8
ボルト／ビス
  6
CONTINUOUS
 10
160.786025
 20
44.265715
 11
160.85269
 21
44.265715
  0
LINE
  8
ボルト／ビス
  6
CONTINUOUS
 10
160.786025
 20
44.265715
 11
160.786025
 21
43.865715
  0
LINE
  8
ボルト／ビス
  6
CONTINUOUS
 10
160.786025
 20
43.865715
 11
160.85269
 21
43.865715
  0
ENDBLK
  0
BLOCK
  2
*GRP_0034
 70
    65
 10
0.0
 20
0.0
  0
LINE
  8
ボルト／ビス
  6
CONTINUOUS
 10
160.95269
 20
12.73238
 11
160.486025
 21
12.73238
  0
LINE
  8
ボルト／ビス
  6
CONTINUOUS
 10
160.95269
 20
13.099045
 11
160.886025
 21
13.099045
  0
LINE
  8
ボルト／ビス
  6
CONTINUOUS
 10
160.886025
 20
13.099045
 11
160.886025
 21
12.365712
  0
LINE
  8
ボルト／ビス
  6
CONTINUOUS
 10
160.886025
 20
12.365712
 11
160.95269
 21
12.365712
  0
LINE
  8
ボルト／ビス
  6
CONTINUOUS
 10
160.95269
 20
13.099045
 11
160.95269
 21
12.365712
  0
LINE
  8
ボルト／ビス
  6
CONTINUOUS
 10
160.85269
 20
13.03238
 11
160.886025
 21
13.03238
  0
LINE
  8
ボルト／ビス
  6
CONTINUOUS
 10
160.85269
 20
13.03238
 11
160.85269
 21
12.43238
  0
LINE
  8
ボルト／ビス
  6
CONTINUOUS
 10
160.85269
 20
12.43238
 11
160.886025
 21
12.43238
  0
LINE
  8
ボルト／ビス
  6
CONTINUOUS
 62
    64
 10
160.65269
 20
12.892755
 11
160.664365
 21
12.92483
  0
ARC
  8
ボルト／ビス
  6
CONTINUOUS
 62
    64
 10
160.757668
 20
12.876716
 40
0.104978
 50
180.0
 51
207.278033
  0
ARC
  8
ボルト／ビス
  6
CONTINUOUS
 62
    64
 10
161.055092
 20
12.732379
 40
0.402402
 50
166.165015
 51
193.834998
  0
LINE
  8
ボルト／ビス
  6
CONTINUOUS
 62
    64
 10
160.65269
 20
12.572005
 11
160.664365
 21
12.53993
  0
ARC
  8
ボルト／ビス
  6
CONTINUOUS
 62
    64
 10
160.757668
 20
12.588041
 40
0.104978
 50
152.721967
 51
180.0
  0
LINE
  8
ボルト／ビス
  6
CONTINUOUS
 62
    64
 10
160.65269
 20
12.892755
 11
160.65269
 21
12.572005
  0
LINE
  8
ボルト／ビス
  6
CONTINUOUS
 62
    64
 10
160.664365
 20
12.53993
 11
160.786025
 21
12.53993
  0
LINE
  8
ボルト／ビス
  6
CONTINUOUS
 62
    64
 10
160.664365
 20
12.636155
 11
160.786025
 21
12.636155
  0
LINE
  8
ボルト／ビス
  6
CONTINUOUS
 62
    64
 10
160.664365
 20
12.92483
 11
160.786025
 21
12.92483
  0
LINE
  8
ボルト／ビス
  6
CONTINUOUS
 62
    64
 10
160.664365
 20
12.828605
 11
160.786025
 21
12.828605
  0
LINE
  8
ボルト／ビス
  6
CONTINUOUS
 10
160.786025
 20
12.92483
 11
160.786025
 21
12.53993
  0
LINE
  8
ボルト／ビス
  6
CONTINUOUS
 10
160.786025
 20
12.93238
 11
160.85269
 21
12.93238
  0
LINE
  8
ボルト／ビス
  6
CONTINUOUS
 10
160.786025
 20
12.93238
 11
160.786025
 21
12.53238
  0
LINE
  8
ボルト／ビス
  6
CONTINUOUS
 10
160.786025
 20
12.53238
 11
160.85269
 21
12.53238
  0
ENDBLK
  0
BLOCK
  2
*GRP_0035
 70
    65
 10
0.0
 20
0.0
  0
LINE
  8
ボルト／ビス
  6
CONTINUOUS
 10
71.923675
 20
-79.624597
 11
71.923675
 21
-79.157932
  0
LINE
  8
ボルト／ビス
  6
CONTINUOUS
 10
71.55701
 20
-79.624597
 11
71.55701
 21
-79.557932
  0
LINE
  8
ボルト／ビス
  6
CONTINUOUS
 10
71.55701
 20
-79.557932
 11
72.290343
 21
-79.557932
  0
LINE
  8
ボルト／ビス
  6
CONTINUOUS
 10
72.290343
 20
-79.557932
 11
72.290343
 21
-79.624597
  0
LINE
  8
ボルト／ビス
  6
CONTINUOUS
 10
71.55701
 20
-79.624597
 11
72.290343
 21
-79.624597
  0
LINE
  8
ボルト／ビス
  6
CONTINUOUS
 10
71.623675
 20
-79.524597
 11
71.623675
 21
-79.557932
  0
LINE
  8
ボルト／ビス
  6
CONTINUOUS
 10
71.623675
 20
-79.524597
 11
72.223675
 21
-79.524597
  0
LINE
  8
ボルト／ビス
  6
CONTINUOUS
 10
72.223675
 20
-79.524597
 11
72.223675
 21
-79.557932
  0
LINE
  8
ボルト／ビス
  6
CONTINUOUS
 62
    64
 10
71.7633
 20
-79.324597
 11
71.731225
 21
-79.336272
  0
ARC
  8
ボルト／ビス
  6
CONTINUOUS
 62
    64
 10
71.779338
 20
-79.429575
 40
0.104978
 50
62.721967
 51
90.0
  0
ARC
  8
ボルト／ビス
  6
CONTINUOUS
 62
    64
 10
71.923676
 20
-79.726999
 40
0.402402
 50
76.165002
 51
103.834985
  0
LINE
  8
ボルト／ビス
  6
CONTINUOUS
 62
    64
 10
72.08405
 20
-79.324597
 11
72.116125
 21
-79.336272
  0
ARC
  8
ボルト／ビス
  6
CONTINUOUS
 62
    64
 10
72.068013
 20
-79.429575
 40
0.104978
 50
90.0
 51
117.278033
  0
LINE
  8
ボルト／ビス
  6
CONTINUOUS
 62
    64
 10
71.7633
 20
-79.324597
 11
72.08405
 21
-79.324597
  0
LINE
  8
ボルト／ビス
  6
CONTINUOUS
 62
    64
 10
72.116125
 20
-79.336272
 11
72.116125
 21
-79.457932
  0
LINE
  8
ボルト／ビス
  6
CONTINUOUS
 62
    64
 10
72.0199
 20
-79.336272
 11
72.0199
 21
-79.457932
  0
LINE
  8
ボルト／ビス
  6
CONTINUOUS
 62
    64
 10
71.731225
 20
-79.336272
 11
71.731225
 21
-79.457932
  0
LINE
  8
ボルト／ビス
  6
CONTINUOUS
 62
    64
 10
71.82745
 20
-79.336272
 11
71.82745
 21
-79.457932
  0
LINE
  8
ボルト／ビス
  6
CONTINUOUS
 10
71.731225
 20
-79.457932
 11
72.116125
 21
-79.457932
  0
LINE
  8
ボルト／ビス
  6
CONTINUOUS
 10
71.723675
 20
-79.457932
 11
71.723675
 21
-79.524597
  0
LINE
  8
ボルト／ビス
  6
CONTINUOUS
 10
71.723675
 20
-79.457932
 11
72.123675
 21
-79.457932
  0
LINE
  8
ボルト／ビス
  6
CONTINUOUS
 10
72.123675
 20
-79.457932
 11
72.123675
 21
-79.524597
  0
ENDBLK
  0
BLOCK
  2
*GRP_0036
 70
    65
 10
0.0
 20
0.0
  0
LINE
  8
ボルト／ビス
  6
DOT
 10
71.923675
 20
-67.95793
 11
71.923675
 21
-67.491265
  0
LINE
  8
ボルト／ビス
  6
DOT
 10
71.55701
 20
-67.95793
 11
71.55701
 21
-67.891265
  0
LINE
  8
ボルト／ビス
  6
DOT
 10
71.55701
 20
-67.891265
 11
72.290343
 21
-67.891265
  0
LINE
  8
ボルト／ビス
  6
DOT
 10
72.290343
 20
-67.891265
 11
72.290343
 21
-67.95793
  0
LINE
  8
ボルト／ビス
  6
DOT
 10
71.55701
 20
-67.95793
 11
72.290343
 21
-67.95793
  0
LINE
  8
ボルト／ビス
  6
DOT
 10
71.623675
 20
-67.85793
 11
71.623675
 21
-67.891265
  0
LINE
  8
ボルト／ビス
  6
DOT
 10
71.623675
 20
-67.85793
 11
72.223675
 21
-67.85793
  0
LINE
  8
ボルト／ビス
  6
DOT
 10
72.223675
 20
-67.85793
 11
72.223675
 21
-67.891265
  0
LINE
  8
ボルト／ビス
  6
DOT
 62
    64
 10
71.7633
 20
-67.65793
 11
71.731225
 21
-67.669605
  0
ARC
  8
ボルト／ビス
  6
DOT
 62
    64
 10
71.779338
 20
-67.762907
 40
0.104978
 50
62.721967
 51
90.0
  0
ARC
  8
ボルト／ビス
  6
DOT
 62
    64
 10
71.923676
 20
-68.060331
 40
0.402402
 50
76.165002
 51
103.834985
  0
LINE
  8
ボルト／ビス
  6
DOT
 62
    64
 10
72.08405
 20
-67.65793
 11
72.116125
 21
-67.669605
  0
ARC
  8
ボルト／ビス
  6
DOT
 62
    64
 10
72.068013
 20
-67.762907
 40
0.104978
 50
90.0
 51
117.278033
  0
LINE
  8
ボルト／ビス
  6
DOT
 62
    64
 10
71.7633
 20
-67.65793
 11
72.08405
 21
-67.65793
  0
LINE
  8
ボルト／ビス
  6
DOT
 62
    64
 10
72.116125
 20
-67.669605
 11
72.116125
 21
-67.791265
  0
LINE
  8
ボルト／ビス
  6
DOT
 62
    64
 10
72.0199
 20
-67.669605
 11
72.0199
 21
-67.791265
  0
LINE
  8
ボルト／ビス
  6
DOT
 62
    64
 10
71.731225
 20
-67.669605
 11
71.731225
 21
-67.791265
  0
LINE
  8
ボルト／ビス
  6
DOT
 62
    64
 10
71.82745
 20
-67.669605
 11
71.82745
 21
-67.791265
  0
LINE
  8
ボルト／ビス
  6
DOT
 10
71.731225
 20
-67.791265
 11
72.116125
 21
-67.791265
  0
LINE
  8
ボルト／ビス
  6
DOT
 10
71.723675
 20
-67.791265
 11
71.723675
 21
-67.85793
  0
LINE
  8
ボルト／ビス
  6
DOT
 10
71.723675
 20
-67.791265
 11
72.123675
 21
-67.791265
  0
LINE
  8
ボルト／ビス
  6
DOT
 10
72.123675
 20
-67.791265
 11
72.123675
 21
-67.85793
  0
ENDBLK
  0
BLOCK
  2
*GRP_0037
 70
    65
 10
0.0
 20
0.0
  0
LINE
  8
ボルト／ビス
  6
CONTINUOUS
 10
-112.742995
 20
-79.624597
 11
-112.742995
 21
-79.157932
  0
LINE
  8
ボルト／ビス
  6
CONTINUOUS
 10
-113.10966
 20
-79.624597
 11
-113.10966
 21
-79.557932
  0
LINE
  8
ボルト／ビス
  6
CONTINUOUS
 10
-113.10966
 20
-79.557932
 11
-112.376328
 21
-79.557932
  0
LINE
  8
ボルト／ビス
  6
CONTINUOUS
 10
-112.376328
 20
-79.557932
 11
-112.376328
 21
-79.624597
  0
LINE
  8
ボルト／ビス
  6
CONTINUOUS
 10
-113.10966
 20
-79.624597
 11
-112.376328
 21
-79.624597
  0
LINE
  8
ボルト／ビス
  6
CONTINUOUS
 10
-113.042995
 20
-79.524597
 11
-113.042995
 21
-79.557932
  0
LINE
  8
ボルト／ビス
  6
CONTINUOUS
 10
-113.042995
 20
-79.524597
 11
-112.442995
 21
-79.524597
  0
LINE
  8
ボルト／ビス
  6
CONTINUOUS
 10
-112.442995
 20
-79.524597
 11
-112.442995
 21
-79.557932
  0
LINE
  8
ボルト／ビス
  6
CONTINUOUS
 62
    64
 10
-112.90337
 20
-79.324597
 11
-112.935445
 21
-79.336272
  0
ARC
  8
ボルト／ビス
  6
CONTINUOUS
 62
    64
 10
-112.887332
 20
-79.429575
 40
0.104978
 50
62.721967
 51
90.0
  0
ARC
  8
ボルト／ビス
  6
CONTINUOUS
 62
    64
 10
-112.742994
 20
-79.726999
 40
0.402402
 50
76.165002
 51
103.834985
  0
LINE
  8
ボルト／ビス
  6
CONTINUOUS
 62
    64
 10
-112.58262
 20
-79.324597
 11
-112.550545
 21
-79.336272
  0
ARC
  8
ボルト／ビス
  6
CONTINUOUS
 62
    64
 10
-112.598657
 20
-79.429575
 40
0.104978
 50
90.0
 51
117.278033
  0
LINE
  8
ボルト／ビス
  6
CONTINUOUS
 62
    64
 10
-112.90337
 20
-79.324597
 11
-112.58262
 21
-79.324597
  0
LINE
  8
ボルト／ビス
  6
CONTINUOUS
 62
    64
 10
-112.550545
 20
-79.336272
 11
-112.550545
 21
-79.457932
  0
LINE
  8
ボルト／ビス
  6
CONTINUOUS
 62
    64
 10
-112.64677
 20
-79.336272
 11
-112.64677
 21
-79.457932
  0
LINE
  8
ボルト／ビス
  6
CONTINUOUS
 62
    64
 10
-112.935445
 20
-79.336272
 11
-112.935445
 21
-79.457932
  0
LINE
  8
ボルト／ビス
  6
CONTINUOUS
 62
    64
 10
-112.83922
 20
-79.336272
 11
-112.83922
 21
-79.457932
  0
LINE
  8
ボルト／ビス
  6
CONTINUOUS
 10
-112.935445
 20
-79.457932
 11
-112.550545
 21
-79.457932
  0
LINE
  8
ボルト／ビス
  6
CONTINUOUS
 10
-112.942995
 20
-79.457932
 11
-112.942995
 21
-79.524597
  0
LINE
  8
ボルト／ビス
  6
CONTINUOUS
 10
-112.942995
 20
-79.457932
 11
-112.542995
 21
-79.457932
  0
LINE
  8
ボルト／ビス
  6
CONTINUOUS
 10
-112.542995
 20
-79.457932
 11
-112.542995
 21
-79.524597
  0
ENDBLK
  0
BLOCK
  2
*GRP_0038
 70
    65
 10
0.0
 20
0.0
  0
LINE
  8
ボルト／ビス
  6
DOT
 10
-112.742995
 20
-67.95793
 11
-112.742995
 21
-67.491265
  0
LINE
  8
ボルト／ビス
  6
DOT
 10
-113.10966
 20
-67.95793
 11
-113.10966
 21
-67.891265
  0
LINE
  8
ボルト／ビス
  6
DOT
 10
-113.10966
 20
-67.891265
 11
-112.376328
 21
-67.891265
  0
LINE
  8
ボルト／ビス
  6
DOT
 10
-112.376328
 20
-67.891265
 11
-112.376328
 21
-67.95793
  0
LINE
  8
ボルト／ビス
  6
DOT
 10
-113.10966
 20
-67.95793
 11
-112.376328
 21
-67.95793
  0
LINE
  8
ボルト／ビス
  6
DOT
 10
-113.042995
 20
-67.85793
 11
-113.042995
 21
-67.891265
  0
LINE
  8
ボルト／ビス
  6
DOT
 10
-113.042995
 20
-67.85793
 11
-112.442995
 21
-67.85793
  0
LINE
  8
ボルト／ビス
  6
DOT
 10
-112.442995
 20
-67.85793
 11
-112.442995
 21
-67.891265
  0
LINE
  8
ボルト／ビス
  6
DOT
 62
    64
 10
-112.90337
 20
-67.65793
 11
-112.935445
 21
-67.669605
  0
ARC
  8
ボルト／ビス
  6
DOT
 62
    64
 10
-112.887332
 20
-67.762907
 40
0.104978
 50
62.721967
 51
90.0
  0
ARC
  8
ボルト／ビス
  6
DOT
 62
    64
 10
-112.742994
 20
-68.060331
 40
0.402402
 50
76.165002
 51
103.834985
  0
LINE
  8
ボルト／ビス
  6
DOT
 62
    64
 10
-112.58262
 20
-67.65793
 11
-112.550545
 21
-67.669605
  0
ARC
  8
ボルト／ビス
  6
DOT
 62
    64
 10
-112.598657
 20
-67.762907
 40
0.104978
 50
90.0
 51
117.278033
  0
LINE
  8
ボルト／ビス
  6
DOT
 62
    64
 10
-112.90337
 20
-67.65793
 11
-112.58262
 21
-67.65793
  0
LINE
  8
ボルト／ビス
  6
DOT
 62
    64
 10
-112.550545
 20
-67.669605
 11
-112.550545
 21
-67.791265
  0
LINE
  8
ボルト／ビス
  6
DOT
 62
    64
 10
-112.64677
 20
-67.669605
 11
-112.64677
 21
-67.791265
  0
LINE
  8
ボルト／ビス
  6
DOT
 62
    64
 10
-112.935445
 20
-67.669605
 11
-112.935445
 21
-67.791265
  0
LINE
  8
ボルト／ビス
  6
DOT
 62
    64
 10
-112.83922
 20
-67.669605
 11
-112.83922
 21
-67.791265
  0
LINE
  8
ボルト／ビス
  6
DOT
 10
-112.935445
 20
-67.791265
 11
-112.550545
 21
-67.791265
  0
LINE
  8
ボルト／ビス
  6
DOT
 10
-112.942995
 20
-67.791265
 11
-112.942995
 21
-67.85793
  0
LINE
  8
ボルト／ビス
  6
DOT
 10
-112.942995
 20
-67.791265
 11
-112.542995
 21
-67.791265
  0
LINE
  8
ボルト／ビス
  6
DOT
 10
-112.542995
 20
-67.791265
 11
-112.542995
 21
-67.85793
  0
ENDBLK
  0
ENDSEC
  0
SECTION
  2
ENTITIES
  0
POLYLINE
  8
通り芯
  6
CONTINUOUS
 66
     1
 70
     1
  0
VERTEX
  8
通り芯
 10
-210.0
 20
-148.5
  0
VERTEX
  8
通り芯
 10
210.0
 20
-148.5
  0
VERTEX
  8
通り芯
 10
210.0
 20
148.5
  0
VERTEX
  8
通り芯
 10
-210.0
 20
148.5
  0
SEQEND
  0
INSERT
  2
*GRP_0001
  8
型材断面
  6
CONTINUOUS
 10
0.0
 20
0.0
  0
LINE
  8
型材断面
  6
DASHDOT
 10
71.257007
 20
-87.251428
 11
71.257007
 21
43.399048
  0
LINE
  8
型材断面
  6
DASHDOT
 10
-20.40966
 20
-87.251428
 11
-20.40966
 21
43.399048
  0
LINE
  8
型材断面
  6
DASHDOT
 10
-112.076325
 20
-87.251428
 11
-112.076325
 21
43.399048
  0
LINE
  8
型材断面
  6
DASHDOT
 10
168.93377
 20
43.399048
 11
-112.076325
 21
43.399048
  0
LINE
  8
型材断面
  6
DASHDOT
 10
168.93377
 20
28.399048
 11
-112.076325
 21
28.399048
  0
LINE
  8
型材断面
  6
DASHDOT
 10
168.93377
 20
13.399048
 11
-112.076325
 21
13.399048
  0
POLYLINE
  8
型材断面
  6
CONTINUOUS
 66
     1
 70
     1
  0
VERTEX
  8
型材断面
 10
-10.957247
 20
3.623125
  0
VERTEX
  8
型材断面
 10
-29.729177
 20
3.623125
  0
VERTEX
  8
型材断面
 10
-29.729177
 20
-1.113717
  0
VERTEX
  8
型材断面
 10
-10.957247
 20
-1.113717
  0
SEQEND
  0
POLYLINE
  8
型材断面
  6
CONTINUOUS
 66
     1
 70
     1
  0
VERTEX
  8
型材断面
 10
-10.957247
 20
53.17497
  0
VERTEX
  8
型材断面
 10
-29.729177
 20
53.17497
  0
VERTEX
  8
型材断面
 10
-29.729177
 20
57.911813
  0
VERTEX
  8
型材断面
 10
-10.957247
 20
57.911813
  0
SEQEND
  0
LINE
  8
型材断面
  6
CONTINUOUS
 10
-95.409657
 20
46.029177
 11
-96.905288
 21
48.619685
  0
LINE
  8
型材断面
  6
CONTINUOUS
 10
-95.409657
 20
46.029177
 11
-93.914027
 21
48.619685
  0
LINE
  8
型材断面
  6
CONTINUOUS
 10
-93.914027
 20
48.619685
 11
-96.905288
 21
48.619685
  0
LINE
  8
型材断面
  6
CONTINUOUS
 10
-152.928532
 20
81.37652
 11
-152.332478
 21
78.786012
  0
LINE
  8
型材断面
  6
CONTINUOUS
 10
-152.928532
 20
81.37652
 11
-153.52459
 21
78.786012
  0
LINE
  8
型材断面
  6
CONTINUOUS
 10
-153.52459
 20
78.786012
 11
-152.332478
 21
78.786012
  0
LINE
  8
型材断面
  6
CONTINUOUS
 10
-158.95112
 20
75.50712
 11
-112.709343
 21
75.50712
  0
LINE
  8
型材断面
  6
CONTINUOUS
 10
-152.928532
 20
87.906395
 11
-154.424162
 21
85.315887
  0
LINE
  8
型材断面
  6
CONTINUOUS
 10
-152.928532
 20
87.906395
 11
-151.432903
 21
85.315887
  0
LINE
  8
型材断面
  6
CONTINUOUS
 10
-151.432903
 20
85.315887
 11
-154.424162
 21
85.315887
  0
LINE
  8
型材断面
  6
CONTINUOUS
 10
-158.95112
 20
84.377292
 11
-112.709343
 21
84.377292
  0
LINE
  8
型材断面
  6
CONTINUOUS
 10
-158.95112
 20
69.719088
 11
-112.709343
 21
69.719088
  0
LINE
  8
型材断面
  6
CONTINUOUS
 10
-114.706455
 20
28.399048
 11
-117.296962
 21
29.894678
  0
LINE
  8
型材断面
  6
CONTINUOUS
 10
-114.706455
 20
28.399048
 11
-117.296962
 21
26.903418
  0
LINE
  8
型材断面
  6
CONTINUOUS
 10
-117.296962
 20
26.903418
 11
-117.296962
 21
29.894678
  0
LINE
  8
型材断面
  6
CONTINUOUS
 10
-95.409657
 20
10.768917
 11
-96.905288
 21
8.17841
  0
LINE
  8
型材断面
  6
CONTINUOUS
 10
-95.409657
 20
10.768917
 11
-93.914027
 21
8.17841
  0
LINE
  8
型材断面
  6
CONTINUOUS
 10
-93.914027
 20
8.17841
 11
-96.905288
 21
8.17841
  0
LINE
  8
型材断面
  6
CONTINUOUS
 10
54.590337
 20
46.029177
 11
56.085967
 21
48.619685
  0
LINE
  8
型材断面
  6
CONTINUOUS
 10
54.590337
 20
46.029177
 11
53.094708
 21
48.619685
  0
LINE
  8
型材断面
  6
CONTINUOUS
 10
53.094708
 20
48.619685
 11
56.085967
 21
48.619685
  0
LINE
  8
型材断面
  6
CONTINUOUS
 10
73.887135
 20
28.399048
 11
76.477643
 21
29.894678
  0
LINE
  8
型材断面
  6
CONTINUOUS
 10
73.887135
 20
28.399048
 11
76.477643
 21
26.903418
  0
LINE
  8
型材断面
  6
CONTINUOUS
 10
76.477643
 20
26.903418
 11
76.477643
 21
29.894678
  0
LINE
  8
型材断面
  6
CONTINUOUS
 10
54.590337
 20
10.768917
 11
56.085967
 21
8.17841
  0
LINE
  8
型材断面
  6
CONTINUOUS
 10
54.590337
 20
10.768917
 11
53.094708
 21
8.17841
  0
LINE
  8
型材断面
  6
CONTINUOUS
 10
53.094708
 20
8.17841
 11
56.085967
 21
8.17841
  0
LINE
  8
型材断面
  6
CONTINUOUS
 10
-20.40966
 20
46.029175
 11
-21.90529
 21
48.619683
  0
LINE
  8
型材断面
  6
CONTINUOUS
 10
-20.40966
 20
46.029175
 11
-18.91403
 21
48.619683
  0
LINE
  8
型材断面
  6
CONTINUOUS
 10
-18.91403
 20
48.619683
 11
-21.90529
 21
48.619683
  0
LINE
  8
型材断面
  6
CONTINUOUS
 10
-20.40966
 20
10.768915
 11
-21.90529
 21
8.178407
  0
LINE
  8
型材断面
  6
CONTINUOUS
 10
-20.40966
 20
10.768915
 11
-18.91403
 21
8.178407
  0
LINE
  8
型材断面
  6
CONTINUOUS
 10
-18.91403
 20
8.178407
 11
-21.90529
 21
8.178407
  0
LINE
  8
型材断面
  6
DASHDOT
 10
161.985973
 20
13.399045
 11
168.006037
 21
13.399045
  0
LINE
  8
型材断面
  6
CONTINUOUS
 62
    47
 10
164.269305
 20
12.00238
 11
164.269305
 21
12.78238
  0
LINE
  8
型材断面
  6
CONTINUOUS
 10
162.435973
 20
11.90238
 11
161.985973
 21
11.90238
  0
LINE
  8
型材断面
  6
CONTINUOUS
 62
    47
 10
165.108665
 20
11.119045
 11
164.77533
 21
11.119045
  0
LINE
  8
型材断面
  6
CONTINUOUS
 62
    47
 10
164.77533
 20
11.119045
 11
164.67533
 21
11.90238
  0
LINE
  8
型材断面
  6
CONTINUOUS
 62
    47
 10
164.269305
 20
11.90238
 11
164.67533
 21
11.90238
  0
LINE
  8
型材断面
  6
CONTINUOUS
 62
    47
 10
164.269305
 20
11.43238
 11
162.435973
 21
11.43238
  0
LINE
  8
型材断面
  6
CONTINUOUS
 62
    47
 10
168.235973
 20
11.999045
 11
167.735973
 21
11.999045
  0
LINE
  8
型材断面
  6
CONTINUOUS
 62
    47
 10
167.735973
 20
11.43238
 11
165.108665
 21
11.43238
  0
LINE
  8
型材断面
  6
CONTINUOUS
 62
    47
 10
167.735973
 20
11.43238
 11
167.735973
 21
28.399048
  0
LINE
  8
型材断面
  6
CONTINUOUS
 62
    47
 10
168.235973
 20
11.999045
 11
168.235973
 21
28.399048
  0
LINE
  8
型材断面
  6
CONTINUOUS
 62
    47
 10
164.269305
 20
11.43238
 11
164.269305
 21
28.399048
  0
LINE
  8
型材断面
  6
CONTINUOUS
 10
164.67533
 20
11.90238
 11
164.67533
 21
28.399048
  0
LINE
  8
型材断面
  6
CONTINUOUS
 10
164.77533
 20
11.119045
 11
164.77533
 21
28.399048
  0
LINE
  8
型材断面
  6
CONTINUOUS
 62
    47
 10
165.108665
 20
11.119045
 11
165.108665
 21
28.399048
  0
LINE
  8
型材断面
  6
CONTINUOUS
 10
162.435973
 20
11.43238
 11
162.435973
 21
28.399048
  0
LINE
  8
型材断面
  6
DASHDOT
 10
161.985973
 20
43.39905
 11
168.006037
 21
43.39905
  0
LINE
  8
型材断面
  6
CONTINUOUS
 62
    47
 10
164.269305
 20
44.795715
 11
164.269305
 21
44.015715
  0
LINE
  8
型材断面
  6
CONTINUOUS
 10
162.435973
 20
44.895715
 11
161.985973
 21
44.895715
  0
LINE
  8
型材断面
  6
CONTINUOUS
 62
    47
 10
165.108665
 20
45.67905
 11
164.77533
 21
45.67905
  0
LINE
  8
型材断面
  6
CONTINUOUS
 62
    47
 10
164.77533
 20
45.67905
 11
164.67533
 21
44.895715
  0
LINE
  8
型材断面
  6
CONTINUOUS
 62
    47
 10
164.269305
 20
44.895715
 11
164.67533
 21
44.895715
  0
LINE
  8
型材断面
  6
CONTINUOUS
 62
    47
 10
164.269305
 20
45.365715
 11
162.435973
 21
45.365715
  0
LINE
  8
型材断面
  6
CONTINUOUS
 62
    47
 10
168.235973
 20
44.79905
 11
167.735973
 21
44.79905
  0
LINE
  8
型材断面
  6
CONTINUOUS
 62
    47
 10
167.735973
 20
45.365715
 11
165.108665
 21
45.365715
  0
LINE
  8
型材断面
  6
CONTINUOUS
 62
    47
 10
167.735973
 20
45.365715
 11
167.735973
 21
28.399048
  0
LINE
  8
型材断面
  6
CONTINUOUS
 62
    47
 10
168.235973
 20
44.79905
 11
168.235973
 21
28.399048
  0
LINE
  8
型材断面
  6
CONTINUOUS
 62
    47
 10
164.269305
 20
45.365715
 11
164.269305
 21
28.399048
  0
LINE
  8
型材断面
  6
CONTINUOUS
 10
164.67533
 20
44.895715
 11
164.67533
 21
28.399048
  0
LINE
  8
型材断面
  6
CONTINUOUS
 10
164.77533
 20
45.67905
 11
164.77533
 21
28.399048
  0
LINE
  8
型材断面
  6
CONTINUOUS
 62
    47
 10
165.108665
 20
45.67905
 11
165.108665
 21
28.399048
  0
LINE
  8
型材断面
  6
CONTINUOUS
 10
162.435973
 20
45.365715
 11
162.435973
 21
28.399048
  0
LINE
  8
型材断面
  6
DASHDOT
 10
71.25701
 20
-80.657882
 11
71.25701
 21
-86.677948
  0
LINE
  8
型材断面
  6
CONTINUOUS
 62
    47
 10
72.653675
 20
-82.941215
 11
71.873675
 21
-82.941215
  0
LINE
  8
型材断面
  6
CONTINUOUS
 10
72.753675
 20
-81.107882
 11
72.753675
 21
-80.657882
  0
LINE
  8
型材断面
  6
CONTINUOUS
 62
    47
 10
73.53701
 20
-83.780575
 11
73.53701
 21
-83.44724
  0
LINE
  8
型材断面
  6
CONTINUOUS
 62
    47
 10
73.53701
 20
-83.44724
 11
72.753675
 21
-83.34724
  0
LINE
  8
型材断面
  6
CONTINUOUS
 62
    47
 10
72.753675
 20
-82.941215
 11
72.753675
 21
-83.34724
  0
LINE
  8
型材断面
  6
CONTINUOUS
 62
    47
 10
73.223675
 20
-82.941215
 11
73.223675
 21
-81.107882
  0
LINE
  8
型材断面
  6
CONTINUOUS
 62
    47
 10
72.65701
 20
-86.907882
 11
72.65701
 21
-86.407882
  0
LINE
  8
型材断面
  6
CONTINUOUS
 62
    47
 10
73.223675
 20
-86.407882
 11
73.223675
 21
-83.780575
  0
LINE
  8
型材断面
  6
CONTINUOUS
 10
73.53701
 20
28.399048
 11
73.53701
 21
11.119045
  0
LINE
  8
型材断面
  6
CONTINUOUS
 10
73.323675
 20
11.33238
 11
73.53701
 21
11.119045
  0
LINE
  8
型材断面
  6
CONTINUOUS
 10
73.223675
 20
-81.107882
 11
-20.40966
 21
-81.107882
  0
LINE
  8
型材断面
  6
CONTINUOUS
 10
72.753675
 20
-83.34724
 11
-20.40966
 21
-83.34724
  0
LINE
  8
型材断面
  6
CONTINUOUS
 10
73.53701
 20
-83.44724
 11
-20.40966
 21
-83.44724
  0
LINE
  8
型材断面
  6
CONTINUOUS
 62
    47
 10
73.223675
 20
-82.941215
 11
-20.40966
 21
-82.941215
  0
LINE
  8
型材断面
  6
CONTINUOUS
 62
    47
 10
73.53701
 20
-83.780575
 11
-20.40966
 21
-83.780575
  0
LINE
  8
型材断面
  6
CONTINUOUS
 62
    47
 10
73.223675
 20
-86.407882
 11
-20.40966
 21
-86.407882
  0
LINE
  8
型材断面
  6
CONTINUOUS
 62
    47
 10
72.65701
 20
-86.907882
 11
-20.40966
 21
-86.907882
  0
LINE
  8
型材断面
  6
DASHDOT
 10
-112.07633
 20
-80.657882
 11
-112.07633
 21
-86.677948
  0
LINE
  8
型材断面
  6
CONTINUOUS
 62
    47
 10
-113.472995
 20
-82.941215
 11
-112.692995
 21
-82.941215
  0
LINE
  8
型材断面
  6
CONTINUOUS
 10
-113.572995
 20
-81.107882
 11
-113.572995
 21
-80.657882
  0
LINE
  8
型材断面
  6
CONTINUOUS
 62
    47
 10
-114.35633
 20
-83.780575
 11
-114.35633
 21
-83.44724
  0
LINE
  8
型材断面
  6
CONTINUOUS
 62
    47
 10
-114.35633
 20
-83.44724
 11
-113.572995
 21
-83.34724
  0
LINE
  8
型材断面
  6
CONTINUOUS
 62
    47
 10
-113.572995
 20
-82.941215
 11
-113.572995
 21
-83.34724
  0
LINE
  8
型材断面
  6
CONTINUOUS
 62
    47
 10
-114.042995
 20
-82.941215
 11
-114.042995
 21
-81.107882
  0
LINE
  8
型材断面
  6
CONTINUOUS
 62
    47
 10
-113.47633
 20
-86.907882
 11
-113.47633
 21
-86.407882
  0
LINE
  8
型材断面
  6
CONTINUOUS
 62
    47
 10
-114.042995
 20
-86.407882
 11
-114.042995
 21
-83.780575
  0
LINE
  8
型材断面
  6
CONTINUOUS
 10
-114.042995
 20
-81.107882
 11
-20.40966
 21
-81.107882
  0
LINE
  8
型材断面
  6
CONTINUOUS
 10
-113.572995
 20
-83.34724
 11
-20.40966
 21
-83.34724
  0
LINE
  8
型材断面
  6
CONTINUOUS
 10
-114.35633
 20
-83.44724
 11
-20.40966
 21
-83.44724
  0
LINE
  8
型材断面
  6
CONTINUOUS
 62
    47
 10
-114.042995
 20
-82.941215
 11
-20.40966
 21
-82.941215
  0
LINE
  8
型材断面
  6
CONTINUOUS
 62
    47
 10
-114.35633
 20
-83.780575
 11
-20.40966
 21
-83.780575
  0
LINE
  8
型材断面
  6
CONTINUOUS
 62
    47
 10
-114.042995
 20
-86.407882
 11
-20.40966
 21
-86.407882
  0
LINE
  8
型材断面
  6
CONTINUOUS
 62
    47
 10
-113.47633
 20
-86.907882
 11
-20.40966
 21
-86.907882
  0
LINE
  8
型材断面
  6
DOT
 62
    47
 10
72.653675
 20
-71.274547
 11
71.873675
 21
-71.274547
  0
LINE
  8
型材断面
  6
DOT
 10
72.753675
 20
-69.441215
 11
72.753675
 21
-68.991215
  0
LINE
  8
型材断面
  6
DOT
 62
    47
 10
73.53701
 20
-72.113908
 11
73.53701
 21
-71.780573
  0
LINE
  8
型材断面
  6
DOT
 62
    47
 10
73.53701
 20
-71.780573
 11
72.753675
 21
-71.680573
  0
LINE
  8
型材断面
  6
DOT
 62
    47
 10
72.753675
 20
-71.274547
 11
72.753675
 21
-71.680573
  0
LINE
  8
型材断面
  6
DOT
 62
    47
 10
73.223675
 20
-71.274547
 11
73.223675
 21
-69.441215
  0
LINE
  8
型材断面
  6
DOT
 10
73.223675
 20
-69.441215
 11
-20.40966
 21
-69.441215
  0
LINE
  8
型材断面
  6
DOT
 10
72.753675
 20
-71.680573
 11
-20.40966
 21
-71.680573
  0
LINE
  8
型材断面
  6
DOT
 10
73.53701
 20
-71.780573
 11
-20.40966
 21
-71.780573
  0
LINE
  8
型材断面
  6
DOT
 62
    47
 10
73.223675
 20
-71.274547
 11
-20.40966
 21
-71.274547
  0
LINE
  8
型材断面
  6
DOT
 62
    47
 10
73.53701
 20
-72.113908
 11
-20.40966
 21
-72.113908
  0
LINE
  8
型材断面
  6
DOT
 62
    47
 10
-113.472995
 20
-71.274547
 11
-112.692995
 21
-71.274547
  0
LINE
  8
型材断面
  6
DOT
 10
-113.572995
 20
-69.441215
 11
-113.572995
 21
-68.991215
  0
LINE
  8
型材断面
  6
DOT
 62
    47
 10
-114.35633
 20
-72.113908
 11
-114.35633
 21
-71.780573
  0
LINE
  8
型材断面
  6
DOT
 62
    47
 10
-114.35633
 20
-71.780573
 11
-113.572995
 21
-71.680573
  0
LINE
  8
型材断面
  6
DOT
 62
    47
 10
-113.572995
 20
-71.274547
 11
-113.572995
 21
-71.680573
  0
LINE
  8
型材断面
  6
DOT
 62
    47
 10
-114.042995
 20
-71.274547
 11
-114.042995
 21
-69.441215
  0
LINE
  8
型材断面
  6
DOT
 10
-114.042995
 20
-69.441215
 11
-20.40966
 21
-69.441215
  0
LINE
  8
型材断面
  6
DOT
 10
-113.572995
 20
-71.680573
 11
-20.40966
 21
-71.680573
  0
LINE
  8
型材断面
  6
DOT
 10
-114.35633
 20
-71.780573
 11
-20.40966
 21
-71.780573
  0
LINE
  8
型材断面
  6
DOT
 62
    47
 10
-114.042995
 20
-71.274547
 11
-20.40966
 21
-71.274547
  0
LINE
  8
型材断面
  6
DOT
 62
    47
 10
-114.35633
 20
-72.113908
 11
-20.40966
 21
-72.113908
  0
LINE
  8
型材断面
  6
CONTINUOUS
 10
73.53701
 20
11.119045
 11
-20.40966
 21
11.119073
  0
LINE
  8
型材断面
  6
CONTINUOUS
 10
73.53701
 20
28.399048
 11
73.53701
 21
45.67905
  0
LINE
  8
型材断面
  6
CONTINUOUS
 10
73.323675
 20
45.465715
 11
73.53701
 21
45.67905
  0
LINE
  8
型材断面
  6
CONTINUOUS
 10
73.53701
 20
45.67905
 11
-20.40966
 21
45.679023
  0
LINE
  8
型材断面
  6
CONTINUOUS
 10
-114.35633
 20
28.399048
 11
-114.35633
 21
45.67905
  0
LINE
  8
型材断面
  6
CONTINUOUS
 10
-114.142995
 20
45.465715
 11
-114.35633
 21
45.67905
  0
LINE
  8
型材断面
  6
CONTINUOUS
 10
-114.35633
 20
45.67905
 11
-20.40966
 21
45.679023
  0
LINE
  8
型材断面
  6
CONTINUOUS
 10
-114.35633
 20
28.399048
 11
-114.35633
 21
11.119045
  0
LINE
  8
型材断面
  6
CONTINUOUS
 10
-114.142995
 20
11.33238
 11
-114.35633
 21
11.119045
  0
LINE
  8
型材断面
  6
CONTINUOUS
 10
-114.35633
 20
11.119045
 11
-20.40966
 21
11.119073
  0
LINE
  8
型材断面
  6
CONTINUOUS
 10
73.887135
 20
39.499048
 11
76.477643
 21
38.90299
  0
LINE
  8
型材断面
  6
CONTINUOUS
 10
73.887135
 20
39.499048
 11
76.477643
 21
40.095105
  0
LINE
  8
型材断面
  6
CONTINUOUS
 10
76.477643
 20
40.095105
 11
76.477643
 21
38.90299
  0
LINE
  8
型材断面
  6
CONTINUOUS
 10
73.887135
 20
17.299048
 11
76.477643
 21
17.895105
  0
LINE
  8
型材断面
  6
CONTINUOUS
 10
73.887135
 20
17.299048
 11
76.477643
 21
16.70299
  0
LINE
  8
型材断面
  6
CONTINUOUS
 10
76.477643
 20
16.70299
 11
76.477643
 21
17.895105
  0
LINE
  8
型材断面
  6
CONTINUOUS
 10
-114.706455
 20
39.499048
 11
-117.296962
 21
38.90299
  0
LINE
  8
型材断面
  6
CONTINUOUS
 10
-114.706455
 20
39.499048
 11
-117.296962
 21
40.095105
  0
LINE
  8
型材断面
  6
CONTINUOUS
 10
-117.296962
 20
40.095105
 11
-117.296962
 21
38.90299
  0
LINE
  8
型材断面
  6
CONTINUOUS
 10
-114.706455
 20
17.299048
 11
-117.296962
 21
17.895105
  0
LINE
  8
型材断面
  6
CONTINUOUS
 10
-114.706455
 20
17.299048
 11
-117.296962
 21
16.70299
  0
LINE
  8
型材断面
  6
CONTINUOUS
 10
-117.296962
 20
16.70299
 11
-117.296962
 21
17.895105
  0
INSERT
  2
*GRP_0019
  8
型材断面
  6
CONTINUOUS
 10
0.0
 20
0.0
  0
INSERT
  2
*GRP_0020
  8
型材断面
  6
CONTINUOUS
 10
0.0
 20
0.0
  0
INSERT
  2
*GRP_0021
  8
型材断面
  6
CONTINUOUS
 10
0.0
 20
0.0
  0
INSERT
  2
*GRP_0022
  8
型材断面
  6
CONTINUOUS
 10
0.0
 20
0.0
  0
INSERT
  2
*GRP_0023
  8
型材断面
  6
CONTINUOUS
 10
0.0
 20
0.0
  0
INSERT
  2
*GRP_0024
  8
型材断面
  6
CONTINUOUS
 10
0.0
 20
0.0
  0
LINE
  8
型材断面
  6
CONTINUOUS
 10
-158.95112
 20
63.931055
 11
-112.709343
 21
63.931055
  0
LINE
  8
型材断面
  6
DOT
 10
-74.36366
 20
13.399048
 11
-74.36366
 21
43.399048
  0
LINE
  8
型材断面
  6
DOT
 10
-76.86366
 20
13.399048
 11
-76.86366
 21
43.399048
  0
LINE
  8
型材断面
  6
DASHDOT
 10
-75.61366
 20
13.399048
 11
-75.61366
 21
43.399048
  0
LINE
  8
型材断面
  6
DASHDOT
 10
-38.810995
 20
13.399048
 11
-38.810995
 21
43.399048
  0
LINE
  8
型材断面
  6
DOT
 10
-37.560995
 20
13.399048
 11
-37.560995
 21
43.399048
  0
LINE
  8
型材断面
  6
DOT
 10
-40.060995
 20
13.399048
 11
-40.060995
 21
43.399048
  0
LINE
  8
型材断面
  6
DOT
 10
33.54434
 20
13.399048
 11
33.54434
 21
43.399048
  0
LINE
  8
型材断面
  6
DOT
 10
36.04434
 20
13.399048
 11
36.04434
 21
43.399048
  0
LINE
  8
型材断面
  6
DASHDOT
 10
34.79434
 20
13.399048
 11
34.79434
 21
43.399048
  0
LINE
  8
型材断面
  6
DASHDOT
 10
-2.008325
 20
13.399048
 11
-2.008325
 21
43.399048
  0
LINE
  8
型材断面
  6
DOT
 10
-3.258325
 20
13.399048
 11
-3.258325
 21
43.399048
  0
LINE
  8
型材断面
  6
DOT
 10
-0.758325
 20
13.399048
 11
-0.758325
 21
43.399048
  0
TEXT
  7
TextStyle03
  8
文字
  6
CONTINUOUS
 10
147.775
 20
-86.1
  1
網入り6.8t
 40
3.0
 72
     5
 11
164.4625
 21
-86.1
  0
TEXT
  7
TextStyle03
  8
文字
  6
CONTINUOUS
 10
-28.65
 20
-0.075
  1
可動装置側
 40
3.0
 72
     5
 11
-12.15
 21
-0.075
  0
TEXT
  7
TextStyle03
  8
文字
  6
CONTINUOUS
 10
-28.65
 20
53.875
  1
可動装置側
 40
3.0
 72
     5
 11
-12.15
 21
53.875
  0
TEXT
  7
TextStyle03
  8
文字
  6
CONTINUOUS
 10
154.45
 20
-90.775
  1
×５枚
 40
3.0
 72
     5
 11
164.2
 21
-90.775
  0
TEXT
  7
TextStyle03
  8
文字
  6
CONTINUOUS
 10
-150.125
 20
80.0
  1
はケーシング位置を示す
 40
3.0
 72
     5
 11
-113.375
 21
80.0
  0
TEXT
  7
TextStyle03
  8
文字
  6
CONTINUOUS
 10
-150.125
 20
76.625
  1
４ヶ所中1ヶ所に設定
 40
3.0
 72
     5
 11
-118.4375
 21
76.625
  0
TEXT
  7
TextStyle03
  8
文字
  6
CONTINUOUS
 10
-150.125
 20
85.525
  1
は排水穴位置を示す
 40
3.0
 72
     5
 11
-120.125
 21
85.525
  0
TEXT
  7
TextStyle03
  8
文字
  6
CONTINUOUS
 10
-133.05
 20
6.875
  1
アンカーピッチ
 40
3.0
 50
90.0
 72
     5
 11
-133.05
 21
30.125
  0
TEXT
  7
TextStyle03
  8
文字
  6
CONTINUOUS
 10
-98.025
 20
79.8
  1
アンカーピッチ
 40
3.0
 72
     5
 11
-74.775
 21
79.8
  0
TEXT
  7
TextStyle03
  8
文字
  6
CONTINUOUS
 10
-153.85
 20
70.65
  1
アンカー数量　１８ヶ所
 40
3.0
 72
     5
 11
-117.1
 21
70.65
  0
TEXT
  7
TextStyle03
  8
文字
  6
CONTINUOUS
 10
-153.9
 20
64.875
  1
アームユニット数　４～６ヶ所
 40
3.0
 72
     5
 11
-107.025
 21
64.875
  0
TEXT
  7
TextStyle03
  8
文字
  6
CONTINUOUS
 10
-158.825
 20
59.925
  1
※重量に依るのでご相談ください
 40
3.0
 72
     5
 11
-108.575
 21
59.925
  0
TEXT
  7
TextStyle03
  8
文字
  6
CONTINUOUS
 10
78.1
 20
125.25
  1
シリーズ：ＳＴＤＬ
 40
5.0
 72
     5
 11
128.1
 21
125.25
  0
TEXT
  7
TextStyle03
  8
文字
  6
CONTINUOUS
 10
78.1
 20
119.625
  1
　　　　　（上下可動）900×5500タイプ
 40
5.0
 72
     5
 11
181.5375
 21
119.625
  0
TEXT
  7
TextStyle03
  8
文字
  6
CONTINUOUS
 10
78.1
 20
114.0
  1
図面名　：外観姿図
 40
5.0
 72
     5
 11
128.1
 21
114.0
  0
TEXT
  7
TextStyle03
  8
文字
  6
CONTINUOUS
 10
78.1
 20
108.375
  1
　　　　　　
 40
5.0
 72
     5
 11
111.225
 21
108.375
  0
TEXT
  7
TextStyle03
  8
文字
  6
CONTINUOUS
 10
77.425
 20
103.975
  1
ＮＳコード：ＮＳＤＳＬ
 40
5.0
 72
     5
 11
138.675
 21
103.975
  0
INSERT
  2
*DIM_0002
  8
寸法
  6
CONTINUOUS
 10
0.0
 20
0.0
  0
INSERT
  2
*DIM_0003
  8
寸法
  6
CONTINUOUS
 10
0.0
 20
0.0
  0
INSERT
  2
*DIM_0004
  8
寸法
  6
CONTINUOUS
 10
0.0
 20
0.0
  0
INSERT
  2
*DIM_0005
  8
寸法
  6
CONTINUOUS
 10
0.0
 20
0.0
  0
INSERT
  2
*DIM_0006
  8
寸法
  6
CONTINUOUS
 10
0.0
 20
0.0
  0
INSERT
  2
*DIM_0007
  8
寸法
  6
CONTINUOUS
 10
0.0
 20
0.0
  0
INSERT
  2
*DIM_0008
  8
寸法
  6
CONTINUOUS
 10
0.0
 20
0.0
  0
INSERT
  2
*DIM_0009
  8
寸法
  6
CONTINUOUS
 10
0.0
 20
0.0
  0
INSERT
  2
*DIM_0010
  8
寸法
  6
CONTINUOUS
 10
0.0
 20
0.0
  0
INSERT
  2
*DIM_0011
  8
寸法
  6
CONTINUOUS
 10
0.0
 20
0.0
  0
INSERT
  2
*DIM_0012
  8
寸法
  6
CONTINUOUS
 10
0.0
 20
0.0
  0
INSERT
  2
*DIM_0013
  8
寸法
  6
CONTINUOUS
 10
0.0
 20
0.0
  0
INSERT
  2
*DIM_0014
  8
寸法
  6
CONTINUOUS
 10
0.0
 20
0.0
  0
INSERT
  2
*DIM_0015
  8
寸法
  6
CONTINUOUS
 10
0.0
 20
0.0
  0
INSERT
  2
*DIM_0016
  8
寸法
  6
CONTINUOUS
 10
0.0
 20
0.0
  0
INSERT
  2
*DIM_0017
  8
寸法
  6
CONTINUOUS
 10
0.0
 20
0.0
  0
INSERT
  2
*DIM_0025
  8
寸法
  6
CONTINUOUS
 10
0.0
 20
0.0
  0
INSERT
  2
*DIM_0026
  8
寸法
  6
CONTINUOUS
 10
0.0
 20
0.0
  0
INSERT
  2
*DIM_0027
  8
寸法
  6
CONTINUOUS
 10
0.0
 20
0.0
  0
INSERT
  2
*DIM_0028
  8
寸法
  6
CONTINUOUS
 10
0.0
 20
0.0
  0
INSERT
  2
*DIM_0029
  8
寸法
  6
CONTINUOUS
 10
0.0
 20
0.0
  0
INSERT
  2
*DIM_0030
  8
寸法
  6
CONTINUOUS
 10
0.0
 20
0.0
  0
INSERT
  2
*DIM_0031
  8
寸法
  6
CONTINUOUS
 10
0.0
 20
0.0
  0
INSERT
  2
*DIM_0032
  8
寸法
  6
CONTINUOUS
 10
0.0
 20
0.0
  0
LINE
  8
別途部材
  6
CONTINUOUS
 10
73.323675
 20
11.33238
 11
72.923675
 21
11.73238
  0
LINE
  8
別途部材
  6
CONTINUOUS
 10
71.257007
 20
13.399048
 11
63.197753
 21
21.458305
  0
LINE
  8
別途部材
  6
CONTINUOUS
 10
72.923675
 20
11.73238
 11
72.923675
 21
28.399048
  0
LINE
  8
別途部材
  6
CONTINUOUS
 10
73.323675
 20
11.33238
 11
73.323675
 21
28.399048
  0
LINE
  8
別途部材
  6
CONTINUOUS
 10
73.323675
 20
45.465715
 11
72.923675
 21
45.065715
  0
LINE
  8
別途部材
  6
CONTINUOUS
 10
71.257007
 20
43.399048
 11
63.197753
 21
35.33979
  0
LINE
  8
別途部材
  6
CONTINUOUS
 10
72.923675
 20
45.065715
 11
72.923675
 21
28.399048
  0
LINE
  8
別途部材
  6
CONTINUOUS
 10
73.323675
 20
45.465715
 11
73.323675
 21
28.399048
  0
LINE
  8
別途部材
  6
CONTINUOUS
 10
72.923675
 20
45.065715
 11
-20.40966
 21
45.065715
  0
LINE
  8
別途部材
  6
CONTINUOUS
 10
73.323675
 20
45.465715
 11
-20.40966
 21
45.465715
  0
LINE
  8
別途部材
  6
CONTINUOUS
 10
72.923675
 20
11.73238
 11
-20.40966
 21
11.73238
  0
LINE
  8
別途部材
  6
CONTINUOUS
 10
73.323675
 20
11.33238
 11
-20.40966
 21
11.33238
  0
LINE
  8
別途部材
  6
CONTINUOUS
 10
-114.142995
 20
11.33238
 11
-113.742995
 21
11.73238
  0
LINE
  8
別途部材
  6
CONTINUOUS
 10
-112.076328
 20
13.399048
 11
-104.017073
 21
21.458305
  0
LINE
  8
別途部材
  6
CONTINUOUS
 10
-113.742995
 20
11.73238
 11
-113.742995
 21
28.399048
  0
LINE
  8
別途部材
  6
CONTINUOUS
 10
-114.142995
 20
11.33238
 11
-114.142995
 21
28.399048
  0
LINE
  8
別途部材
  6
CONTINUOUS
 10
-114.142995
 20
45.465715
 11
-113.742995
 21
45.065715
  0
LINE
  8
別途部材
  6
CONTINUOUS
 10
-112.076328
 20
43.399048
 11
-104.017073
 21
35.33979
  0
LINE
  8
別途部材
  6
CONTINUOUS
 10
-113.742995
 20
45.065715
 11
-113.742995
 21
28.399048
  0
LINE
  8
別途部材
  6
CONTINUOUS
 10
-114.142995
 20
45.465715
 11
-114.142995
 21
28.399048
  0
LINE
  8
別途部材
  6
CONTINUOUS
 10
-113.742995
 20
45.065715
 11
-20.40966
 21
45.065715
  0
LINE
  8
別途部材
  6
CONTINUOUS
 10
-114.142995
 20
45.465715
 11
-20.40966
 21
45.465715
  0
LINE
  8
別途部材
  6
CONTINUOUS
 10
-113.742995
 20
11.73238
 11
-20.40966
 21
11.73238
  0
LINE
  8
別途部材
  6
CONTINUOUS
 10
-114.142995
 20
11.33238
 11
-20.40966
 21
11.33238
  0
LINE
  8
別途部材
  6
CONTINUOUS
 62
    96
 10
160.95269
 20
11.73238
 11
161.95269
 21
11.33238
  0
LINE
  8
別途部材
  6
CONTINUOUS
 62
    96
 10
160.95269
 20
11.73238
 11
160.95269
 21
28.399048
  0
LINE
  8
別途部材
  6
CONTINUOUS
 10
161.95269
 20
11.33238
 11
161.95269
 21
28.399048
  0
LINE
  8
別途部材
  6
CONTINUOUS
 62
    96
 10
160.95269
 20
45.065715
 11
161.95269
 21
45.465715
  0
LINE
  8
別途部材
  6
CONTINUOUS
 62
    96
 10
160.95269
 20
45.065715
 11
160.95269
 21
28.399048
  0
LINE
  8
別途部材
  6
CONTINUOUS
 10
161.95269
 20
45.465715
 11
161.95269
 21
28.399048
  0
ARC
  8
別途部材
  6
CONTINUOUS
 10
170.286022
 20
28.399048
 40
17.666667
 50
121.890796
 51
238.109204
  0
LINE
  8
別途部材
  6
DOT
 62
    96
 10
72.923675
 20
-67.95793
 11
73.323675
 21
-68.95793
  0
ARC
  8
別途部材
  6
DOT
 10
56.257007
 20
-77.291265
 40
17.666667
 50
31.890796
 51
90.0
  0
LINE
  8
別途部材
  6
DOT
 10
56.257007
 20
-59.624597
 11
-20.40966
 21
-59.624597
  0
LINE
  8
別途部材
  6
DOT
 10
73.323675
 20
-68.95793
 11
-20.40966
 21
-68.95793
  0
LINE
  8
別途部材
  6
DOT
 62
    96
 10
72.923675
 20
-67.95793
 11
-20.40966
 21
-67.95793
  0
LINE
  8
別途部材
  6
DOT
 62
    96
 10
-113.742995
 20
-67.95793
 11
-114.142995
 21
-68.95793
  0
ARC
  8
別途部材
  6
DOT
 10
-97.076327
 20
-77.291265
 40
17.666667
 50
90.0
 51
148.109204
  0
LINE
  8
別途部材
  6
DOT
 10
-97.076328
 20
-59.624597
 11
-20.40966
 21
-59.624597
  0
LINE
  8
別途部材
  6
DOT
 10
-114.142995
 20
-68.95793
 11
-20.40966
 21
-68.95793
  0
LINE
  8
別途部材
  6
DOT
 62
    96
 10
-113.742995
 20
-67.95793
 11
-20.40966
 21
-67.95793
  0
INSERT
  2
*GRP_0018
  8
別途部材
  6
CONTINUOUS
 10
0.0
 20
0.0
  0
INSERT
  2
*GRP_0033
  8
別途部材
  6
DOT
 10
0.0
 20
0.0
  0
INSERT
  2
*GRP_0034
  8
別途部材
  6
DOT
 10
0.0
 20
0.0
  0
INSERT
  2
*GRP_0035
  8
別途部材
  6
DOT
 10
0.0
 20
0.0
  0
INSERT
  2
*GRP_0036
  8
別途部材
  6
DOT
 10
0.0
 20
0.0
  0
INSERT
  2
*GRP_0037
  8
別途部材
  6
DOT
 10
0.0
 20
0.0
  0
INSERT
  2
*GRP_0038
  8
別途部材
  6
DOT
 10
0.0
 20
0.0
  0
LINE
  8
曲げ物
  6
CONTINUOUS
 10
166.343563
 20
-92.533713
 11
166.343563
 21
-63.20038
  0
LINE
  8
曲げ物
  6
CONTINUOUS
 10
166.343563
 20
-63.20038
 11
130.876895
 21
-63.20038
  0
LINE
  8
曲げ物
  6
CONTINUOUS
 10
130.876895
 20
-63.20038
 11
130.876895
 21
-92.533713
  0
LINE
  8
曲げ物
  6
CONTINUOUS
 10
166.343563
 20
-92.533713
 11
130.876895
 21
-92.533713
  0
ENDSEC
  0
EOF
